  0
SECTION
  2
HEADER
  9
$ACADVER
  1
AC1009
  9
$DWGCODEPAGE
  3
ansi_1252
  9
$INSBASE
 10
0.0
 20
0.0
 30
0.0
  9
$EXTMIN
 10
-0.311274
 20
-0.893732
 30
0.0
  9
$EXTMAX
 10
168.959243
 20
137.769457
 30
0.0
  9
$LIMMIN
 10
0.0
 20
0.0
  9
$LIMMAX
 10
12.0
 20
9.0
  9
$ORTHOMODE
 70
     0
  9
$REGENMODE
 70
     1
  9
$FILLMODE
 70
     1
  9
$QTEXTMODE
 70
     0
  9
$MIRRTEXT
 70
     1
  9
$DRAGMODE
 70
     2
  9
$LTSCALE
 40
1.0
  9
$OSMODE
 70
    37
  9
$ATTMODE
 70
     1
  9
$TEXTSIZE
 40
0.2
  9
$TRACEWID
 40
0.05
  9
$TEXTSTYLE
  7
STANDARD
  9
$CLAYER
  8
0
  9
$CELTYPE
  6
BYBLOCK
  9
$CECOLOR
 62
   256
  9
$DIMSCALE
 40
1.0
  9
$DIMASZ
 40
0.18
  9
$DIMEXO
 40
0.0625
  9
$DIMDLI
 40
0.38
  9
$DIMRND
 40
0.0
  9
$DIMDLE
 40
0.0
  9
$DIMEXE
 40
0.18
  9
$DIMTP
 40
0.0
  9
$DIMTM
 40
0.0
  9
$DIMTXT
 40
0.18
  9
$DIMCEN
 40
0.09
  9
$DIMTSZ
 40
0.0
  9
$DIMTOL
 70
     0
  9
$DIMLIM
 70
     0
  9
$DIMTIH
 70
     1
  9
$DIMTOH
 70
     1
  9
$DIMSE1
 70
     0
  9
$DIMSE2
 70
     0
  9
$DIMTAD
 70
     0
  9
$DIMZIN
 70
     0
  9
$DIMBLK
  1

  9
$DIMASO
 70
     1
  9
$DIMSHO
 70
     1
  9
$DIMPOST
  1

  9
$DIMAPOST
  1

  9
$DIMALT
 70
     0
  9
$DIMALTD
 70
     2
  9
$DIMALTF
 40
25.4
  9
$DIMLFAC
 40
1.0
  9
$DIMTOFL
 70
     0
  9
$DIMTVP
 40
0.0
  9
$DIMTIX
 70
     0
  9
$DIMSOXD
 70
     0
  9
$DIMSAH
 70
     0
  9
$DIMBLK1
  1

  9
$DIMBLK2
  1

  9
$DIMSTYLE
  2
STANDARD
  9
$DIMCLRD
 70
     0
  9
$DIMCLRE
 70
     0
  9
$DIMCLRT
 70
     0
  9
$DIMTFAC
 40
1.0
  9
$DIMGAP
 40
0.09
  9
$LUNITS
 70
     2
  9
$LUPREC
 70
     4
  9
$SKETCHINC
 40
0.1
  9
$FILLETRAD
 40
0.5
  9
$AUNITS
 70
     0
  9
$AUPREC
 70
     0
  9
$MENU
  1
.
  9
$ELEVATION
 40
0.0
  9
$PELEVATION
 40
0.0
  9
$THICKNESS
 40
0.0
  9
$LIMCHECK
 70
     0
  9
$CHAMFERA
 40
0.5
  9
$CHAMFERB
 40
0.5
  9
$SKPOLY
 70
     0
  9
$TDCREATE
 40
2453353.550459155
  9
$TDUPDATE
 40
4910671.889637037
  9
$TDINDWG
 40
4895786.051922963
  9
$TDUSRTIMER
 40
4895786.051922963
  9
$USRTIMER
 70
     1
  9
$ANGBASE
 50
0.0
  9
$ANGDIR
 70
     0
  9
$PDMODE
 70
     0
  9
$PDSIZE
 40
0.0
  9
$PLINEWID
 40
0.0
  9
$COORDS
 70
     1
  9
$SPLFRAME
 70
     0
  9
$SPLINETYPE
 70
     6
  9
$SPLINESEGS
 70
     8
  9
$ATTDIA
 70
     0
  9
$ATTREQ
 70
     1
  9
$HANDLING
 70
     1
  9
$HANDSEED
  5
4CA
  9
$SURFTAB1
 70
     6
  9
$SURFTAB2
 70
     6
  9
$SURFTYPE
 70
     6
  9
$SURFU
 70
     6
  9
$SURFV
 70
     6
  9
$UCSNAME
  2

  9
$UCSORG
 10
0.0
 20
0.0
 30
0.0
  9
$UCSXDIR
 10
1.0
 20
0.0
 30
0.0
  9
$UCSYDIR
 10
0.0
 20
1.0
 30
0.0
  9
$PUCSNAME
  2

  9
$PUCSORG
 10
0.0
 20
0.0
 30
0.0
  9
$PUCSXDIR
 10
1.0
 20
0.0
 30
0.0
  9
$PUCSYDIR
 10
0.0
 20
1.0
 30
0.0
  9
$USERI1
 70
     0
  9
$USERI2
 70
     0
  9
$USERI3
 70
     0
  9
$USERI4
 70
     0
  9
$USERI5
 70
     0
  9
$USERR1
 40
0.0
  9
$USERR2
 40
0.0
  9
$USERR3
 40
0.0
  9
$USERR4
 40
0.0
  9
$USERR5
 40
0.0
  9
$WORLDVIEW
 70
     1
  9
$SHADEDGE
 70
     3
  9
$SHADEDIF
 70
    70
  9
$TILEMODE
 70
     1
  9
$MAXACTVP
 70
    64
  9
$PLIMCHECK
 70
     0
  9
$PEXTMIN
 10
0.0
 20
0.0
 30
0.0
  9
$PEXTMAX
 10
0.0
 20
0.0
 30
0.0
  9
$PLIMMIN
 10
0.0
 20
0.0
  9
$PLIMMAX
 10
0.0
 20
0.0
  9
$UNITMODE
 70
     0
  9
$VISRETAIN
 70
     1
  9
$PLINEGEN
 70
     0
  9
$PSLTSCALE
 70
     1
  0
ENDSEC
  0
SECTION
  2
TABLES
  0
TABLE
  2
VPORT
 70
     1
  0
VPORT
  2
*ACTIVE
 70
     0
 10
0.0
 20
0.0
 11
1.0
 21
1.0
 12
85.23196779767723
 22
70.51963301103405
 13
0.0
 23
0.0
 14
0.5
 24
0.5
 15
0.5
 25
0.5
 16
0.0
 26
0.0
 36
1.0
 17
0.0
 27
0.0
 37
0.0
 40
192.4503894207294
 41
1.972972972850329
 42
50.0
 43
0.0
 44
0.0
 50
0.0
 51
0.0
 71
    16
 72
   100
 73
     1
 74
     3
 75
     0
 76
     0
 77
     0
 78
     0
  0
ENDTAB
  0
TABLE
  2
LTYPE
 70
     1
  0
LTYPE
  2
CONTINUOUS
 70
     0
  3
Solid line
 72
    65
 73
     0
 40
0.0
  0
ENDTAB
  0
TABLE
  2
LAYER
 70
     2
  0
LAYER
  2
0
 70
     0
 62
     7
  6
CONTINUOUS
  0
LAYER
  2
LAYER_1
 70
     0
 62
     7
  6
CONTINUOUS
  0
ENDTAB
  0
TABLE
  2
STYLE
 70
     1
  0
STYLE
  2
STANDARD
 70
     0
 40
0.0
 41
1.0
 50
0.0
 71
     0
 42
0.2
  3
txt
  4

  0
ENDTAB
  0
TABLE
  2
VIEW
 70
     0
  0
ENDTAB
  0
TABLE
  2
UCS
 70
     0
  0
ENDTAB
  0
TABLE
  2
APPID
 70
     1
  0
APPID
  2
ACAD
 70
     0
  0
ENDTAB
  0
TABLE
  2
DIMSTYLE
 70
     1
  0
DIMSTYLE
  2
STANDARD
 70
     0
  3

  4

  5

  6

  7

 40
1.0
 41
0.18
 42
0.0625
 43
0.38
 44
0.18
 45
0.0
 46
0.0
 47
0.0
 48
0.0
140
0.18
141
0.09
142
0.0
143
25.4
144
1.0
145
0.0
146
1.0
147
0.09
 71
     0
 72
     0
 73
     1
 74
     1
 75
     0
 76
     0
 77
     0
 78
     0
170
     0
171
     2
172
     0
173
     0
174
     0
175
     0
176
     0
177
     0
178
     0
  0
ENDTAB
  0
ENDSEC
  0
SECTION
  2
BLOCKS
  0
BLOCK
  8
0
  2
$MODEL_SPACE
 70
     0
 10
0.0
 20
0.0
 30
0.0
  3
$MODEL_SPACE
  1

  0
ENDBLK
  5
21
  8
0
  0
BLOCK
 67
     1
  8
0
  2
$PAPER_SPACE
 70
     0
 10
0.0
 20
0.0
 30
0.0
  3
$PAPER_SPACE
  1

  0
ENDBLK
  5
76
 67
     1
  8
0
  0
ENDSEC
  0
SECTION
  2
ENTITIES
  0
LINE
  5
4B3
  8
LAYER_1
 10
144.557121
 20
0.386746
 30
0.0
 11
141.598618
 21
2.184967
 31
0.0
  0
LINE
  5
4B4
  8
LAYER_1
 10
141.598618
 20
2.184967
 30
0.0
 11
138.24662
 21
3.788624
 31
0.0
  0
LINE
  5
23
  8
LAYER_1
 10
138.24662
 20
3.788624
 30
0.0
 11
134.515098
 21
5.191789
 31
0.0
  0
LINE
  5
24
  8
LAYER_1
 10
134.515098
 20
5.191789
 30
0.0
 11
130.418022
 21
6.388532
 31
0.0
  0
LINE
  5
25
  8
LAYER_1
 10
130.418022
 20
6.388532
 30
0.0
 11
121.872908
 21
8.065764
 31
0.0
  0
LINE
  5
26
  8
LAYER_1
 10
121.872908
 20
8.065764
 30
0.0
 11
110.181393
 21
10.201334
 31
0.0
  0
LINE
  5
4B5
  8
LAYER_1
 10
110.181393
 20
10.201334
 30
0.0
 11
105.068977
 21
11.036762
 31
0.0
  0
LINE
  5
28
  8
LAYER_1
 10
105.068977
 20
11.036762
 30
0.0
 11
100.303615
 21
11.608226
 31
0.0
  0
LINE
  5
29
  8
LAYER_1
 10
100.303615
 20
11.608226
 30
0.0
 11
96.469268
 21
12.04398
 31
0.0
  0
LINE
  5
2A
  8
LAYER_1
 10
96.469268
 20
12.04398
 30
0.0
 11
94.23317
 21
12.601885
 31
0.0
  0
LINE
  5
2B
  8
LAYER_1
 10
94.23317
 20
12.601885
 30
0.0
 11
92.24056400000001
 21
13.522593
 31
0.0
  0
LINE
  5
2C
  8
LAYER_1
 10
92.24056400000001
 20
13.522593
 30
0.0
 11
89.687197
 21
14.901007
 31
0.0
  0
LINE
  5
2D
  8
LAYER_1
 10
89.687197
 20
14.901007
 30
0.0
 11
84.19305
 21
18.29652
 31
0.0
  0
LINE
  5
2E
  8
LAYER_1
 10
84.19305
 20
18.29652
 30
0.0
 11
81.573848
 21
20.026655
 31
0.0
  0
LINE
  5
2F
  8
LAYER_1
 10
81.573848
 20
20.026655
 30
0.0
 11
80.446997
 21
20.530362
 31
0.0
  0
LINE
  5
30
  8
LAYER_1
 10
80.446997
 20
20.530362
 30
0.0
 11
79.093446
 21
20.845712
 31
0.0
  0
LINE
  5
31
  8
LAYER_1
 10
79.093446
 20
20.845712
 30
0.0
 11
77.251796
 21
21.012117
 31
0.0
  0
LINE
  5
32
  8
LAYER_1
 10
77.251796
 20
21.012117
 30
0.0
 11
74.660648
 21
21.06899
 31
0.0
  0
LINE
  5
33
  8
LAYER_1
 10
74.660648
 20
21.06899
 30
0.0
 11
66.18426100000001
 21
21.011789
 31
0.0
  0
LINE
  5
34
  8
LAYER_1
 10
66.18426100000001
 20
21.011789
 30
0.0
 11
54.382375
 21
20.820231
 31
0.0
  0
LINE
  5
35
  8
LAYER_1
 10
54.382375
 20
20.820231
 30
0.0
 11
51.904289
 21
20.579818
 31
0.0
  0
LINE
  5
36
  8
LAYER_1
 10
51.904289
 20
20.579818
 30
0.0
 11
49.682857
 21
20.135424
 31
0.0
  0
LINE
  5
37
  8
LAYER_1
 10
49.682857
 20
20.135424
 30
0.0
 11
46.311626
 21
19.521294
 31
0.0
  0
LINE
  5
38
  8
LAYER_1
 10
46.311626
 20
19.521294
 30
0.0
 11
45.157232
 21
19.567713
 31
0.0
  0
LINE
  5
39
  8
LAYER_1
 10
45.157232
 20
19.567713
 30
0.0
 11
43.615079
 21
19.809999
 31
0.0
  0
LINE
  5
3A
  8
LAYER_1
 10
43.615079
 20
19.809999
 30
0.0
 11
38.474349
 21
20.854917
 31
0.0
  0
LINE
  5
3B
  8
LAYER_1
 10
38.474349
 20
20.854917
 30
0.0
 11
32.208592
 21
22.340245
 31
0.0
  0
LINE
  5
3C
  8
LAYER_1
 10
32.208592
 20
22.340245
 30
0.0
 11
26.273657
 21
23.902348
 31
0.0
  0
LINE
  5
3D
  8
LAYER_1
 10
26.273657
 20
23.902348
 30
0.0
 11
22.125392
 21
25.177592
 31
0.0
  0
LINE
  5
3E
  8
LAYER_1
 10
22.125392
 20
25.177592
 30
0.0
 11
16.270924
 21
27.672755
 31
0.0
  0
LINE
  5
3F
  8
LAYER_1
 10
16.270924
 20
27.672755
 30
0.0
 11
13.463834
 21
28.934299
 31
0.0
  0
LINE
  5
40
  8
LAYER_1
 10
13.463834
 20
28.934299
 30
0.0
 11
11.236802
 21
29.697404
 31
0.0
  0
LINE
  5
41
  8
LAYER_1
 10
11.236802
 20
29.697404
 30
0.0
 11
8.936806000000001
 21
30.135317
 31
0.0
  0
LINE
  5
42
  8
LAYER_1
 10
8.936806000000001
 20
30.135317
 30
0.0
 11
5.910822
 21
30.421286
 31
0.0
  0
LINE
  5
43
  8
LAYER_1
 10
5.910822
 20
30.421286
 30
0.0
 11
2.871943
 21
30.714444
 31
0.0
  0
LINE
  5
44
  8
LAYER_1
 10
2.871943
 20
30.714444
 30
0.0
 11
1.316564
 21
30.992341
 31
0.0
  0
LINE
  5
45
  8
LAYER_1
 10
1.316564
 20
30.992341
 30
0.0
 11
0.969987
 21
31.326858
 31
0.0
  0
LINE
  5
46
  8
LAYER_1
 10
0.969987
 20
31.326858
 30
0.0
 11
0.843351
 21
31.9034
 31
0.0
  0
LINE
  5
47
  8
LAYER_1
 10
0.843351
 20
31.9034
 30
0.0
 11
1.240948
 21
34.157319
 31
0.0
  0
LINE
  5
48
  8
LAYER_1
 10
1.240948
 20
34.157319
 30
0.0
 11
1.566432
 21
35.675045
 31
0.0
  0
LINE
  5
49
  8
LAYER_1
 10
1.566432
 20
35.675045
 30
0.0
 11
1.601738
 21
36.900437
 31
0.0
  0
LINE
  5
4A
  8
LAYER_1
 10
1.601738
 20
36.900437
 30
0.0
 11
1.315539
 21
38.141485
 31
0.0
  0
LINE
  5
4B
  8
LAYER_1
 10
1.315539
 20
38.141485
 30
0.0
 11
0.676503
 21
39.706177
 31
0.0
  0
LINE
  5
4C
  8
LAYER_1
 10
0.676503
 20
39.706177
 30
0.0
 11
-0.021115
 21
41.411113
 31
0.0
  0
LINE
  5
4D
  8
LAYER_1
 10
-0.021115
 20
41.411113
 30
0.0
 11
-0.311274
 21
42.438111
 31
0.0
  0
LINE
  5
4E
  8
LAYER_1
 10
-0.311274
 20
42.438111
 30
0.0
 11
-0.07399
 21
43.196628
 31
0.0
  0
LINE
  5
4F
  8
LAYER_1
 10
-0.07399
 20
43.196628
 30
0.0
 11
0.496499
 21
44.256065
 31
0.0
  0
LINE
  5
50
  8
LAYER_1
 10
0.496499
 20
44.256065
 30
0.0
 11
1.532115
 21
46.339987
 31
0.0
  0
LINE
  5
51
  8
LAYER_1
 10
1.532115
 20
46.339987
 30
0.0
 11
2.076038
 21
48.767681
 31
0.0
  0
LINE
  5
52
  8
LAYER_1
 10
2.076038
 20
48.767681
 30
0.0
 11
2.524663
 21
50.223682
 31
0.0
  0
LINE
  5
53
  8
LAYER_1
 10
2.524663
 20
50.223682
 30
0.0
 11
3.510655
 21
51.985531
 31
0.0
  0
LINE
  5
54
  8
LAYER_1
 10
3.510655
 20
51.985531
 30
0.0
 11
4.7178
 21
54.13641
 31
0.0
  0
LINE
  5
55
  8
LAYER_1
 10
4.7178
 20
54.13641
 30
0.0
 11
5.466077
 21
56.768721
 31
0.0
  0
LINE
  5
56
  8
LAYER_1
 10
5.466077
 20
56.768721
 30
0.0
 11
5.894124
 21
57.610479
 31
0.0
  0
LINE
  5
57
  8
LAYER_1
 10
5.894124
 20
57.610479
 30
0.0
 11
6.657137
 21
58.462054
 31
0.0
  0
LINE
  5
58
  8
LAYER_1
 10
6.657137
 20
58.462054
 30
0.0
 11
9.685612000000001
 21
61.292968
 31
0.0
  0
LINE
  5
4B6
  8
LAYER_1
 10
9.685612000000001
 20
61.292968
 30
0.0
 11
10.257712
 21
62.153634
 31
0.0
  0
LINE
  5
4B7
  8
LAYER_1
 10
10.257712
 20
62.153634
 30
0.0
 11
10.41317
 21
62.893939
 31
0.0
  0
LINE
  5
5B
  8
LAYER_1
 10
10.41317
 20
62.893939
 30
0.0
 11
10.655354
 21
64.002698
 31
0.0
  0
LINE
  5
5C
  8
LAYER_1
 10
10.655354
 20
64.002698
 30
0.0
 11
11.363744
 21
65.33324399999999
 31
0.0
  0
LINE
  5
5D
  8
LAYER_1
 10
11.363744
 20
65.33324399999999
 30
0.0
 11
12.511094
 21
66.843863
 31
0.0
  0
LINE
  5
4B8
  8
LAYER_1
 10
12.511094
 20
66.843863
 30
0.0
 11
14.07016
 21
68.49284400000001
 31
0.0
  0
LINE
  5
5F
  8
LAYER_1
 10
14.07016
 20
68.49284400000001
 30
0.0
 11
15.491125
 21
69.766542
 31
0.0
  0
LINE
  5
60
  8
LAYER_1
 10
15.491125
 20
69.766542
 30
0.0
 11
17.060577
 21
70.81917300000001
 31
0.0
  0
LINE
  5
61
  8
LAYER_1
 10
17.060577
 20
70.81917300000001
 30
0.0
 11
19.360295
 21
71.98418599999999
 31
0.0
  0
LINE
  5
62
  8
LAYER_1
 10
19.360295
 20
71.98418599999999
 30
0.0
 11
22.972059
 21
73.595032
 31
0.0
  0
LINE
  5
63
  8
LAYER_1
 10
22.972059
 20
73.595032
 30
0.0
 11
28.390384
 21
76.142014
 31
0.0
  0
LINE
  5
64
  8
LAYER_1
 10
28.390384
 20
76.142014
 30
0.0
 11
32.735226
 21
78.539001
 31
0.0
  0
LINE
  5
65
  8
LAYER_1
 10
32.735226
 20
78.539001
 30
0.0
 11
37.674115
 21
81.339696
 31
0.0
  0
LINE
  5
66
  8
LAYER_1
 10
37.674115
 20
81.339696
 30
0.0
 11
43.43317
 21
84.802768
 31
0.0
  0
LINE
  5
67
  8
LAYER_1
 10
43.43317
 20
84.802768
 30
0.0
 11
45.892458
 21
86.810214
 31
0.0
  0
LINE
  5
68
  8
LAYER_1
 10
45.892458
 20
86.810214
 30
0.0
 11
48.630905
 21
89.525919
 31
0.0
  0
LINE
  5
69
  8
LAYER_1
 10
48.630905
 20
89.525919
 30
0.0
 11
51.487962
 21
92.778638
 31
0.0
  0
LINE
  5
6A
  8
LAYER_1
 10
51.487962
 20
92.778638
 30
0.0
 11
54.303083
 21
96.39712299999999
 31
0.0
  0
LINE
  5
4B9
  8
LAYER_1
 10
54.303083
 20
96.39712299999999
 30
0.0
 11
62.463304
 21
107.396404
 31
0.0
  0
LINE
  5
4BA
  8
LAYER_1
 10
62.463304
 20
107.396404
 30
0.0
 11
64.60777
 21
110.102098
 31
0.0
  0
LINE
  5
6D
  8
LAYER_1
 10
64.60777
 20
110.102098
 30
0.0
 11
65.995098
 21
111.640434
 31
0.0
  0
LINE
  5
6E
  8
LAYER_1
 10
65.995098
 20
111.640434
 30
0.0
 11
67.546443
 21
113.357538
 31
0.0
  0
LINE
  5
6F
  8
LAYER_1
 10
67.546443
 20
113.357538
 30
0.0
 11
69.024209
 21
115.260668
 31
0.0
  0
LINE
  5
70
  8
LAYER_1
 10
69.024209
 20
115.260668
 30
0.0
 11
71.039179
 21
117.919534
 31
0.0
  0
LINE
  5
71
  8
LAYER_1
 10
71.039179
 20
117.919534
 30
0.0
 11
73.033162
 21
119.993441
 31
0.0
  0
LINE
  5
72
  8
LAYER_1
 10
73.033162
 20
119.993441
 30
0.0
 11
73.819873
 21
120.599662
 31
0.0
  0
LINE
  5
4BB
  8
LAYER_1
 10
73.819873
 20
120.599662
 30
0.0
 11
74.03469800000001
 21
120.596837
 31
0.0
  0
LINE
  5
4BC
  8
LAYER_1
 10
74.03469800000001
 20
120.596837
 30
0.0
 11
74.20442900000001
 21
120.416774
 31
0.0
  0
LINE
  5
4BD
  8
LAYER_1
 10
74.20442900000001
 20
120.416774
 30
0.0
 11
74.39829400000001
 21
119.177037
 31
0.0
  0
LINE
  5
4BE
  8
LAYER_1
 10
74.39829400000001
 20
119.177037
 30
0.0
 11
74.458938
 21
116.871842
 31
0.0
  0
LINE
  5
77
  8
LAYER_1
 10
74.458938
 20
116.871842
 30
0.0
 11
74.388215
 21
114.383449
 31
0.0
  0
LINE
  5
78
  8
LAYER_1
 10
74.388215
 20
114.383449
 30
0.0
 11
74.18798099999999
 21
112.594119
 31
0.0
  0
LINE
  5
79
  8
LAYER_1
 10
74.18798099999999
 20
112.594119
 30
0.0
 11
73.078777
 21
110.350699
 31
0.0
  0
LINE
  5
7A
  8
LAYER_1
 10
73.078777
 20
110.350699
 30
0.0
 11
70.500311
 21
106.259574
 31
0.0
  0
LINE
  5
7B
  8
LAYER_1
 10
70.500311
 20
106.259574
 30
0.0
 11
67.653626
 21
101.713576
 31
0.0
  0
LINE
  5
7C
  8
LAYER_1
 10
67.653626
 20
101.713576
 30
0.0
 11
65.600557
 21
98.00052100000001
 31
0.0
  0
LINE
  5
7D
  8
LAYER_1
 10
65.600557
 20
98.00052100000001
 30
0.0
 11
63.310698
 21
92.565562
 31
0.0
  0
LINE
  5
7E
  8
LAYER_1
 10
63.310698
 20
92.565562
 30
0.0
 11
62.586822
 21
90.443536
 31
0.0
  0
LINE
  5
7F
  8
LAYER_1
 10
62.586822
 20
90.443536
 30
0.0
 11
62.427324
 21
89.48017299999999
 31
0.0
  0
LINE
  5
80
  8
LAYER_1
 10
62.427324
 20
89.48017299999999
 30
0.0
 11
63.419547
 21
89.97600900000001
 31
0.0
  0
LINE
  5
81
  8
LAYER_1
 10
63.419547
 20
89.97600900000001
 30
0.0
 11
65.57892200000001
 21
91.394308
 31
0.0
  0
LINE
  5
82
  8
LAYER_1
 10
65.57892200000001
 20
91.394308
 30
0.0
 11
72.580394
 21
96.172235
 31
0.0
  0
LINE
  5
83
  8
LAYER_1
 10
72.580394
 20
96.172235
 30
0.0
 11
77.459638
 21
99.141496
 31
0.0
  0
LINE
  5
84
  8
LAYER_1
 10
77.459638
 20
99.141496
 30
0.0
 11
81.929816
 21
101.228605
 31
0.0
  0
LINE
  5
85
  8
LAYER_1
 10
81.929816
 20
101.228605
 30
0.0
 11
87.704086
 21
103.360076
 31
0.0
  0
LINE
  5
86
  8
LAYER_1
 10
87.704086
 20
103.360076
 30
0.0
 11
87.808773
 21
103.495768
 31
0.0
  0
LINE
  5
87
  8
LAYER_1
 10
87.808773
 20
103.495768
 30
0.0
 11
87.715598
 21
103.769096
 31
0.0
  0
LINE
  5
88
  8
LAYER_1
 10
87.715598
 20
103.769096
 30
0.0
 11
86.90874700000001
 21
104.7766
 31
0.0
  0
LINE
  5
89
  8
LAYER_1
 10
86.90874700000001
 20
104.7766
 30
0.0
 11
85.96305099999999
 21
105.992477
 31
0.0
  0
LINE
  5
8A
  8
LAYER_1
 10
85.96305099999999
 20
105.992477
 30
0.0
 11
85.855634
 21
106.443422
 31
0.0
  0
LINE
  5
8B
  8
LAYER_1
 10
85.855634
 20
106.443422
 30
0.0
 11
85.914193
 21
106.960176
 31
0.0
  0
LINE
  5
8C
  8
LAYER_1
 10
85.914193
 20
106.960176
 30
0.0
 11
86.210326
 21
107.852482
 31
0.0
  0
LINE
  5
8D
  8
LAYER_1
 10
86.210326
 20
107.852482
 30
0.0
 11
86.82724399999999
 21
108.924421
 31
0.0
  0
LINE
  5
8E
  8
LAYER_1
 10
86.82724399999999
 20
108.924421
 30
0.0
 11
89.53943700000001
 21
112.3784
 31
0.0
  0
LINE
  5
8F
  8
LAYER_1
 10
89.53943700000001
 20
112.3784
 30
0.0
 11
91.267881
 21
114.586789
 31
0.0
  0
LINE
  5
90
  8
LAYER_1
 10
91.267881
 20
114.586789
 30
0.0
 11
92.429762
 21
116.329511
 31
0.0
  0
LINE
  5
91
  8
LAYER_1
 10
92.429762
 20
116.329511
 30
0.0
 11
93.467159
 21
118.081985
 31
0.0
  0
LINE
  5
4BF
  8
LAYER_1
 10
93.467159
 20
118.081985
 30
0.0
 11
94.628023
 21
119.750696
 31
0.0
  0
LINE
  5
4C0
  8
LAYER_1
 10
94.628023
 20
119.750696
 30
0.0
 11
95.793716
 21
121.177778
 31
0.0
  0
LINE
  5
94
  8
LAYER_1
 10
95.793716
 20
121.177778
 30
0.0
 11
96.845597
 21
122.205366
 31
0.0
  0
LINE
  5
95
  8
LAYER_1
 10
96.845597
 20
122.205366
 30
0.0
 11
101.100946
 21
124.905397
 31
0.0
  0
LINE
  5
96
  8
LAYER_1
 10
101.100946
 20
124.905397
 30
0.0
 11
106.381628
 21
128.135686
 31
0.0
  0
LINE
  5
4C1
  8
LAYER_1
 10
106.381628
 20
128.135686
 30
0.0
 11
111.148653
 21
131.656288
 31
0.0
  0
LINE
  5
4C2
  8
LAYER_1
 10
111.148653
 20
131.656288
 30
0.0
 11
113.060908
 21
133.106735
 31
0.0
  0
LINE
  5
99
  8
LAYER_1
 10
113.060908
 20
133.106735
 30
0.0
 11
114.534164
 21
133.975358
 31
0.0
  0
LINE
  5
9A
  8
LAYER_1
 10
114.534164
 20
133.975358
 30
0.0
 11
115.871349
 21
134.401741
 31
0.0
  0
LINE
  5
9B
  8
LAYER_1
 10
115.871349
 20
134.401741
 30
0.0
 11
117.375392
 21
134.52547
 31
0.0
  0
LINE
  5
9C
  8
LAYER_1
 10
117.375392
 20
134.52547
 30
0.0
 11
121.378904
 21
134.800845
 31
0.0
  0
LINE
  5
9D
  8
LAYER_1
 10
121.378904
 20
134.800845
 30
0.0
 11
123.822566
 21
135.241914
 31
0.0
  0
LINE
  5
9E
  8
LAYER_1
 10
123.822566
 20
135.241914
 30
0.0
 11
126.23929
 21
136.32957
 31
0.0
  0
LINE
  5
9F
  8
LAYER_1
 10
126.23929
 20
136.32957
 30
0.0
 11
128.301975
 21
137.309367
 31
0.0
  0
LINE
  5
A0
  8
LAYER_1
 10
128.301975
 20
137.309367
 30
0.0
 11
129.978736
 21
137.769457
 31
0.0
  0
LINE
  5
A1
  8
LAYER_1
 10
129.978736
 20
137.769457
 30
0.0
 11
131.65051
 21
137.761244
 31
0.0
  0
LINE
  5
A2
  8
LAYER_1
 10
131.65051
 20
137.761244
 30
0.0
 11
133.698231
 21
137.336136
 31
0.0
  0
LINE
  5
A3
  8
LAYER_1
 10
133.698231
 20
137.336136
 30
0.0
 11
135.165722
 21
136.978938
 31
0.0
  0
LINE
  5
A4
  8
LAYER_1
 10
135.165722
 20
136.978938
 30
0.0
 11
136.29618
 21
136.82998
 31
0.0
  0
LINE
  5
A5
  8
LAYER_1
 10
136.29618
 20
136.82998
 30
0.0
 11
139.477152
 21
137.066774
 31
0.0
  0
LINE
  5
A6
  8
LAYER_1
 10
139.477152
 20
137.066774
 30
0.0
 11
141.99161
 21
137.270998
 31
0.0
  0
LINE
  5
A7
  8
LAYER_1
 10
141.99161
 20
137.270998
 30
0.0
 11
143.744278
 21
137.132701
 31
0.0
  0
LINE
  5
A8
  8
LAYER_1
 10
143.744278
 20
137.132701
 30
0.0
 11
145.104726
 21
136.568486
 31
0.0
  0
LINE
  5
A9
  8
LAYER_1
 10
145.104726
 20
136.568486
 30
0.0
 11
146.442523
 21
135.494954
 31
0.0
  0
LINE
  5
AA
  8
LAYER_1
 10
146.442523
 20
135.494954
 30
0.0
 11
147.694466
 21
134.090043
 31
0.0
  0
LINE
  5
AB
  8
LAYER_1
 10
147.694466
 20
134.090043
 30
0.0
 11
148.739117
 21
132.355601
 31
0.0
  0
LINE
  5
AC
  8
LAYER_1
 10
148.739117
 20
132.355601
 30
0.0
 11
149.653627
 21
130.13592
 31
0.0
  0
LINE
  5
AD
  8
LAYER_1
 10
149.653627
 20
130.13592
 30
0.0
 11
150.515145
 21
127.275291
 31
0.0
  0
LINE
  5
AE
  8
LAYER_1
 10
150.515145
 20
127.275291
 30
0.0
 11
151.631207
 21
123.626498
 31
0.0
  0
LINE
  5
AF
  8
LAYER_1
 10
151.631207
 20
123.626498
 30
0.0
 11
152.941861
 21
120.009641
 31
0.0
  0
LINE
  5
B0
  8
LAYER_1
 10
152.941861
 20
120.009641
 30
0.0
 11
154.422592
 21
115.842059
 31
0.0
  0
LINE
  5
B1
  8
LAYER_1
 10
154.422592
 20
115.842059
 30
0.0
 11
155.947564
 21
110.869182
 31
0.0
  0
LINE
  5
B2
  8
LAYER_1
 10
155.947564
 20
110.869182
 30
0.0
 11
157.66684
 21
105.066258
 31
0.0
  0
LINE
  5
B3
  8
LAYER_1
 10
157.66684
 20
105.066258
 30
0.0
 11
159.295563
 21
100.530155
 31
0.0
  0
LINE
  5
B4
  8
LAYER_1
 10
159.295563
 20
100.530155
 30
0.0
 11
161.239323
 21
96.261223
 31
0.0
  0
LINE
  5
B5
  8
LAYER_1
 10
161.239323
 20
96.261223
 30
0.0
 11
163.903711
 21
91.259815
 31
0.0
  0
LINE
  5
B6
  8
LAYER_1
 10
163.903711
 20
91.259815
 30
0.0
 11
165.52398
 21
88.201663
 31
0.0
  0
LINE
  5
B7
  8
LAYER_1
 10
165.52398
 20
88.201663
 30
0.0
 11
166.800495
 21
85.44471
 31
0.0
  0
LINE
  5
B8
  8
LAYER_1
 10
166.800495
 20
85.44471
 30
0.0
 11
167.757768
 21
82.87120299999999
 31
0.0
  0
LINE
  5
B9
  8
LAYER_1
 10
167.757768
 20
82.87120299999999
 30
0.0
 11
168.42031
 21
80.363388
 31
0.0
  0
LINE
  5
BA
  8
LAYER_1
 10
168.42031
 20
80.363388
 30
0.0
 11
168.812631
 21
77.80351
 31
0.0
  0
LINE
  5
BB
  8
LAYER_1
 10
168.812631
 20
77.80351
 30
0.0
 11
168.959243
 21
75.073814
 31
0.0
  0
LINE
  5
BC
  8
LAYER_1
 10
168.959243
 20
75.073814
 30
0.0
 11
168.884657
 21
72.05654800000001
 31
0.0
  0
LINE
  5
BD
  8
LAYER_1
 10
168.884657
 20
72.05654800000001
 30
0.0
 11
168.613384
 21
68.633955
 31
0.0
  0
LINE
  5
BE
  8
LAYER_1
 10
168.613384
 20
68.633955
 30
0.0
 11
167.612554
 21
60.207586
 31
0.0
  0
LINE
  5
BF
  8
LAYER_1
 10
167.612554
 20
60.207586
 30
0.0
 11
166.455215
 21
53.971648
 31
0.0
  0
LINE
  5
C0
  8
LAYER_1
 10
166.455215
 20
53.971648
 30
0.0
 11
165.791492
 21
51.565408
 31
0.0
  0
LINE
  5
C1
  8
LAYER_1
 10
165.791492
 20
51.565408
 30
0.0
 11
165.057007
 21
49.575157
 31
0.0
  0
LINE
  5
C2
  8
LAYER_1
 10
165.057007
 20
49.575157
 30
0.0
 11
164.241214
 21
47.957021
 31
0.0
  0
LINE
  5
C3
  8
LAYER_1
 10
164.241214
 20
47.957021
 30
0.0
 11
163.333568
 21
46.667126
 31
0.0
  0
LINE
  5
C4
  8
LAYER_1
 10
163.333568
 20
46.667126
 30
0.0
 11
162.583966
 21
45.773955
 31
0.0
  0
LINE
  5
C5
  8
LAYER_1
 10
162.583966
 20
45.773955
 30
0.0
 11
161.640235
 21
46.322488
 31
0.0
  0
LINE
  5
C6
  8
LAYER_1
 10
161.640235
 20
46.322488
 30
0.0
 11
157.592059
 21
49.296927
 31
0.0
  0
LINE
  5
C7
  8
LAYER_1
 10
157.592059
 20
49.296927
 30
0.0
 11
154.368235
 21
51.717447
 31
0.0
  0
LINE
  5
C8
  8
LAYER_1
 10
154.368235
 20
51.717447
 30
0.0
 11
151.742717
 21
53.307272
 31
0.0
  0
LINE
  5
C9
  8
LAYER_1
 10
151.742717
 20
53.307272
 30
0.0
 11
148.816186
 21
54.52043
 31
0.0
  0
LINE
  5
CA
  8
LAYER_1
 10
148.816186
 20
54.52043
 30
0.0
 11
144.689322
 21
55.810949
 31
0.0
  0
LINE
  5
CB
  8
LAYER_1
 10
144.689322
 20
55.810949
 30
0.0
 11
140.218248
 21
57.224961
 31
0.0
  0
LINE
  5
CC
  8
LAYER_1
 10
140.218248
 20
57.224961
 30
0.0
 11
138.573871
 21
57.920706
 31
0.0
  0
LINE
  5
CD
  8
LAYER_1
 10
138.573871
 20
57.920706
 30
0.0
 11
137.098512
 21
58.755226
 31
0.0
  0
LINE
  5
CE
  8
LAYER_1
 10
137.098512
 20
58.755226
 30
0.0
 11
135.623355
 21
59.838234
 31
0.0
  0
LINE
  5
CF
  8
LAYER_1
 10
135.623355
 20
59.838234
 30
0.0
 11
133.979587
 21
61.279444
 31
0.0
  0
LINE
  5
D0
  8
LAYER_1
 10
133.979587
 20
61.279444
 30
0.0
 11
129.510948
 21
65.675318
 31
0.0
  0
LINE
  5
D1
  8
LAYER_1
 10
129.510948
 20
65.675318
 30
0.0
 11
125.096921
 21
70.00009
 31
0.0
  0
LINE
  5
D2
  8
LAYER_1
 10
125.096921
 20
70.00009
 30
0.0
 11
123.444891
 21
71.457538
 31
0.0
  0
LINE
  5
D3
  8
LAYER_1
 10
123.444891
 20
71.457538
 30
0.0
 11
121.990738
 21
72.563085
 31
0.0
  0
LINE
  5
D4
  8
LAYER_1
 10
121.990738
 20
72.563085
 30
0.0
 11
120.605375
 21
73.405278
 31
0.0
  0
LINE
  5
D5
  8
LAYER_1
 10
120.605375
 20
73.405278
 30
0.0
 11
119.159718
 21
74.072661
 31
0.0
  0
LINE
  5
D6
  8
LAYER_1
 10
119.159718
 20
74.072661
 30
0.0
 11
115.57118
 21
75.23717600000001
 31
0.0
  0
LINE
  5
D7
  8
LAYER_1
 10
115.57118
 20
75.23717600000001
 30
0.0
 11
113.373548
 21
75.82619200000001
 31
0.0
  0
LINE
  5
D8
  8
LAYER_1
 10
113.373548
 20
75.82619200000001
 30
0.0
 11
111.926662
 21
76.05803
 31
0.0
  0
LINE
  5
D9
  8
LAYER_1
 10
111.926662
 20
76.05803
 30
0.0
 11
110.787786
 21
75.95469300000001
 31
0.0
  0
LINE
  5
DA
  8
LAYER_1
 10
110.787786
 20
75.95469300000001
 30
0.0
 11
109.514183
 21
75.538183
 31
0.0
  0
LINE
  5
DB
  8
LAYER_1
 10
109.514183
 20
75.538183
 30
0.0
 11
106.843447
 21
74.932926
 31
0.0
  0
LINE
  5
DC
  8
LAYER_1
 10
106.843447
 20
74.932926
 30
0.0
 11
102.004365
 21
74.269927
 31
0.0
  0
LINE
  5
DD
  8
LAYER_1
 10
102.004365
 20
74.269927
 30
0.0
 11
96.123835
 21
73.510178
 31
0.0
  0
LINE
  5
DE
  8
LAYER_1
 10
96.123835
 20
73.510178
 30
0.0
 11
91.705907
 21
72.73332600000001
 31
0.0
  0
LINE
  5
DF
  8
LAYER_1
 10
91.705907
 20
72.73332600000001
 30
0.0
 11
88.331171
 21
71.850021
 31
0.0
  0
LINE
  5
E0
  8
LAYER_1
 10
88.331171
 20
71.850021
 30
0.0
 11
85.58021700000001
 21
70.770911
 31
0.0
  0
LINE
  5
E1
  8
LAYER_1
 10
85.58021700000001
 20
70.770911
 30
0.0
 11
84.382001
 21
70.114942
 31
0.0
  0
LINE
  5
E2
  8
LAYER_1
 10
84.382001
 20
70.114942
 30
0.0
 11
83.8587
 21
69.562926
 31
0.0
  0
LINE
  5
E3
  8
LAYER_1
 10
83.8587
 20
69.562926
 30
0.0
 11
83.84563799999999
 21
69.313777
 31
0.0
  0
LINE
  5
E4
  8
LAYER_1
 10
83.84563799999999
 20
69.313777
 30
0.0
 11
83.99589899999999
 21
69.076069
 31
0.0
  0
LINE
  5
E5
  8
LAYER_1
 10
83.99589899999999
 20
69.076069
 30
0.0
 11
84.779177
 21
68.615577
 31
0.0
  0
LINE
  5
E6
  8
LAYER_1
 10
84.779177
 20
68.615577
 30
0.0
 11
87.681276
 21
67.80776899999999
 31
0.0
  0
LINE
  5
E7
  8
LAYER_1
 10
87.681276
 20
67.80776899999999
 30
0.0
 11
92.15409200000001
 21
67.03355999999999
 31
0.0
  0
LINE
  5
E8
  8
LAYER_1
 10
92.15409200000001
 20
67.03355999999999
 30
0.0
 11
97.542108
 21
66.387373
 31
0.0
  0
LINE
  5
E9
  8
LAYER_1
 10
97.542108
 20
66.387373
 30
0.0
 11
103.189809
 21
65.96363100000001
 31
0.0
  0
LINE
  5
EA
  8
LAYER_1
 10
103.189809
 20
65.96363100000001
 30
0.0
 11
106.656479
 21
65.73924100000001
 31
0.0
  0
LINE
  5
EB
  8
LAYER_1
 10
106.656479
 20
65.73924100000001
 30
0.0
 11
108.793246
 21
65.437843
 31
0.0
  0
LINE
  5
EC
  8
LAYER_1
 10
108.793246
 20
65.437843
 30
0.0
 11
109.982529
 21
64.971121
 31
0.0
  0
LINE
  5
ED
  8
LAYER_1
 10
109.982529
 20
64.971121
 30
0.0
 11
110.606744
 21
64.250756
 31
0.0
  0
LINE
  5
EE
  8
LAYER_1
 10
110.606744
 20
64.250756
 30
0.0
 11
110.760113
 21
63.813627
 31
0.0
  0
LINE
  5
EF
  8
LAYER_1
 10
110.760113
 20
63.813627
 30
0.0
 11
110.714231
 21
63.414921
 31
0.0
  0
LINE
  5
F0
  8
LAYER_1
 10
110.714231
 20
63.414921
 30
0.0
 11
110.458122
 21
63.02601
 31
0.0
  0
LINE
  5
F1
  8
LAYER_1
 10
110.458122
 20
63.02601
 30
0.0
 11
109.980809
 21
62.618262
 31
0.0
  0
LINE
  5
F2
  8
LAYER_1
 10
109.980809
 20
62.618262
 30
0.0
 11
107.159843
 21
60.260552
 31
0.0
  0
LINE
  5
F3
  8
LAYER_1
 10
107.159843
 20
60.260552
 30
0.0
 11
105.256154
 21
58.726535
 31
0.0
  0
LINE
  5
F4
  8
LAYER_1
 10
105.256154
 20
58.726535
 30
0.0
 11
103.917809
 21
57.827864
 31
0.0
  0
LINE
  5
F5
  8
LAYER_1
 10
103.917809
 20
57.827864
 30
0.0
 11
103.256935
 21
57.411398
 31
0.0
  0
LINE
  5
F6
  8
LAYER_1
 10
103.256935
 20
57.411398
 30
0.0
 11
102.982059
 21
57.036727
 31
0.0
  0
LINE
  5
F7
  8
LAYER_1
 10
102.982059
 20
57.036727
 30
0.0
 11
103.428572
 21
56.369321
 31
0.0
  0
LINE
  5
F8
  8
LAYER_1
 10
103.428572
 20
56.369321
 30
0.0
 11
104.511894
 21
55.328902
 31
0.0
  0
LINE
  5
F9
  8
LAYER_1
 10
104.511894
 20
55.328902
 30
0.0
 11
105.847707
 21
54.251864
 31
0.0
  0
LINE
  5
FA
  8
LAYER_1
 10
105.847707
 20
54.251864
 30
0.0
 11
107.051687
 21
53.474603
 31
0.0
  0
LINE
  5
FB
  8
LAYER_1
 10
107.051687
 20
53.474603
 30
0.0
 11
107.737794
 21
53.17536
 31
0.0
  0
LINE
  5
FC
  8
LAYER_1
 10
107.737794
 20
53.17536
 30
0.0
 11
108.453847
 21
53.022678
 31
0.0
  0
LINE
  5
FD
  8
LAYER_1
 10
108.453847
 20
53.022678
 30
0.0
 11
110.876427
 21
53.059178
 31
0.0
  0
LINE
  5
FE
  8
LAYER_1
 10
110.876427
 20
53.059178
 30
0.0
 11
114.769775
 21
52.966068
 31
0.0
  0
LINE
  5
FF
  8
LAYER_1
 10
114.769775
 20
52.966068
 30
0.0
 11
119.443447
 21
52.311084
 31
0.0
  0
LINE
  5
100
  8
LAYER_1
 10
119.443447
 20
52.311084
 30
0.0
 11
124.582083
 21
51.152513
 31
0.0
  0
LINE
  5
101
  8
LAYER_1
 10
124.582083
 20
51.152513
 30
0.0
 11
129.870321
 21
49.548641
 31
0.0
  0
LINE
  5
102
  8
LAYER_1
 10
129.870321
 20
49.548641
 30
0.0
 11
133.476241
 21
48.18731
 31
0.0
  0
LINE
  5
103
  8
LAYER_1
 10
133.476241
 20
48.18731
 30
0.0
 11
136.391885
 21
46.69105
 31
0.0
  0
LINE
  5
104
  8
LAYER_1
 10
136.391885
 20
46.69105
 30
0.0
 11
139.34357
 21
44.618018
 31
0.0
  0
LINE
  5
105
  8
LAYER_1
 10
139.34357
 20
44.618018
 30
0.0
 11
143.057615
 21
41.526373
 31
0.0
  0
LINE
  5
106
  8
LAYER_1
 10
143.057615
 20
41.526373
 30
0.0
 11
146.618906
 21
38.619129
 31
0.0
  0
LINE
  5
107
  8
LAYER_1
 10
146.618906
 20
38.619129
 30
0.0
 11
149.830948
 21
36.252923
 31
0.0
  0
LINE
  5
108
  8
LAYER_1
 10
149.830948
 20
36.252923
 30
0.0
 11
152.564161
 21
34.629029
 31
0.0
  0
LINE
  5
109
  8
LAYER_1
 10
152.564161
 20
34.629029
 30
0.0
 11
156.495381
 21
32.529294
 31
0.0
  0
LINE
  5
10A
  8
LAYER_1
 10
156.495381
 20
32.529294
 30
0.0
 11
164.748537
 21
28.555247
 31
0.0
  0
LINE
  5
10B
  8
LAYER_1
 10
164.748537
 20
28.555247
 30
0.0
 11
165.978349
 21
28.021955
 31
0.0
  0
LINE
  5
10C
  8
LAYER_1
 10
165.978349
 20
28.021955
 30
0.0
 11
162.172235
 21
27.4052
 31
0.0
  0
LINE
  5
10D
  8
LAYER_1
 10
162.172235
 20
27.4052
 30
0.0
 11
157.608419
 21
26.475326
 31
0.0
  0
LINE
  5
10E
  8
LAYER_1
 10
157.608419
 20
26.475326
 30
0.0
 11
153.935632
 21
25.27877
 31
0.0
  0
LINE
  5
10F
  8
LAYER_1
 10
153.935632
 20
25.27877
 30
0.0
 11
152.376393
 21
24.557006
 31
0.0
  0
LINE
  5
110
  8
LAYER_1
 10
152.376393
 20
24.557006
 30
0.0
 11
150.971536
 21
23.740396
 31
0.0
  0
LINE
  5
111
  8
LAYER_1
 10
150.971536
 20
23.740396
 30
0.0
 11
149.698267
 21
22.819547
 31
0.0
  0
LINE
  5
112
  8
LAYER_1
 10
149.698267
 20
22.819547
 30
0.0
 11
148.533795
 21
21.785066
 31
0.0
  0
LINE
  5
113
  8
LAYER_1
 10
148.533795
 20
21.785066
 30
0.0
 11
147.460766
 21
20.625417
 31
0.0
  0
LINE
  5
114
  8
LAYER_1
 10
147.460766
 20
20.625417
 30
0.0
 11
146.546367
 21
19.398067
 31
0.0
  0
LINE
  5
115
  8
LAYER_1
 10
146.546367
 20
19.398067
 30
0.0
 11
145.786091
 21
18.090864
 31
0.0
  0
LINE
  5
116
  8
LAYER_1
 10
145.786091
 20
18.090864
 30
0.0
 11
145.175434
 21
16.691655
 31
0.0
  0
LINE
  5
117
  8
LAYER_1
 10
145.175434
 20
16.691655
 30
0.0
 11
144.709889
 21
15.18829
 31
0.0
  0
LINE
  5
118
  8
LAYER_1
 10
144.709889
 20
15.18829
 30
0.0
 11
144.384952
 21
13.568616
 31
0.0
  0
LINE
  5
119
  8
LAYER_1
 10
144.384952
 20
13.568616
 30
0.0
 11
144.138876
 21
9.931733
 31
0.0
  0
LINE
  5
11A
  8
LAYER_1
 10
144.138876
 20
9.931733
 30
0.0
 11
144.24437
 21
7.434965
 31
0.0
  0
LINE
  5
11B
  8
LAYER_1
 10
144.24437
 20
7.434965
 30
0.0
 11
144.579362
 21
5.350397
 31
0.0
  0
LINE
  5
11C
  8
LAYER_1
 10
144.579362
 20
5.350397
 30
0.0
 11
145.201626
 21
3.436715
 31
0.0
  0
LINE
  5
11D
  8
LAYER_1
 10
145.201626
 20
3.436715
 30
0.0
 11
146.168937
 21
1.452606
 31
0.0
  0
LINE
  5
11E
  8
LAYER_1
 10
146.168937
 20
1.452606
 30
0.0
 11
146.983512
 21
-0.190679
 31
0.0
  0
LINE
  5
11F
  8
LAYER_1
 10
146.983512
 20
-0.190679
 30
0.0
 11
147.107009
 21
-0.6545
 31
0.0
  0
LINE
  5
120
  8
LAYER_1
 10
147.107009
 20
-0.6545
 30
0.0
 11
147.030329
 21
-0.887035
 31
0.0
  0
LINE
  5
121
  8
LAYER_1
 10
147.030329
 20
-0.887035
 30
0.0
 11
146.745237
 21
-0.893732
 31
0.0
  0
LINE
  5
122
  8
LAYER_1
 10
146.745237
 20
-0.893732
 30
0.0
 11
146.243496
 21
-0.680036
 31
0.0
  0
LINE
  5
123
  8
LAYER_1
 10
146.243496
 20
-0.680036
 30
0.0
 11
144.557121
 21
0.386746
 31
0.0
  0
LINE
  5
124
  8
LAYER_1
 10
144.557121
 20
0.386746
 30
0.0
 11
144.557121
 21
0.386746
 31
0.0
  0
LINE
  5
125
  8
LAYER_1
 10
142.515511
 20
5.887426
 30
0.0
 11
140.361954
 21
10.877822
 31
0.0
  0
LINE
  5
126
  8
LAYER_1
 10
140.361954
 20
10.877822
 30
0.0
 11
139.649595
 21
13.084405
 31
0.0
  0
LINE
  5
127
  8
LAYER_1
 10
139.649595
 20
13.084405
 30
0.0
 11
139.144138
 21
15.297266
 31
0.0
  0
LINE
  5
128
  8
LAYER_1
 10
139.144138
 20
15.297266
 30
0.0
 11
138.818551
 21
17.665421
 31
0.0
  0
LINE
  5
129
  8
LAYER_1
 10
138.818551
 20
17.665421
 30
0.0
 11
138.645799
 21
20.337887
 31
0.0
  0
LINE
  5
12A
  8
LAYER_1
 10
138.645799
 20
20.337887
 30
0.0
 11
138.650672
 21
27.191812
 31
0.0
  0
LINE
  5
12B
  8
LAYER_1
 10
138.650672
 20
27.191812
 30
0.0
 11
138.83029
 21
35.13856
 31
0.0
  0
LINE
  5
12C
  8
LAYER_1
 10
138.83029
 20
35.13856
 30
0.0
 11
137.34562
 21
36.766387
 31
0.0
  0
LINE
  5
12D
  8
LAYER_1
 10
137.34562
 20
36.766387
 30
0.0
 11
135.946812
 21
38.10093
 31
0.0
  0
LINE
  5
12E
  8
LAYER_1
 10
135.946812
 20
38.10093
 30
0.0
 11
134.210329
 21
39.426513
 31
0.0
  0
LINE
  5
12F
  8
LAYER_1
 10
134.210329
 20
39.426513
 30
0.0
 11
132.184602
 21
40.718681
 31
0.0
  0
LINE
  5
130
  8
LAYER_1
 10
132.184602
 20
40.718681
 30
0.0
 11
129.91806
 21
41.952978
 31
0.0
  0
LINE
  5
131
  8
LAYER_1
 10
129.91806
 20
41.952978
 30
0.0
 11
127.45913
 21
43.104948
 31
0.0
  0
LINE
  5
132
  8
LAYER_1
 10
127.45913
 20
43.104948
 30
0.0
 11
124.856242
 21
44.150136
 31
0.0
  0
LINE
  5
133
  8
LAYER_1
 10
124.856242
 20
44.150136
 30
0.0
 11
122.157826
 21
45.064087
 31
0.0
  0
LINE
  5
134
  8
LAYER_1
 10
122.157826
 20
45.064087
 30
0.0
 11
119.412309
 21
45.822345
 31
0.0
  0
LINE
  5
135
  8
LAYER_1
 10
119.412309
 20
45.822345
 30
0.0
 11
116.518274
 21
46.362563
 31
0.0
  0
LINE
  5
136
  8
LAYER_1
 10
116.518274
 20
46.362563
 30
0.0
 11
113.555739
 21
46.561751
 31
0.0
  0
LINE
  5
137
  8
LAYER_1
 10
113.555739
 20
46.561751
 30
0.0
 11
110.366427
 21
46.421424
 31
0.0
  0
LINE
  5
138
  8
LAYER_1
 10
110.366427
 20
46.421424
 30
0.0
 11
106.792059
 21
45.943094
 31
0.0
  0
LINE
  5
139
  8
LAYER_1
 10
106.792059
 20
45.943094
 30
0.0
 11
104.065476
 21
45.566567
 31
0.0
  0
LINE
  5
13A
  8
LAYER_1
 10
104.065476
 20
45.566567
 30
0.0
 11
101.475781
 21
45.363107
 31
0.0
  0
LINE
  5
13B
  8
LAYER_1
 10
101.475781
 20
45.363107
 30
0.0
 11
99.273084
 21
45.344313
 31
0.0
  0
LINE
  5
13C
  8
LAYER_1
 10
99.273084
 20
45.344313
 30
0.0
 11
97.70750099999999
 21
45.521784
 31
0.0
  0
LINE
  5
13D
  8
LAYER_1
 10
97.70750099999999
 20
45.521784
 30
0.0
 11
94.09205900000001
 21
46.831882
 31
0.0
  0
LINE
  5
13E
  8
LAYER_1
 10
94.09205900000001
 20
46.831882
 30
0.0
 11
91.347089
 21
47.885416
 31
0.0
  0
LINE
  5
13F
  8
LAYER_1
 10
91.347089
 20
47.885416
 30
0.0
 11
89.393187
 21
48.491769
 31
0.0
  0
LINE
  5
140
  8
LAYER_1
 10
89.393187
 20
48.491769
 30
0.0
 11
87.609495
 21
48.803437
 31
0.0
  0
LINE
  5
141
  8
LAYER_1
 10
87.609495
 20
48.803437
 30
0.0
 11
85.375157
 21
48.97291
 31
0.0
  0
LINE
  5
142
  8
LAYER_1
 10
85.375157
 20
48.97291
 30
0.0
 11
82.020478
 21
49.160622
 31
0.0
  0
LINE
  5
143
  8
LAYER_1
 10
82.020478
 20
49.160622
 30
0.0
 11
81.401799
 21
51.0729
 31
0.0
  0
LINE
  5
144
  8
LAYER_1
 10
81.401799
 20
51.0729
 30
0.0
 11
80.81787799999999
 21
52.48086
 31
0.0
  0
LINE
  5
145
  8
LAYER_1
 10
80.81787799999999
 20
52.48086
 30
0.0
 11
80.049761
 21
53.694548
 31
0.0
  0
LINE
  5
146
  8
LAYER_1
 10
80.049761
 20
53.694548
 30
0.0
 11
79.12267300000001
 21
54.681219
 31
0.0
  0
LINE
  5
147
  8
LAYER_1
 10
79.12267300000001
 20
54.681219
 30
0.0
 11
78.061843
 21
55.40813
 31
0.0
  0
LINE
  5
148
  8
LAYER_1
 10
78.061843
 20
55.40813
 30
0.0
 11
77.18025
 21
55.733437
 31
0.0
  0
LINE
  5
149
  8
LAYER_1
 10
77.18025
 20
55.733437
 30
0.0
 11
76.787441
 21
55.628289
 31
0.0
  0
LINE
  5
14A
  8
LAYER_1
 10
76.787441
 20
55.628289
 30
0.0
 11
76.348868
 21
55.26051
 31
0.0
  0
LINE
  5
14B
  8
LAYER_1
 10
76.348868
 20
55.26051
 30
0.0
 11
75.101163
 21
53.484758
 31
0.0
  0
LINE
  5
14C
  8
LAYER_1
 10
75.101163
 20
53.484758
 30
0.0
 11
72.970596
 21
49.901591
 31
0.0
  0
LINE
  5
14D
  8
LAYER_1
 10
72.970596
 20
49.901591
 30
0.0
 11
72.62227
 21
49.357195
 31
0.0
  0
LINE
  5
14E
  8
LAYER_1
 10
72.62227
 20
49.357195
 30
0.0
 11
72.272537
 21
49.090726
 31
0.0
  0
LINE
  5
14F
  8
LAYER_1
 10
72.272537
 20
49.090726
 30
0.0
 11
71.720181
 21
49.028971
 31
0.0
  0
LINE
  5
150
  8
LAYER_1
 10
71.720181
 20
49.028971
 30
0.0
 11
70.763991
 21
49.098719
 31
0.0
  0
LINE
  5
151
  8
LAYER_1
 10
70.763991
 20
49.098719
 30
0.0
 11
69.59966799999999
 21
49.138279
 31
0.0
  0
LINE
  5
152
  8
LAYER_1
 10
69.59966799999999
 20
49.138279
 30
0.0
 11
69.115392
 21
49.02347
 31
0.0
  0
LINE
  5
153
  8
LAYER_1
 10
69.115392
 20
49.02347
 30
0.0
 11
69.854275
 21
48.144356
 31
0.0
  0
LINE
  5
154
  8
LAYER_1
 10
69.854275
 20
48.144356
 30
0.0
 11
71.67838500000001
 21
46.383139
 31
0.0
  0
LINE
  5
155
  8
LAYER_1
 10
71.67838500000001
 20
46.383139
 30
0.0
 11
76.227048
 21
42.405975
 31
0.0
  0
LINE
  5
156
  8
LAYER_1
 10
76.227048
 20
42.405975
 30
0.0
 11
77.718304
 21
41.313253
 31
0.0
  0
LINE
  5
157
  8
LAYER_1
 10
77.718304
 20
41.313253
 30
0.0
 11
79.630782
 21
40.147699
 31
0.0
  0
LINE
  5
158
  8
LAYER_1
 10
79.630782
 20
40.147699
 30
0.0
 11
86.215217
 21
36.751252
 31
0.0
  0
LINE
  5
159
  8
LAYER_1
 10
86.215217
 20
36.751252
 30
0.0
 11
91.27002
 21
34.198031
 31
0.0
  0
LINE
  5
15A
  8
LAYER_1
 10
91.27002
 20
34.198031
 30
0.0
 11
92.941377
 21
33.241663
 31
0.0
  0
LINE
  5
15B
  8
LAYER_1
 10
92.941377
 20
33.241663
 30
0.0
 11
94.22859800000001
 21
32.353231
 31
0.0
  0
LINE
  5
15C
  8
LAYER_1
 10
94.22859800000001
 20
32.353231
 30
0.0
 11
95.271599
 21
31.42357
 31
0.0
  0
LINE
  5
15D
  8
LAYER_1
 10
95.271599
 20
31.42357
 30
0.0
 11
96.21029900000001
 21
30.343511
 31
0.0
  0
LINE
  5
15E
  8
LAYER_1
 10
96.21029900000001
 20
30.343511
 30
0.0
 11
98.33447200000001
 21
27.295529
 31
0.0
  0
LINE
  5
15F
  8
LAYER_1
 10
98.33447200000001
 20
27.295529
 30
0.0
 11
99.95245199999999
 21
24.71327
 31
0.0
  0
LINE
  5
160
  8
LAYER_1
 10
99.95245199999999
 20
24.71327
 30
0.0
 11
100.886286
 21
22.857428
 31
0.0
  0
LINE
  5
161
  8
LAYER_1
 10
100.886286
 20
22.857428
 30
0.0
 11
101.132333
 21
21.737187
 31
0.0
  0
LINE
  5
162
  8
LAYER_1
 10
101.132333
 20
21.737187
 30
0.0
 11
100.996298
 21
21.455788
 31
0.0
  0
LINE
  5
163
  8
LAYER_1
 10
100.996298
 20
21.455788
 30
0.0
 11
100.686952
 21
21.361733
 31
0.0
  0
LINE
  5
164
  8
LAYER_1
 10
100.686952
 20
21.361733
 30
0.0
 11
99.778505
 21
22.038134
 31
0.0
  0
LINE
  5
165
  8
LAYER_1
 10
99.778505
 20
22.038134
 30
0.0
 11
97.996324
 21
23.664376
 31
0.0
  0
LINE
  5
166
  8
LAYER_1
 10
97.996324
 20
23.664376
 30
0.0
 11
96.04302800000001
 21
25.401171
 31
0.0
  0
LINE
  5
167
  8
LAYER_1
 10
96.04302800000001
 20
25.401171
 30
0.0
 11
95.575598
 21
25.652451
 31
0.0
  0
LINE
  5
168
  8
LAYER_1
 10
95.575598
 20
25.652451
 30
0.0
 11
95.34021
 21
25.569376
 31
0.0
  0
LINE
  5
169
  8
LAYER_1
 10
95.34021
 20
25.569376
 30
0.0
 11
95.084158
 21
24.658216
 31
0.0
  0
LINE
  5
16A
  8
LAYER_1
 10
95.084158
 20
24.658216
 30
0.0
 11
95.027552
 21
24.36757
 31
0.0
  0
LINE
  5
16B
  8
LAYER_1
 10
95.027552
 20
24.36757
 30
0.0
 11
94.872336
 21
24.215951
 31
0.0
  0
LINE
  5
16C
  8
LAYER_1
 10
94.872336
 20
24.215951
 30
0.0
 11
94.317112
 21
24.304899
 31
0.0
  0
LINE
  5
16D
  8
LAYER_1
 10
94.317112
 20
24.304899
 30
0.0
 11
93.52056500000001
 21
24.875274
 31
0.0
  0
LINE
  5
16E
  8
LAYER_1
 10
93.52056500000001
 20
24.875274
 30
0.0
 11
92.58477000000001
 21
25.877289
 31
0.0
  0
LINE
  5
16F
  8
LAYER_1
 10
92.58477000000001
 20
25.877289
 30
0.0
 11
91.61476999999999
 21
27.024437
 31
0.0
  0
LINE
  5
170
  8
LAYER_1
 10
91.61476999999999
 20
27.024437
 30
0.0
 11
90.961355
 21
27.594383
 31
0.0
  0
LINE
  5
171
  8
LAYER_1
 10
90.961355
 20
27.594383
 30
0.0
 11
90.442786
 21
27.690395
 31
0.0
  0
LINE
  5
172
  8
LAYER_1
 10
90.442786
 20
27.690395
 30
0.0
 11
89.877324
 21
27.415744
 31
0.0
  0
LINE
  5
173
  8
LAYER_1
 10
89.877324
 20
27.415744
 30
0.0
 11
89.33025600000001
 21
27.139503
 31
0.0
  0
LINE
  5
174
  8
LAYER_1
 10
89.33025600000001
 20
27.139503
 30
0.0
 11
88.90199800000001
 21
27.178817
 31
0.0
  0
LINE
  5
175
  8
LAYER_1
 10
88.90199800000001
 20
27.178817
 30
0.0
 11
88.500141
 21
27.583066
 31
0.0
  0
LINE
  5
176
  8
LAYER_1
 10
88.500141
 20
27.583066
 30
0.0
 11
88.03227099999999
 21
28.401628
 31
0.0
  0
LINE
  5
177
  8
LAYER_1
 10
88.03227099999999
 20
28.401628
 30
0.0
 11
87.329103
 21
29.366312
 31
0.0
  0
LINE
  5
178
  8
LAYER_1
 10
87.329103
 20
29.366312
 30
0.0
 11
86.5243
 21
29.823912
 31
0.0
  0
LINE
  5
179
  8
LAYER_1
 10
86.5243
 20
29.823912
 30
0.0
 11
85.723258
 21
29.749292
 31
0.0
  0
LINE
  5
17A
  8
LAYER_1
 10
85.723258
 20
29.749292
 30
0.0
 11
85.031374
 21
29.117315
 31
0.0
  0
LINE
  5
17B
  8
LAYER_1
 10
85.031374
 20
29.117315
 30
0.0
 11
84.690529
 21
28.184458
 31
0.0
  0
LINE
  5
17C
  8
LAYER_1
 10
84.690529
 20
28.184458
 30
0.0
 11
84.707071
 21
27.07711
 31
0.0
  0
LINE
  5
17D
  8
LAYER_1
 10
84.707071
 20
27.07711
 30
0.0
 11
85.060321
 21
25.921799
 31
0.0
  0
LINE
  5
17E
  8
LAYER_1
 10
85.060321
 20
25.921799
 30
0.0
 11
85.72960000000001
 21
24.845052
 31
0.0
  0
LINE
  5
17F
  8
LAYER_1
 10
85.72960000000001
 20
24.845052
 30
0.0
 11
86.306108
 21
23.971672
 31
0.0
  0
LINE
  5
180
  8
LAYER_1
 10
86.306108
 20
23.971672
 30
0.0
 11
86.575777
 21
23.145808
 31
0.0
  0
LINE
  5
181
  8
LAYER_1
 10
86.575777
 20
23.145808
 30
0.0
 11
86.532482
 21
22.409714
 31
0.0
  0
LINE
  5
182
  8
LAYER_1
 10
86.532482
 20
22.409714
 30
0.0
 11
86.170101
 21
21.805649
 31
0.0
  0
LINE
  5
183
  8
LAYER_1
 10
86.170101
 20
21.805649
 30
0.0
 11
85.36721900000001
 21
21.319155
 31
0.0
  0
LINE
  5
184
  8
LAYER_1
 10
85.36721900000001
 20
21.319155
 30
0.0
 11
83.23116899999999
 21
20.868925
 31
0.0
  0
LINE
  5
185
  8
LAYER_1
 10
83.23116899999999
 20
20.868925
 30
0.0
 11
81.96583699999999
 21
20.64017
 31
0.0
  0
LINE
  5
186
  8
LAYER_1
 10
81.96583699999999
 20
20.64017
 30
0.0
 11
85.84764199999999
 21
18.179804
 31
0.0
  0
LINE
  5
187
  8
LAYER_1
 10
85.84764199999999
 20
18.179804
 30
0.0
 11
90.31325699999999
 21
15.478877
 31
0.0
  0
LINE
  5
188
  8
LAYER_1
 10
90.31325699999999
 20
15.478877
 30
0.0
 11
92.125103
 21
14.560802
 31
0.0
  0
LINE
  5
189
  8
LAYER_1
 10
92.125103
 20
14.560802
 30
0.0
 11
93.87015100000001
 21
13.856312
 31
0.0
  0
LINE
  5
18A
  8
LAYER_1
 10
93.87015100000001
 20
13.856312
 30
0.0
 11
95.70878500000001
 21
13.309403
 31
0.0
  0
LINE
  5
18B
  8
LAYER_1
 10
95.70878500000001
 20
13.309403
 30
0.0
 11
97.801389
 21
12.864071
 31
0.0
  0
LINE
  5
18C
  8
LAYER_1
 10
97.801389
 20
12.864071
 30
0.0
 11
103.390034
 21
12.054115
 31
0.0
  0
LINE
  5
18D
  8
LAYER_1
 10
103.390034
 20
12.054115
 30
0.0
 11
113.424281
 21
10.506041
 31
0.0
  0
LINE
  5
18E
  8
LAYER_1
 10
113.424281
 20
10.506041
 30
0.0
 11
122.032059
 21
8.925153999999999
 31
0.0
  0
LINE
  5
18F
  8
LAYER_1
 10
122.032059
 20
8.925153999999999
 30
0.0
 11
128.221619
 21
7.725053
 31
0.0
  0
LINE
  5
190
  8
LAYER_1
 10
128.221619
 20
7.725053
 30
0.0
 11
133.597306
 21
6.355569
 31
0.0
  0
LINE
  5
191
  8
LAYER_1
 10
133.597306
 20
6.355569
 30
0.0
 11
138.129259
 21
4.825443
 31
0.0
  0
LINE
  5
192
  8
LAYER_1
 10
138.129259
 20
4.825443
 30
0.0
 11
141.787615
 21
3.143414
 31
0.0
  0
LINE
  5
193
  8
LAYER_1
 10
141.787615
 20
3.143414
 30
0.0
 11
143.404511
 21
2.335937
 31
0.0
  0
LINE
  5
194
  8
LAYER_1
 10
143.404511
 20
2.335937
 30
0.0
 11
144.121446
 21
2.127157
 31
0.0
  0
LINE
  5
195
  8
LAYER_1
 10
144.121446
 20
2.127157
 30
0.0
 11
142.515511
 21
5.887426
 31
0.0
  0
LINE
  5
196
  8
LAYER_1
 10
142.515511
 20
5.887426
 30
0.0
 11
142.515511
 21
5.887426
 31
0.0
  0
LINE
  5
197
  8
LAYER_1
 10
51.05317
 20
21.440132
 30
0.0
 11
52.627101
 21
21.750671
 31
0.0
  0
LINE
  5
198
  8
LAYER_1
 10
52.627101
 20
21.750671
 30
0.0
 11
54.63843
 21
21.927946
 31
0.0
  0
LINE
  5
199
  8
LAYER_1
 10
54.63843
 20
21.927946
 30
0.0
 11
63.188726
 21
22.042241
 31
0.0
  0
LINE
  5
19A
  8
LAYER_1
 10
63.188726
 20
22.042241
 30
0.0
 11
70.206425
 21
22.12948
 31
0.0
  0
LINE
  5
19B
  8
LAYER_1
 10
70.206425
 20
22.12948
 30
0.0
 11
73.40600000000001
 21
22.304053
 31
0.0
  0
LINE
  5
19C
  8
LAYER_1
 10
73.40600000000001
 20
22.304053
 30
0.0
 11
73.725054
 21
22.593928
 31
0.0
  0
LINE
  5
19D
  8
LAYER_1
 10
73.725054
 20
22.593928
 30
0.0
 11
73.57638
 21
23.037569
 31
0.0
  0
LINE
  5
19E
  8
LAYER_1
 10
73.57638
 20
23.037569
 30
0.0
 11
73.395445
 21
23.631871
 31
0.0
  0
LINE
  5
19F
  8
LAYER_1
 10
73.395445
 20
23.631871
 30
0.0
 11
73.49602400000001
 21
24.347672
 31
0.0
  0
LINE
  5
1A0
  8
LAYER_1
 10
73.49602400000001
 20
24.347672
 30
0.0
 11
73.866636
 21
25.148027
 31
0.0
  0
LINE
  5
1A1
  8
LAYER_1
 10
73.866636
 20
25.148027
 30
0.0
 11
74.49579799999999
 21
25.995991
 31
0.0
  0
LINE
  5
1A2
  8
LAYER_1
 10
74.49579799999999
 20
25.995991
 30
0.0
 11
75.427787
 21
26.843625
 31
0.0
  0
LINE
  5
1A3
  8
LAYER_1
 10
75.427787
 20
26.843625
 30
0.0
 11
76.539727
 21
27.323844
 31
0.0
  0
LINE
  5
1A4
  8
LAYER_1
 10
76.539727
 20
27.323844
 30
0.0
 11
78.074855
 21
27.496651
 31
0.0
  0
LINE
  5
1A5
  8
LAYER_1
 10
78.074855
 20
27.496651
 30
0.0
 11
80.276409
 21
27.422054
 31
0.0
  0
LINE
  5
1A6
  8
LAYER_1
 10
80.276409
 20
27.422054
 30
0.0
 11
83.22650400000001
 21
27.389085
 31
0.0
  0
LINE
  5
1A7
  8
LAYER_1
 10
83.22650400000001
 20
27.389085
 30
0.0
 11
82.566005
 21
28.035695
 31
0.0
  0
LINE
  5
1A8
  8
LAYER_1
 10
82.566005
 20
28.035695
 30
0.0
 11
81.006564
 21
29.204135
 31
0.0
  0
LINE
  5
1A9
  8
LAYER_1
 10
81.006564
 20
29.204135
 30
0.0
 11
77.72317
 21
31.304746
 31
0.0
  0
LINE
  5
1AA
  8
LAYER_1
 10
77.72317
 20
31.304746
 30
0.0
 11
76.12456899999999
 21
31.96404
 31
0.0
  0
LINE
  5
1AB
  8
LAYER_1
 10
76.12456899999999
 20
31.96404
 30
0.0
 11
74.317742
 21
32.501447
 31
0.0
  0
LINE
  5
1AC
  8
LAYER_1
 10
74.317742
 20
32.501447
 30
0.0
 11
70.451178
 21
33.173434
 31
0.0
  0
LINE
  5
1AD
  8
LAYER_1
 10
70.451178
 20
33.173434
 30
0.0
 11
68.577326
 21
33.289428
 31
0.0
  0
LINE
  5
1AE
  8
LAYER_1
 10
68.577326
 20
33.289428
 30
0.0
 11
66.867018
 21
33.246366
 31
0.0
  0
LINE
  5
1AF
  8
LAYER_1
 10
66.867018
 20
33.246366
 30
0.0
 11
65.413197
 21
33.034956
 31
0.0
  0
LINE
  5
1B0
  8
LAYER_1
 10
65.413197
 20
33.034956
 30
0.0
 11
64.308804
 21
32.645906
 31
0.0
  0
LINE
  5
1B1
  8
LAYER_1
 10
64.308804
 20
32.645906
 30
0.0
 11
62.131598
 21
31.780096
 31
0.0
  0
LINE
  5
1B2
  8
LAYER_1
 10
62.131598
 20
31.780096
 30
0.0
 11
60.565182
 21
31.24117
 31
0.0
  0
LINE
  5
1B3
  8
LAYER_1
 10
60.565182
 20
31.24117
 30
0.0
 11
58.581457
 21
32.510341
 31
0.0
  0
LINE
  5
1B4
  8
LAYER_1
 10
58.581457
 20
32.510341
 30
0.0
 11
57.221902
 21
33.316935
 31
0.0
  0
LINE
  5
1B5
  8
LAYER_1
 10
57.221902
 20
33.316935
 30
0.0
 11
56.223227
 21
33.691982
 31
0.0
  0
LINE
  5
1B6
  8
LAYER_1
 10
56.223227
 20
33.691982
 30
0.0
 11
55.335437
 21
33.684145
 31
0.0
  0
LINE
  5
1B7
  8
LAYER_1
 10
55.335437
 20
33.684145
 30
0.0
 11
54.308533
 21
33.342086
 31
0.0
  0
LINE
  5
1B8
  8
LAYER_1
 10
54.308533
 20
33.342086
 30
0.0
 11
53.357329
 21
33.071724
 31
0.0
  0
LINE
  5
1B9
  8
LAYER_1
 10
53.357329
 20
33.071724
 30
0.0
 11
52.780112
 21
33.252566
 31
0.0
  0
LINE
  5
1BA
  8
LAYER_1
 10
52.780112
 20
33.252566
 30
0.0
 11
52.534957
 21
33.928283
 31
0.0
  0
LINE
  5
1BB
  8
LAYER_1
 10
52.534957
 20
33.928283
 30
0.0
 11
52.579936
 21
35.142543
 31
0.0
  0
LINE
  5
1BC
  8
LAYER_1
 10
52.579936
 20
35.142543
 30
0.0
 11
52.647229
 21
36.437836
 31
0.0
  0
LINE
  5
1BD
  8
LAYER_1
 10
52.647229
 20
36.437836
 30
0.0
 11
52.476801
 21
36.569985
 31
0.0
  0
LINE
  5
1BE
  8
LAYER_1
 10
52.476801
 20
36.569985
 30
0.0
 11
52.117749
 21
36.514535
 31
0.0
  0
LINE
  5
1BF
  8
LAYER_1
 10
52.117749
 20
36.514535
 30
0.0
 11
49.0442
 21
36.172148
 31
0.0
  0
LINE
  5
1C0
  8
LAYER_1
 10
49.0442
 20
36.172148
 30
0.0
 11
47.602138
 21
36.177122
 31
0.0
  0
LINE
  5
1C1
  8
LAYER_1
 10
47.602138
 20
36.177122
 30
0.0
 11
46.819837
 21
36.3213
 31
0.0
  0
LINE
  5
1C2
  8
LAYER_1
 10
46.819837
 20
36.3213
 30
0.0
 11
46.651817
 21
36.517471
 31
0.0
  0
LINE
  5
1C3
  8
LAYER_1
 10
46.651817
 20
36.517471
 30
0.0
 11
46.705415
 21
36.764901
 31
0.0
  0
LINE
  5
1C4
  8
LAYER_1
 10
46.705415
 20
36.764901
 30
0.0
 11
47.633602
 21
37.672859
 31
0.0
  0
LINE
  5
1C5
  8
LAYER_1
 10
47.633602
 20
37.672859
 30
0.0
 11
51.756142
 21
41.113212
 31
0.0
  0
LINE
  5
1C6
  8
LAYER_1
 10
51.756142
 20
41.113212
 30
0.0
 11
54.691558
 21
43.364144
 31
0.0
  0
LINE
  5
1C7
  8
LAYER_1
 10
54.691558
 20
43.364144
 30
0.0
 11
57.510527
 21
45.182864
 31
0.0
  0
LINE
  5
1C8
  8
LAYER_1
 10
57.510527
 20
45.182864
 30
0.0
 11
61.283726
 21
47.326584
 31
0.0
  0
LINE
  5
1C9
  8
LAYER_1
 10
61.283726
 20
47.326584
 30
0.0
 11
64.223688
 21
49.038753
 31
0.0
  0
LINE
  5
1CA
  8
LAYER_1
 10
64.223688
 20
49.038753
 30
0.0
 11
65.446504
 21
49.908881
 31
0.0
  0
LINE
  5
1CB
  8
LAYER_1
 10
65.446504
 20
49.908881
 30
0.0
 11
64.286737
 21
51.887202
 31
0.0
  0
LINE
  5
1CC
  8
LAYER_1
 10
64.286737
 20
51.887202
 30
0.0
 11
63.231545
 21
53.774783
 31
0.0
  0
LINE
  5
1CD
  8
LAYER_1
 10
63.231545
 20
53.774783
 30
0.0
 11
62.999895
 21
54.588606
 31
0.0
  0
LINE
  5
1CE
  8
LAYER_1
 10
62.999895
 20
54.588606
 30
0.0
 11
62.969618
 21
55.359137
 31
0.0
  0
LINE
  5
1CF
  8
LAYER_1
 10
62.969618
 20
55.359137
 30
0.0
 11
63.143772
 21
56.118891
 31
0.0
  0
LINE
  5
1D0
  8
LAYER_1
 10
63.143772
 20
56.118891
 30
0.0
 11
63.525413
 21
56.900382
 31
0.0
  0
LINE
  5
1D1
  8
LAYER_1
 10
63.525413
 20
56.900382
 30
0.0
 11
64.923385
 21
58.658636
 31
0.0
  0
LINE
  5
1D2
  8
LAYER_1
 10
64.923385
 20
58.658636
 30
0.0
 11
66.09096700000001
 21
59.689101
 31
0.0
  0
LINE
  5
1D3
  8
LAYER_1
 10
66.09096700000001
 20
59.689101
 30
0.0
 11
67.378567
 21
60.293048
 31
0.0
  0
LINE
  5
1D4
  8
LAYER_1
 10
67.378567
 20
60.293048
 30
0.0
 11
69.015744
 21
60.537027
 31
0.0
  0
LINE
  5
1D5
  8
LAYER_1
 10
69.015744
 20
60.537027
 30
0.0
 11
71.23205900000001
 21
60.487591
 31
0.0
  0
LINE
  5
1D6
  8
LAYER_1
 10
71.23205900000001
 20
60.487591
 30
0.0
 11
74.02076700000001
 21
60.115105
 31
0.0
  0
LINE
  5
1D7
  8
LAYER_1
 10
74.02076700000001
 20
60.115105
 30
0.0
 11
77.158726
 21
59.459825
 31
0.0
  0
LINE
  5
1D8
  8
LAYER_1
 10
77.158726
 20
59.459825
 30
0.0
 11
80.810157
 21
58.716427
 31
0.0
  0
LINE
  5
1D9
  8
LAYER_1
 10
80.810157
 20
58.716427
 30
0.0
 11
84.841433
 21
58.289142
 31
0.0
  0
LINE
  5
1DA
  8
LAYER_1
 10
84.841433
 20
58.289142
 30
0.0
 11
89.66270900000001
 21
58.151811
 31
0.0
  0
LINE
  5
1DB
  8
LAYER_1
 10
89.66270900000001
 20
58.151811
 30
0.0
 11
95.68414
 21
58.278274
 31
0.0
  0
LINE
  5
1DC
  8
LAYER_1
 10
95.68414
 20
58.278274
 30
0.0
 11
102.131329
 21
58.612697
 31
0.0
  0
LINE
  5
1DD
  8
LAYER_1
 10
102.131329
 20
58.612697
 30
0.0
 11
103.479645
 21
58.866995
 31
0.0
  0
LINE
  5
1DE
  8
LAYER_1
 10
103.479645
 20
58.866995
 30
0.0
 11
104.546561
 21
59.289942
 31
0.0
  0
LINE
  5
1DF
  8
LAYER_1
 10
104.546561
 20
59.289942
 30
0.0
 11
105.652271
 21
59.858222
 31
0.0
  0
LINE
  5
1E0
  8
LAYER_1
 10
105.652271
 20
59.858222
 30
0.0
 11
106.027511
 21
60.179244
 31
0.0
  0
LINE
  5
1E1
  8
LAYER_1
 10
106.027511
 20
60.179244
 30
0.0
 11
103.591414
 21
60.5855
 31
0.0
  0
LINE
  5
1E2
  8
LAYER_1
 10
103.591414
 20
60.5855
 30
0.0
 11
101.863365
 21
60.83487
 31
0.0
  0
LINE
  5
1E3
  8
LAYER_1
 10
101.863365
 20
60.83487
 30
0.0
 11
100.809333
 21
61.169393
 31
0.0
  0
LINE
  5
1E4
  8
LAYER_1
 10
100.809333
 20
61.169393
 30
0.0
 11
100.220048
 21
61.699128
 31
0.0
  0
LINE
  5
1E5
  8
LAYER_1
 10
100.220048
 20
61.699128
 30
0.0
 11
99.886242
 21
62.534134
 31
0.0
  0
LINE
  5
1E6
  8
LAYER_1
 10
99.886242
 20
62.534134
 30
0.0
 11
99.58038999999999
 21
63.450665
 31
0.0
  0
LINE
  5
1E7
  8
LAYER_1
 10
99.58038999999999
 20
63.450665
 30
0.0
 11
99.18532999999999
 21
64.18355200000001
 31
0.0
  0
LINE
  5
1E8
  8
LAYER_1
 10
99.18532999999999
 20
64.18355200000001
 30
0.0
 11
98.666076
 21
64.748294
 31
0.0
  0
LINE
  5
1E9
  8
LAYER_1
 10
98.666076
 20
64.748294
 30
0.0
 11
97.987641
 21
65.160388
 31
0.0
  0
LINE
  5
1EA
  8
LAYER_1
 10
97.987641
 20
65.160388
 30
0.0
 11
97.115039
 21
65.435332
 31
0.0
  0
LINE
  5
1EB
  8
LAYER_1
 10
97.115039
 20
65.435332
 30
0.0
 11
96.013282
 21
65.588623
 31
0.0
  0
LINE
  5
1EC
  8
LAYER_1
 10
96.013282
 20
65.588623
 30
0.0
 11
92.982356
 21
65.592238
 31
0.0
  0
LINE
  5
1ED
  8
LAYER_1
 10
92.982356
 20
65.592238
 30
0.0
 11
89.49069
 21
65.25900300000001
 31
0.0
  0
LINE
  5
1EE
  8
LAYER_1
 10
89.49069
 20
65.25900300000001
 30
0.0
 11
85.766504
 21
64.44572100000001
 31
0.0
  0
LINE
  5
1EF
  8
LAYER_1
 10
85.766504
 20
64.44572100000001
 30
0.0
 11
80.305463
 21
63.18407
 31
0.0
  0
LINE
  5
1F0
  8
LAYER_1
 10
80.305463
 20
63.18407
 30
0.0
 11
73.066504
 21
62.15325
 31
0.0
  0
LINE
  5
1F1
  8
LAYER_1
 10
73.066504
 20
62.15325
 30
0.0
 11
69.23249800000001
 21
61.619968
 31
0.0
  0
LINE
  5
1F2
  8
LAYER_1
 10
69.23249800000001
 20
61.619968
 30
0.0
 11
66.529201
 21
61.085606
 31
0.0
  0
LINE
  5
1F3
  8
LAYER_1
 10
66.529201
 20
61.085606
 30
0.0
 11
64.21498699999999
 21
60.364615
 31
0.0
  0
LINE
  5
1F4
  8
LAYER_1
 10
64.21498699999999
 20
60.364615
 30
0.0
 11
61.54823
 21
59.271442
 31
0.0
  0
LINE
  5
1F5
  8
LAYER_1
 10
61.54823
 20
59.271442
 30
0.0
 11
58.637732
 21
58.008331
 31
0.0
  0
LINE
  5
1F6
  8
LAYER_1
 10
58.637732
 20
58.008331
 30
0.0
 11
53.363786
 21
57.926354
 31
0.0
  0
LINE
  5
1F7
  8
LAYER_1
 10
53.363786
 20
57.926354
 30
0.0
 11
48.503882
 21
57.725508
 31
0.0
  0
LINE
  5
1F8
  8
LAYER_1
 10
48.503882
 20
57.725508
 30
0.0
 11
44.70317
 21
57.220575
 31
0.0
  0
LINE
  5
1F9
  8
LAYER_1
 10
44.70317
 20
57.220575
 30
0.0
 11
41.209208
 21
56.618247
 31
0.0
  0
LINE
  5
1FA
  8
LAYER_1
 10
41.209208
 20
56.618247
 30
0.0
 11
38.167303
 21
56.244996
 31
0.0
  0
LINE
  5
1FB
  8
LAYER_1
 10
38.167303
 20
56.244996
 30
0.0
 11
29.322779
 21
55.807489
 31
0.0
  0
LINE
  5
1FC
  8
LAYER_1
 10
29.322779
 20
55.807489
 30
0.0
 11
23.351507
 21
55.529856
 31
0.0
  0
LINE
  5
1FD
  8
LAYER_1
 10
23.351507
 20
55.529856
 30
0.0
 11
20.290948
 21
55.235207
 31
0.0
  0
LINE
  5
1FE
  8
LAYER_1
 10
20.290948
 20
55.235207
 30
0.0
 11
14.22317
 21
54.084559
 31
0.0
  0
LINE
  5
1FF
  8
LAYER_1
 10
14.22317
 20
54.084559
 30
0.0
 11
10.341525
 21
53.386904
 31
0.0
  0
LINE
  5
200
  8
LAYER_1
 10
10.341525
 20
53.386904
 30
0.0
 11
7.90373
 21
52.757462
 31
0.0
  0
LINE
  5
201
  8
LAYER_1
 10
7.90373
 20
52.757462
 30
0.0
 11
6.36278
 21
52.006448
 31
0.0
  0
LINE
  5
202
  8
LAYER_1
 10
6.36278
 20
52.006448
 30
0.0
 11
5.171671
 21
50.944074
 31
0.0
  0
LINE
  5
203
  8
LAYER_1
 10
5.171671
 20
50.944074
 30
0.0
 11
4.458957
 21
50.146877
 31
0.0
  0
LINE
  5
204
  8
LAYER_1
 10
4.458957
 20
50.146877
 30
0.0
 11
4.086899
 21
49.529134
 31
0.0
  0
LINE
  5
205
  8
LAYER_1
 10
4.086899
 20
49.529134
 30
0.0
 11
3.944823
 21
48.801165
 31
0.0
  0
LINE
  5
206
  8
LAYER_1
 10
3.944823
 20
48.801165
 30
0.0
 11
3.922059
 21
47.673291
 31
0.0
  0
LINE
  5
207
  8
LAYER_1
 10
3.922059
 20
47.673291
 30
0.0
 11
3.792514
 21
45.917726
 31
0.0
  0
LINE
  5
208
  8
LAYER_1
 10
3.792514
 20
45.917726
 30
0.0
 11
3.543963
 21
45.429516
 31
0.0
  0
LINE
  5
209
  8
LAYER_1
 10
3.543963
 20
45.429516
 30
0.0
 11
3.095898
 21
44.946934
 31
0.0
  0
LINE
  5
20A
  8
LAYER_1
 10
3.095898
 20
44.946934
 30
0.0
 11
2.354767
 21
44.106012
 31
0.0
  0
LINE
  5
20B
  8
LAYER_1
 10
2.354767
 20
44.106012
 30
0.0
 11
1.914412
 21
43.285327
 31
0.0
  0
LINE
  5
20C
  8
LAYER_1
 10
1.914412
 20
43.285327
 30
0.0
 11
1.769792
 21
42.470791
 31
0.0
  0
LINE
  5
20D
  8
LAYER_1
 10
1.769792
 20
42.470791
 30
0.0
 11
1.915865
 21
41.648312
 31
0.0
  0
LINE
  5
20E
  8
LAYER_1
 10
1.915865
 20
41.648312
 30
0.0
 11
2.228726
 21
39.836584
 31
0.0
  0
LINE
  5
20F
  8
LAYER_1
 10
2.228726
 20
39.836584
 30
0.0
 11
2.258234
 21
39.342404
 31
0.0
  0
LINE
  5
210
  8
LAYER_1
 10
2.258234
 20
39.342404
 30
0.0
 11
2.388904
 21
39.042036
 31
0.0
  0
LINE
  5
211
  8
LAYER_1
 10
2.388904
 20
39.042036
 30
0.0
 11
3.206603
 21
38.738878
 31
0.0
  0
LINE
  5
212
  8
LAYER_1
 10
3.206603
 20
38.738878
 30
0.0
 11
4.335037
 21
38.311819
 31
0.0
  0
LINE
  5
213
  8
LAYER_1
 10
4.335037
 20
38.311819
 30
0.0
 11
4.15293
 21
37.711155
 31
0.0
  0
LINE
  5
214
  8
LAYER_1
 10
4.15293
 20
37.711155
 30
0.0
 11
3.503676
 21
36.609088
 31
0.0
  0
LINE
  5
215
  8
LAYER_1
 10
3.503676
 20
36.609088
 30
0.0
 11
2.718121
 21
35.236646
 31
0.0
  0
LINE
  5
216
  8
LAYER_1
 10
2.718121
 20
35.236646
 30
0.0
 11
2.208315
 21
33.985937
 31
0.0
  0
LINE
  5
217
  8
LAYER_1
 10
2.208315
 20
33.985937
 30
0.0
 11
2.070578
 21
33.065408
 31
0.0
  0
LINE
  5
218
  8
LAYER_1
 10
2.070578
 20
33.065408
 30
0.0
 11
2.367037
 21
32.495822
 31
0.0
  0
LINE
  5
219
  8
LAYER_1
 10
2.367037
 20
32.495822
 30
0.0
 11
3.246157
 21
32.163245
 31
0.0
  0
LINE
  5
21A
  8
LAYER_1
 10
3.246157
 20
32.163245
 30
0.0
 11
4.856401
 21
31.953742
 31
0.0
  0
LINE
  5
21B
  8
LAYER_1
 10
4.856401
 20
31.953742
 30
0.0
 11
8.06025
 21
31.565508
 31
0.0
  0
LINE
  5
21C
  8
LAYER_1
 10
8.06025
 20
31.565508
 30
0.0
 11
10.772033
 21
30.96289
 31
0.0
  0
LINE
  5
21D
  8
LAYER_1
 10
10.772033
 20
30.96289
 30
0.0
 11
13.53797
 21
29.988649
 31
0.0
  0
LINE
  5
21E
  8
LAYER_1
 10
13.53797
 20
29.988649
 30
0.0
 11
16.904281
 21
28.485547
 31
0.0
  0
LINE
  5
21F
  8
LAYER_1
 10
16.904281
 20
28.485547
 30
0.0
 11
20.521937
 21
26.854104
 31
0.0
  0
LINE
  5
220
  8
LAYER_1
 10
20.521937
 20
26.854104
 30
0.0
 11
23.822089
 21
25.595615
 31
0.0
  0
LINE
  5
221
  8
LAYER_1
 10
23.822089
 20
25.595615
 30
0.0
 11
27.536279
 21
24.460439
 31
0.0
  0
LINE
  5
222
  8
LAYER_1
 10
27.536279
 20
24.460439
 30
0.0
 11
32.396049
 21
23.198935
 31
0.0
  0
LINE
  5
223
  8
LAYER_1
 10
32.396049
 20
23.198935
 30
0.0
 11
39.526359
 21
21.506461
 31
0.0
  0
LINE
  5
224
  8
LAYER_1
 10
39.526359
 20
21.506461
 30
0.0
 11
44.117054
 21
20.733597
 31
0.0
  0
LINE
  5
225
  8
LAYER_1
 10
44.117054
 20
20.733597
 30
0.0
 11
45.879855
 21
20.652444
 31
0.0
  0
LINE
  5
226
  8
LAYER_1
 10
45.879855
 20
20.652444
 30
0.0
 11
47.511526
 21
20.753701
 31
0.0
  0
LINE
  5
227
  8
LAYER_1
 10
47.511526
 20
20.753701
 30
0.0
 11
51.05317
 21
21.440132
 31
0.0
  0
LINE
  5
228
  8
LAYER_1
 10
51.05317
 20
21.440132
 30
0.0
 11
51.05317
 21
21.440132
 31
0.0
  0
LINE
  5
229
  8
LAYER_1
 10
85.69442700000001
 20
22.414103
 30
0.0
 11
85.853562
 21
22.919844
 31
0.0
  0
LINE
  5
22A
  8
LAYER_1
 10
85.853562
 20
22.919844
 30
0.0
 11
85.67276800000001
 21
23.505194
 31
0.0
  0
LINE
  5
22B
  8
LAYER_1
 10
85.67276800000001
 20
23.505194
 30
0.0
 11
85.19918300000001
 21
24.134278
 31
0.0
  0
LINE
  5
22C
  8
LAYER_1
 10
85.19918300000001
 20
24.134278
 30
0.0
 11
84.479945
 21
24.771219
 31
0.0
  0
LINE
  5
22D
  8
LAYER_1
 10
84.479945
 20
24.771219
 30
0.0
 11
82.49306300000001
 21
25.925173
 31
0.0
  0
LINE
  5
22E
  8
LAYER_1
 10
82.49306300000001
 20
25.925173
 30
0.0
 11
81.31969599999999
 21
26.370435
 31
0.0
  0
LINE
  5
22F
  8
LAYER_1
 10
81.31969599999999
 20
26.370435
 30
0.0
 11
80.08922800000001
 21
26.680053
 31
0.0
  0
LINE
  5
230
  8
LAYER_1
 10
80.08922800000001
 20
26.680053
 30
0.0
 11
78.70786
 21
26.828471
 31
0.0
  0
LINE
  5
231
  8
LAYER_1
 10
78.70786
 20
26.828471
 30
0.0
 11
77.504761
 21
26.708545
 31
0.0
  0
LINE
  5
232
  8
LAYER_1
 10
77.504761
 20
26.708545
 30
0.0
 11
76.401811
 21
26.302456
 31
0.0
  0
LINE
  5
233
  8
LAYER_1
 10
76.401811
 20
26.302456
 30
0.0
 11
75.320892
 21
25.592382
 31
0.0
  0
LINE
  5
234
  8
LAYER_1
 10
75.320892
 20
25.592382
 30
0.0
 11
74.556197
 21
24.870252
 31
0.0
  0
LINE
  5
235
  8
LAYER_1
 10
74.556197
 20
24.870252
 30
0.0
 11
74.30236600000001
 21
24.282992
 31
0.0
  0
LINE
  5
236
  8
LAYER_1
 10
74.30236600000001
 20
24.282992
 30
0.0
 11
74.559567
 21
23.775566
 31
0.0
  0
LINE
  5
237
  8
LAYER_1
 10
74.559567
 20
23.775566
 30
0.0
 11
75.32796999999999
 21
23.29294
 31
0.0
  0
LINE
  5
238
  8
LAYER_1
 10
75.32796999999999
 20
23.29294
 30
0.0
 11
78.040205
 21
22.496801
 31
0.0
  0
LINE
  5
239
  8
LAYER_1
 10
78.040205
 20
22.496801
 30
0.0
 11
81.67428099999999
 21
21.812868
 31
0.0
  0
LINE
  5
23A
  8
LAYER_1
 10
81.67428099999999
 20
21.812868
 30
0.0
 11
82.89721
 21
21.754359
 31
0.0
  0
LINE
  5
23B
  8
LAYER_1
 10
82.89721
 20
21.754359
 30
0.0
 11
84.121115
 21
21.856933
 31
0.0
  0
LINE
  5
23C
  8
LAYER_1
 10
84.121115
 20
21.856933
 30
0.0
 11
85.126639
 21
22.087783
 31
0.0
  0
LINE
  5
23D
  8
LAYER_1
 10
85.126639
 20
22.087783
 30
0.0
 11
85.69442700000001
 21
22.414103
 31
0.0
  0
LINE
  5
23E
  8
LAYER_1
 10
85.69442700000001
 20
22.414103
 30
0.0
 11
85.69442700000001
 21
22.414103
 31
0.0
  0
LINE
  5
23F
  8
LAYER_1
 10
63.705026
 20
37.104972
 30
0.0
 11
61.77235
 21
39.337504
 31
0.0
  0
LINE
  5
240
  8
LAYER_1
 10
61.77235
 20
39.337504
 30
0.0
 11
60.072665
 21
41.620527
 31
0.0
  0
LINE
  5
241
  8
LAYER_1
 10
60.072665
 20
41.620527
 30
0.0
 11
58.394366
 21
43.939223
 31
0.0
  0
LINE
  5
242
  8
LAYER_1
 10
58.394366
 20
43.939223
 30
0.0
 11
57.435242
 21
42.488612
 31
0.0
  0
LINE
  5
243
  8
LAYER_1
 10
57.435242
 20
42.488612
 30
0.0
 11
56.721855
 21
40.732786
 31
0.0
  0
LINE
  5
244
  8
LAYER_1
 10
56.721855
 20
40.732786
 30
0.0
 11
56.6275
 21
39.949927
 31
0.0
  0
LINE
  5
245
  8
LAYER_1
 10
56.6275
 20
39.949927
 30
0.0
 11
56.709209
 21
39.225635
 31
0.0
  0
LINE
  5
246
  8
LAYER_1
 10
56.709209
 20
39.225635
 30
0.0
 11
56.967863
 21
38.556312
 31
0.0
  0
LINE
  5
247
  8
LAYER_1
 10
56.967863
 20
38.556312
 30
0.0
 11
57.40434
 21
37.938356
 31
0.0
  0
LINE
  5
248
  8
LAYER_1
 10
57.40434
 20
37.938356
 30
0.0
 11
58.814281
 21
36.842144
 31
0.0
  0
LINE
  5
249
  8
LAYER_1
 10
58.814281
 20
36.842144
 30
0.0
 11
60.170334
 21
36.227863
 31
0.0
  0
LINE
  5
24A
  8
LAYER_1
 10
60.170334
 20
36.227863
 30
0.0
 11
61.95613
 21
35.608739
 31
0.0
  0
LINE
  5
24B
  8
LAYER_1
 10
61.95613
 20
35.608739
 30
0.0
 11
63.714946
 21
35.126662
 31
0.0
  0
LINE
  5
24C
  8
LAYER_1
 10
63.714946
 20
35.126662
 30
0.0
 11
64.99006
 21
34.923521
 31
0.0
  0
LINE
  5
24D
  8
LAYER_1
 10
64.99006
 20
34.923521
 30
0.0
 11
65.40320199999999
 21
34.961155
 31
0.0
  0
LINE
  5
24E
  8
LAYER_1
 10
65.40320199999999
 20
34.961155
 30
0.0
 11
65.397846
 21
35.216572
 31
0.0
  0
LINE
  5
24F
  8
LAYER_1
 10
65.397846
 20
35.216572
 30
0.0
 11
63.705026
 21
37.104972
 31
0.0
  0
LINE
  5
250
  8
LAYER_1
 10
63.705026
 20
37.104972
 30
0.0
 11
63.705026
 21
37.104972
 31
0.0
  0
LINE
  5
251
  8
LAYER_1
 10
73.53513100000001
 20
52.406177
 30
0.0
 11
75.04929300000001
 21
55.087289
 31
0.0
  0
LINE
  5
252
  8
LAYER_1
 10
75.04929300000001
 20
55.087289
 30
0.0
 11
73.84623000000001
 21
56.184899
 31
0.0
  0
LINE
  5
253
  8
LAYER_1
 10
73.84623000000001
 20
56.184899
 30
0.0
 11
72.526015
 21
57.185868
 31
0.0
  0
LINE
  5
254
  8
LAYER_1
 10
72.526015
 20
57.185868
 30
0.0
 11
70.984751
 21
58.053969
 31
0.0
  0
LINE
  5
255
  8
LAYER_1
 10
70.984751
 20
58.053969
 30
0.0
 11
69.477161
 21
58.665577
 31
0.0
  0
LINE
  5
256
  8
LAYER_1
 10
69.477161
 20
58.665577
 30
0.0
 11
68.25797
 21
58.897066
 31
0.0
  0
LINE
  5
257
  8
LAYER_1
 10
68.25797
 20
58.897066
 30
0.0
 11
67.288515
 21
58.775602
 31
0.0
  0
LINE
  5
258
  8
LAYER_1
 10
67.288515
 20
58.775602
 30
0.0
 11
66.35577000000001
 21
58.438471
 31
0.0
  0
LINE
  5
259
  8
LAYER_1
 10
66.35577000000001
 20
58.438471
 30
0.0
 11
65.499602
 21
57.927213
 31
0.0
  0
LINE
  5
25A
  8
LAYER_1
 10
65.499602
 20
57.927213
 30
0.0
 11
64.759874
 21
57.283366
 31
0.0
  0
LINE
  5
25B
  8
LAYER_1
 10
64.759874
 20
57.283366
 30
0.0
 11
64.176452
 21
56.548472
 31
0.0
  0
LINE
  5
25C
  8
LAYER_1
 10
64.176452
 20
56.548472
 30
0.0
 11
63.789201
 21
55.764068
 31
0.0
  0
LINE
  5
25D
  8
LAYER_1
 10
63.789201
 20
55.764068
 30
0.0
 11
63.637985
 21
54.971697
 31
0.0
  0
LINE
  5
25E
  8
LAYER_1
 10
63.637985
 20
54.971697
 30
0.0
 11
63.76267
 21
54.212896
 31
0.0
  0
LINE
  5
25F
  8
LAYER_1
 10
63.76267
 20
54.212896
 30
0.0
 11
64.386405
 21
53.106473
 31
0.0
  0
LINE
  5
260
  8
LAYER_1
 10
64.386405
 20
53.106473
 30
0.0
 11
65.403012
 21
52.100465
 31
0.0
  0
LINE
  5
261
  8
LAYER_1
 10
65.403012
 20
52.100465
 30
0.0
 11
66.85946199999999
 21
51.157861
 31
0.0
  0
LINE
  5
262
  8
LAYER_1
 10
66.85946199999999
 20
51.157861
 30
0.0
 11
68.802727
 21
50.241649
 31
0.0
  0
LINE
  5
263
  8
LAYER_1
 10
68.802727
 20
50.241649
 30
0.0
 11
70.40979299999999
 21
49.679276
 31
0.0
  0
LINE
  5
264
  8
LAYER_1
 10
70.40979299999999
 20
49.679276
 30
0.0
 11
70.99805499999999
 21
49.623983
 31
0.0
  0
LINE
  5
265
  8
LAYER_1
 10
70.99805499999999
 20
49.623983
 30
0.0
 11
71.501086
 21
49.745943
 31
0.0
  0
LINE
  5
266
  8
LAYER_1
 10
71.501086
 20
49.745943
 30
0.0
 11
71.962597
 21
50.06515
 31
0.0
  0
LINE
  5
267
  8
LAYER_1
 10
71.962597
 20
50.06515
 30
0.0
 11
72.4263
 21
50.601596
 31
0.0
  0
LINE
  5
268
  8
LAYER_1
 10
72.4263
 20
50.601596
 30
0.0
 11
73.53513100000001
 21
52.406177
 31
0.0
  0
LINE
  5
269
  8
LAYER_1
 10
73.53513100000001
 20
52.406177
 30
0.0
 11
73.53513100000001
 21
52.406177
 31
0.0
  0
LINE
  5
26A
  8
LAYER_1
 10
164.73652
 20
59.037779
 30
0.0
 11
165.218572
 21
59.613492
 31
0.0
  0
LINE
  5
26B
  8
LAYER_1
 10
165.218572
 20
59.613492
 30
0.0
 11
165.65567
 21
60.486971
 31
0.0
  0
LINE
  5
26C
  8
LAYER_1
 10
165.65567
 20
60.486971
 30
0.0
 11
166.38835
 21
63.094072
 31
0.0
  0
LINE
  5
26D
  8
LAYER_1
 10
166.38835
 20
63.094072
 30
0.0
 11
166.921252
 21
66.792772
 31
0.0
  0
LINE
  5
26E
  8
LAYER_1
 10
166.921252
 20
66.792772
 30
0.0
 11
167.241065
 21
71.51675899999999
 31
0.0
  0
LINE
  5
26F
  8
LAYER_1
 10
167.241065
 20
71.51675899999999
 30
0.0
 11
167.297807
 21
74.938917
 31
0.0
  0
LINE
  5
270
  8
LAYER_1
 10
167.297807
 20
74.938917
 30
0.0
 11
167.160753
 21
76.156319
 31
0.0
  0
LINE
  5
271
  8
LAYER_1
 10
167.160753
 20
76.156319
 30
0.0
 11
166.844125
 21
77.210392
 31
0.0
  0
LINE
  5
272
  8
LAYER_1
 10
166.844125
 20
77.210392
 30
0.0
 11
166.295955
 21
78.225477
 31
0.0
  0
LINE
  5
273
  8
LAYER_1
 10
166.295955
 20
78.225477
 30
0.0
 11
165.464276
 21
79.325915
 31
0.0
  0
LINE
  5
274
  8
LAYER_1
 10
165.464276
 20
79.325915
 30
0.0
 11
162.742513
 21
82.28021800000001
 31
0.0
  0
LINE
  5
275
  8
LAYER_1
 10
162.742513
 20
82.28021800000001
 30
0.0
 11
159.628688
 21
85.664958
 31
0.0
  0
LINE
  5
276
  8
LAYER_1
 10
159.628688
 20
85.664958
 30
0.0
 11
158.619305
 21
86.957103
 31
0.0
  0
LINE
  5
277
  8
LAYER_1
 10
158.619305
 20
86.957103
 30
0.0
 11
157.888119
 21
88.150103
 31
0.0
  0
LINE
  5
278
  8
LAYER_1
 10
157.888119
 20
88.150103
 30
0.0
 11
157.370013
 21
89.36971
 31
0.0
  0
LINE
  5
279
  8
LAYER_1
 10
157.370013
 20
89.36971
 30
0.0
 11
156.999869
 21
90.741676
 31
0.0
  0
LINE
  5
27A
  8
LAYER_1
 10
156.999869
 20
90.741676
 30
0.0
 11
156.443
 21
94.445701
 31
0.0
  0
LINE
  5
27B
  8
LAYER_1
 10
156.443
 20
94.445701
 30
0.0
 11
155.738916
 21
99.09314999999999
 31
0.0
  0
LINE
  5
27C
  8
LAYER_1
 10
155.738916
 20
99.09314999999999
 30
0.0
 11
154.650745
 21
102.627292
 31
0.0
  0
LINE
  5
27D
  8
LAYER_1
 10
154.650745
 20
102.627292
 30
0.0
 11
153.991128
 21
104.59331
 31
0.0
  0
LINE
  5
27E
  8
LAYER_1
 10
153.991128
 20
104.59331
 30
0.0
 11
153.534025
 21
106.435006
 31
0.0
  0
LINE
  5
27F
  8
LAYER_1
 10
153.534025
 20
106.435006
 30
0.0
 11
152.926596
 21
111.249511
 31
0.0
  0
LINE
  5
280
  8
LAYER_1
 10
152.926596
 20
111.249511
 30
0.0
 11
152.620642
 21
114.278396
 31
0.0
  0
LINE
  5
281
  8
LAYER_1
 10
152.620642
 20
114.278396
 30
0.0
 11
152.268307
 21
116.533262
 31
0.0
  0
LINE
  5
282
  8
LAYER_1
 10
152.268307
 20
116.533262
 30
0.0
 11
151.783202
 21
118.443817
 31
0.0
  0
LINE
  5
283
  8
LAYER_1
 10
151.783202
 20
118.443817
 30
0.0
 11
151.078935
 21
120.43977
 31
0.0
  0
LINE
  5
284
  8
LAYER_1
 10
151.078935
 20
120.43977
 30
0.0
 11
150.268293
 21
122.996453
 31
0.0
  0
LINE
  5
285
  8
LAYER_1
 10
150.268293
 20
122.996453
 30
0.0
 11
149.850311
 21
125.583098
 31
0.0
  0
LINE
  5
286
  8
LAYER_1
 10
149.850311
 20
125.583098
 30
0.0
 11
149.537661
 21
127.775703
 31
0.0
  0
LINE
  5
287
  8
LAYER_1
 10
149.537661
 20
127.775703
 30
0.0
 11
149.031665
 21
129.726163
 31
0.0
  0
LINE
  5
288
  8
LAYER_1
 10
149.031665
 20
129.726163
 30
0.0
 11
148.318787
 21
131.475566
 31
0.0
  0
LINE
  5
289
  8
LAYER_1
 10
148.318787
 20
131.475566
 30
0.0
 11
147.38549
 21
133.065001
 31
0.0
  0
LINE
  5
28A
  8
LAYER_1
 10
147.38549
 20
133.065001
 30
0.0
 11
146.55501
 21
134.131387
 31
0.0
  0
LINE
  5
28B
  8
LAYER_1
 10
146.55501
 20
134.131387
 30
0.0
 11
145.672918
 21
134.940526
 31
0.0
  0
LINE
  5
28C
  8
LAYER_1
 10
145.672918
 20
134.940526
 30
0.0
 11
144.679808
 21
135.502174
 31
0.0
  0
LINE
  5
28D
  8
LAYER_1
 10
144.679808
 20
135.502174
 30
0.0
 11
143.516274
 21
135.826083
 31
0.0
  0
LINE
  5
28E
  8
LAYER_1
 10
143.516274
 20
135.826083
 30
0.0
 11
142.12291
 21
135.922008
 31
0.0
  0
LINE
  5
28F
  8
LAYER_1
 10
142.12291
 20
135.922008
 30
0.0
 11
140.440309
 21
135.799703
 31
0.0
  0
LINE
  5
290
  8
LAYER_1
 10
140.440309
 20
135.799703
 30
0.0
 11
135.969776
 21
134.939422
 31
0.0
  0
LINE
  5
291
  8
LAYER_1
 10
135.969776
 20
134.939422
 30
0.0
 11
132.555533
 21
134.249992
 31
0.0
  0
LINE
  5
292
  8
LAYER_1
 10
132.555533
 20
134.249992
 30
0.0
 11
129.032761
 21
133.780483
 31
0.0
  0
LINE
  5
293
  8
LAYER_1
 10
129.032761
 20
133.780483
 30
0.0
 11
125.176566
 21
133.508291
 31
0.0
  0
LINE
  5
294
  8
LAYER_1
 10
125.176566
 20
133.508291
 30
0.0
 11
120.762059
 21
133.410808
 31
0.0
  0
LINE
  5
295
  8
LAYER_1
 10
120.762059
 20
133.410808
 30
0.0
 11
117.711045
 21
133.350987
 31
0.0
  0
LINE
  5
296
  8
LAYER_1
 10
117.711045
 20
133.350987
 30
0.0
 11
115.715758
 21
133.047697
 31
0.0
  0
LINE
  5
297
  8
LAYER_1
 10
115.715758
 20
133.047697
 30
0.0
 11
113.987542
 21
132.272512
 31
0.0
  0
LINE
  5
298
  8
LAYER_1
 10
113.987542
 20
132.272512
 30
0.0
 11
111.737744
 21
130.797006
 31
0.0
  0
LINE
  5
299
  8
LAYER_1
 10
111.737744
 20
130.797006
 30
0.0
 11
102.840948
 21
124.817649
 31
0.0
  0
LINE
  5
29A
  8
LAYER_1
 10
102.840948
 20
124.817649
 30
0.0
 11
98.37277400000001
 21
121.697182
 31
0.0
  0
LINE
  5
29B
  8
LAYER_1
 10
98.37277400000001
 20
121.697182
 30
0.0
 11
95.83986400000001
 21
119.611109
 31
0.0
  0
LINE
  5
29C
  8
LAYER_1
 10
95.83986400000001
 20
119.611109
 30
0.0
 11
94.823894
 21
118.376885
 31
0.0
  0
LINE
  5
29D
  8
LAYER_1
 10
94.823894
 20
118.376885
 30
0.0
 11
94.055443
 21
117.141373
 31
0.0
  0
LINE
  5
29E
  8
LAYER_1
 10
94.055443
 20
117.141373
 30
0.0
 11
93.567356
 21
115.967552
 31
0.0
  0
LINE
  5
29F
  8
LAYER_1
 10
93.567356
 20
115.967552
 30
0.0
 11
93.392478
 21
114.9184
 31
0.0
  0
LINE
  5
2A0
  8
LAYER_1
 10
93.392478
 20
114.9184
 30
0.0
 11
93.251727
 21
114.091459
 31
0.0
  0
LINE
  5
2A1
  8
LAYER_1
 10
93.251727
 20
114.091459
 30
0.0
 11
92.87114699999999
 21
113.048072
 31
0.0
  0
LINE
  5
2A2
  8
LAYER_1
 10
92.87114699999999
 20
113.048072
 30
0.0
 11
91.57743499999999
 21
110.614155
 31
0.0
  0
LINE
  5
2A3
  8
LAYER_1
 10
91.57743499999999
 20
110.614155
 30
0.0
 11
89.88521
 21
108.22104
 31
0.0
  0
LINE
  5
2A4
  8
LAYER_1
 10
89.88521
 20
108.22104
 30
0.0
 11
88.168339
 21
106.473114
 31
0.0
  0
LINE
  5
2A5
  8
LAYER_1
 10
88.168339
 20
106.473114
 30
0.0
 11
87.46863999999999
 21
105.860744
 31
0.0
  0
LINE
  5
2A6
  8
LAYER_1
 10
87.46863999999999
 20
105.860744
 30
0.0
 11
87.177615
 21
105.449593
 31
0.0
  0
LINE
  5
2A7
  8
LAYER_1
 10
87.177615
 20
105.449593
 30
0.0
 11
87.384355
 21
105.25001
 31
0.0
  0
LINE
  5
2A8
  8
LAYER_1
 10
87.384355
 20
105.25001
 30
0.0
 11
87.94762400000001
 21
105.179047
 31
0.0
  0
LINE
  5
2A9
  8
LAYER_1
 10
87.94762400000001
 20
105.179047
 30
0.0
 11
89.802038
 21
105.364113
 31
0.0
  0
LINE
  5
2AA
  8
LAYER_1
 10
89.802038
 20
105.364113
 30
0.0
 11
92.057433
 21
105.887056
 31
0.0
  0
LINE
  5
2AB
  8
LAYER_1
 10
92.057433
 20
105.887056
 30
0.0
 11
94.030388
 21
106.63014
 31
0.0
  0
LINE
  5
2AC
  8
LAYER_1
 10
94.030388
 20
106.63014
 30
0.0
 11
95.575895
 21
107.736359
 31
0.0
  0
LINE
  5
2AD
  8
LAYER_1
 10
95.575895
 20
107.736359
 30
0.0
 11
97.619837
 21
109.547615
 31
0.0
  0
LINE
  5
2AE
  8
LAYER_1
 10
97.619837
 20
109.547615
 30
0.0
 11
99.49796000000001
 21
111.307912
 31
0.0
  0
LINE
  5
2AF
  8
LAYER_1
 10
99.49796000000001
 20
111.307912
 30
0.0
 11
100.968036
 21
112.449479
 31
0.0
  0
LINE
  5
2B0
  8
LAYER_1
 10
100.968036
 20
112.449479
 30
0.0
 11
102.633734
 21
113.369123
 31
0.0
  0
LINE
  5
2B1
  8
LAYER_1
 10
102.633734
 20
113.369123
 30
0.0
 11
105.098726
 21
114.463649
 31
0.0
  0
LINE
  5
2B2
  8
LAYER_1
 10
105.098726
 20
114.463649
 30
0.0
 11
111.307615
 21
117.489704
 31
0.0
  0
LINE
  5
2B3
  8
LAYER_1
 10
111.307615
 20
117.489704
 30
0.0
 11
114.129837
 21
119.064004
 31
0.0
  0
LINE
  5
2B4
  8
LAYER_1
 10
114.129837
 20
119.064004
 30
0.0
 11
118.36317
 21
118.261201
 31
0.0
  0
LINE
  5
2B5
  8
LAYER_1
 10
118.36317
 20
118.261201
 30
0.0
 11
121.97174
 21
117.677039
 31
0.0
  0
LINE
  5
2B6
  8
LAYER_1
 10
121.97174
 20
117.677039
 30
0.0
 11
124.774322
 21
117.486674
 31
0.0
  0
LINE
  5
2B7
  8
LAYER_1
 10
124.774322
 20
117.486674
 30
0.0
 11
127.087717
 21
117.690969
 31
0.0
  0
LINE
  5
2B8
  8
LAYER_1
 10
127.087717
 20
117.690969
 30
0.0
 11
129.228726
 21
118.290786
 31
0.0
  0
LINE
  5
2B9
  8
LAYER_1
 10
129.228726
 20
118.290786
 30
0.0
 11
132.050948
 21
119.223725
 31
0.0
  0
LINE
  5
2BA
  8
LAYER_1
 10
132.050948
 20
119.223725
 30
0.0
 11
132.597246
 21
119.278714
 31
0.0
  0
LINE
  5
2BB
  8
LAYER_1
 10
132.597246
 20
119.278714
 30
0.0
 11
132.229789
 21
118.781517
 31
0.0
  0
LINE
  5
2BC
  8
LAYER_1
 10
132.229789
 20
118.781517
 30
0.0
 11
131.390669
 21
118.207157
 31
0.0
  0
LINE
  5
2BD
  8
LAYER_1
 10
131.390669
 20
118.207157
 30
0.0
 11
129.979754
 21
117.555733
 31
0.0
  0
LINE
  5
2BE
  8
LAYER_1
 10
129.979754
 20
117.555733
 30
0.0
 11
128.361508
 21
116.975442
 31
0.0
  0
LINE
  5
2BF
  8
LAYER_1
 10
128.361508
 20
116.975442
 30
0.0
 11
126.900392
 21
116.614482
 31
0.0
  0
LINE
  5
2C0
  8
LAYER_1
 10
126.900392
 20
116.614482
 30
0.0
 11
126.175304
 21
116.406335
 31
0.0
  0
LINE
  5
2C1
  8
LAYER_1
 10
126.175304
 20
116.406335
 30
0.0
 11
125.876037
 21
116.022597
 31
0.0
  0
LINE
  5
2C2
  8
LAYER_1
 10
125.876037
 20
116.022597
 30
0.0
 11
125.985712
 21
115.371109
 31
0.0
  0
LINE
  5
2C3
  8
LAYER_1
 10
125.985712
 20
115.371109
 30
0.0
 11
126.487453
 21
114.359707
 31
0.0
  0
LINE
  5
2C4
  8
LAYER_1
 10
126.487453
 20
114.359707
 30
0.0
 11
127.030311
 21
113.582545
 31
0.0
  0
LINE
  5
2C5
  8
LAYER_1
 10
127.030311
 20
113.582545
 30
0.0
 11
127.696883
 21
112.942596
 31
0.0
  0
LINE
  5
2C6
  8
LAYER_1
 10
127.696883
 20
112.942596
 30
0.0
 11
128.479981
 21
112.442048
 31
0.0
  0
LINE
  5
2C7
  8
LAYER_1
 10
128.479981
 20
112.442048
 30
0.0
 11
129.372416
 21
112.083086
 31
0.0
  0
LINE
  5
2C8
  8
LAYER_1
 10
129.372416
 20
112.083086
 30
0.0
 11
130.367002
 21
111.867898
 31
0.0
  0
LINE
  5
2C9
  8
LAYER_1
 10
130.367002
 20
111.867898
 30
0.0
 11
131.456547
 21
111.798673
 31
0.0
  0
LINE
  5
2CA
  8
LAYER_1
 10
131.456547
 20
111.798673
 30
0.0
 11
133.891768
 21
112.106854
 31
0.0
  0
LINE
  5
2CB
  8
LAYER_1
 10
133.891768
 20
112.106854
 30
0.0
 11
136.163747
 21
112.451896
 31
0.0
  0
LINE
  5
2CC
  8
LAYER_1
 10
136.163747
 20
112.451896
 30
0.0
 11
135.64458
 21
111.952007
 31
0.0
  0
LINE
  5
2CD
  8
LAYER_1
 10
135.64458
 20
111.952007
 30
0.0
 11
134.180413
 21
110.9661
 31
0.0
  0
LINE
  5
2CE
  8
LAYER_1
 10
134.180413
 20
110.9661
 30
0.0
 11
132.522989
 21
109.800855
 31
0.0
  0
LINE
  5
2CF
  8
LAYER_1
 10
132.522989
 20
109.800855
 30
0.0
 11
131.112817
 21
108.525981
 31
0.0
  0
LINE
  5
2D0
  8
LAYER_1
 10
131.112817
 20
108.525981
 30
0.0
 11
129.952473
 21
107.144139
 31
0.0
  0
LINE
  5
2D1
  8
LAYER_1
 10
129.952473
 20
107.144139
 30
0.0
 11
129.044531
 21
105.657991
 31
0.0
  0
LINE
  5
2D2
  8
LAYER_1
 10
129.044531
 20
105.657991
 30
0.0
 11
128.094843
 21
103.586937
 31
0.0
  0
LINE
  5
2D3
  8
LAYER_1
 10
128.094843
 20
103.586937
 30
0.0
 11
127.972347
 21
103.087135
 31
0.0
  0
LINE
  5
2D4
  8
LAYER_1
 10
127.972347
 20
103.087135
 30
0.0
 11
128.077488
 21
102.923955
 31
0.0
  0
LINE
  5
2D5
  8
LAYER_1
 10
128.077488
 20
102.923955
 30
0.0
 11
131.245503
 21
105.215992
 31
0.0
  0
LINE
  5
2D6
  8
LAYER_1
 10
131.245503
 20
105.215992
 30
0.0
 11
136.027537
 21
108.824453
 31
0.0
  0
LINE
  5
2D7
  8
LAYER_1
 10
136.027537
 20
108.824453
 30
0.0
 11
137.344297
 21
109.684168
 31
0.0
  0
LINE
  5
2D8
  8
LAYER_1
 10
137.344297
 20
109.684168
 30
0.0
 11
137.891915
 21
109.877061
 31
0.0
  0
LINE
  5
2D9
  8
LAYER_1
 10
137.891915
 20
109.877061
 30
0.0
 11
137.100917
 21
108.815768
 31
0.0
  0
LINE
  5
2DA
  8
LAYER_1
 10
137.100917
 20
108.815768
 30
0.0
 11
134.959677
 21
106.503628
 31
0.0
  0
LINE
  5
2DB
  8
LAYER_1
 10
134.959677
 20
106.503628
 30
0.0
 11
132.309551
 21
103.51103
 31
0.0
  0
LINE
  5
2DC
  8
LAYER_1
 10
132.309551
 20
103.51103
 30
0.0
 11
131.603368
 21
102.477972
 31
0.0
  0
LINE
  5
2DD
  8
LAYER_1
 10
131.603368
 20
102.477972
 30
0.0
 11
131.31254
 21
101.771804
 31
0.0
  0
LINE
  5
2DE
  8
LAYER_1
 10
131.31254
 20
101.771804
 30
0.0
 11
131.439141
 21
101.406072
 31
0.0
  0
LINE
  5
2DF
  8
LAYER_1
 10
131.439141
 20
101.406072
 30
0.0
 11
131.985247
 21
101.394322
 31
0.0
  0
LINE
  5
2E0
  8
LAYER_1
 10
131.985247
 20
101.394322
 30
0.0
 11
132.952934
 21
101.750102
 31
0.0
  0
LINE
  5
2E1
  8
LAYER_1
 10
132.952934
 20
101.750102
 30
0.0
 11
134.344277
 21
102.486957
 31
0.0
  0
LINE
  5
2E2
  8
LAYER_1
 10
134.344277
 20
102.486957
 30
0.0
 11
136.744747
 21
103.686452
 31
0.0
  0
LINE
  5
2E3
  8
LAYER_1
 10
136.744747
 20
103.686452
 30
0.0
 11
135.134488
 21
101.487822
 31
0.0
  0
LINE
  5
2E4
  8
LAYER_1
 10
135.134488
 20
101.487822
 30
0.0
 11
133.621615
 21
99.514291
 31
0.0
  0
LINE
  5
2E5
  8
LAYER_1
 10
133.621615
 20
99.514291
 30
0.0
 11
132.978957
 21
98.213622
 31
0.0
  0
LINE
  5
2E6
  8
LAYER_1
 10
132.978957
 20
98.213622
 30
0.0
 11
132.978102
 21
97.788399
 31
0.0
  0
LINE
  5
2E7
  8
LAYER_1
 10
132.978102
 20
97.788399
 30
0.0
 11
133.187772
 21
97.498738
 31
0.0
  0
LINE
  5
2E8
  8
LAYER_1
 10
133.187772
 20
97.498738
 30
0.0
 11
133.605623
 21
97.333755
 31
0.0
  0
LINE
  5
2E9
  8
LAYER_1
 10
133.605623
 20
97.333755
 30
0.0
 11
134.229314
 21
97.28256399999999
 31
0.0
  0
LINE
  5
2EA
  8
LAYER_1
 10
134.229314
 20
97.28256399999999
 30
0.0
 11
136.681913
 21
97.70589800000001
 31
0.0
  0
LINE
  5
2EB
  8
LAYER_1
 10
136.681913
 20
97.70589800000001
 30
0.0
 11
138.35168
 21
98.127729
 31
0.0
  0
LINE
  5
2EC
  8
LAYER_1
 10
138.35168
 20
98.127729
 30
0.0
 11
138.730868
 21
98.151584
 31
0.0
  0
LINE
  5
2ED
  8
LAYER_1
 10
138.730868
 20
98.151584
 30
0.0
 11
138.813406
 21
98.06598099999999
 31
0.0
  0
LINE
  5
2EE
  8
LAYER_1
 10
138.813406
 20
98.06598099999999
 30
0.0
 11
138.109978
 21
97.612139
 31
0.0
  0
LINE
  5
2EF
  8
LAYER_1
 10
138.109978
 20
97.612139
 30
0.0
 11
136.284281
 21
96.857685
 31
0.0
  0
LINE
  5
2F0
  8
LAYER_1
 10
136.284281
 20
96.857685
 30
0.0
 11
129.593461
 21
94.125759
 31
0.0
  0
LINE
  5
2F1
  8
LAYER_1
 10
129.593461
 20
94.125759
 30
0.0
 11
125.882763
 21
92.668549
 31
0.0
  0
LINE
  5
2F2
  8
LAYER_1
 10
125.882763
 20
92.668549
 30
0.0
 11
123.384572
 21
91.90607300000001
 31
0.0
  0
LINE
  5
2F3
  8
LAYER_1
 10
123.384572
 20
91.90607300000001
 30
0.0
 11
121.027951
 21
91.717161
 31
0.0
  0
LINE
  5
2F4
  8
LAYER_1
 10
121.027951
 20
91.717161
 30
0.0
 11
117.657615
 21
91.638938
 31
0.0
  0
LINE
  5
2F5
  8
LAYER_1
 10
117.657615
 20
91.638938
 30
0.0
 11
113.706437
 21
91.780659
 31
0.0
  0
LINE
  5
2F6
  8
LAYER_1
 10
113.706437
 20
91.780659
 30
0.0
 11
110.178726
 21
92.34605999999999
 31
0.0
  0
LINE
  5
2F7
  8
LAYER_1
 10
110.178726
 20
92.34605999999999
 30
0.0
 11
106.569877
 21
92.990267
 31
0.0
  0
LINE
  5
2F8
  8
LAYER_1
 10
106.569877
 20
92.990267
 30
0.0
 11
103.198211
 21
93.361938
 31
0.0
  0
LINE
  5
2F9
  8
LAYER_1
 10
103.198211
 20
93.361938
 30
0.0
 11
100.000691
 21
93.465637
 31
0.0
  0
LINE
  5
2FA
  8
LAYER_1
 10
100.000691
 20
93.465637
 30
0.0
 11
96.914281
 21
93.30592400000001
 31
0.0
  0
LINE
  5
2FB
  8
LAYER_1
 10
96.914281
 20
93.30592400000001
 30
0.0
 11
93.443668
 21
92.90773299999999
 31
0.0
  0
LINE
  5
2FC
  8
LAYER_1
 10
93.443668
 20
92.90773299999999
 30
0.0
 11
95.370475
 21
92.377161
 31
0.0
  0
LINE
  5
2FD
  8
LAYER_1
 10
95.370475
 20
92.377161
 30
0.0
 11
98.15761500000001
 21
91.5484
 31
0.0
  0
LINE
  5
2FE
  8
LAYER_1
 10
98.15761500000001
 20
91.5484
 30
0.0
 11
99.06028499999999
 21
91.02556800000001
 31
0.0
  0
LINE
  5
2FF
  8
LAYER_1
 10
99.06028499999999
 20
91.02556800000001
 30
0.0
 11
99.68315200000001
 21
90.35767
 31
0.0
  0
LINE
  5
300
  8
LAYER_1
 10
99.68315200000001
 20
90.35767
 30
0.0
 11
100.061812
 21
89.490133
 31
0.0
  0
LINE
  5
301
  8
LAYER_1
 10
100.061812
 20
89.490133
 30
0.0
 11
100.231862
 21
88.36838400000001
 31
0.0
  0
LINE
  5
302
  8
LAYER_1
 10
100.231862
 20
88.36838400000001
 30
0.0
 11
100.088519
 21
85.14395500000001
 31
0.0
  0
LINE
  5
303
  8
LAYER_1
 10
100.088519
 20
85.14395500000001
 30
0.0
 11
100.091519
 21
84.759044
 31
0.0
  0
LINE
  5
304
  8
LAYER_1
 10
100.091519
 20
84.759044
 30
0.0
 11
100.248981
 21
84.511673
 31
0.0
  0
LINE
  5
305
  8
LAYER_1
 10
100.248981
 20
84.511673
 30
0.0
 11
101.354887
 21
84.18025400000001
 31
0.0
  0
LINE
  5
306
  8
LAYER_1
 10
101.354887
 20
84.18025400000001
 30
0.0
 11
103.488588
 21
84.081598
 31
0.0
  0
LINE
  5
307
  8
LAYER_1
 10
103.488588
 20
84.081598
 30
0.0
 11
107.179223
 21
84.29428900000001
 31
0.0
  0
LINE
  5
308
  8
LAYER_1
 10
107.179223
 20
84.29428900000001
 30
0.0
 11
110.444536
 21
84.490352
 31
0.0
  0
LINE
  5
309
  8
LAYER_1
 10
110.444536
 20
84.490352
 30
0.0
 11
113.115966
 21
84.487522
 31
0.0
  0
LINE
  5
30A
  8
LAYER_1
 10
113.115966
 20
84.487522
 30
0.0
 11
115.196109
 21
84.28568900000001
 31
0.0
  0
LINE
  5
30B
  8
LAYER_1
 10
115.196109
 20
84.28568900000001
 30
0.0
 11
116.68756
 21
83.884739
 31
0.0
  0
LINE
  5
30C
  8
LAYER_1
 10
116.68756
 20
83.884739
 30
0.0
 11
117.180334
 21
83.60801100000001
 31
0.0
  0
LINE
  5
30D
  8
LAYER_1
 10
117.180334
 20
83.60801100000001
 30
0.0
 11
117.496162
 21
83.269232
 31
0.0
  0
LINE
  5
30E
  8
LAYER_1
 10
117.496162
 20
83.269232
 30
0.0
 11
117.637019
 21
82.87610599999999
 31
0.0
  0
LINE
  5
30F
  8
LAYER_1
 10
117.637019
 20
82.87610599999999
 30
0.0
 11
117.604879
 21
82.436337
 31
0.0
  0
LINE
  5
310
  8
LAYER_1
 10
117.604879
 20
82.436337
 30
0.0
 11
117.029499
 21
81.447683
 31
0.0
  0
LINE
  5
311
  8
LAYER_1
 10
117.029499
 20
81.447683
 30
0.0
 11
115.785813
 21
80.364897
 31
0.0
  0
LINE
  5
312
  8
LAYER_1
 10
115.785813
 20
80.364897
 30
0.0
 11
113.496804
 21
78.611357
 31
0.0
  0
LINE
  5
313
  8
LAYER_1
 10
113.496804
 20
78.611357
 30
0.0
 11
112.581549
 21
77.826876
 31
0.0
  0
LINE
  5
314
  8
LAYER_1
 10
112.581549
 20
77.826876
 30
0.0
 11
114.061248
 21
77.375687
 31
0.0
  0
LINE
  5
315
  8
LAYER_1
 10
114.061248
 20
77.375687
 30
0.0
 11
117.127092
 21
76.944672
 31
0.0
  0
LINE
  5
316
  8
LAYER_1
 10
117.127092
 20
76.944672
 30
0.0
 11
123.811386
 21
76.55967800000001
 31
0.0
  0
LINE
  5
317
  8
LAYER_1
 10
123.811386
 20
76.55967800000001
 30
0.0
 11
129.729482
 21
76.224924
 31
0.0
  0
LINE
  5
318
  8
LAYER_1
 10
129.729482
 20
76.224924
 30
0.0
 11
132.344287
 21
75.932394
 31
0.0
  0
LINE
  5
319
  8
LAYER_1
 10
132.344287
 20
75.932394
 30
0.0
 11
132.186911
 21
75.341208
 31
0.0
  0
LINE
  5
31A
  8
LAYER_1
 10
132.186911
 20
75.341208
 30
0.0
 11
131.307448
 21
74.18464
 31
0.0
  0
LINE
  5
31B
  8
LAYER_1
 10
131.307448
 20
74.18464
 30
0.0
 11
130.112327
 21
72.613828
 31
0.0
  0
LINE
  5
31C
  8
LAYER_1
 10
130.112327
 20
72.613828
 30
0.0
 11
131.983257
 21
71.598618
 31
0.0
  0
LINE
  5
31D
  8
LAYER_1
 10
131.983257
 20
71.598618
 30
0.0
 11
134.341218
 21
70.091601
 31
0.0
  0
LINE
  5
31E
  8
LAYER_1
 10
134.341218
 20
70.091601
 30
0.0
 11
134.930673
 21
69.485589
 31
0.0
  0
LINE
  5
31F
  8
LAYER_1
 10
134.930673
 20
69.485589
 30
0.0
 11
135.020267
 21
69.066974
 31
0.0
  0
LINE
  5
320
  8
LAYER_1
 10
135.020267
 20
69.066974
 30
0.0
 11
134.618099
 21
68.82292
 31
0.0
  0
LINE
  5
321
  8
LAYER_1
 10
134.618099
 20
68.82292
 30
0.0
 11
133.885548
 21
68.615365
 31
0.0
  0
LINE
  5
322
  8
LAYER_1
 10
133.885548
 20
68.615365
 30
0.0
 11
133.078969
 21
68.38322599999999
 31
0.0
  0
LINE
  5
323
  8
LAYER_1
 10
133.078969
 20
68.38322599999999
 30
0.0
 11
132.606978
 21
68.047275
 31
0.0
  0
LINE
  5
324
  8
LAYER_1
 10
132.606978
 20
68.047275
 30
0.0
 11
132.462754
 21
67.598832
 31
0.0
  0
LINE
  5
325
  8
LAYER_1
 10
132.462754
 20
67.598832
 30
0.0
 11
132.639477
 21
67.029217
 31
0.0
  0
LINE
  5
326
  8
LAYER_1
 10
132.639477
 20
67.029217
 30
0.0
 11
133.901446
 21
65.326981
 31
0.0
  0
LINE
  5
327
  8
LAYER_1
 10
133.901446
 20
65.326981
 30
0.0
 11
135.85741
 21
63.407455
 31
0.0
  0
LINE
  5
328
  8
LAYER_1
 10
135.85741
 20
63.407455
 30
0.0
 11
138.103386
 21
61.626418
 31
0.0
  0
LINE
  5
329
  8
LAYER_1
 10
138.103386
 20
61.626418
 30
0.0
 11
140.235392
 21
60.339647
 31
0.0
  0
LINE
  5
32A
  8
LAYER_1
 10
140.235392
 20
60.339647
 30
0.0
 11
141.147141
 21
59.950542
 31
0.0
  0
LINE
  5
32B
  8
LAYER_1
 10
141.147141
 20
59.950542
 30
0.0
 11
142.001245
 21
59.732283
 31
0.0
  0
LINE
  5
32C
  8
LAYER_1
 10
142.001245
 20
59.732283
 30
0.0
 11
144.609837
 21
59.635534
 31
0.0
  0
LINE
  5
32D
  8
LAYER_1
 10
144.609837
 20
59.635534
 30
0.0
 11
147.501584
 21
59.836532
 31
0.0
  0
LINE
  5
32E
  8
LAYER_1
 10
147.501584
 20
59.836532
 30
0.0
 11
150.543788
 21
60.401767
 31
0.0
  0
LINE
  5
32F
  8
LAYER_1
 10
150.543788
 20
60.401767
 30
0.0
 11
152.946564
 21
60.869109
 31
0.0
  0
LINE
  5
330
  8
LAYER_1
 10
152.946564
 20
60.869109
 30
0.0
 11
154.353788
 21
60.96263
 31
0.0
  0
LINE
  5
331
  8
LAYER_1
 10
154.353788
 20
60.96263
 30
0.0
 11
157.450948
 21
59.800253
 31
0.0
  0
LINE
  5
332
  8
LAYER_1
 10
157.450948
 20
59.800253
 30
0.0
 11
160.147625
 21
58.80043
 31
0.0
  0
LINE
  5
333
  8
LAYER_1
 10
160.147625
 20
58.80043
 30
0.0
 11
162.141791
 21
58.35253
 31
0.0
  0
LINE
  5
334
  8
LAYER_1
 10
162.141791
 20
58.35253
 30
0.0
 11
163.611929
 21
58.437873
 31
0.0
  0
LINE
  5
335
  8
LAYER_1
 10
163.611929
 20
58.437873
 30
0.0
 11
164.73652
 21
59.037779
 31
0.0
  0
LINE
  5
336
  8
LAYER_1
 10
164.73652
 20
59.037779
 30
0.0
 11
164.73652
 21
59.037779
 31
0.0
  0
LINE
  5
337
  8
LAYER_1
 10
107.031971
 20
62.01014
 30
0.0
 11
108.851188
 21
62.855248
 31
0.0
  0
LINE
  5
338
  8
LAYER_1
 10
108.851188
 20
62.855248
 30
0.0
 11
109.381277
 21
63.25267
 31
0.0
  0
LINE
  5
339
  8
LAYER_1
 10
109.381277
 20
63.25267
 30
0.0
 11
109.65561
 21
63.626558
 31
0.0
  0
LINE
  5
33A
  8
LAYER_1
 10
109.65561
 20
63.626558
 30
0.0
 11
109.672133
 21
63.971828
 31
0.0
  0
LINE
  5
33B
  8
LAYER_1
 10
109.672133
 20
63.971828
 30
0.0
 11
109.428787
 21
64.283394
 31
0.0
  0
LINE
  5
33C
  8
LAYER_1
 10
109.428787
 20
64.283394
 30
0.0
 11
108.154267
 21
64.785079
 31
0.0
  0
LINE
  5
33D
  8
LAYER_1
 10
108.154267
 20
64.785079
 30
0.0
 11
105.960918
 21
65.112225
 31
0.0
  0
LINE
  5
33E
  8
LAYER_1
 10
105.960918
 20
65.112225
 30
0.0
 11
103.647631
 21
65.201413
 31
0.0
  0
LINE
  5
33F
  8
LAYER_1
 10
103.647631
 20
65.201413
 30
0.0
 11
101.706917
 21
65.05882699999999
 31
0.0
  0
LINE
  5
340
  8
LAYER_1
 10
101.706917
 20
65.05882699999999
 30
0.0
 11
100.631289
 21
64.690648
 31
0.0
  0
LINE
  5
341
  8
LAYER_1
 10
100.631289
 20
64.690648
 30
0.0
 11
100.420545
 21
64.216657
 31
0.0
  0
LINE
  5
342
  8
LAYER_1
 10
100.420545
 20
64.216657
 30
0.0
 11
100.396421
 21
63.51203
 31
0.0
  0
LINE
  5
343
  8
LAYER_1
 10
100.396421
 20
63.51203
 30
0.0
 11
100.54617
 21
62.72786
 31
0.0
  0
LINE
  5
344
  8
LAYER_1
 10
100.54617
 20
62.72786
 30
0.0
 11
100.857042
 21
62.015243
 31
0.0
  0
LINE
  5
345
  8
LAYER_1
 10
100.857042
 20
62.015243
 30
0.0
 11
101.190934
 21
61.68486
 31
0.0
  0
LINE
  5
346
  8
LAYER_1
 10
101.190934
 20
61.68486
 30
0.0
 11
101.707026
 21
61.448643
 31
0.0
  0
LINE
  5
347
  8
LAYER_1
 10
101.707026
 20
61.448643
 30
0.0
 11
103.171679
 21
61.258801
 31
0.0
  0
LINE
  5
348
  8
LAYER_1
 10
103.171679
 20
61.258801
 30
0.0
 11
105.022746
 21
61.445904
 31
0.0
  0
LINE
  5
349
  8
LAYER_1
 10
105.022746
 20
61.445904
 30
0.0
 11
107.031971
 21
62.01014
 31
0.0
  0
LINE
  5
34A
  8
LAYER_1
 10
107.031971
 20
62.01014
 30
0.0
 11
107.031971
 21
62.01014
 31
0.0
  0
LINE
  5
34B
  8
LAYER_1
 10
65.527552
 20
65.243628
 30
0.0
 11
68.929627
 21
65.855361
 31
0.0
  0
LINE
  5
34C
  8
LAYER_1
 10
68.929627
 20
65.855361
 30
0.0
 11
72.095798
 21
66.635716
 31
0.0
  0
LINE
  5
34D
  8
LAYER_1
 10
72.095798
 20
66.635716
 30
0.0
 11
75.097306
 21
67.604902
 31
0.0
  0
LINE
  5
34E
  8
LAYER_1
 10
75.097306
 20
67.604902
 30
0.0
 11
78.005392
 21
68.78312699999999
 31
0.0
  0
LINE
  5
34F
  8
LAYER_1
 10
78.005392
 20
68.78312699999999
 30
0.0
 11
85.101303
 21
71.80406000000001
 31
0.0
  0
LINE
  5
350
  8
LAYER_1
 10
85.101303
 20
71.80406000000001
 30
0.0
 11
88.015832
 21
72.87916900000001
 31
0.0
  0
LINE
  5
351
  8
LAYER_1
 10
88.015832
 20
72.87916900000001
 30
0.0
 11
90.718227
 21
73.722977
 31
0.0
  0
LINE
  5
352
  8
LAYER_1
 10
90.718227
 20
73.722977
 30
0.0
 11
93.366101
 21
74.379689
 31
0.0
  0
LINE
  5
353
  8
LAYER_1
 10
93.366101
 20
74.379689
 30
0.0
 11
96.11706700000001
 21
74.893508
 31
0.0
  0
LINE
  5
354
  8
LAYER_1
 10
96.11706700000001
 20
74.893508
 30
0.0
 11
102.558726
 21
75.669281
 31
0.0
  0
LINE
  5
355
  8
LAYER_1
 10
102.558726
 20
75.669281
 30
0.0
 11
106.092605
 21
76.06466
 31
0.0
  0
LINE
  5
356
  8
LAYER_1
 10
106.092605
 20
76.06466
 30
0.0
 11
108.399177
 21
76.528375
 31
0.0
  0
LINE
  5
357
  8
LAYER_1
 10
108.399177
 20
76.528375
 30
0.0
 11
109.927565
 21
77.19251
 31
0.0
  0
LINE
  5
358
  8
LAYER_1
 10
109.927565
 20
77.19251
 30
0.0
 11
111.126894
 21
78.18915
 31
0.0
  0
LINE
  5
359
  8
LAYER_1
 10
111.126894
 20
78.18915
 30
0.0
 11
112.351747
 21
79.437185
 31
0.0
  0
LINE
  5
35A
  8
LAYER_1
 10
112.351747
 20
79.437185
 30
0.0
 11
110.093864
 21
79.539722
 31
0.0
  0
LINE
  5
35B
  8
LAYER_1
 10
110.093864
 20
79.539722
 30
0.0
 11
107.835985
 21
79.642256
 31
0.0
  0
LINE
  5
35C
  8
LAYER_1
 10
107.835985
 20
79.642256
 30
0.0
 11
106.173236
 21
81.228252
 31
0.0
  0
LINE
  5
35D
  8
LAYER_1
 10
106.173236
 20
81.228252
 30
0.0
 11
104.757866
 21
82.39167500000001
 31
0.0
  0
LINE
  5
35E
  8
LAYER_1
 10
104.757866
 20
82.39167500000001
 30
0.0
 11
103.244054
 21
83.06492900000001
 31
0.0
  0
LINE
  5
35F
  8
LAYER_1
 10
103.244054
 20
83.06492900000001
 30
0.0
 11
101.166638
 21
83.37543599999999
 31
0.0
  0
LINE
  5
360
  8
LAYER_1
 10
101.166638
 20
83.37543599999999
 30
0.0
 11
98.060456
 21
83.450622
 31
0.0
  0
LINE
  5
361
  8
LAYER_1
 10
98.060456
 20
83.450622
 30
0.0
 11
94.059856
 21
83.25739400000001
 31
0.0
  0
LINE
  5
362
  8
LAYER_1
 10
94.059856
 20
83.25739400000001
 30
0.0
 11
90.33851199999999
 21
82.569704
 31
0.0
  0
LINE
  5
363
  8
LAYER_1
 10
90.33851199999999
 20
82.569704
 30
0.0
 11
86.275764
 21
81.225543
 31
0.0
  0
LINE
  5
364
  8
LAYER_1
 10
86.275764
 20
81.225543
 30
0.0
 11
81.25094799999999
 21
79.06290199999999
 31
0.0
  0
LINE
  5
365
  8
LAYER_1
 10
81.25094799999999
 20
79.06290199999999
 30
0.0
 11
76.08226500000001
 21
76.87519399999999
 31
0.0
  0
LINE
  5
366
  8
LAYER_1
 10
76.08226500000001
 20
76.87519399999999
 30
0.0
 11
71.09459800000001
 21
75.195145
 31
0.0
  0
LINE
  5
367
  8
LAYER_1
 10
71.09459800000001
 20
75.195145
 30
0.0
 11
65.858161
 21
73.897584
 31
0.0
  0
LINE
  5
368
  8
LAYER_1
 10
65.858161
 20
73.897584
 30
0.0
 11
59.94317
 21
72.85734600000001
 31
0.0
  0
LINE
  5
369
  8
LAYER_1
 10
59.94317
 20
72.85734600000001
 30
0.0
 11
55.882244
 21
72.175726
 31
0.0
  0
LINE
  5
36A
  8
LAYER_1
 10
55.882244
 20
72.175726
 30
0.0
 11
53.252359
 21
71.59992699999999
 31
0.0
  0
LINE
  5
36B
  8
LAYER_1
 10
53.252359
 20
71.59992699999999
 30
0.0
 11
51.247211
 21
70.663352
 31
0.0
  0
LINE
  5
36C
  8
LAYER_1
 10
51.247211
 20
70.663352
 30
0.0
 11
48.331842
 21
69.03604900000001
 31
0.0
  0
LINE
  5
36D
  8
LAYER_1
 10
48.331842
 20
69.03604900000001
 30
0.0
 11
45.704156
 21
67.41912499999999
 31
0.0
  0
LINE
  5
36E
  8
LAYER_1
 10
45.704156
 20
67.41912499999999
 30
0.0
 11
44.562059
 21
66.51369
 31
0.0
  0
LINE
  5
36F
  8
LAYER_1
 10
44.562059
 20
66.51369
 30
0.0
 11
45.950681
 21
66.320306
 31
0.0
  0
LINE
  5
370
  8
LAYER_1
 10
45.950681
 20
66.320306
 30
0.0
 11
49.289281
 21
66.13701399999999
 31
0.0
  0
LINE
  5
371
  8
LAYER_1
 10
49.289281
 20
66.13701399999999
 30
0.0
 11
53.480283
 21
65.85746399999999
 31
0.0
  0
LINE
  5
372
  8
LAYER_1
 10
53.480283
 20
65.85746399999999
 30
0.0
 11
56.838726
 21
65.41730200000001
 31
0.0
  0
LINE
  5
373
  8
LAYER_1
 10
56.838726
 20
65.41730200000001
 30
0.0
 11
59.172307
 21
65.03180999999999
 31
0.0
  0
LINE
  5
374
  8
LAYER_1
 10
59.172307
 20
65.03180999999999
 30
0.0
 11
61.168511
 21
64.87896000000001
 31
0.0
  0
LINE
  5
375
  8
LAYER_1
 10
61.168511
 20
64.87896000000001
 30
0.0
 11
63.172028
 21
64.951863
 31
0.0
  0
LINE
  5
376
  8
LAYER_1
 10
63.172028
 20
64.951863
 30
0.0
 11
65.527552
 21
65.243628
 31
0.0
  0
LINE
  5
377
  8
LAYER_1
 10
65.527552
 20
65.243628
 30
0.0
 11
65.527552
 21
65.243628
 31
0.0
  0
LINE
  5
378
  8
LAYER_1
 10
63.470948
 20
79.38937900000001
 30
0.0
 11
68.692059
 21
79.573117
 31
0.0
  0
LINE
  5
379
  8
LAYER_1
 10
68.692059
 20
79.573117
 30
0.0
 11
73.630948
 21
84.407127
 31
0.0
  0
LINE
  5
37A
  8
LAYER_1
 10
73.630948
 20
84.407127
 30
0.0
 11
77.020098
 21
87.62917299999999
 31
0.0
  0
LINE
  5
37B
  8
LAYER_1
 10
77.020098
 20
87.62917299999999
 30
0.0
 11
79.65686700000001
 21
89.778402
 31
0.0
  0
LINE
  5
37C
  8
LAYER_1
 10
79.65686700000001
 20
89.778402
 30
0.0
 11
82.367481
 21
91.444292
 31
0.0
  0
LINE
  5
37D
  8
LAYER_1
 10
82.367481
 20
91.444292
 30
0.0
 11
85.97817000000001
 21
93.21632099999999
 31
0.0
  0
LINE
  5
37E
  8
LAYER_1
 10
85.97817000000001
 20
93.21632099999999
 30
0.0
 11
88.56988
 21
94.537233
 31
0.0
  0
LINE
  5
37F
  8
LAYER_1
 10
88.56988
 20
94.537233
 30
0.0
 11
89.21853
 21
94.98025800000001
 31
0.0
  0
LINE
  5
380
  8
LAYER_1
 10
89.21853
 20
94.98025800000001
 30
0.0
 11
89.434681
 21
95.277714
 31
0.0
  0
LINE
  5
381
  8
LAYER_1
 10
89.434681
 20
95.277714
 30
0.0
 11
88.767143
 21
98.196696
 31
0.0
  0
LINE
  5
382
  8
LAYER_1
 10
88.767143
 20
98.196696
 30
0.0
 11
87.771204
 21
101.5834
 31
0.0
  0
LINE
  5
383
  8
LAYER_1
 10
87.771204
 20
101.5834
 30
0.0
 11
87.423191
 21
102.152682
 31
0.0
  0
LINE
  5
384
  8
LAYER_1
 10
87.423191
 20
102.152682
 30
0.0
 11
86.840915
 21
102.301492
 31
0.0
  0
LINE
  5
385
  8
LAYER_1
 10
86.840915
 20
102.301492
 30
0.0
 11
85.827536
 21
102.012541
 31
0.0
  0
LINE
  5
386
  8
LAYER_1
 10
85.827536
 20
102.012541
 30
0.0
 11
84.186217
 21
101.268541
 31
0.0
  0
LINE
  5
387
  8
LAYER_1
 10
84.186217
 20
101.268541
 30
0.0
 11
81.149435
 21
99.665623
 31
0.0
  0
LINE
  5
388
  8
LAYER_1
 10
81.149435
 20
99.665623
 30
0.0
 11
78.109128
 21
97.75732499999999
 31
0.0
  0
LINE
  5
389
  8
LAYER_1
 10
78.109128
 20
97.75732499999999
 30
0.0
 11
74.794966
 21
95.360499
 31
0.0
  0
LINE
  5
38A
  8
LAYER_1
 10
74.794966
 20
95.360499
 30
0.0
 11
70.936618
 21
92.29199800000001
 31
0.0
  0
LINE
  5
38B
  8
LAYER_1
 10
70.936618
 20
92.29199800000001
 30
0.0
 11
61.777615
 21
84.930488
 31
0.0
  0
LINE
  5
38C
  8
LAYER_1
 10
61.777615
 20
84.930488
 30
0.0
 11
55.006962
 21
79.365077
 31
0.0
  0
LINE
  5
38D
  8
LAYER_1
 10
55.006962
 20
79.365077
 30
0.0
 11
54.813372
 21
79.08437000000001
 31
0.0
  0
LINE
  5
38E
  8
LAYER_1
 10
54.813372
 20
79.08437000000001
 30
0.0
 11
54.908591
 21
78.95289099999999
 31
0.0
  0
LINE
  5
38F
  8
LAYER_1
 10
54.908591
 20
78.95289099999999
 30
0.0
 11
56.418074
 21
79.030209
 31
0.0
  0
LINE
  5
390
  8
LAYER_1
 10
56.418074
 20
79.030209
 30
0.0
 11
63.470948
 21
79.38937900000001
 31
0.0
  0
LINE
  5
391
  8
LAYER_1
 10
63.470948
 20
79.38937900000001
 30
0.0
 11
63.470948
 21
79.38937900000001
 31
0.0
  0
LINE
  5
392
  8
LAYER_1
 10
77.410541
 20
80.461572
 30
0.0
 11
83.196097
 21
82.03042600000001
 31
0.0
  0
LINE
  5
393
  8
LAYER_1
 10
83.196097
 20
82.03042600000001
 30
0.0
 11
88.19703
 21
83.325025
 31
0.0
  0
LINE
  5
394
  8
LAYER_1
 10
88.19703
 20
83.325025
 30
0.0
 11
89.23800900000001
 21
83.53268300000001
 31
0.0
  0
LINE
  5
395
  8
LAYER_1
 10
89.23800900000001
 20
83.53268300000001
 30
0.0
 11
89.77475200000001
 21
83.802466
 31
0.0
  0
LINE
  5
396
  8
LAYER_1
 10
89.77475200000001
 20
83.802466
 30
0.0
 11
89.90709699999999
 21
84.239901
 31
0.0
  0
LINE
  5
397
  8
LAYER_1
 10
89.90709699999999
 20
84.239901
 30
0.0
 11
89.73488399999999
 21
84.95051700000001
 31
0.0
  0
LINE
  5
398
  8
LAYER_1
 10
89.73488399999999
 20
84.95051700000001
 30
0.0
 11
89.494112
 21
86.159516
 31
0.0
  0
LINE
  5
399
  8
LAYER_1
 10
89.494112
 20
86.159516
 30
0.0
 11
89.37984299999999
 21
87.658473
 31
0.0
  0
LINE
  5
39A
  8
LAYER_1
 10
89.37984299999999
 20
87.658473
 30
0.0
 11
89.539661
 21
89.388434
 31
0.0
  0
LINE
  5
39B
  8
LAYER_1
 10
89.539661
 20
89.388434
 30
0.0
 11
90.296334
 21
91.197941
 31
0.0
  0
LINE
  5
39C
  8
LAYER_1
 10
90.296334
 20
91.197941
 30
0.0
 11
90.905314
 21
92.54859399999999
 31
0.0
  0
LINE
  5
39D
  8
LAYER_1
 10
90.905314
 20
92.54859399999999
 30
0.0
 11
91.048513
 21
93.22046400000001
 31
0.0
  0
LINE
  5
39E
  8
LAYER_1
 10
91.048513
 20
93.22046400000001
 30
0.0
 11
90.53266600000001
 21
93.233375
 31
0.0
  0
LINE
  5
39F
  8
LAYER_1
 10
90.53266600000001
 20
93.233375
 30
0.0
 11
89.475533
 21
92.925994
 31
0.0
  0
LINE
  5
3A0
  8
LAYER_1
 10
89.475533
 20
92.925994
 30
0.0
 11
86.330496
 21
91.623017
 31
0.0
  0
LINE
  5
3A1
  8
LAYER_1
 10
86.330496
 20
91.623017
 30
0.0
 11
82.799581
 21
89.856855
 31
0.0
  0
LINE
  5
3A2
  8
LAYER_1
 10
82.799581
 20
89.856855
 30
0.0
 11
80.068968
 21
88.172832
 31
0.0
  0
LINE
  5
3A3
  8
LAYER_1
 10
80.068968
 20
88.172832
 30
0.0
 11
76.968046
 21
85.61890699999999
 31
0.0
  0
LINE
  5
3A4
  8
LAYER_1
 10
76.968046
 20
85.61890699999999
 30
0.0
 11
74.19180299999999
 21
82.986565
 31
0.0
  0
LINE
  5
3A5
  8
LAYER_1
 10
74.19180299999999
 20
82.986565
 30
0.0
 11
72.30904700000001
 21
80.857157
 31
0.0
  0
LINE
  5
3A6
  8
LAYER_1
 10
72.30904700000001
 20
80.857157
 30
0.0
 11
71.880478
 21
80.16272600000001
 31
0.0
  0
LINE
  5
3A7
  8
LAYER_1
 10
71.880478
 20
80.16272600000001
 30
0.0
 11
71.88858399999999
 21
79.812035
 31
0.0
  0
LINE
  5
3A8
  8
LAYER_1
 10
71.88858399999999
 20
79.812035
 30
0.0
 11
72.563823
 21
79.719064
 31
0.0
  0
LINE
  5
3A9
  8
LAYER_1
 10
72.563823
 20
79.719064
 30
0.0
 11
73.836923
 21
79.81135
 31
0.0
  0
LINE
  5
3AA
  8
LAYER_1
 10
73.836923
 20
79.81135
 30
0.0
 11
77.410541
 21
80.461572
 31
0.0
  0
LINE
  5
3AB
  8
LAYER_1
 10
77.410541
 20
80.461572
 30
0.0
 11
77.410541
 21
80.461572
 31
0.0
  0
LINE
  5
3AC
  8
LAYER_1
 10
114.869064
 20
80.91895
 30
0.0
 11
116.780436
 21
82.103753
 31
0.0
  0
LINE
  5
3AD
  8
LAYER_1
 10
116.780436
 20
82.103753
 30
0.0
 11
117.072743
 21
82.544815
 31
0.0
  0
LINE
  5
3AE
  8
LAYER_1
 10
117.072743
 20
82.544815
 30
0.0
 11
116.912538
 21
82.892995
 31
0.0
  0
LINE
  5
3AF
  8
LAYER_1
 10
116.912538
 20
82.892995
 30
0.0
 11
116.292128
 21
83.154299
 31
0.0
  0
LINE
  5
3B0
  8
LAYER_1
 10
116.292128
 20
83.154299
 30
0.0
 11
115.20382
 21
83.334734
 31
0.0
  0
LINE
  5
3B1
  8
LAYER_1
 10
115.20382
 20
83.334734
 30
0.0
 11
111.59273
 21
83.47702700000001
 31
0.0
  0
LINE
  5
3B2
  8
LAYER_1
 10
111.59273
 20
83.47702700000001
 30
0.0
 11
107.224667
 21
83.32870800000001
 31
0.0
  0
LINE
  5
3B3
  8
LAYER_1
 10
107.224667
 20
83.32870800000001
 30
0.0
 11
106.341245
 21
83.09785700000001
 31
0.0
  0
LINE
  5
3B4
  8
LAYER_1
 10
106.341245
 20
83.09785700000001
 30
0.0
 11
106.086504
 21
82.73021
 31
0.0
  0
LINE
  5
3B5
  8
LAYER_1
 10
106.086504
 20
82.73021
 30
0.0
 11
106.297813
 21
82.156862
 31
0.0
  0
LINE
  5
3B6
  8
LAYER_1
 10
106.297813
 20
82.156862
 30
0.0
 11
106.849902
 21
81.511841
 31
0.0
  0
LINE
  5
3B7
  8
LAYER_1
 10
106.849902
 20
81.511841
 30
0.0
 11
107.620014
 21
80.910831
 31
0.0
  0
LINE
  5
3B8
  8
LAYER_1
 10
107.620014
 20
80.910831
 30
0.0
 11
108.485392
 21
80.469517
 31
0.0
  0
LINE
  5
3B9
  8
LAYER_1
 10
108.485392
 20
80.469517
 30
0.0
 11
109.92323
 21
80.17896399999999
 31
0.0
  0
LINE
  5
3BA
  8
LAYER_1
 10
109.92323
 20
80.17896399999999
 30
0.0
 11
111.666177
 21
80.17107900000001
 31
0.0
  0
LINE
  5
3BB
  8
LAYER_1
 10
111.666177
 20
80.17107900000001
 30
0.0
 11
113.41465
 21
80.424772
 31
0.0
  0
LINE
  5
3BC
  8
LAYER_1
 10
113.41465
 20
80.424772
 30
0.0
 11
114.869064
 21
80.91895
 31
0.0
  0
LINE
  5
3BD
  8
LAYER_1
 10
114.869064
 20
80.91895
 30
0.0
 11
114.869064
 21
80.91895
 31
0.0
  0
LINE
  5
3BE
  8
LAYER_1
 10
95.50317
 20
84.72375700000001
 30
0.0
 11
96.863072
 21
84.984223
 31
0.0
  0
LINE
  5
3BF
  8
LAYER_1
 10
96.863072
 20
84.984223
 30
0.0
 11
97.904235
 21
85.36014299999999
 31
0.0
  0
LINE
  5
3C0
  8
LAYER_1
 10
97.904235
 20
85.36014299999999
 30
0.0
 11
98.65740099999999
 21
85.866635
 31
0.0
  0
LINE
  5
3C1
  8
LAYER_1
 10
98.65740099999999
 20
85.866635
 30
0.0
 11
99.153314
 21
86.518818
 31
0.0
  0
LINE
  5
3C2
  8
LAYER_1
 10
99.153314
 20
86.518818
 30
0.0
 11
99.487837
 21
87.326149
 31
0.0
  0
LINE
  5
3C3
  8
LAYER_1
 10
99.487837
 20
87.326149
 30
0.0
 11
99.55720100000001
 21
88.010406
 31
0.0
  0
LINE
  5
3C4
  8
LAYER_1
 10
99.55720100000001
 20
88.010406
 30
0.0
 11
99.352644
 21
88.657877
 31
0.0
  0
LINE
  5
3C5
  8
LAYER_1
 10
99.352644
 20
88.657877
 30
0.0
 11
98.865408
 21
89.35485199999999
 31
0.0
  0
LINE
  5
3C6
  8
LAYER_1
 10
98.865408
 20
89.35485199999999
 30
0.0
 11
98.00009
 21
90.066095
 31
0.0
  0
LINE
  5
3C7
  8
LAYER_1
 10
98.00009
 20
90.066095
 30
0.0
 11
96.756657
 21
90.60464399999999
 31
0.0
  0
LINE
  5
3C8
  8
LAYER_1
 10
96.756657
 20
90.60464399999999
 30
0.0
 11
95.156076
 21
90.96388
 31
0.0
  0
LINE
  5
3C9
  8
LAYER_1
 10
95.156076
 20
90.96388
 30
0.0
 11
93.219315
 21
91.13718400000001
 31
0.0
  0
LINE
  5
3CA
  8
LAYER_1
 10
93.219315
 20
91.13718400000001
 30
0.0
 11
91.745569
 21
91.119446
 31
0.0
  0
LINE
  5
3CB
  8
LAYER_1
 10
91.745569
 20
91.119446
 30
0.0
 11
90.85149
 21
90.837659
 31
0.0
  0
LINE
  5
3CC
  8
LAYER_1
 10
90.85149
 20
90.837659
 30
0.0
 11
90.335148
 21
90.153532
 31
0.0
  0
LINE
  5
3CD
  8
LAYER_1
 10
90.335148
 20
90.153532
 30
0.0
 11
89.99460999999999
 21
88.928775
 31
0.0
  0
LINE
  5
3CE
  8
LAYER_1
 10
89.99460999999999
 20
88.928775
 30
0.0
 11
89.851906
 21
87.723523
 31
0.0
  0
LINE
  5
3CF
  8
LAYER_1
 10
89.851906
 20
87.723523
 30
0.0
 11
89.935301
 21
86.647666
 31
0.0
  0
LINE
  5
3D0
  8
LAYER_1
 10
89.935301
 20
86.647666
 30
0.0
 11
90.233352
 21
85.76009500000001
 31
0.0
  0
LINE
  5
3D1
  8
LAYER_1
 10
90.233352
 20
85.76009500000001
 30
0.0
 11
90.734619
 21
85.11970100000001
 31
0.0
  0
LINE
  5
3D2
  8
LAYER_1
 10
90.734619
 20
85.11970100000001
 30
0.0
 11
92.12665800000001
 21
84.59157999999999
 31
0.0
  0
LINE
  5
3D3
  8
LAYER_1
 10
92.12665800000001
 20
84.59157999999999
 30
0.0
 11
93.66872600000001
 21
84.450338
 31
0.0
  0
LINE
  5
3D4
  8
LAYER_1
 10
93.66872600000001
 20
84.450338
 30
0.0
 11
95.50317
 21
84.72375700000001
 31
0.0
  0
LINE
  5
3D5
  8
LAYER_1
 10
95.50317
 20
84.72375700000001
 30
0.0
 11
95.50317
 21
84.72375700000001
 31
0.0
  0
LINE
  5
3D6
  8
LAYER_1
 10
57.539661
 20
86.686909
 30
0.0
 11
59.10251
 21
87.378685
 31
0.0
  0
LINE
  5
3D7
  8
LAYER_1
 10
59.10251
 20
87.378685
 30
0.0
 11
59.692849
 21
87.830928
 31
0.0
  0
LINE
  5
3D8
  8
LAYER_1
 10
59.692849
 20
87.830928
 30
0.0
 11
60.221357
 21
88.445798
 31
0.0
  0
LINE
  5
3D9
  8
LAYER_1
 10
60.221357
 20
88.445798
 30
0.0
 11
61.289562
 21
90.43860100000001
 31
0.0
  0
LINE
  5
3DA
  8
LAYER_1
 10
61.289562
 20
90.43860100000001
 30
0.0
 11
62.700487
 21
93.90744599999999
 31
0.0
  0
LINE
  5
3DB
  8
LAYER_1
 10
62.700487
 20
93.90744599999999
 30
0.0
 11
64.07955800000001
 21
97.230125
 31
0.0
  0
LINE
  5
3DC
  8
LAYER_1
 10
64.07955800000001
 20
97.230125
 30
0.0
 11
65.517989
 21
100.170927
 31
0.0
  0
LINE
  5
3DD
  8
LAYER_1
 10
65.517989
 20
100.170927
 30
0.0
 11
67.259637
 21
103.186615
 31
0.0
  0
LINE
  5
3DE
  8
LAYER_1
 10
67.259637
 20
103.186615
 30
0.0
 11
69.54836400000001
 21
106.733955
 31
0.0
  0
LINE
  5
3DF
  8
LAYER_1
 10
69.54836400000001
 20
106.733955
 30
0.0
 11
71.48826
 21
109.75729
 31
0.0
  0
LINE
  5
3E0
  8
LAYER_1
 10
71.48826
 20
109.75729
 30
0.0
 11
72.881896
 21
112.175942
 31
0.0
  0
LINE
  5
3E1
  8
LAYER_1
 10
72.881896
 20
112.175942
 30
0.0
 11
73.682498
 21
113.901567
 31
0.0
  0
LINE
  5
3E2
  8
LAYER_1
 10
73.682498
 20
113.901567
 30
0.0
 11
73.843289
 21
114.845818
 31
0.0
  0
LINE
  5
3E3
  8
LAYER_1
 10
73.843289
 20
114.845818
 30
0.0
 11
73.367266
 21
114.554215
 31
0.0
  0
LINE
  5
3E4
  8
LAYER_1
 10
73.367266
 20
114.554215
 30
0.0
 11
72.3514
 21
113.467272
 31
0.0
  0
LINE
  5
3E5
  8
LAYER_1
 10
72.3514
 20
113.467272
 30
0.0
 11
69.46734600000001
 21
110.443749
 31
0.0
  0
LINE
  5
3E6
  8
LAYER_1
 10
69.46734600000001
 20
110.443749
 30
0.0
 11
68.332458
 21
109.284292
 31
0.0
  0
LINE
  5
3E7
  8
LAYER_1
 10
68.332458
 20
109.284292
 30
0.0
 11
66.979264
 21
107.579335
 31
0.0
  0
LINE
  5
3E8
  8
LAYER_1
 10
66.979264
 20
107.579335
 30
0.0
 11
61.924641
 21
100.242844
 31
0.0
  0
LINE
  5
3E9
  8
LAYER_1
 10
61.924641
 20
100.242844
 30
0.0
 11
57.587866
 21
94.117082
 31
0.0
  0
LINE
  5
3EA
  8
LAYER_1
 10
57.587866
 20
94.117082
 30
0.0
 11
55.704014
 21
91.826745
 31
0.0
  0
LINE
  5
3EB
  8
LAYER_1
 10
55.704014
 20
91.826745
 30
0.0
 11
53.522615
 21
89.42404999999999
 31
0.0
  0
LINE
  5
3EC
  8
LAYER_1
 10
53.522615
 20
89.42404999999999
 30
0.0
 11
51.77857
 21
87.43399700000001
 31
0.0
  0
LINE
  5
3ED
  8
LAYER_1
 10
51.77857
 20
87.43399700000001
 30
0.0
 11
51.05317
 21
86.348697
 31
0.0
  0
LINE
  5
3EE
  8
LAYER_1
 10
51.05317
 20
86.348697
 30
0.0
 11
51.144917
 21
86.12527900000001
 31
0.0
  0
LINE
  5
3EF
  8
LAYER_1
 10
51.144917
 20
86.12527900000001
 30
0.0
 11
51.515374
 21
86.014555
 31
0.0
  0
LINE
  5
3F0
  8
LAYER_1
 10
51.515374
 20
86.014555
 30
0.0
 11
53.663726
 21
86.070257
 31
0.0
  0
LINE
  5
3F1
  8
LAYER_1
 10
53.663726
 20
86.070257
 30
0.0
 11
55.879136
 21
86.318456
 31
0.0
  0
LINE
  5
3F2
  8
LAYER_1
 10
55.879136
 20
86.318456
 30
0.0
 11
57.539661
 21
86.686909
 31
0.0
  0
LINE
  5
3F3
  8
LAYER_1
 10
57.539661
 20
86.686909
 30
0.0
 11
57.539661
 21
86.686909
 31
0.0
  0
LINE
  5
3F4
  8
LAYER_1
 10
116.807138
 20
93.221903
 30
0.0
 11
117.006207
 21
93.47658800000001
 31
0.0
  0
LINE
  5
3F5
  8
LAYER_1
 10
117.006207
 20
93.47658800000001
 30
0.0
 11
117.036925
 21
93.77944599999999
 31
0.0
  0
LINE
  5
3F6
  8
LAYER_1
 10
117.036925
 20
93.77944599999999
 30
0.0
 11
116.524916
 21
94.948005
 31
0.0
  0
LINE
  5
3F7
  8
LAYER_1
 10
116.524916
 20
94.948005
 30
0.0
 11
115.704251
 21
96.35954099999999
 31
0.0
  0
LINE
  5
3F8
  8
LAYER_1
 10
115.704251
 20
96.35954099999999
 30
0.0
 11
114.979088
 21
97.248464
 31
0.0
  0
LINE
  5
3F9
  8
LAYER_1
 10
114.979088
 20
97.248464
 30
0.0
 11
114.245409
 21
97.711144
 31
0.0
  0
LINE
  5
3FA
  8
LAYER_1
 10
114.245409
 20
97.711144
 30
0.0
 11
113.399195
 21
97.84395499999999
 31
0.0
  0
LINE
  5
3FB
  8
LAYER_1
 10
113.399195
 20
97.84395499999999
 30
0.0
 11
112.619634
 21
97.91336200000001
 31
0.0
  0
LINE
  5
3FC
  8
LAYER_1
 10
112.619634
 20
97.91336200000001
 30
0.0
 11
112.295392
 21
98.080235
 31
0.0
  0
LINE
  5
3FD
  8
LAYER_1
 10
112.295392
 20
98.080235
 30
0.0
 11
113.439267
 21
99.91391400000001
 31
0.0
  0
LINE
  5
3FE
  8
LAYER_1
 10
113.439267
 20
99.91391400000001
 30
0.0
 11
114.344319
 21
101.388409
 31
0.0
  0
LINE
  5
3FF
  8
LAYER_1
 10
114.344319
 20
101.388409
 30
0.0
 11
114.98271
 21
102.926739
 31
0.0
  0
LINE
  5
400
  8
LAYER_1
 10
114.98271
 20
102.926739
 30
0.0
 11
115.367592
 21
104.56979
 31
0.0
  0
LINE
  5
401
  8
LAYER_1
 10
115.367592
 20
104.56979
 30
0.0
 11
115.512113
 21
106.358444
 31
0.0
  0
LINE
  5
402
  8
LAYER_1
 10
115.512113
 20
106.358444
 30
0.0
 11
115.435075
 21
107.723941
 31
0.0
  0
LINE
  5
403
  8
LAYER_1
 10
115.435075
 20
107.723941
 30
0.0
 11
115.115261
 21
108.771184
 31
0.0
  0
LINE
  5
404
  8
LAYER_1
 10
115.115261
 20
108.771184
 30
0.0
 11
114.491575
 21
109.623157
 31
0.0
  0
LINE
  5
405
  8
LAYER_1
 10
114.491575
 20
109.623157
 30
0.0
 11
113.50292
 21
110.402844
 31
0.0
  0
LINE
  5
406
  8
LAYER_1
 10
113.50292
 20
110.402844
 30
0.0
 11
111.88578
 21
111.535
 31
0.0
  0
LINE
  5
407
  8
LAYER_1
 10
111.88578
 20
111.535
 30
0.0
 11
112.037737
 21
111.618716
 31
0.0
  0
LINE
  5
408
  8
LAYER_1
 10
112.037737
 20
111.618716
 30
0.0
 11
112.718726
 21
111.542658
 31
0.0
  0
LINE
  5
409
  8
LAYER_1
 10
112.718726
 20
111.542658
 30
0.0
 11
116.561998
 21
111.165033
 31
0.0
  0
LINE
  5
40A
  8
LAYER_1
 10
116.561998
 20
111.165033
 30
0.0
 11
117.468997
 21
111.23744
 31
0.0
  0
LINE
  5
40B
  8
LAYER_1
 10
117.468997
 20
111.23744
 30
0.0
 11
118.120166
 21
111.479039
 31
0.0
  0
LINE
  5
40C
  8
LAYER_1
 10
118.120166
 20
111.479039
 30
0.0
 11
119.161465
 21
112.204401
 31
0.0
  0
LINE
  5
40D
  8
LAYER_1
 10
119.161465
 20
112.204401
 30
0.0
 11
120.101696
 21
113.175838
 31
0.0
  0
LINE
  5
40E
  8
LAYER_1
 10
120.101696
 20
113.175838
 30
0.0
 11
120.78219
 21
114.198165
 31
0.0
  0
LINE
  5
40F
  8
LAYER_1
 10
120.78219
 20
114.198165
 30
0.0
 11
121.044281
 21
115.076193
 31
0.0
  0
LINE
  5
410
  8
LAYER_1
 10
121.044281
 20
115.076193
 30
0.0
 11
121.001784
 21
115.544279
 31
0.0
  0
LINE
  5
411
  8
LAYER_1
 10
121.001784
 20
115.544279
 30
0.0
 11
120.828418
 21
115.882224
 31
0.0
  0
LINE
  5
412
  8
LAYER_1
 10
120.828418
 20
115.882224
 30
0.0
 11
119.813855
 21
116.482193
 31
0.0
  0
LINE
  5
413
  8
LAYER_1
 10
119.813855
 20
116.482193
 30
0.0
 11
116.839159
 21
117.473329
 31
0.0
  0
LINE
  5
414
  8
LAYER_1
 10
116.839159
 20
117.473329
 30
0.0
 11
115.093719
 21
117.773296
 31
0.0
  0
LINE
  5
415
  8
LAYER_1
 10
115.093719
 20
117.773296
 30
0.0
 11
113.342364
 21
117.331208
 31
0.0
  0
LINE
  5
416
  8
LAYER_1
 10
113.342364
 20
117.331208
 30
0.0
 11
110.8611
 21
116.266186
 31
0.0
  0
LINE
  5
417
  8
LAYER_1
 10
110.8611
 20
116.266186
 30
0.0
 11
107.356504
 21
114.532684
 31
0.0
  0
LINE
  5
418
  8
LAYER_1
 10
107.356504
 20
114.532684
 30
0.0
 11
103.12317
 21
112.323141
 31
0.0
  0
LINE
  5
419
  8
LAYER_1
 10
103.12317
 20
112.323141
 30
0.0
 11
103.167324
 21
110.436527
 31
0.0
  0
LINE
  5
41A
  8
LAYER_1
 10
103.167324
 20
110.436527
 30
0.0
 11
103.298868
 21
108.988375
 31
0.0
  0
LINE
  5
41B
  8
LAYER_1
 10
103.298868
 20
108.988375
 30
0.0
 11
103.618695
 21
107.965111
 31
0.0
  0
LINE
  5
41C
  8
LAYER_1
 10
103.618695
 20
107.965111
 30
0.0
 11
104.131397
 21
107.357746
 31
0.0
  0
LINE
  5
41D
  8
LAYER_1
 10
104.131397
 20
107.357746
 30
0.0
 11
104.841562
 21
107.157289
 31
0.0
  0
LINE
  5
41E
  8
LAYER_1
 10
104.841562
 20
107.157289
 30
0.0
 11
105.562639
 21
107.0692
 31
0.0
  0
LINE
  5
41F
  8
LAYER_1
 10
105.562639
 20
107.0692
 30
0.0
 11
106.135909
 21
106.82515
 31
0.0
  0
LINE
  5
420
  8
LAYER_1
 10
106.135909
 20
106.82515
 30
0.0
 11
106.514352
 21
106.45546
 31
0.0
  0
LINE
  5
421
  8
LAYER_1
 10
106.514352
 20
106.45546
 30
0.0
 11
106.650948
 21
105.990452
 31
0.0
  0
LINE
  5
422
  8
LAYER_1
 10
106.650948
 20
105.990452
 30
0.0
 11
106.340063
 21
105.075365
 31
0.0
  0
LINE
  5
423
  8
LAYER_1
 10
106.340063
 20
105.075365
 30
0.0
 11
105.592615
 21
103.693285
 31
0.0
  0
LINE
  5
424
  8
LAYER_1
 10
105.592615
 20
103.693285
 30
0.0
 11
104.992249
 21
102.668547
 31
0.0
  0
LINE
  5
425
  8
LAYER_1
 10
104.992249
 20
102.668547
 30
0.0
 11
104.677348
 21
101.845737
 31
0.0
  0
LINE
  5
426
  8
LAYER_1
 10
104.677348
 20
101.845737
 30
0.0
 11
104.556702
 21
100.842454
 31
0.0
  0
LINE
  5
427
  8
LAYER_1
 10
104.556702
 20
100.842454
 30
0.0
 11
104.539105
 21
99.276304
 31
0.0
  0
LINE
  5
428
  8
LAYER_1
 10
104.539105
 20
99.276304
 30
0.0
 11
104.640644
 21
97.111214
 31
0.0
  0
LINE
  5
429
  8
LAYER_1
 10
104.640644
 20
97.111214
 30
0.0
 11
104.916103
 21
95.912254
 31
0.0
  0
LINE
  5
42A
  8
LAYER_1
 10
104.916103
 20
95.912254
 30
0.0
 11
105.674154
 21
95.183942
 31
0.0
  0
LINE
  5
42B
  8
LAYER_1
 10
105.674154
 20
95.183942
 30
0.0
 11
107.084768
 21
94.462191
 31
0.0
  0
LINE
  5
42C
  8
LAYER_1
 10
107.084768
 20
94.462191
 30
0.0
 11
109.068632
 21
93.77981
 31
0.0
  0
LINE
  5
42D
  8
LAYER_1
 10
109.068632
 20
93.77981
 30
0.0
 11
111.546434
 21
93.169607
 31
0.0
  0
LINE
  5
42E
  8
LAYER_1
 10
111.546434
 20
93.169607
 30
0.0
 11
113.620779
 21
92.79465399999999
 31
0.0
  0
LINE
  5
42F
  8
LAYER_1
 10
113.620779
 20
92.79465399999999
 30
0.0
 11
115.10425
 21
92.677543
 31
0.0
  0
LINE
  5
430
  8
LAYER_1
 10
115.10425
 20
92.677543
 30
0.0
 11
116.123989
 21
92.81953900000001
 31
0.0
  0
LINE
  5
431
  8
LAYER_1
 10
116.123989
 20
92.81953900000001
 30
0.0
 11
116.807138
 21
93.221903
 31
0.0
  0
LINE
  5
432
  8
LAYER_1
 10
116.807138
 20
93.221903
 30
0.0
 11
116.807138
 21
93.221903
 31
0.0
  0
LINE
  5
433
  8
LAYER_1
 10
93.748403
 20
93.78437200000001
 30
0.0
 11
93.539152
 21
94.558594
 31
0.0
  0
LINE
  5
434
  8
LAYER_1
 10
93.539152
 20
94.558594
 30
0.0
 11
92.79207
 21
96.176033
 31
0.0
  0
LINE
  5
435
  8
LAYER_1
 10
92.79207
 20
96.176033
 30
0.0
 11
92.179817
 21
97.452883
 31
0.0
  0
LINE
  5
436
  8
LAYER_1
 10
92.179817
 20
97.452883
 30
0.0
 11
91.807114
 21
98.519789
 31
0.0
  0
LINE
  5
437
  8
LAYER_1
 10
91.807114
 20
98.519789
 30
0.0
 11
91.422646
 21
101.384252
 31
0.0
  0
LINE
  5
438
  8
LAYER_1
 10
91.422646
 20
101.384252
 30
0.0
 11
91.016097
 21
104.541769
 31
0.0
  0
LINE
  5
439
  8
LAYER_1
 10
91.016097
 20
104.541769
 30
0.0
 11
90.64713
 21
104.584659
 31
0.0
  0
LINE
  5
43A
  8
LAYER_1
 10
90.64713
 20
104.584659
 30
0.0
 11
90.08130300000001
 21
104.341202
 31
0.0
  0
LINE
  5
43B
  8
LAYER_1
 10
90.08130300000001
 20
104.341202
 30
0.0
 11
89.478798
 21
103.904632
 31
0.0
  0
LINE
  5
43C
  8
LAYER_1
 10
89.478798
 20
103.904632
 30
0.0
 11
88.999797
 21
103.368181
 31
0.0
  0
LINE
  5
43D
  8
LAYER_1
 10
88.999797
 20
103.368181
 30
0.0
 11
88.757355
 21
102.921468
 31
0.0
  0
LINE
  5
43E
  8
LAYER_1
 10
88.757355
 20
102.921468
 30
0.0
 11
88.67506400000001
 21
102.424141
 31
0.0
  0
LINE
  5
43F
  8
LAYER_1
 10
88.67506400000001
 20
102.424141
 30
0.0
 11
88.98730500000001
 21
100.42236
 31
0.0
  0
LINE
  5
440
  8
LAYER_1
 10
88.98730500000001
 20
100.42236
 30
0.0
 11
89.44210099999999
 21
98.557354
 31
0.0
  0
LINE
  5
441
  8
LAYER_1
 10
89.44210099999999
 20
98.557354
 30
0.0
 11
89.996194
 21
96.98522300000001
 31
0.0
  0
LINE
  5
442
  8
LAYER_1
 10
89.996194
 20
96.98522300000001
 30
0.0
 11
90.663528
 21
95.673039
 31
0.0
  0
LINE
  5
443
  8
LAYER_1
 10
90.663528
 20
95.673039
 30
0.0
 11
91.458045
 21
94.587878
 31
0.0
  0
LINE
  5
444
  8
LAYER_1
 10
91.458045
 20
94.587878
 30
0.0
 11
92.082971
 21
94.020259
 31
0.0
  0
LINE
  5
445
  8
LAYER_1
 10
92.082971
 20
94.020259
 30
0.0
 11
92.725984
 21
93.678549
 31
0.0
  0
LINE
  5
446
  8
LAYER_1
 10
92.725984
 20
93.678549
 30
0.0
 11
93.30761800000001
 21
93.590627
 31
0.0
  0
LINE
  5
447
  8
LAYER_1
 10
93.30761800000001
 20
93.590627
 30
0.0
 11
93.748403
 21
93.78437200000001
 31
0.0
  0
LINE
  5
448
  8
LAYER_1
 10
93.748403
 20
93.78437200000001
 30
0.0
 11
93.748403
 21
93.78437200000001
 31
0.0
  0
LINE
  5
449
  8
LAYER_1
 10
101.354091
 20
94.691987
 30
0.0
 11
101.53827
 21
95.125224
 31
0.0
  0
LINE
  5
44A
  8
LAYER_1
 10
101.53827
 20
95.125224
 30
0.0
 11
101.403421
 21
95.796391
 31
0.0
  0
LINE
  5
44B
  8
LAYER_1
 10
101.403421
 20
95.796391
 30
0.0
 11
101.21329
 21
96.21863399999999
 31
0.0
  0
LINE
  5
44C
  8
LAYER_1
 10
101.21329
 20
96.21863399999999
 30
0.0
 11
100.94378
 21
96.451094
 31
0.0
  0
LINE
  5
44D
  8
LAYER_1
 10
100.94378
 20
96.451094
 30
0.0
 11
99.679856
 21
96.563239
 31
0.0
  0
LINE
  5
44E
  8
LAYER_1
 10
99.679856
 20
96.563239
 30
0.0
 11
98.34091600000001
 21
96.377053
 31
0.0
  0
LINE
  5
44F
  8
LAYER_1
 10
98.34091600000001
 20
96.377053
 30
0.0
 11
96.930483
 21
95.93289
 31
0.0
  0
LINE
  5
450
  8
LAYER_1
 10
96.930483
 20
95.93289
 30
0.0
 11
95.815287
 21
95.376093
 31
0.0
  0
LINE
  5
451
  8
LAYER_1
 10
95.815287
 20
95.376093
 30
0.0
 11
95.483006
 21
95.10087799999999
 31
0.0
  0
LINE
  5
452
  8
LAYER_1
 10
95.483006
 20
95.10087799999999
 30
0.0
 11
95.362059
 21
94.852007
 31
0.0
  0
LINE
  5
453
  8
LAYER_1
 10
95.362059
 20
94.852007
 30
0.0
 11
95.54859
 21
94.56029599999999
 31
0.0
  0
LINE
  5
454
  8
LAYER_1
 10
95.54859
 20
94.56029599999999
 30
0.0
 11
95.99705899999999
 21
94.358107
 31
0.0
  0
LINE
  5
455
  8
LAYER_1
 10
95.99705899999999
 20
94.358107
 30
0.0
 11
97.262226
 21
94.259215
 31
0.0
  0
LINE
  5
456
  8
LAYER_1
 10
97.262226
 20
94.259215
 30
0.0
 11
98.971887
 21
94.306523
 31
0.0
  0
LINE
  5
457
  8
LAYER_1
 10
98.971887
 20
94.306523
 30
0.0
 11
100.533393
 21
94.463093
 31
0.0
  0
LINE
  5
458
  8
LAYER_1
 10
100.533393
 20
94.463093
 30
0.0
 11
101.354091
 21
94.691987
 31
0.0
  0
LINE
  5
459
  8
LAYER_1
 10
101.354091
 20
94.691987
 30
0.0
 11
101.354091
 21
94.691987
 31
0.0
  0
LINE
  5
45A
  8
LAYER_1
 10
97.754982
 20
97.583738
 30
0.0
 11
99.14885200000001
 21
98.21286499999999
 31
0.0
  0
LINE
  5
45B
  8
LAYER_1
 10
99.14885200000001
 20
98.21286499999999
 30
0.0
 11
100.504168
 21
99.007598
 31
0.0
  0
LINE
  5
45C
  8
LAYER_1
 10
100.504168
 20
99.007598
 30
0.0
 11
101.63417
 21
99.845268
 31
0.0
  0
LINE
  5
45D
  8
LAYER_1
 10
101.63417
 20
99.845268
 30
0.0
 11
102.352097
 21
100.603208
 31
0.0
  0
LINE
  5
45E
  8
LAYER_1
 10
102.352097
 20
100.603208
 30
0.0
 11
102.768682
 21
101.230622
 31
0.0
  0
LINE
  5
45F
  8
LAYER_1
 10
102.768682
 20
101.230622
 30
0.0
 11
100.547037
 21
101.237356
 31
0.0
  0
LINE
  5
460
  8
LAYER_1
 10
100.547037
 20
101.237356
 30
0.0
 11
98.661936
 21
101.305414
 31
0.0
  0
LINE
  5
461
  8
LAYER_1
 10
98.661936
 20
101.305414
 30
0.0
 11
97.24862899999999
 21
101.526592
 31
0.0
  0
LINE
  5
462
  8
LAYER_1
 10
97.24862899999999
 20
101.526592
 30
0.0
 11
96.12786199999999
 21
101.946218
 31
0.0
  0
LINE
  5
463
  8
LAYER_1
 10
96.12786199999999
 20
101.946218
 30
0.0
 11
95.120381
 21
102.609622
 31
0.0
  0
LINE
  5
464
  8
LAYER_1
 10
95.120381
 20
102.609622
 30
0.0
 11
94.22462400000001
 21
103.176037
 31
0.0
  0
LINE
  5
465
  8
LAYER_1
 10
94.22462400000001
 20
103.176037
 30
0.0
 11
93.393547
 21
103.450388
 31
0.0
  0
LINE
  5
466
  8
LAYER_1
 10
93.393547
 20
103.450388
 30
0.0
 11
92.73463200000001
 21
103.415407
 31
0.0
  0
LINE
  5
467
  8
LAYER_1
 10
92.73463200000001
 20
103.415407
 30
0.0
 11
92.35536000000001
 21
103.053828
 31
0.0
  0
LINE
  5
468
  8
LAYER_1
 10
92.35536000000001
 20
103.053828
 30
0.0
 11
92.33095899999999
 21
102.203851
 31
0.0
  0
LINE
  5
469
  8
LAYER_1
 10
92.33095899999999
 20
102.203851
 30
0.0
 11
92.550265
 21
100.8044
 31
0.0
  0
LINE
  5
46A
  8
LAYER_1
 10
92.550265
 20
100.8044
 30
0.0
 11
92.935774
 21
99.235821
 31
0.0
  0
LINE
  5
46B
  8
LAYER_1
 10
92.935774
 20
99.235821
 30
0.0
 11
93.409982
 21
97.87845400000001
 31
0.0
  0
LINE
  5
46C
  8
LAYER_1
 10
93.409982
 20
97.87845400000001
 30
0.0
 11
93.73965699999999
 21
97.172895
 31
0.0
  0
LINE
  5
46D
  8
LAYER_1
 10
93.73965699999999
 20
97.172895
 30
0.0
 11
94.026572
 21
96.825627
 31
0.0
  0
LINE
  5
46E
  8
LAYER_1
 10
94.026572
 20
96.825627
 30
0.0
 11
94.42194499999999
 21
96.740906
 31
0.0
  0
LINE
  5
46F
  8
LAYER_1
 10
94.42194499999999
 20
96.740906
 30
0.0
 11
95.076995
 21
96.822988
 31
0.0
  0
LINE
  5
470
  8
LAYER_1
 10
95.076995
 20
96.822988
 30
0.0
 11
97.754982
 21
97.583738
 31
0.0
  0
LINE
  5
471
  8
LAYER_1
 10
97.754982
 20
97.583738
 30
0.0
 11
97.754982
 21
97.583738
 31
0.0
  0
LINE
  5
472
  8
LAYER_1
 10
101.766627
 20
102.402691
 30
0.0
 11
103.154822
 21
103.026
 31
0.0
  0
LINE
  5
473
  8
LAYER_1
 10
103.154822
 20
103.026
 30
0.0
 11
104.784378
 21
104.399057
 31
0.0
  0
LINE
  5
474
  8
LAYER_1
 10
104.784378
 20
104.399057
 30
0.0
 11
106.509837
 21
106.070019
 31
0.0
  0
LINE
  5
475
  8
LAYER_1
 10
106.509837
 20
106.070019
 30
0.0
 11
103.988963
 21
105.902498
 31
0.0
  0
LINE
  5
476
  8
LAYER_1
 10
103.988963
 20
105.902498
 30
0.0
 11
100.932021
 21
105.514185
 31
0.0
  0
LINE
  5
477
  8
LAYER_1
 10
100.932021
 20
105.514185
 30
0.0
 11
98.23057900000001
 21
104.853949
 31
0.0
  0
LINE
  5
478
  8
LAYER_1
 10
98.23057900000001
 20
104.853949
 30
0.0
 11
96.335134
 21
104.063917
 31
0.0
  0
LINE
  5
479
  8
LAYER_1
 10
96.335134
 20
104.063917
 30
0.0
 11
95.83044
 21
103.664642
 31
0.0
  0
LINE
  5
47A
  8
LAYER_1
 10
95.83044
 20
103.664642
 30
0.0
 11
95.69618199999999
 21
103.286216
 31
0.0
  0
LINE
  5
47B
  8
LAYER_1
 10
95.69618199999999
 20
103.286216
 30
0.0
 11
95.91185900000001
 21
102.935016
 31
0.0
  0
LINE
  5
47C
  8
LAYER_1
 10
95.91185900000001
 20
102.935016
 30
0.0
 11
96.38122
 21
102.638267
 31
0.0
  0
LINE
  5
47D
  8
LAYER_1
 10
96.38122
 20
102.638267
 30
0.0
 11
97.883983
 21
102.236798
 31
0.0
  0
LINE
  5
47E
  8
LAYER_1
 10
97.883983
 20
102.236798
 30
0.0
 11
99.810457
 21
102.139157
 31
0.0
  0
LINE
  5
47F
  8
LAYER_1
 10
99.810457
 20
102.139157
 30
0.0
 11
101.766627
 21
102.402691
 31
0.0
  0
LINE
  5
480
  8
LAYER_1
 10
101.766627
 20
102.402691
 30
0.0
 11
101.766627
 21
102.402691
 31
0.0
  0
LINE
  5
481
  8
LAYER_1
 10
96.70261499999999
 20
105.332544
 30
0.0
 11
97.71425600000001
 21
105.615295
 31
0.0
  0
LINE
  5
482
  8
LAYER_1
 10
97.71425600000001
 20
105.615295
 30
0.0
 11
97.86911600000001
 21
105.888564
 31
0.0
  0
LINE
  5
483
  8
LAYER_1
 10
97.86911600000001
 20
105.888564
 30
0.0
 11
97.90205899999999
 21
106.344285
 31
0.0
  0
LINE
  5
484
  8
LAYER_1
 10
97.90205899999999
 20
106.344285
 30
0.0
 11
97.783924
 21
106.977931
 31
0.0
  0
LINE
  5
485
  8
LAYER_1
 10
97.783924
 20
106.977931
 30
0.0
 11
97.497214
 21
107.330359
 31
0.0
  0
LINE
  5
486
  8
LAYER_1
 10
97.497214
 20
107.330359
 30
0.0
 11
96.796325
 21
107.071256
 31
0.0
  0
LINE
  5
487
  8
LAYER_1
 10
96.796325
 20
107.071256
 30
0.0
 11
95.59360599999999
 21
106.343777
 31
0.0
  0
LINE
  5
488
  8
LAYER_1
 10
95.59360599999999
 20
106.343777
 30
0.0
 11
94.456124
 21
105.523072
 31
0.0
  0
LINE
  5
489
  8
LAYER_1
 10
94.456124
 20
105.523072
 30
0.0
 11
93.950948
 21
104.98429
 31
0.0
  0
LINE
  5
48A
  8
LAYER_1
 10
93.950948
 20
104.98429
 30
0.0
 11
94.727059
 21
105.003092
 31
0.0
  0
LINE
  5
48B
  8
LAYER_1
 10
94.727059
 20
105.003092
 30
0.0
 11
96.70261499999999
 21
105.332544
 31
0.0
  0
LINE
  5
48C
  8
LAYER_1
 10
96.70261499999999
 20
105.332544
 30
0.0
 11
96.70261499999999
 21
105.332544
 31
0.0
  0
LINE
  5
48D
  8
LAYER_1
 10
89.062433
 20
108.638955
 30
0.0
 11
90.648594
 21
110.327645
 31
0.0
  0
LINE
  5
48E
  8
LAYER_1
 10
90.648594
 20
110.327645
 30
0.0
 11
91.85359800000001
 21
111.948979
 31
0.0
  0
LINE
  5
48F
  8
LAYER_1
 10
91.85359800000001
 20
111.948979
 30
0.0
 11
92.46321
 21
113.167662
 31
0.0
  0
LINE
  5
490
  8
LAYER_1
 10
92.46321
 20
113.167662
 30
0.0
 11
92.477795
 21
113.52123
 31
0.0
  0
LINE
  5
491
  8
LAYER_1
 10
92.477795
 20
113.52123
 30
0.0
 11
92.263194
 21
113.6484
 31
0.0
  0
LINE
  5
492
  8
LAYER_1
 10
92.263194
 20
113.6484
 30
0.0
 11
91.827439
 21
113.419846
 31
0.0
  0
LINE
  5
493
  8
LAYER_1
 10
91.827439
 20
113.419846
 30
0.0
 11
91.123092
 21
112.810385
 31
0.0
  0
LINE
  5
494
  8
LAYER_1
 10
91.123092
 20
112.810385
 30
0.0
 11
89.311397
 21
110.905934
 31
0.0
  0
LINE
  5
495
  8
LAYER_1
 10
89.311397
 20
110.905934
 30
0.0
 11
87.633651
 21
108.849436
 31
0.0
  0
LINE
  5
496
  8
LAYER_1
 10
87.633651
 20
108.849436
 30
0.0
 11
87.096739
 21
108.049915
 31
0.0
  0
LINE
  5
497
  8
LAYER_1
 10
87.096739
 20
108.049915
 30
0.0
 11
86.895392
 21
107.555278
 31
0.0
  0
LINE
  5
498
  8
LAYER_1
 10
86.895392
 20
107.555278
 30
0.0
 11
87.009186
 21
107.212584
 31
0.0
  0
LINE
  5
499
  8
LAYER_1
 10
87.009186
 20
107.212584
 30
0.0
 11
87.379428
 21
107.264532
 31
0.0
  0
LINE
  5
49A
  8
LAYER_1
 10
87.379428
 20
107.264532
 30
0.0
 11
89.062433
 21
108.638955
 31
0.0
  0
LINE
  5
49B
  8
LAYER_1
 10
89.062433
 20
108.638955
 30
0.0
 11
89.062433
 21
108.638955
 31
0.0
  0
LINE
  5
49C
  8
LAYER_1
 10
70.962057
 20
114.543654
 30
0.0
 11
71.86674600000001
 21
115.528998
 31
0.0
  0
LINE
  5
49D
  8
LAYER_1
 10
71.86674600000001
 20
115.528998
 30
0.0
 11
72.72820900000001
 21
116.770034
 31
0.0
  0
LINE
  5
49E
  8
LAYER_1
 10
72.72820900000001
 20
116.770034
 30
0.0
 11
73.370109
 21
117.979343
 31
0.0
  0
LINE
  5
49F
  8
LAYER_1
 10
73.370109
 20
117.979343
 30
0.0
 11
73.616106
 21
118.869511
 31
0.0
  0
LINE
  5
4A0
  8
LAYER_1
 10
73.616106
 20
118.869511
 30
0.0
 11
73.519593
 21
119.04001
 31
0.0
  0
LINE
  5
4A1
  8
LAYER_1
 10
73.519593
 20
119.04001
 30
0.0
 11
73.209738
 21
118.887712
 31
0.0
  0
LINE
  5
4A2
  8
LAYER_1
 10
73.209738
 20
118.887712
 30
0.0
 11
71.763139
 21
117.473995
 31
0.0
  0
LINE
  5
4A3
  8
LAYER_1
 10
71.763139
 20
117.473995
 30
0.0
 11
69.717219
 21
115.024138
 31
0.0
  0
LINE
  5
4A4
  8
LAYER_1
 10
69.717219
 20
115.024138
 30
0.0
 11
69.298974
 21
114.251057
 31
0.0
  0
LINE
  5
4A5
  8
LAYER_1
 10
69.298974
 20
114.251057
 30
0.0
 11
69.314797
 21
113.825291
 31
0.0
  0
LINE
  5
4A6
  8
LAYER_1
 10
69.314797
 20
113.825291
 30
0.0
 11
69.561008
 21
113.675625
 31
0.0
  0
LINE
  5
4A7
  8
LAYER_1
 10
69.561008
 20
113.675625
 30
0.0
 11
69.869987
 21
113.72469
 31
0.0
  0
LINE
  5
4A8
  8
LAYER_1
 10
69.869987
 20
113.72469
 30
0.0
 11
70.962057
 21
114.543654
 31
0.0
  0
LINE
  5
4A9
  8
LAYER_1
 10
70.962057
 20
114.543654
 30
0.0
 11
70.962057
 21
114.543654
 31
0.0
  0
ENDSEC
  0
EOF
