  0
SECTION
  2
HEADER
  9
$ACADVER
  1
AC1009
  9
$DWGCODEPAGE
  3
ansi_1252
  9
$INSBASE
 10
0.0
 20
0.0
 30
0.0
  9
$EXTMIN
 10
-2.667672
 20
0.452981
 30
0.0
  9
$EXTMAX
 10
138.083697
 20
123.834637
 30
0.0
  9
$LIMMIN
 10
0.0
 20
0.0
  9
$LIMMAX
 10
12.0
 20
9.0
  9
$ORTHOMODE
 70
     0
  9
$REGENMODE
 70
     1
  9
$FILLMODE
 70
     1
  9
$QTEXTMODE
 70
     0
  9
$MIRRTEXT
 70
     1
  9
$DRAGMODE
 70
     2
  9
$LTSCALE
 40
1.0
  9
$OSMODE
 70
    37
  9
$ATTMODE
 70
     1
  9
$TEXTSIZE
 40
0.2
  9
$TRACEWID
 40
0.05
  9
$TEXTSTYLE
  7
STANDARD
  9
$CLAYER
  8
0
  9
$CELTYPE
  6
BYBLOCK
  9
$CECOLOR
 62
   256
  9
$DIMSCALE
 40
1.0
  9
$DIMASZ
 40
0.18
  9
$DIMEXO
 40
0.0625
  9
$DIMDLI
 40
0.38
  9
$DIMRND
 40
0.0
  9
$DIMDLE
 40
0.0
  9
$DIMEXE
 40
0.18
  9
$DIMTP
 40
0.0
  9
$DIMTM
 40
0.0
  9
$DIMTXT
 40
0.18
  9
$DIMCEN
 40
0.09
  9
$DIMTSZ
 40
0.0
  9
$DIMTOL
 70
     0
  9
$DIMLIM
 70
     0
  9
$DIMTIH
 70
     1
  9
$DIMTOH
 70
     1
  9
$DIMSE1
 70
     0
  9
$DIMSE2
 70
     0
  9
$DIMTAD
 70
     0
  9
$DIMZIN
 70
     0
  9
$DIMBLK
  1

  9
$DIMASO
 70
     1
  9
$DIMSHO
 70
     1
  9
$DIMPOST
  1

  9
$DIMAPOST
  1

  9
$DIMALT
 70
     0
  9
$DIMALTD
 70
     2
  9
$DIMALTF
 40
25.4
  9
$DIMLFAC
 40
1.0
  9
$DIMTOFL
 70
     0
  9
$DIMTVP
 40
0.0
  9
$DIMTIX
 70
     0
  9
$DIMSOXD
 70
     0
  9
$DIMSAH
 70
     0
  9
$DIMBLK1
  1

  9
$DIMBLK2
  1

  9
$DIMSTYLE
  2
STANDARD
  9
$DIMCLRD
 70
     0
  9
$DIMCLRE
 70
     0
  9
$DIMCLRT
 70
     0
  9
$DIMTFAC
 40
1.0
  9
$DIMGAP
 40
0.09
  9
$LUNITS
 70
     2
  9
$LUPREC
 70
     4
  9
$SKETCHINC
 40
0.1
  9
$FILLETRAD
 40
0.5
  9
$AUNITS
 70
     0
  9
$AUPREC
 70
     0
  9
$MENU
  1
.
  9
$ELEVATION
 40
0.0
  9
$PELEVATION
 40
0.0
  9
$THICKNESS
 40
0.0
  9
$LIMCHECK
 70
     0
  9
$CHAMFERA
 40
0.5
  9
$CHAMFERB
 40
0.5
  9
$SKPOLY
 70
     0
  9
$TDCREATE
 40
2453353.550459155
  9
$TDUPDATE
 40
4910671.889637037
  9
$TDINDWG
 40
4895786.051922963
  9
$TDUSRTIMER
 40
4895786.051922963
  9
$USRTIMER
 70
     1
  9
$ANGBASE
 50
0.0
  9
$ANGDIR
 70
     0
  9
$PDMODE
 70
     0
  9
$PDSIZE
 40
0.0
  9
$PLINEWID
 40
0.0
  9
$COORDS
 70
     1
  9
$SPLFRAME
 70
     0
  9
$SPLINETYPE
 70
     6
  9
$SPLINESEGS
 70
     8
  9
$ATTDIA
 70
     0
  9
$ATTREQ
 70
     1
  9
$HANDLING
 70
     1
  9
$HANDSEED
  5
C2E
  9
$SURFTAB1
 70
     6
  9
$SURFTAB2
 70
     6
  9
$SURFTYPE
 70
     6
  9
$SURFU
 70
     6
  9
$SURFV
 70
     6
  9
$UCSNAME
  2

  9
$UCSORG
 10
0.0
 20
0.0
 30
0.0
  9
$UCSXDIR
 10
1.0
 20
0.0
 30
0.0
  9
$UCSYDIR
 10
0.0
 20
1.0
 30
0.0
  9
$PUCSNAME
  2

  9
$PUCSORG
 10
0.0
 20
0.0
 30
0.0
  9
$PUCSXDIR
 10
1.0
 20
0.0
 30
0.0
  9
$PUCSYDIR
 10
0.0
 20
1.0
 30
0.0
  9
$USERI1
 70
     0
  9
$USERI2
 70
     0
  9
$USERI3
 70
     0
  9
$USERI4
 70
     0
  9
$USERI5
 70
     0
  9
$USERR1
 40
0.0
  9
$USERR2
 40
0.0
  9
$USERR3
 40
0.0
  9
$USERR4
 40
0.0
  9
$USERR5
 40
0.0
  9
$WORLDVIEW
 70
     1
  9
$SHADEDGE
 70
     3
  9
$SHADEDIF
 70
    70
  9
$TILEMODE
 70
     1
  9
$MAXACTVP
 70
    64
  9
$PLIMCHECK
 70
     0
  9
$PEXTMIN
 10
0.0
 20
0.0
 30
0.0
  9
$PEXTMAX
 10
0.0
 20
0.0
 30
0.0
  9
$PLIMMIN
 10
0.0
 20
0.0
  9
$PLIMMAX
 10
0.0
 20
0.0
  9
$UNITMODE
 70
     0
  9
$VISRETAIN
 70
     1
  9
$PLINEGEN
 70
     0
  9
$PSLTSCALE
 70
     1
  0
ENDSEC
  0
SECTION
  2
TABLES
  0
TABLE
  2
VPORT
 70
     1
  0
VPORT
  2
*ACTIVE
 70
     0
 10
0.0
 20
0.0
 11
1.0
 21
1.0
 12
69.77671211247692
 22
64.94075590351616
 13
0.0
 23
0.0
 14
0.5
 24
0.5
 15
0.5
 25
0.5
 16
0.0
 26
0.0
 36
1.0
 17
0.0
 27
0.0
 37
0.0
 40
136.1968164703667
 41
1.972972972850329
 42
50.0
 43
0.0
 44
0.0
 50
0.0
 51
0.0
 71
    16
 72
   100
 73
     1
 74
     3
 75
     0
 76
     0
 77
     0
 78
     0
  0
ENDTAB
  0
TABLE
  2
LTYPE
 70
     1
  0
LTYPE
  2
CONTINUOUS
 70
     0
  3
Solid line
 72
    65
 73
     0
 40
0.0
  0
ENDTAB
  0
TABLE
  2
LAYER
 70
     2
  0
LAYER
  2
0
 70
     0
 62
     7
  6
CONTINUOUS
  0
LAYER
  2
LAYER_1
 70
     0
 62
     7
  6
CONTINUOUS
  0
ENDTAB
  0
TABLE
  2
STYLE
 70
     1
  0
STYLE
  2
STANDARD
 70
     0
 40
0.0
 41
1.0
 50
0.0
 71
     0
 42
0.2
  3
txt
  4

  0
ENDTAB
  0
TABLE
  2
VIEW
 70
     0
  0
ENDTAB
  0
TABLE
  2
UCS
 70
     0
  0
ENDTAB
  0
TABLE
  2
APPID
 70
     1
  0
APPID
  2
ACAD
 70
     0
  0
ENDTAB
  0
TABLE
  2
DIMSTYLE
 70
     1
  0
DIMSTYLE
  2
STANDARD
 70
     0
  3

  4

  5

  6

  7

 40
1.0
 41
0.18
 42
0.0625
 43
0.38
 44
0.18
 45
0.0
 46
0.0
 47
0.0
 48
0.0
140
0.18
141
0.09
142
0.0
143
25.4
144
1.0
145
0.0
146
1.0
147
0.09
 71
     0
 72
     0
 73
     1
 74
     1
 75
     0
 76
     0
 77
     0
 78
     0
170
     0
171
     2
172
     0
173
     0
174
     0
175
     0
176
     0
177
     0
178
     0
  0
ENDTAB
  0
ENDSEC
  0
SECTION
  2
BLOCKS
  0
BLOCK
  8
0
  2
$MODEL_SPACE
 70
     0
 10
0.0
 20
0.0
 30
0.0
  3
$MODEL_SPACE
  1

  0
ENDBLK
  5
21
  8
0
  0
BLOCK
 67
     1
  8
0
  2
$PAPER_SPACE
 70
     0
 10
0.0
 20
0.0
 30
0.0
  3
$PAPER_SPACE
  1

  0
ENDBLK
  5
76
 67
     1
  8
0
  0
ENDSEC
  0
SECTION
  2
ENTITIES
  0
LINE
  5
C17
  8
LAYER_1
 10
79.892872
 20
0.722266
 30
0.0
 11
78.199725
 21
1.283933
 31
0.0
  0
LINE
  5
C18
  8
LAYER_1
 10
78.199725
 20
1.283933
 30
0.0
 11
76.40367500000001
 21
2.14318
 31
0.0
  0
LINE
  5
23
  8
LAYER_1
 10
76.40367500000001
 20
2.14318
 30
0.0
 11
74.663309
 21
3.213476
 31
0.0
  0
LINE
  5
24
  8
LAYER_1
 10
74.663309
 20
3.213476
 30
0.0
 11
73.137214
 21
4.408294
 31
0.0
  0
LINE
  5
25
  8
LAYER_1
 10
73.137214
 20
4.408294
 30
0.0
 11
71.396373
 21
6.209428
 31
0.0
  0
LINE
  5
26
  8
LAYER_1
 10
71.396373
 20
6.209428
 30
0.0
 11
69.874803
 21
8.280143000000001
 31
0.0
  0
LINE
  5
C19
  8
LAYER_1
 10
69.874803
 20
8.280143000000001
 30
0.0
 11
68.576573
 21
10.608967
 31
0.0
  0
LINE
  5
28
  8
LAYER_1
 10
68.576573
 20
10.608967
 30
0.0
 11
67.505752
 21
13.184425
 31
0.0
  0
LINE
  5
29
  8
LAYER_1
 10
67.505752
 20
13.184425
 30
0.0
 11
66.666409
 21
15.995044
 31
0.0
  0
LINE
  5
2A
  8
LAYER_1
 10
66.666409
 20
15.995044
 30
0.0
 11
66.062613
 21
19.02935
 31
0.0
  0
LINE
  5
2B
  8
LAYER_1
 10
66.062613
 20
19.02935
 30
0.0
 11
65.69843400000001
 21
22.275869
 31
0.0
  0
LINE
  5
2C
  8
LAYER_1
 10
65.69843400000001
 20
22.275869
 30
0.0
 11
65.57794
 21
25.723128
 31
0.0
  0
LINE
  5
2D
  8
LAYER_1
 10
65.57794
 20
25.723128
 30
0.0
 11
65.58089200000001
 21
29.588085
 31
0.0
  0
LINE
  5
2E
  8
LAYER_1
 10
65.58089200000001
 20
29.588085
 30
0.0
 11
67.267709
 21
35.177572
 31
0.0
  0
LINE
  5
2F
  8
LAYER_1
 10
67.267709
 20
35.177572
 30
0.0
 11
68.954526
 21
40.767059
 31
0.0
  0
LINE
  5
30
  8
LAYER_1
 10
68.954526
 20
40.767059
 30
0.0
 11
69.142026
 21
46.270393
 31
0.0
  0
LINE
  5
31
  8
LAYER_1
 10
69.142026
 20
46.270393
 30
0.0
 11
69.734949
 21
58.264837
 31
0.0
  0
LINE
  5
32
  8
LAYER_1
 10
69.734949
 20
58.264837
 30
0.0
 11
70.00300900000001
 21
64.95571099999999
 31
0.0
  0
LINE
  5
33
  8
LAYER_1
 10
70.00300900000001
 20
64.95571099999999
 30
0.0
 11
69.86375
 21
67.109129
 31
0.0
  0
LINE
  5
34
  8
LAYER_1
 10
69.86375
 20
67.109129
 30
0.0
 11
69.52445899999999
 21
69.412615
 31
0.0
  0
LINE
  5
35
  8
LAYER_1
 10
69.52445899999999
 20
69.412615
 30
0.0
 11
69.17242899999999
 21
71.0266
 31
0.0
  0
LINE
  5
36
  8
LAYER_1
 10
69.17242899999999
 20
71.0266
 30
0.0
 11
68.682771
 21
72.433413
 31
0.0
  0
LINE
  5
37
  8
LAYER_1
 10
68.682771
 20
72.433413
 30
0.0
 11
68.01432
 21
73.729117
 31
0.0
  0
LINE
  5
38
  8
LAYER_1
 10
68.01432
 20
73.729117
 30
0.0
 11
67.12590899999999
 21
75.009773
 31
0.0
  0
LINE
  5
39
  8
LAYER_1
 10
67.12590899999999
 20
75.009773
 30
0.0
 11
65.748103
 21
76.91223599999999
 31
0.0
  0
LINE
  5
3A
  8
LAYER_1
 10
65.748103
 20
76.91223599999999
 30
0.0
 11
65.561594
 21
77.128618
 31
0.0
  0
LINE
  5
3B
  8
LAYER_1
 10
65.561594
 20
77.128618
 30
0.0
 11
65.359764
 21
77.05215699999999
 31
0.0
  0
LINE
  5
3C
  8
LAYER_1
 10
65.359764
 20
77.05215699999999
 30
0.0
 11
64.656166
 21
75.750496
 31
0.0
  0
LINE
  5
3D
  8
LAYER_1
 10
64.656166
 20
75.750496
 30
0.0
 11
63.756698
 21
73.65526
 31
0.0
  0
LINE
  5
3E
  8
LAYER_1
 10
63.756698
 20
73.65526
 30
0.0
 11
63.228404
 21
71.619023
 31
0.0
  0
LINE
  5
3F
  8
LAYER_1
 10
63.228404
 20
71.619023
 30
0.0
 11
62.91446
 21
68.723497
 31
0.0
  0
LINE
  5
40
  8
LAYER_1
 10
62.91446
 20
68.723497
 30
0.0
 11
62.658041
 21
64.050393
 31
0.0
  0
LINE
  5
41
  8
LAYER_1
 10
62.658041
 20
64.050393
 30
0.0
 11
62.334056
 21
58.850225
 31
0.0
  0
LINE
  5
42
  8
LAYER_1
 10
62.334056
 20
58.850225
 30
0.0
 11
61.850788
 21
55.004234
 31
0.0
  0
LINE
  5
43
  8
LAYER_1
 10
61.850788
 20
55.004234
 30
0.0
 11
61.060474
 21
51.680581
 31
0.0
  0
LINE
  5
44
  8
LAYER_1
 10
61.060474
 20
51.680581
 30
0.0
 11
59.815352
 21
48.04743
 31
0.0
  0
LINE
  5
45
  8
LAYER_1
 10
59.815352
 20
48.04743
 30
0.0
 11
58.049172
 21
43.738098
 31
0.0
  0
LINE
  5
46
  8
LAYER_1
 10
58.049172
 20
43.738098
 30
0.0
 11
56.127882
 21
39.826839
 31
0.0
  0
LINE
  5
47
  8
LAYER_1
 10
56.127882
 20
39.826839
 30
0.0
 11
54.056811
 21
36.320382
 31
0.0
  0
LINE
  5
48
  8
LAYER_1
 10
54.056811
 20
36.320382
 30
0.0
 11
51.841286
 21
33.225455
 31
0.0
  0
LINE
  5
49
  8
LAYER_1
 10
51.841286
 20
33.225455
 30
0.0
 11
49.486636
 21
30.548788
 31
0.0
  0
LINE
  5
4A
  8
LAYER_1
 10
49.486636
 20
30.548788
 30
0.0
 11
46.998189
 21
28.297111
 31
0.0
  0
LINE
  5
4B
  8
LAYER_1
 10
46.998189
 20
28.297111
 30
0.0
 11
44.381273
 21
26.477151
 31
0.0
  0
LINE
  5
4C
  8
LAYER_1
 10
44.381273
 20
26.477151
 30
0.0
 11
41.641217
 21
25.095637
 31
0.0
  0
LINE
  5
4D
  8
LAYER_1
 10
41.641217
 20
25.095637
 30
0.0
 11
40.042592
 21
24.559106
 31
0.0
  0
LINE
  5
4E
  8
LAYER_1
 10
40.042592
 20
24.559106
 30
0.0
 11
38.409317
 21
24.248397
 31
0.0
  0
LINE
  5
4F
  8
LAYER_1
 10
38.409317
 20
24.248397
 30
0.0
 11
36.77198
 21
24.158994
 31
0.0
  0
LINE
  5
50
  8
LAYER_1
 10
36.77198
 20
24.158994
 30
0.0
 11
35.16117
 21
24.286384
 31
0.0
  0
LINE
  5
51
  8
LAYER_1
 10
35.16117
 20
24.286384
 30
0.0
 11
33.607476
 21
24.626052
 31
0.0
  0
LINE
  5
52
  8
LAYER_1
 10
33.607476
 20
24.626052
 30
0.0
 11
32.141486
 21
25.173482
 31
0.0
  0
LINE
  5
53
  8
LAYER_1
 10
32.141486
 20
25.173482
 30
0.0
 11
30.79379
 21
25.924161
 31
0.0
  0
LINE
  5
54
  8
LAYER_1
 10
30.79379
 20
25.924161
 30
0.0
 11
29.594977
 21
26.873573
 31
0.0
  0
LINE
  5
55
  8
LAYER_1
 10
29.594977
 20
26.873573
 30
0.0
 11
28.611706
 21
28.049618
 31
0.0
  0
LINE
  5
56
  8
LAYER_1
 10
28.611706
 20
28.049618
 30
0.0
 11
27.926862
 21
29.499386
 31
0.0
  0
LINE
  5
57
  8
LAYER_1
 10
27.926862
 20
29.499386
 30
0.0
 11
27.502917
 21
31.334043
 31
0.0
  0
LINE
  5
58
  8
LAYER_1
 10
27.502917
 20
31.334043
 30
0.0
 11
27.302341
 21
33.664754
 31
0.0
  0
LINE
  5
C1A
  8
LAYER_1
 10
27.302341
 20
33.664754
 30
0.0
 11
27.285166
 21
35.903792
 31
0.0
  0
LINE
  5
C1B
  8
LAYER_1
 10
27.285166
 20
35.903792
 30
0.0
 11
27.458546
 21
37.929635
 31
0.0
  0
LINE
  5
5B
  8
LAYER_1
 10
27.458546
 20
37.929635
 30
0.0
 11
27.873054
 21
40.103566
 31
0.0
  0
LINE
  5
5C
  8
LAYER_1
 10
27.873054
 20
40.103566
 30
0.0
 11
28.579262
 21
42.786864
 31
0.0
  0
LINE
  5
5D
  8
LAYER_1
 10
28.579262
 20
42.786864
 30
0.0
 11
29.313463
 21
45.371114
 31
0.0
  0
LINE
  5
C1C
  8
LAYER_1
 10
29.313463
 20
45.371114
 30
0.0
 11
33.181044
 21
47.514087
 31
0.0
  0
LINE
  5
5F
  8
LAYER_1
 10
33.181044
 20
47.514087
 30
0.0
 11
37.218228
 21
49.657059
 31
0.0
  0
LINE
  5
60
  8
LAYER_1
 10
37.218228
 20
49.657059
 30
0.0
 11
36.859636
 21
48.424846
 31
0.0
  0
LINE
  5
61
  8
LAYER_1
 10
36.859636
 20
48.424846
 30
0.0
 11
35.238635
 21
44.12764
 31
0.0
  0
LINE
  5
62
  8
LAYER_1
 10
35.238635
 20
44.12764
 30
0.0
 11
33.876117
 21
39.533425
 31
0.0
  0
LINE
  5
63
  8
LAYER_1
 10
33.876117
 20
39.533425
 30
0.0
 11
32.902082
 21
35.14214
 31
0.0
  0
LINE
  5
64
  8
LAYER_1
 10
32.902082
 20
35.14214
 30
0.0
 11
32.446533
 21
31.453726
 31
0.0
  0
LINE
  5
65
  8
LAYER_1
 10
32.446533
 20
31.453726
 30
0.0
 11
32.425094
 21
28.580138
 31
0.0
  0
LINE
  5
66
  8
LAYER_1
 10
32.425094
 20
28.580138
 30
0.0
 11
32.643801
 21
27.797679
 31
0.0
  0
LINE
  5
67
  8
LAYER_1
 10
32.643801
 20
27.797679
 30
0.0
 11
33.088422
 21
26.93817
 31
0.0
  0
LINE
  5
68
  8
LAYER_1
 10
33.088422
 20
26.93817
 30
0.0
 11
33.925314
 21
25.745589
 31
0.0
  0
LINE
  5
69
  8
LAYER_1
 10
33.925314
 20
25.745589
 30
0.0
 11
34.353415
 21
25.529254
 31
0.0
  0
LINE
  5
6A
  8
LAYER_1
 10
34.353415
 20
25.529254
 30
0.0
 11
34.945498
 21
25.439045
 31
0.0
  0
LINE
  5
C1D
  8
LAYER_1
 10
34.945498
 20
25.439045
 30
0.0
 11
36.340639
 21
25.611054
 31
0.0
  0
LINE
  5
C1E
  8
LAYER_1
 10
36.340639
 20
25.611054
 30
0.0
 11
37.943391
 21
26.318749
 31
0.0
  0
LINE
  5
6D
  8
LAYER_1
 10
37.943391
 20
26.318749
 30
0.0
 11
39.722691
 21
27.532162
 31
0.0
  0
LINE
  5
6E
  8
LAYER_1
 10
39.722691
 20
27.532162
 30
0.0
 11
41.647476
 21
29.221328
 31
0.0
  0
LINE
  5
6F
  8
LAYER_1
 10
41.647476
 20
29.221328
 30
0.0
 11
43.686684
 21
31.35628
 31
0.0
  0
LINE
  5
70
  8
LAYER_1
 10
43.686684
 20
31.35628
 30
0.0
 11
45.809253
 21
33.907051
 31
0.0
  0
LINE
  5
71
  8
LAYER_1
 10
45.809253
 20
33.907051
 30
0.0
 11
47.98412
 21
36.843676
 31
0.0
  0
LINE
  5
72
  8
LAYER_1
 10
47.98412
 20
36.843676
 30
0.0
 11
50.180223
 21
40.136188
 31
0.0
  0
LINE
  5
C1F
  8
LAYER_1
 10
50.180223
 20
40.136188
 30
0.0
 11
51.758381
 21
42.767608
 31
0.0
  0
LINE
  5
C20
  8
LAYER_1
 10
51.758381
 20
42.767608
 30
0.0
 11
53.16901
 21
45.464192
 31
0.0
  0
LINE
  5
C21
  8
LAYER_1
 10
53.16901
 20
45.464192
 30
0.0
 11
54.534211
 21
48.477085
 31
0.0
  0
LINE
  5
C22
  8
LAYER_1
 10
54.534211
 20
48.477085
 30
0.0
 11
55.976085
 21
52.05743
 31
0.0
  0
LINE
  5
77
  8
LAYER_1
 10
55.976085
 20
52.05743
 30
0.0
 11
57.977357
 21
57.5967
 31
0.0
  0
LINE
  5
78
  8
LAYER_1
 10
57.977357
 20
57.5967
 30
0.0
 11
60.018205
 21
63.750292
 31
0.0
  0
LINE
  5
79
  8
LAYER_1
 10
60.018205
 20
63.750292
 30
0.0
 11
61.604831
 21
68.969993
 31
0.0
  0
LINE
  5
7A
  8
LAYER_1
 10
61.604831
 20
68.969993
 30
0.0
 11
62.243439
 21
71.70759200000001
 31
0.0
  0
LINE
  5
7B
  8
LAYER_1
 10
62.243439
 20
71.70759200000001
 30
0.0
 11
62.20106
 21
71.97111700000001
 31
0.0
  0
LINE
  5
7C
  8
LAYER_1
 10
62.20106
 20
71.97111700000001
 30
0.0
 11
62.028047
 21
72.103972
 31
0.0
  0
LINE
  5
7D
  8
LAYER_1
 10
62.028047
 20
72.103972
 30
0.0
 11
61.014881
 21
72.055646
 31
0.0
  0
LINE
  5
7E
  8
LAYER_1
 10
61.014881
 20
72.055646
 30
0.0
 11
59.893836
 21
72.03739
 31
0.0
  0
LINE
  5
7F
  8
LAYER_1
 10
59.893836
 20
72.03739
 30
0.0
 11
59.156487
 21
72.55493300000001
 31
0.0
  0
LINE
  5
80
  8
LAYER_1
 10
59.156487
 20
72.55493300000001
 30
0.0
 11
58.407646
 21
73.475775
 31
0.0
  0
LINE
  5
81
  8
LAYER_1
 10
58.407646
 20
73.475775
 30
0.0
 11
57.963434
 21
74.388023
 31
0.0
  0
LINE
  5
82
  8
LAYER_1
 10
57.963434
 20
74.388023
 30
0.0
 11
57.779715
 21
75.42896399999999
 31
0.0
  0
LINE
  5
83
  8
LAYER_1
 10
57.779715
 20
75.42896399999999
 30
0.0
 11
57.81235
 21
76.735889
 31
0.0
  0
LINE
  5
84
  8
LAYER_1
 10
57.81235
 20
76.735889
 30
0.0
 11
58.137862
 21
79.018429
 31
0.0
  0
LINE
  5
85
  8
LAYER_1
 10
58.137862
 20
79.018429
 30
0.0
 11
58.131371
 21
79.24115500000001
 31
0.0
  0
LINE
  5
86
  8
LAYER_1
 10
58.131371
 20
79.24115500000001
 30
0.0
 11
57.794367
 21
79.356973
 31
0.0
  0
LINE
  5
87
  8
LAYER_1
 10
57.794367
 20
79.356973
 30
0.0
 11
55.540563
 21
79.34093
 31
0.0
  0
LINE
  5
88
  8
LAYER_1
 10
55.540563
 20
79.34093
 30
0.0
 11
52.889818
 21
79.41757200000001
 31
0.0
  0
LINE
  5
89
  8
LAYER_1
 10
52.889818
 20
79.41757200000001
 30
0.0
 11
51.905801
 21
79.625444
 31
0.0
  0
LINE
  5
8A
  8
LAYER_1
 10
51.905801
 20
79.625444
 30
0.0
 11
51.123137
 21
79.961747
 31
0.0
  0
LINE
  5
8B
  8
LAYER_1
 10
51.123137
 20
79.961747
 30
0.0
 11
50.52216
 21
80.43803
 31
0.0
  0
LINE
  5
8C
  8
LAYER_1
 10
50.52216
 20
80.43803
 30
0.0
 11
50.083208
 21
81.065842
 31
0.0
  0
LINE
  5
8D
  8
LAYER_1
 10
50.083208
 20
81.065842
 30
0.0
 11
49.786615
 21
81.85673
 31
0.0
  0
LINE
  5
8E
  8
LAYER_1
 10
49.786615
 20
81.85673
 30
0.0
 11
49.612719
 21
82.822243
 31
0.0
  0
LINE
  5
8F
  8
LAYER_1
 10
49.612719
 20
82.822243
 30
0.0
 11
49.470033
 21
84.08817000000001
 31
0.0
  0
LINE
  5
90
  8
LAYER_1
 10
49.470033
 20
84.08817000000001
 30
0.0
 11
48.272217
 21
84.08817000000001
 31
0.0
  0
LINE
  5
91
  8
LAYER_1
 10
48.272217
 20
84.08817000000001
 30
0.0
 11
47.049273
 21
84.209335
 31
0.0
  0
LINE
  5
C23
  8
LAYER_1
 10
47.049273
 20
84.209335
 30
0.0
 11
45.803759
 21
84.55538
 31
0.0
  0
LINE
  5
C24
  8
LAYER_1
 10
45.803759
 20
84.55538
 30
0.0
 11
44.607417
 21
85.10013600000001
 31
0.0
  0
LINE
  5
94
  8
LAYER_1
 10
44.607417
 20
85.10013600000001
 30
0.0
 11
43.531988
 21
85.817431
 31
0.0
  0
LINE
  5
95
  8
LAYER_1
 10
43.531988
 20
85.817431
 30
0.0
 11
42.654084
 21
86.378748
 31
0.0
  0
LINE
  5
96
  8
LAYER_1
 10
42.654084
 20
86.378748
 30
0.0
 11
42.049531
 21
86.520347
 31
0.0
  0
LINE
  5
C25
  8
LAYER_1
 10
42.049531
 20
86.520347
 30
0.0
 11
41.489944
 21
86.00678000000001
 31
0.0
  0
LINE
  5
C26
  8
LAYER_1
 10
41.489944
 20
86.00678000000001
 30
0.0
 11
40.75988
 21
84.95546899999999
 31
0.0
  0
LINE
  5
99
  8
LAYER_1
 10
40.75988
 20
84.95546899999999
 30
0.0
 11
39.397031
 21
82.225269
 31
0.0
  0
LINE
  5
9A
  8
LAYER_1
 10
39.397031
 20
82.225269
 30
0.0
 11
38.755284
 21
79.80857500000001
 31
0.0
  0
LINE
  5
9B
  8
LAYER_1
 10
38.755284
 20
79.80857500000001
 30
0.0
 11
37.983188
 21
76.058449
 31
0.0
  0
LINE
  5
9C
  8
LAYER_1
 10
37.983188
 20
76.058449
 30
0.0
 11
37.037542
 21
71.666304
 31
0.0
  0
LINE
  5
9D
  8
LAYER_1
 10
37.037542
 20
71.666304
 30
0.0
 11
36.528605
 21
70.01672000000001
 31
0.0
  0
LINE
  5
9E
  8
LAYER_1
 10
36.528605
 20
70.01672000000001
 30
0.0
 11
35.947865
 21
68.634871
 31
0.0
  0
LINE
  5
9F
  8
LAYER_1
 10
35.947865
 20
68.634871
 30
0.0
 11
35.259529
 21
67.44831499999999
 31
0.0
  0
LINE
  5
A0
  8
LAYER_1
 10
35.259529
 20
67.44831499999999
 30
0.0
 11
34.4278
 21
66.384607
 31
0.0
  0
LINE
  5
A1
  8
LAYER_1
 10
34.4278
 20
66.384607
 30
0.0
 11
32.190989
 21
64.33597
 31
0.0
  0
LINE
  5
A2
  8
LAYER_1
 10
32.190989
 20
64.33597
 30
0.0
 11
30.538744
 21
63.241024
 31
0.0
  0
LINE
  5
A3
  8
LAYER_1
 10
30.538744
 20
63.241024
 30
0.0
 11
28.708905
 21
62.549744
 31
0.0
  0
LINE
  5
A4
  8
LAYER_1
 10
28.708905
 20
62.549744
 30
0.0
 11
26.408995
 21
62.187519
 31
0.0
  0
LINE
  5
A5
  8
LAYER_1
 10
26.408995
 20
62.187519
 30
0.0
 11
23.346534
 21
62.079736
 31
0.0
  0
LINE
  5
A6
  8
LAYER_1
 10
23.346534
 20
62.079736
 30
0.0
 11
20.340807
 21
62.209384
 31
0.0
  0
LINE
  5
A7
  8
LAYER_1
 10
20.340807
 20
62.209384
 30
0.0
 11
17.984312
 21
62.798616
 31
0.0
  0
LINE
  5
A8
  8
LAYER_1
 10
17.984312
 20
62.798616
 30
0.0
 11
15.22196
 21
63.908409
 31
0.0
  0
LINE
  5
A9
  8
LAYER_1
 10
15.22196
 20
63.908409
 30
0.0
 11
14.849044
 21
64.081163
 31
0.0
  0
LINE
  5
AA
  8
LAYER_1
 10
14.849044
 20
64.081163
 30
0.0
 11
14.432205
 21
64.038292
 31
0.0
  0
LINE
  5
AB
  8
LAYER_1
 10
14.432205
 20
64.038292
 30
0.0
 11
12.822247
 21
63.084352
 31
0.0
  0
LINE
  5
AC
  8
LAYER_1
 10
12.822247
 20
63.084352
 30
0.0
 11
10.59895
 21
61.316881
 31
0.0
  0
LINE
  5
AD
  8
LAYER_1
 10
10.59895
 20
61.316881
 30
0.0
 11
8.979123
 21
59.442832
 31
0.0
  0
LINE
  5
AE
  8
LAYER_1
 10
8.979123
 20
59.442832
 30
0.0
 11
8.419522000000001
 21
58.50095
 31
0.0
  0
LINE
  5
AF
  8
LAYER_1
 10
8.419522000000001
 20
58.50095
 30
0.0
 11
8.039600999999999
 21
57.574554
 31
0.0
  0
LINE
  5
B0
  8
LAYER_1
 10
8.039600999999999
 20
57.574554
 30
0.0
 11
7.848965
 21
56.677689
 31
0.0
  0
LINE
  5
B1
  8
LAYER_1
 10
7.848965
 20
56.677689
 30
0.0
 11
7.857219
 21
55.824397
 31
0.0
  0
LINE
  5
B2
  8
LAYER_1
 10
7.857219
 20
55.824397
 30
0.0
 11
7.884215
 21
55.012069
 31
0.0
  0
LINE
  5
B3
  8
LAYER_1
 10
7.884215
 20
55.012069
 30
0.0
 11
7.677138
 21
54.74138
 31
0.0
  0
LINE
  5
B4
  8
LAYER_1
 10
7.677138
 20
54.74138
 30
0.0
 11
7.280331
 21
54.824008
 31
0.0
  0
LINE
  5
B5
  8
LAYER_1
 10
7.280331
 20
54.824008
 30
0.0
 11
6.917083
 21
55.088921
 31
0.0
  0
LINE
  5
B6
  8
LAYER_1
 10
6.917083
 20
55.088921
 30
0.0
 11
6.125658
 21
56.335795
 31
0.0
  0
LINE
  5
B7
  8
LAYER_1
 10
6.125658
 20
56.335795
 30
0.0
 11
5.443443
 21
57.317977
 31
0.0
  0
LINE
  5
B8
  8
LAYER_1
 10
5.443443
 20
57.317977
 30
0.0
 11
4.552667
 21
57.833692
 31
0.0
  0
LINE
  5
B9
  8
LAYER_1
 10
4.552667
 20
57.833692
 30
0.0
 11
3.674879
 21
58.34251
 31
0.0
  0
LINE
  5
BA
  8
LAYER_1
 10
3.674879
 20
58.34251
 30
0.0
 11
3.095994
 21
59.411766
 31
0.0
  0
LINE
  5
BB
  8
LAYER_1
 10
3.095994
 20
59.411766
 30
0.0
 11
2.787391
 21
60.742421
 31
0.0
  0
LINE
  5
BC
  8
LAYER_1
 10
2.787391
 20
60.742421
 30
0.0
 11
2.762838
 21
62.246798
 31
0.0
  0
LINE
  5
BD
  8
LAYER_1
 10
2.762838
 20
62.246798
 30
0.0
 11
3.010485
 21
63.764399
 31
0.0
  0
LINE
  5
BE
  8
LAYER_1
 10
3.010485
 20
63.764399
 30
0.0
 11
3.518484
 21
65.13472400000001
 31
0.0
  0
LINE
  5
BF
  8
LAYER_1
 10
3.518484
 20
65.13472400000001
 30
0.0
 11
3.910838
 21
66.083175
 31
0.0
  0
LINE
  5
C0
  8
LAYER_1
 10
3.910838
 20
66.083175
 30
0.0
 11
3.901087
 21
66.316316
 31
0.0
  0
LINE
  5
C1
  8
LAYER_1
 10
3.901087
 20
66.316316
 30
0.0
 11
3.76146
 21
66.42817100000001
 31
0.0
  0
LINE
  5
C2
  8
LAYER_1
 10
3.76146
 20
66.42817100000001
 30
0.0
 11
0.879869
 21
67.437521
 31
0.0
  0
LINE
  5
C3
  8
LAYER_1
 10
0.879869
 20
67.437521
 30
0.0
 11
-1.121585
 21
68.475489
 31
0.0
  0
LINE
  5
C4
  8
LAYER_1
 10
-1.121585
 20
68.475489
 30
0.0
 11
-1.806604
 21
69.014872
 31
0.0
  0
LINE
  5
C5
  8
LAYER_1
 10
-1.806604
 20
69.014872
 30
0.0
 11
-2.2888
 21
69.573008
 31
0.0
  0
LINE
  5
C6
  8
LAYER_1
 10
-2.2888
 20
69.573008
 30
0.0
 11
-2.57391
 21
70.15376600000001
 31
0.0
  0
LINE
  5
C7
  8
LAYER_1
 10
-2.57391
 20
70.15376600000001
 30
0.0
 11
-2.667672
 21
70.761011
 31
0.0
  0
LINE
  5
C8
  8
LAYER_1
 10
-2.667672
 20
70.761011
 30
0.0
 11
-2.528933
 21
71.452028
 31
0.0
  0
LINE
  5
C9
  8
LAYER_1
 10
-2.528933
 20
71.452028
 30
0.0
 11
-1.971233
 21
71.816086
 31
0.0
  0
LINE
  5
CA
  8
LAYER_1
 10
-1.971233
 20
71.816086
 30
0.0
 11
-0.782347
 21
71.90867299999999
 31
0.0
  0
LINE
  5
CB
  8
LAYER_1
 10
-0.782347
 20
71.90867299999999
 30
0.0
 11
1.249951
 21
71.785274
 31
0.0
  0
LINE
  5
CC
  8
LAYER_1
 10
1.249951
 20
71.785274
 30
0.0
 11
3.420169
 21
71.640174
 31
0.0
  0
LINE
  5
CD
  8
LAYER_1
 10
3.420169
 20
71.640174
 30
0.0
 11
4.986878
 21
71.68333199999999
 31
0.0
  0
LINE
  5
CE
  8
LAYER_1
 10
4.986878
 20
71.68333199999999
 30
0.0
 11
6.428881
 21
71.966713
 31
0.0
  0
LINE
  5
CF
  8
LAYER_1
 10
6.428881
 20
71.966713
 30
0.0
 11
8.224983
 21
72.542281
 31
0.0
  0
LINE
  5
D0
  8
LAYER_1
 10
8.224983
 20
72.542281
 30
0.0
 11
10.118715
 21
73.142089
 31
0.0
  0
LINE
  5
D1
  8
LAYER_1
 10
10.118715
 20
73.142089
 30
0.0
 11
11.254055
 21
73.352423
 31
0.0
  0
LINE
  5
D2
  8
LAYER_1
 10
11.254055
 20
73.352423
 30
0.0
 11
11.557428
 21
73.311953
 31
0.0
  0
LINE
  5
D3
  8
LAYER_1
 10
11.557428
 20
73.311953
 30
0.0
 11
11.695323
 21
73.174612
 31
0.0
  0
LINE
  5
D4
  8
LAYER_1
 10
11.695323
 20
73.174612
 30
0.0
 11
11.506843
 21
72.609984
 31
0.0
  0
LINE
  5
D5
  8
LAYER_1
 10
11.506843
 20
72.609984
 30
0.0
 11
10.879858
 21
72.109629
 31
0.0
  0
LINE
  5
D6
  8
LAYER_1
 10
10.879858
 20
72.109629
 30
0.0
 11
9.716975
 21
71.512942
 31
0.0
  0
LINE
  5
D7
  8
LAYER_1
 10
9.716975
 20
71.512942
 30
0.0
 11
8.318451
 21
70.95524399999999
 31
0.0
  0
LINE
  5
D8
  8
LAYER_1
 10
8.318451
 20
70.95524399999999
 30
0.0
 11
6.984548
 21
70.57186
 31
0.0
  0
LINE
  5
D9
  8
LAYER_1
 10
6.984548
 20
70.57186
 30
0.0
 11
4.916832
 21
70.34848100000001
 31
0.0
  0
LINE
  5
DA
  8
LAYER_1
 10
4.916832
 20
70.34848100000001
 30
0.0
 11
2.045659
 21
70.25036299999999
 31
0.0
  0
LINE
  5
DB
  8
LAYER_1
 10
2.045659
 20
70.25036299999999
 30
0.0
 11
-1.397672
 21
70.241445
 31
0.0
  0
LINE
  5
DC
  8
LAYER_1
 10
-1.397672
 20
70.241445
 30
0.0
 11
-0.635429
 21
69.570273
 31
0.0
  0
LINE
  5
DD
  8
LAYER_1
 10
-0.635429
 20
69.570273
 30
0.0
 11
0.448734
 21
68.860854
 31
0.0
  0
LINE
  5
DE
  8
LAYER_1
 10
0.448734
 20
68.860854
 30
0.0
 11
1.844095
 21
68.26330400000001
 31
0.0
  0
LINE
  5
DF
  8
LAYER_1
 10
1.844095
 20
68.26330400000001
 30
0.0
 11
3.255522
 21
67.880684
 31
0.0
  0
LINE
  5
E0
  8
LAYER_1
 10
3.255522
 20
67.880684
 30
0.0
 11
4.387884
 21
67.81606100000001
 31
0.0
  0
LINE
  5
E1
  8
LAYER_1
 10
4.387884
 20
67.81606100000001
 30
0.0
 11
6.711207
 21
68.157113
 31
0.0
  0
LINE
  5
E2
  8
LAYER_1
 10
6.711207
 20
68.157113
 30
0.0
 11
7.842265
 21
68.227925
 31
0.0
  0
LINE
  5
E3
  8
LAYER_1
 10
7.842265
 20
68.227925
 30
0.0
 11
8.093864
 21
68.100347
 31
0.0
  0
LINE
  5
E4
  8
LAYER_1
 10
8.093864
 20
68.100347
 30
0.0
 11
8.244016
 21
67.84194100000001
 31
0.0
  0
LINE
  5
E5
  8
LAYER_1
 10
8.244016
 20
67.84194100000001
 30
0.0
 11
8.210336
 21
67.312921
 31
0.0
  0
LINE
  5
E6
  8
LAYER_1
 10
8.210336
 20
67.312921
 30
0.0
 11
7.614028
 21
66.747469
 31
0.0
  0
LINE
  5
E7
  8
LAYER_1
 10
7.614028
 20
66.747469
 30
0.0
 11
5.927072
 21
65.346665
 31
0.0
  0
LINE
  5
E8
  8
LAYER_1
 10
5.927072
 20
65.346665
 30
0.0
 11
4.777647
 21
63.932281
 31
0.0
  0
LINE
  5
E9
  8
LAYER_1
 10
4.777647
 20
63.932281
 30
0.0
 11
4.237662
 21
62.62036
 31
0.0
  0
LINE
  5
EA
  8
LAYER_1
 10
4.237662
 20
62.62036
 30
0.0
 11
4.21868
 21
62.039087
 31
0.0
  0
LINE
  5
EB
  8
LAYER_1
 10
4.21868
 20
62.039087
 30
0.0
 11
4.379025
 21
61.526945
 31
0.0
  0
LINE
  5
EC
  8
LAYER_1
 10
4.379025
 20
61.526945
 30
0.0
 11
4.730077
 21
61.071898
 31
0.0
  0
LINE
  5
ED
  8
LAYER_1
 10
4.730077
 20
61.071898
 30
0.0
 11
5.092975
 21
61.009053
 31
0.0
  0
LINE
  5
EE
  8
LAYER_1
 10
5.092975
 20
61.009053
 30
0.0
 11
5.476149
 21
61.341455
 31
0.0
  0
LINE
  5
EF
  8
LAYER_1
 10
5.476149
 20
61.341455
 30
0.0
 11
5.88803
 21
62.07215
 31
0.0
  0
LINE
  5
F0
  8
LAYER_1
 10
5.88803
 20
62.07215
 30
0.0
 11
6.562838
 21
63.174485
 31
0.0
  0
LINE
  5
F1
  8
LAYER_1
 10
6.562838
 20
63.174485
 30
0.0
 11
7.575021
 21
64.47166300000001
 31
0.0
  0
LINE
  5
F2
  8
LAYER_1
 10
7.575021
 20
64.47166300000001
 30
0.0
 11
8.641859999999999
 21
65.629796
 31
0.0
  0
LINE
  5
F3
  8
LAYER_1
 10
8.641859999999999
 20
65.629796
 30
0.0
 11
9.480639999999999
 21
66.31499700000001
 31
0.0
  0
LINE
  5
F4
  8
LAYER_1
 10
9.480639999999999
 20
66.31499700000001
 30
0.0
 11
9.948907
 21
66.454393
 31
0.0
  0
LINE
  5
F5
  8
LAYER_1
 10
9.948907
 20
66.454393
 30
0.0
 11
10.401839
 21
66.41560699999999
 31
0.0
  0
LINE
  5
F6
  8
LAYER_1
 10
10.401839
 20
66.41560699999999
 30
0.0
 11
10.74376
 21
66.226119
 31
0.0
  0
LINE
  5
F7
  8
LAYER_1
 10
10.74376
 20
66.226119
 30
0.0
 11
10.878995
 21
65.913404
 31
0.0
  0
LINE
  5
F8
  8
LAYER_1
 10
10.878995
 20
65.913404
 30
0.0
 11
10.496131
 21
65.30765100000001
 31
0.0
  0
LINE
  5
F9
  8
LAYER_1
 10
10.496131
 20
65.30765100000001
 30
0.0
 11
9.575628
 21
64.320821
 31
0.0
  0
LINE
  5
FA
  8
LAYER_1
 10
9.575628
 20
64.320821
 30
0.0
 11
7.435654
 21
61.902399
 31
0.0
  0
LINE
  5
FB
  8
LAYER_1
 10
7.435654
 20
61.902399
 30
0.0
 11
6.850347
 21
60.925496
 31
0.0
  0
LINE
  5
FC
  8
LAYER_1
 10
6.850347
 20
60.925496
 30
0.0
 11
6.645661
 21
60.184637
 31
0.0
  0
LINE
  5
FD
  8
LAYER_1
 10
6.645661
 20
60.184637
 30
0.0
 11
6.723867
 21
59.914323
 31
0.0
  0
LINE
  5
FE
  8
LAYER_1
 10
6.723867
 20
59.914323
 30
0.0
 11
7.036478
 21
60.028679
 31
0.0
  0
LINE
  5
FF
  8
LAYER_1
 10
7.036478
 20
60.028679
 30
0.0
 11
8.832884
 21
61.74532
 31
0.0
  0
LINE
  5
100
  8
LAYER_1
 10
8.832884
 20
61.74532
 30
0.0
 11
10.905975
 21
63.639253
 31
0.0
  0
LINE
  5
101
  8
LAYER_1
 10
10.905975
 20
63.639253
 30
0.0
 11
12.752425
 21
64.851303
 31
0.0
  0
LINE
  5
102
  8
LAYER_1
 10
12.752425
 20
64.851303
 30
0.0
 11
14.484745
 21
65.71998000000001
 31
0.0
  0
LINE
  5
103
  8
LAYER_1
 10
14.484745
 20
65.71998000000001
 30
0.0
 11
16.844648
 21
64.761449
 31
0.0
  0
LINE
  5
104
  8
LAYER_1
 10
16.844648
 20
64.761449
 30
0.0
 11
20.053726
 21
63.737579
 31
0.0
  0
LINE
  5
105
  8
LAYER_1
 10
20.053726
 20
63.737579
 30
0.0
 11
23.220977
 21
63.269278
 31
0.0
  0
LINE
  5
106
  8
LAYER_1
 10
23.220977
 20
63.269278
 30
0.0
 11
26.257129
 21
63.36195
 31
0.0
  0
LINE
  5
107
  8
LAYER_1
 10
26.257129
 20
63.36195
 30
0.0
 11
27.698144
 21
63.620341
 31
0.0
  0
LINE
  5
108
  8
LAYER_1
 10
27.698144
 20
63.620341
 30
0.0
 11
29.072908
 21
64.021002
 31
0.0
  0
LINE
  5
109
  8
LAYER_1
 10
29.072908
 20
64.021002
 30
0.0
 11
30.534085
 21
64.652379
 31
0.0
  0
LINE
  5
10A
  8
LAYER_1
 10
30.534085
 20
64.652379
 30
0.0
 11
31.759338
 21
65.46701
 31
0.0
  0
LINE
  5
10B
  8
LAYER_1
 10
31.759338
 20
65.46701
 30
0.0
 11
32.860597
 21
66.556502
 31
0.0
  0
LINE
  5
10C
  8
LAYER_1
 10
32.860597
 20
66.556502
 30
0.0
 11
33.949792
 21
68.01246500000001
 31
0.0
  0
LINE
  5
10D
  8
LAYER_1
 10
33.949792
 20
68.01246500000001
 30
0.0
 11
34.974583
 21
69.71729499999999
 31
0.0
  0
LINE
  5
10E
  8
LAYER_1
 10
34.974583
 20
69.71729499999999
 30
0.0
 11
35.716233
 21
71.40005100000001
 31
0.0
  0
LINE
  5
10F
  8
LAYER_1
 10
35.716233
 20
71.40005100000001
 30
0.0
 11
36.226253
 21
73.20423200000001
 31
0.0
  0
LINE
  5
110
  8
LAYER_1
 10
36.226253
 20
73.20423200000001
 30
0.0
 11
36.556154
 21
75.273343
 31
0.0
  0
LINE
  5
111
  8
LAYER_1
 10
36.556154
 20
75.273343
 30
0.0
 11
36.921691
 21
77.594183
 31
0.0
  0
LINE
  5
112
  8
LAYER_1
 10
36.921691
 20
77.594183
 30
0.0
 11
37.405056
 21
79.712828
 31
0.0
  0
LINE
  5
113
  8
LAYER_1
 10
37.405056
 20
79.712828
 30
0.0
 11
37.792149
 21
81.371668
 31
0.0
  0
LINE
  5
114
  8
LAYER_1
 10
37.792149
 20
81.371668
 30
0.0
 11
37.941696
 21
82.820353
 31
0.0
  0
LINE
  5
115
  8
LAYER_1
 10
37.941696
 20
82.820353
 30
0.0
 11
37.855324
 21
84.055504
 31
0.0
  0
LINE
  5
116
  8
LAYER_1
 10
37.855324
 20
84.055504
 30
0.0
 11
37.534658
 21
85.073741
 31
0.0
  0
LINE
  5
117
  8
LAYER_1
 10
37.534658
 20
85.073741
 30
0.0
 11
36.981327
 21
85.871685
 31
0.0
  0
LINE
  5
118
  8
LAYER_1
 10
36.981327
 20
85.871685
 30
0.0
 11
36.196955
 21
86.445955
 31
0.0
  0
LINE
  5
119
  8
LAYER_1
 10
36.196955
 20
86.445955
 30
0.0
 11
35.183169
 21
86.793172
 31
0.0
  0
LINE
  5
11A
  8
LAYER_1
 10
35.183169
 20
86.793172
 30
0.0
 11
33.941597
 21
86.909955
 31
0.0
  0
LINE
  5
11B
  8
LAYER_1
 10
33.941597
 20
86.909955
 30
0.0
 11
32.251791
 21
86.703515
 31
0.0
  0
LINE
  5
11C
  8
LAYER_1
 10
32.251791
 20
86.703515
 30
0.0
 11
30.783653
 21
86.09432
 31
0.0
  0
LINE
  5
11D
  8
LAYER_1
 10
30.783653
 20
86.09432
 30
0.0
 11
29.565537
 21
85.099301
 31
0.0
  0
LINE
  5
11E
  8
LAYER_1
 10
29.565537
 20
85.099301
 30
0.0
 11
28.625794
 21
83.735393
 31
0.0
  0
LINE
  5
11F
  8
LAYER_1
 10
28.625794
 20
83.735393
 30
0.0
 11
28.191524
 21
83.023751
 31
0.0
  0
LINE
  5
120
  8
LAYER_1
 10
28.191524
 20
83.023751
 30
0.0
 11
27.844111
 21
82.719472
 31
0.0
  0
LINE
  5
121
  8
LAYER_1
 10
27.844111
 20
82.719472
 30
0.0
 11
27.613618
 21
82.832504
 31
0.0
  0
LINE
  5
122
  8
LAYER_1
 10
27.613618
 20
82.832504
 30
0.0
 11
27.530106
 21
83.372793
 31
0.0
  0
LINE
  5
123
  8
LAYER_1
 10
27.530106
 20
83.372793
 30
0.0
 11
27.777773
 21
84.191672
 31
0.0
  0
LINE
  5
124
  8
LAYER_1
 10
27.777773
 20
84.191672
 30
0.0
 11
28.463521
 21
85.09058
 31
0.0
  0
LINE
  5
125
  8
LAYER_1
 10
28.463521
 20
85.09058
 30
0.0
 11
29.501466
 21
85.980394
 31
0.0
  0
LINE
  5
126
  8
LAYER_1
 10
29.501466
 20
85.980394
 30
0.0
 11
30.805724
 21
86.771991
 31
0.0
  0
LINE
  5
127
  8
LAYER_1
 10
30.805724
 20
86.771991
 30
0.0
 11
32.086589
 21
87.304323
 31
0.0
  0
LINE
  5
128
  8
LAYER_1
 10
32.086589
 20
87.304323
 30
0.0
 11
33.524395
 21
87.554399
 31
0.0
  0
LINE
  5
129
  8
LAYER_1
 10
33.524395
 20
87.554399
 30
0.0
 11
35.569053
 21
87.55454500000001
 31
0.0
  0
LINE
  5
12A
  8
LAYER_1
 10
35.569053
 20
87.55454500000001
 30
0.0
 11
38.670476
 21
87.33709
 31
0.0
  0
LINE
  5
12B
  8
LAYER_1
 10
38.670476
 20
87.33709
 30
0.0
 11
41.485292
 21
87.102148
 31
0.0
  0
LINE
  5
12C
  8
LAYER_1
 10
41.485292
 20
87.102148
 30
0.0
 11
40.672797
 21
88.064605
 31
0.0
  0
LINE
  5
12D
  8
LAYER_1
 10
40.672797
 20
88.064605
 30
0.0
 11
39.803707
 21
89.23199200000001
 31
0.0
  0
LINE
  5
12E
  8
LAYER_1
 10
39.803707
 20
89.23199200000001
 30
0.0
 11
39.167623
 21
90.39922799999999
 31
0.0
  0
LINE
  5
12F
  8
LAYER_1
 10
39.167623
 20
90.39922799999999
 30
0.0
 11
38.76454
 21
91.566424
 31
0.0
  0
LINE
  5
130
  8
LAYER_1
 10
38.76454
 20
91.566424
 30
0.0
 11
38.594452
 21
92.73369
 31
0.0
  0
LINE
  5
131
  8
LAYER_1
 10
38.594452
 20
92.73369
 30
0.0
 11
38.657354
 21
93.90113599999999
 31
0.0
  0
LINE
  5
132
  8
LAYER_1
 10
38.657354
 20
93.90113599999999
 30
0.0
 11
38.953242
 21
95.06887500000001
 31
0.0
  0
LINE
  5
133
  8
LAYER_1
 10
38.953242
 20
95.06887500000001
 30
0.0
 11
39.482111
 21
96.237015
 31
0.0
  0
LINE
  5
134
  8
LAYER_1
 10
39.482111
 20
96.237015
 30
0.0
 11
40.243955
 21
97.405669
 31
0.0
  0
LINE
  5
135
  8
LAYER_1
 10
40.243955
 20
97.405669
 30
0.0
 11
41.3021
 21
98.535038
 31
0.0
  0
LINE
  5
136
  8
LAYER_1
 10
41.3021
 20
98.535038
 30
0.0
 11
42.765873
 21
99.80749400000001
 31
0.0
  0
LINE
  5
137
  8
LAYER_1
 10
42.765873
 20
99.80749400000001
 30
0.0
 11
44.174697
 21
100.85161
 31
0.0
  0
LINE
  5
138
  8
LAYER_1
 10
44.174697
 20
100.85161
 30
0.0
 11
45.067996
 21
101.295961
 31
0.0
  0
LINE
  5
139
  8
LAYER_1
 10
45.067996
 20
101.295961
 30
0.0
 11
45.448942
 21
98.513284
 31
0.0
  0
LINE
  5
13A
  8
LAYER_1
 10
45.448942
 20
98.513284
 30
0.0
 11
45.648666
 21
95.722836
 31
0.0
  0
LINE
  5
13B
  8
LAYER_1
 10
45.648666
 20
95.722836
 30
0.0
 11
44.330558
 21
94.50784899999999
 31
0.0
  0
LINE
  5
13C
  8
LAYER_1
 10
44.330558
 20
94.50784899999999
 30
0.0
 11
42.709034
 21
92.74008600000001
 31
0.0
  0
LINE
  5
13D
  8
LAYER_1
 10
42.709034
 20
92.74008600000001
 30
0.0
 11
42.196089
 21
91.913426
 31
0.0
  0
LINE
  5
13E
  8
LAYER_1
 10
42.196089
 20
91.913426
 30
0.0
 11
41.877512
 21
91.109972
 31
0.0
  0
LINE
  5
13F
  8
LAYER_1
 10
41.877512
 20
91.109972
 30
0.0
 11
41.750169
 21
90.318519
 31
0.0
  0
LINE
  5
140
  8
LAYER_1
 10
41.750169
 20
90.318519
 30
0.0
 11
41.810927
 21
89.527861
 31
0.0
  0
LINE
  5
141
  8
LAYER_1
 10
41.810927
 20
89.527861
 30
0.0
 11
42.056653
 21
88.726793
 31
0.0
  0
LINE
  5
142
  8
LAYER_1
 10
42.056653
 20
88.726793
 30
0.0
 11
42.484215
 21
87.90410799999999
 31
0.0
  0
LINE
  5
143
  8
LAYER_1
 10
42.484215
 20
87.90410799999999
 30
0.0
 11
43.019043
 21
87.296719
 31
0.0
  0
LINE
  5
144
  8
LAYER_1
 10
43.019043
 20
87.296719
 30
0.0
 11
43.761214
 21
86.847235
 31
0.0
  0
LINE
  5
145
  8
LAYER_1
 10
43.761214
 20
86.847235
 30
0.0
 11
44.689235
 21
86.55658800000001
 31
0.0
  0
LINE
  5
146
  8
LAYER_1
 10
44.689235
 20
86.55658800000001
 30
0.0
 11
45.781611
 21
86.425713
 31
0.0
  0
LINE
  5
147
  8
LAYER_1
 10
45.781611
 20
86.425713
 30
0.0
 11
47.016845
 21
86.45554300000001
 31
0.0
  0
LINE
  5
148
  8
LAYER_1
 10
47.016845
 20
86.45554300000001
 30
0.0
 11
48.373443
 21
86.64701
 31
0.0
  0
LINE
  5
149
  8
LAYER_1
 10
48.373443
 20
86.64701
 30
0.0
 11
51.364752
 21
87.51859
 31
0.0
  0
LINE
  5
14A
  8
LAYER_1
 10
51.364752
 20
87.51859
 30
0.0
 11
52.930106
 21
88.29428299999999
 31
0.0
  0
LINE
  5
14B
  8
LAYER_1
 10
52.930106
 20
88.29428299999999
 30
0.0
 11
51.655432
 21
89.70626900000001
 31
0.0
  0
LINE
  5
14C
  8
LAYER_1
 10
51.655432
 20
89.70626900000001
 30
0.0
 11
50.79196
 21
90.63909
 31
0.0
  0
LINE
  5
14D
  8
LAYER_1
 10
50.79196
 20
90.63909
 30
0.0
 11
50.304053
 21
91.475466
 31
0.0
  0
LINE
  5
14E
  8
LAYER_1
 10
50.304053
 20
91.475466
 30
0.0
 11
50.123353
 21
92.39492300000001
 31
0.0
  0
LINE
  5
14F
  8
LAYER_1
 10
50.123353
 20
92.39492300000001
 30
0.0
 11
50.181499
 21
93.576984
 31
0.0
  0
LINE
  5
150
  8
LAYER_1
 10
50.181499
 20
93.576984
 30
0.0
 11
50.410442
 21
94.524542
 31
0.0
  0
LINE
  5
151
  8
LAYER_1
 10
50.410442
 20
94.524542
 30
0.0
 11
50.843493
 21
95.353516
 31
0.0
  0
LINE
  5
152
  8
LAYER_1
 10
50.843493
 20
95.353516
 30
0.0
 11
51.432664
 21
95.994879
 31
0.0
  0
LINE
  5
153
  8
LAYER_1
 10
51.432664
 20
95.994879
 30
0.0
 11
52.129964
 21
96.379603
 31
0.0
  0
LINE
  5
154
  8
LAYER_1
 10
52.129964
 20
96.379603
 30
0.0
 11
53.109874
 21
96.418526
 31
0.0
  0
LINE
  5
155
  8
LAYER_1
 10
53.109874
 20
96.418526
 30
0.0
 11
54.460006
 21
96.140644
 31
0.0
  0
LINE
  5
156
  8
LAYER_1
 10
54.460006
 20
96.140644
 30
0.0
 11
55.906402
 21
95.62381000000001
 31
0.0
  0
LINE
  5
157
  8
LAYER_1
 10
55.906402
 20
95.62381000000001
 30
0.0
 11
57.175104
 21
94.945877
 31
0.0
  0
LINE
  5
158
  8
LAYER_1
 10
57.175104
 20
94.945877
 30
0.0
 11
58.192289
 21
94.36520400000001
 31
0.0
  0
LINE
  5
159
  8
LAYER_1
 10
58.192289
 20
94.36520400000001
 30
0.0
 11
58.918831
 21
94.167518
 31
0.0
  0
LINE
  5
15A
  8
LAYER_1
 10
58.918831
 20
94.167518
 30
0.0
 11
59.308787
 21
94.353308
 31
0.0
  0
LINE
  5
15B
  8
LAYER_1
 10
59.308787
 20
94.353308
 30
0.0
 11
59.316216
 21
94.923062
 31
0.0
  0
LINE
  5
15C
  8
LAYER_1
 10
59.316216
 20
94.923062
 30
0.0
 11
58.565299
 21
97.634839
 31
0.0
  0
LINE
  5
15D
  8
LAYER_1
 10
58.565299
 20
97.634839
 30
0.0
 11
58.118282
 21
99.987628
 31
0.0
  0
LINE
  5
15E
  8
LAYER_1
 10
58.118282
 20
99.987628
 30
0.0
 11
58.167637
 21
102.122811
 31
0.0
  0
LINE
  5
15F
  8
LAYER_1
 10
58.167637
 20
102.122811
 30
0.0
 11
58.71626
 21
104.060119
 31
0.0
  0
LINE
  5
160
  8
LAYER_1
 10
58.71626
 20
104.060119
 30
0.0
 11
59.767049
 21
105.819283
 31
0.0
  0
LINE
  5
161
  8
LAYER_1
 10
59.767049
 20
105.819283
 30
0.0
 11
60.368571
 21
106.461823
 31
0.0
  0
LINE
  5
162
  8
LAYER_1
 10
60.368571
 20
106.461823
 30
0.0
 11
61.032392
 21
106.893526
 31
0.0
  0
LINE
  5
163
  8
LAYER_1
 10
61.032392
 20
106.893526
 30
0.0
 11
61.809615
 21
107.138385
 31
0.0
  0
LINE
  5
164
  8
LAYER_1
 10
61.809615
 20
107.138385
 30
0.0
 11
62.751343
 21
107.220392
 31
0.0
  0
LINE
  5
165
  8
LAYER_1
 10
62.751343
 20
107.220392
 30
0.0
 11
64.32373699999999
 21
106.947272
 31
0.0
  0
LINE
  5
166
  8
LAYER_1
 10
64.32373699999999
 20
106.947272
 30
0.0
 11
65.678495
 21
106.171842
 31
0.0
  0
LINE
  5
167
  8
LAYER_1
 10
65.678495
 20
106.171842
 30
0.0
 11
66.686481
 21
105.000505
 31
0.0
  0
LINE
  5
168
  8
LAYER_1
 10
66.686481
 20
105.000505
 30
0.0
 11
67.020079
 21
104.299622
 31
0.0
  0
LINE
  5
169
  8
LAYER_1
 10
67.020079
 20
104.299622
 30
0.0
 11
67.218557
 21
103.539664
 31
0.0
  0
LINE
  5
16A
  8
LAYER_1
 10
67.218557
 20
103.539664
 30
0.0
 11
67.403295
 21
102.757812
 31
0.0
  0
LINE
  5
16B
  8
LAYER_1
 10
67.403295
 20
102.757812
 30
0.0
 11
67.59886899999999
 21
102.432617
 31
0.0
  0
LINE
  5
16C
  8
LAYER_1
 10
67.59886899999999
 20
102.432617
 30
0.0
 11
68.33617099999999
 21
103.632061
 31
0.0
  0
LINE
  5
16D
  8
LAYER_1
 10
68.33617099999999
 20
103.632061
 30
0.0
 11
69.296294
 21
105.462655
 31
0.0
  0
LINE
  5
16E
  8
LAYER_1
 10
69.296294
 20
105.462655
 30
0.0
 11
70.555162
 21
107.360161
 31
0.0
  0
LINE
  5
16F
  8
LAYER_1
 10
70.555162
 20
107.360161
 30
0.0
 11
72.05388600000001
 21
109.263956
 31
0.0
  0
LINE
  5
170
  8
LAYER_1
 10
72.05388600000001
 20
109.263956
 30
0.0
 11
73.733575
 21
111.113414
 31
0.0
  0
LINE
  5
171
  8
LAYER_1
 10
73.733575
 20
111.113414
 30
0.0
 11
75.535338
 21
112.847912
 31
0.0
  0
LINE
  5
172
  8
LAYER_1
 10
75.535338
 20
112.847912
 30
0.0
 11
77.400284
 21
114.406824
 31
0.0
  0
LINE
  5
173
  8
LAYER_1
 10
77.400284
 20
114.406824
 30
0.0
 11
79.269524
 21
115.729526
 31
0.0
  0
LINE
  5
174
  8
LAYER_1
 10
79.269524
 20
115.729526
 30
0.0
 11
81.084166
 21
116.755394
 31
0.0
  0
LINE
  5
175
  8
LAYER_1
 10
81.084166
 20
116.755394
 30
0.0
 11
82.928005
 21
117.451286
 31
0.0
  0
LINE
  5
176
  8
LAYER_1
 10
82.928005
 20
117.451286
 30
0.0
 11
84.648421
 21
117.722052
 31
0.0
  0
LINE
  5
177
  8
LAYER_1
 10
84.648421
 20
117.722052
 30
0.0
 11
86.14116900000001
 21
117.564034
 31
0.0
  0
LINE
  5
178
  8
LAYER_1
 10
86.14116900000001
 20
117.564034
 30
0.0
 11
87.302007
 21
116.973575
 31
0.0
  0
LINE
  5
179
  8
LAYER_1
 10
87.302007
 20
116.973575
 30
0.0
 11
87.855019
 21
116.363832
 31
0.0
  0
LINE
  5
17A
  8
LAYER_1
 10
87.855019
 20
116.363832
 30
0.0
 11
88.369865
 21
115.52194
 31
0.0
  0
LINE
  5
17B
  8
LAYER_1
 10
88.369865
 20
115.52194
 30
0.0
 11
89.22725199999999
 21
113.337708
 31
0.0
  0
LINE
  5
17C
  8
LAYER_1
 10
89.22725199999999
 20
113.337708
 30
0.0
 11
89.758567
 21
110.812883
 31
0.0
  0
LINE
  5
17D
  8
LAYER_1
 10
89.758567
 20
110.812883
 30
0.0
 11
89.848207
 21
108.339471
 31
0.0
  0
LINE
  5
17E
  8
LAYER_1
 10
89.848207
 20
108.339471
 30
0.0
 11
89.76010599999999
 21
107.136761
 31
0.0
  0
LINE
  5
17F
  8
LAYER_1
 10
89.76010599999999
 20
107.136761
 30
0.0
 11
86.94869300000001
 21
106.195801
 31
0.0
  0
LINE
  5
180
  8
LAYER_1
 10
86.94869300000001
 20
106.195801
 30
0.0
 11
83.77369299999999
 21
105.254839
 31
0.0
  0
LINE
  5
181
  8
LAYER_1
 10
83.77369299999999
 20
105.254839
 30
0.0
 11
83.608634
 21
105.352221
 31
0.0
  0
LINE
  5
182
  8
LAYER_1
 10
83.608634
 20
105.352221
 30
0.0
 11
83.495679
 21
105.656872
 31
0.0
  0
LINE
  5
183
  8
LAYER_1
 10
83.495679
 20
105.656872
 30
0.0
 11
83.410106
 21
106.963014
 31
0.0
  0
LINE
  5
184
  8
LAYER_1
 10
83.410106
 20
106.963014
 30
0.0
 11
83.284346
 21
108.757172
 31
0.0
  0
LINE
  5
185
  8
LAYER_1
 10
83.284346
 20
108.757172
 30
0.0
 11
82.95381
 21
110.612532
 31
0.0
  0
LINE
  5
186
  8
LAYER_1
 10
82.95381
 20
110.612532
 30
0.0
 11
82.48861100000001
 21
112.223651
 31
0.0
  0
LINE
  5
187
  8
LAYER_1
 10
82.48861100000001
 20
112.223651
 30
0.0
 11
81.958866
 21
113.285085
 31
0.0
  0
LINE
  5
188
  8
LAYER_1
 10
81.958866
 20
113.285085
 30
0.0
 11
81.304655
 21
113.787748
 31
0.0
  0
LINE
  5
189
  8
LAYER_1
 10
81.304655
 20
113.787748
 30
0.0
 11
80.399699
 21
114.005404
 31
0.0
  0
LINE
  5
18A
  8
LAYER_1
 10
80.399699
 20
114.005404
 30
0.0
 11
79.311954
 21
113.933098
 31
0.0
  0
LINE
  5
18B
  8
LAYER_1
 10
79.311954
 20
113.933098
 30
0.0
 11
78.109374
 21
113.565874
 31
0.0
  0
LINE
  5
18C
  8
LAYER_1
 10
78.109374
 20
113.565874
 30
0.0
 11
77.31704600000001
 21
113.144033
 31
0.0
  0
LINE
  5
18D
  8
LAYER_1
 10
77.31704600000001
 20
113.144033
 30
0.0
 11
76.579229
 21
112.508238
 31
0.0
  0
LINE
  5
18E
  8
LAYER_1
 10
76.579229
 20
112.508238
 30
0.0
 11
74.74847699999999
 21
110.052617
 31
0.0
  0
LINE
  5
18F
  8
LAYER_1
 10
74.74847699999999
 20
110.052617
 30
0.0
 11
72.92339200000001
 21
106.754838
 31
0.0
  0
LINE
  5
190
  8
LAYER_1
 10
72.92339200000001
 20
106.754838
 30
0.0
 11
71.838995
 21
104.207543
 31
0.0
  0
LINE
  5
191
  8
LAYER_1
 10
71.838995
 20
104.207543
 30
0.0
 11
72.170225
 21
104.071312
 31
0.0
  0
LINE
  5
192
  8
LAYER_1
 10
72.170225
 20
104.071312
 30
0.0
 11
72.96658600000001
 21
104.077456
 31
0.0
  0
LINE
  5
193
  8
LAYER_1
 10
72.96658600000001
 20
104.077456
 30
0.0
 11
74.061829
 21
103.999806
 31
0.0
  0
LINE
  5
194
  8
LAYER_1
 10
74.061829
 20
103.999806
 30
0.0
 11
75.037603
 21
103.238248
 31
0.0
  0
LINE
  5
195
  8
LAYER_1
 10
75.037603
 20
103.238248
 30
0.0
 11
75.794856
 21
102.235062
 31
0.0
  0
LINE
  5
196
  8
LAYER_1
 10
75.794856
 20
102.235062
 30
0.0
 11
76.16741500000001
 21
101.115248
 31
0.0
  0
LINE
  5
197
  8
LAYER_1
 10
76.16741500000001
 20
101.115248
 30
0.0
 11
76.35380499999999
 21
99.93899399999999
 31
0.0
  0
LINE
  5
198
  8
LAYER_1
 10
76.35380499999999
 20
99.93899399999999
 30
0.0
 11
79.535274
 21
100.095681
 31
0.0
  0
LINE
  5
199
  8
LAYER_1
 10
79.535274
 20
100.095681
 30
0.0
 11
81.82199799999999
 21
100.12001
 31
0.0
  0
LINE
  5
19A
  8
LAYER_1
 10
81.82199799999999
 20
100.12001
 30
0.0
 11
83.732989
 21
99.92153
 31
0.0
  0
LINE
  5
19B
  8
LAYER_1
 10
83.732989
 20
99.92153
 30
0.0
 11
85.449747
 21
99.46759900000001
 31
0.0
  0
LINE
  5
19C
  8
LAYER_1
 10
85.449747
 20
99.46759900000001
 30
0.0
 11
87.153773
 21
98.725577
 31
0.0
  0
LINE
  5
19D
  8
LAYER_1
 10
87.153773
 20
98.725577
 30
0.0
 11
88.990515
 21
97.471469
 31
0.0
  0
LINE
  5
19E
  8
LAYER_1
 10
88.990515
 20
97.471469
 30
0.0
 11
90.685622
 21
95.716741
 31
0.0
  0
LINE
  5
19F
  8
LAYER_1
 10
90.685622
 20
95.716741
 30
0.0
 11
92.112199
 21
93.618031
 31
0.0
  0
LINE
  5
1A0
  8
LAYER_1
 10
92.112199
 20
93.618031
 30
0.0
 11
93.14335199999999
 21
91.331982
 31
0.0
  0
LINE
  5
1A1
  8
LAYER_1
 10
93.14335199999999
 20
91.331982
 30
0.0
 11
93.63430099999999
 21
90.170737
 31
0.0
  0
LINE
  5
1A2
  8
LAYER_1
 10
93.63430099999999
 20
90.170737
 30
0.0
 11
93.937743
 21
89.82051800000001
 31
0.0
  0
LINE
  5
1A3
  8
LAYER_1
 10
93.937743
 20
89.82051800000001
 30
0.0
 11
94.344056
 21
89.60261
 31
0.0
  0
LINE
  5
1A4
  8
LAYER_1
 10
94.344056
 20
89.60261
 30
0.0
 11
95.657973
 21
89.499847
 31
0.0
  0
LINE
  5
1A5
  8
LAYER_1
 10
95.657973
 20
89.499847
 30
0.0
 11
97.96140800000001
 21
89.734695
 31
0.0
  0
LINE
  5
1A6
  8
LAYER_1
 10
97.96140800000001
 20
89.734695
 30
0.0
 11
100.401399
 21
89.937518
 31
0.0
  0
LINE
  5
1A7
  8
LAYER_1
 10
100.401399
 20
89.937518
 30
0.0
 11
102.166019
 21
89.919113
 31
0.0
  0
LINE
  5
1A8
  8
LAYER_1
 10
102.166019
 20
89.919113
 30
0.0
 11
104.127644
 21
89.345809
 31
0.0
  0
LINE
  5
1A9
  8
LAYER_1
 10
104.127644
 20
89.345809
 30
0.0
 11
105.901285
 21
88.31272800000001
 31
0.0
  0
LINE
  5
1AA
  8
LAYER_1
 10
105.901285
 20
88.31272800000001
 30
0.0
 11
107.186093
 21
87.046086
 31
0.0
  0
LINE
  5
1AB
  8
LAYER_1
 10
107.186093
 20
87.046086
 30
0.0
 11
107.551168
 21
86.395871
 31
0.0
  0
LINE
  5
1AC
  8
LAYER_1
 10
107.551168
 20
86.395871
 30
0.0
 11
107.681217
 21
85.772097
 31
0.0
  0
LINE
  5
1AD
  8
LAYER_1
 10
107.681217
 20
85.772097
 30
0.0
 11
107.61904
 21
85.183553
 31
0.0
  0
LINE
  5
1AE
  8
LAYER_1
 10
107.61904
 20
85.183553
 30
0.0
 11
107.469551
 21
84.94426900000001
 31
0.0
  0
LINE
  5
1AF
  8
LAYER_1
 10
107.469551
 20
84.94426900000001
 30
0.0
 11
106.411217
 21
86.422343
 31
0.0
  0
LINE
  5
1B0
  8
LAYER_1
 10
106.411217
 20
86.422343
 30
0.0
 11
105.479476
 21
87.683261
 31
0.0
  0
LINE
  5
1B1
  8
LAYER_1
 10
105.479476
 20
87.683261
 30
0.0
 11
104.346986
 21
88.580394
 31
0.0
  0
LINE
  5
1B2
  8
LAYER_1
 10
104.346986
 20
88.580394
 30
0.0
 11
103.01189
 21
89.11481600000001
 31
0.0
  0
LINE
  5
1B3
  8
LAYER_1
 10
103.01189
 20
89.11481600000001
 30
0.0
 11
101.472328
 21
89.28760699999999
 31
0.0
  0
LINE
  5
1B4
  8
LAYER_1
 10
101.472328
 20
89.28760699999999
 30
0.0
 11
100.168712
 21
89.160082
 31
0.0
  0
LINE
  5
1B5
  8
LAYER_1
 10
100.168712
 20
89.160082
 30
0.0
 11
99.0787
 21
88.807727
 31
0.0
  0
LINE
  5
1B6
  8
LAYER_1
 10
99.0787
 20
88.807727
 30
0.0
 11
98.256951
 21
88.256378
 31
0.0
  0
LINE
  5
1B7
  8
LAYER_1
 10
98.256951
 20
88.256378
 30
0.0
 11
97.758126
 21
87.531874
 31
0.0
  0
LINE
  5
1B8
  8
LAYER_1
 10
97.758126
 20
87.531874
 30
0.0
 11
97.514589
 21
86.421899
 31
0.0
  0
LINE
  5
1B9
  8
LAYER_1
 10
97.514589
 20
86.421899
 30
0.0
 11
97.483447
 21
84.956829
 31
0.0
  0
LINE
  5
1BA
  8
LAYER_1
 10
97.483447
 20
84.956829
 30
0.0
 11
97.65818
 21
83.27937799999999
 31
0.0
  0
LINE
  5
1BB
  8
LAYER_1
 10
97.65818
 20
83.27937799999999
 30
0.0
 11
98.032268
 21
81.532262
 31
0.0
  0
LINE
  5
1BC
  8
LAYER_1
 10
98.032268
 20
81.532262
 30
0.0
 11
98.79365
 21
77.49585399999999
 31
0.0
  0
LINE
  5
1BD
  8
LAYER_1
 10
98.79365
 20
77.49585399999999
 30
0.0
 11
99.071012
 21
75.724313
 31
0.0
  0
LINE
  5
1BE
  8
LAYER_1
 10
99.071012
 20
75.724313
 30
0.0
 11
99.53857100000001
 21
74.01819399999999
 31
0.0
  0
LINE
  5
1BF
  8
LAYER_1
 10
99.53857100000001
 20
74.01819399999999
 30
0.0
 11
100.178442
 21
72.40675400000001
 31
0.0
  0
LINE
  5
1C0
  8
LAYER_1
 10
100.178442
 20
72.40675400000001
 30
0.0
 11
100.972738
 21
70.91925000000001
 31
0.0
  0
LINE
  5
1C1
  8
LAYER_1
 10
100.972738
 20
70.91925000000001
 30
0.0
 11
101.903573
 21
69.584937
 31
0.0
  0
LINE
  5
1C2
  8
LAYER_1
 10
101.903573
 20
69.584937
 30
0.0
 11
102.953061
 21
68.43307299999999
 31
0.0
  0
LINE
  5
1C3
  8
LAYER_1
 10
102.953061
 20
68.43307299999999
 30
0.0
 11
104.103317
 21
67.492913
 31
0.0
  0
LINE
  5
1C4
  8
LAYER_1
 10
104.103317
 20
67.492913
 30
0.0
 11
105.336453
 21
66.79371399999999
 31
0.0
  0
LINE
  5
1C5
  8
LAYER_1
 10
105.336453
 20
66.79371399999999
 30
0.0
 11
106.896566
 21
66.226388
 31
0.0
  0
LINE
  5
1C6
  8
LAYER_1
 10
106.896566
 20
66.226388
 30
0.0
 11
108.591275
 21
65.850297
 31
0.0
  0
LINE
  5
1C7
  8
LAYER_1
 10
108.591275
 20
65.850297
 30
0.0
 11
110.381023
 21
65.663454
 31
0.0
  0
LINE
  5
1C8
  8
LAYER_1
 10
110.381023
 20
65.663454
 30
0.0
 11
112.226258
 21
65.663875
 31
0.0
  0
LINE
  5
1C9
  8
LAYER_1
 10
112.226258
 20
65.663875
 30
0.0
 11
114.087423
 21
65.849571
 31
0.0
  0
LINE
  5
1CA
  8
LAYER_1
 10
114.087423
 20
65.849571
 30
0.0
 11
115.924966
 21
66.218558
 31
0.0
  0
LINE
  5
1CB
  8
LAYER_1
 10
115.924966
 20
66.218558
 30
0.0
 11
117.699332
 21
66.768849
 31
0.0
  0
LINE
  5
1CC
  8
LAYER_1
 10
117.699332
 20
66.768849
 30
0.0
 11
119.370966
 21
67.498457
 31
0.0
  0
LINE
  5
1CD
  8
LAYER_1
 10
119.370966
 20
67.498457
 30
0.0
 11
120.468019
 21
67.903677
 31
0.0
  0
LINE
  5
1CE
  8
LAYER_1
 10
120.468019
 20
67.903677
 30
0.0
 11
121.531786
 21
67.746129
 31
0.0
  0
LINE
  5
1CF
  8
LAYER_1
 10
121.531786
 20
67.746129
 30
0.0
 11
122.84082
 21
67.13521900000001
 31
0.0
  0
LINE
  5
1D0
  8
LAYER_1
 10
122.84082
 20
67.13521900000001
 30
0.0
 11
124.376923
 21
66.088381
 31
0.0
  0
LINE
  5
1D1
  8
LAYER_1
 10
124.376923
 20
66.088381
 30
0.0
 11
125.916806
 21
64.77681699999999
 31
0.0
  0
LINE
  5
1D2
  8
LAYER_1
 10
125.916806
 20
64.77681699999999
 30
0.0
 11
127.23718
 21
63.371724
 31
0.0
  0
LINE
  5
1D3
  8
LAYER_1
 10
127.23718
 20
63.371724
 30
0.0
 11
128.198742
 21
62.332281
 31
0.0
  0
LINE
  5
1D4
  8
LAYER_1
 10
128.198742
 20
62.332281
 30
0.0
 11
128.697188
 21
62.059329
 31
0.0
  0
LINE
  5
1D5
  8
LAYER_1
 10
128.697188
 20
62.059329
 30
0.0
 11
128.704984
 21
62.672522
 31
0.0
  0
LINE
  5
1D6
  8
LAYER_1
 10
128.704984
 20
62.672522
 30
0.0
 11
128.25326
 21
63.632995
 31
0.0
  0
LINE
  5
1D7
  8
LAYER_1
 10
128.25326
 20
63.632995
 30
0.0
 11
127.392452
 21
64.856814
 31
0.0
  0
LINE
  5
1D8
  8
LAYER_1
 10
127.392452
 20
64.856814
 30
0.0
 11
126.172996
 21
66.260046
 31
0.0
  0
LINE
  5
1D9
  8
LAYER_1
 10
126.172996
 20
66.260046
 30
0.0
 11
125.064806
 21
67.513471
 31
0.0
  0
LINE
  5
1DA
  8
LAYER_1
 10
125.064806
 20
67.513471
 30
0.0
 11
124.570138
 21
68.308802
 31
0.0
  0
LINE
  5
1DB
  8
LAYER_1
 10
124.570138
 20
68.308802
 30
0.0
 11
124.544501
 21
68.559916
 31
0.0
  0
LINE
  5
1DC
  8
LAYER_1
 10
124.544501
 20
68.559916
 30
0.0
 11
124.662197
 21
68.726786
 31
0.0
  0
LINE
  5
1DD
  8
LAYER_1
 10
124.662197
 20
68.726786
 30
0.0
 11
125.314188
 21
68.84817
 31
0.0
  0
LINE
  5
1DE
  8
LAYER_1
 10
125.314188
 20
68.84817
 30
0.0
 11
126.150781
 21
68.429354
 31
0.0
  0
LINE
  5
1DF
  8
LAYER_1
 10
126.150781
 20
68.429354
 30
0.0
 11
127.300566
 21
67.364251
 31
0.0
  0
LINE
  5
1E0
  8
LAYER_1
 10
127.300566
 20
67.364251
 30
0.0
 11
128.493452
 21
65.93987799999999
 31
0.0
  0
LINE
  5
1E1
  8
LAYER_1
 10
128.493452
 20
65.93987799999999
 30
0.0
 11
129.459347
 21
64.443254
 31
0.0
  0
LINE
  5
1E2
  8
LAYER_1
 10
129.459347
 20
64.443254
 30
0.0
 11
129.925395
 21
63.632491
 31
0.0
  0
LINE
  5
1E3
  8
LAYER_1
 10
129.925395
 20
63.632491
 30
0.0
 11
130.259494
 21
63.279413
 31
0.0
  0
LINE
  5
1E4
  8
LAYER_1
 10
130.259494
 20
63.279413
 30
0.0
 11
130.539155
 21
63.348104
 31
0.0
  0
LINE
  5
1E5
  8
LAYER_1
 10
130.539155
 20
63.348104
 30
0.0
 11
130.841891
 21
63.802649
 31
0.0
  0
LINE
  5
1E6
  8
LAYER_1
 10
130.841891
 20
63.802649
 30
0.0
 11
131.033214
 21
64.323399
 31
0.0
  0
LINE
  5
1E7
  8
LAYER_1
 10
131.033214
 20
64.323399
 30
0.0
 11
131.074434
 21
64.880967
 31
0.0
  0
LINE
  5
1E8
  8
LAYER_1
 10
131.074434
 20
64.880967
 30
0.0
 11
130.721091
 21
66.078305
 31
0.0
  0
LINE
  5
1E9
  8
LAYER_1
 10
130.721091
 20
66.078305
 30
0.0
 11
129.810912
 21
67.338172
 31
0.0
  0
LINE
  5
1EA
  8
LAYER_1
 10
129.810912
 20
67.338172
 30
0.0
 11
128.372946
 21
68.60407100000001
 31
0.0
  0
LINE
  5
1EB
  8
LAYER_1
 10
128.372946
 20
68.60407100000001
 30
0.0
 11
127.313135
 21
69.507158
 31
0.0
  0
LINE
  5
1EC
  8
LAYER_1
 10
127.313135
 20
69.507158
 30
0.0
 11
126.872328
 21
70.121695
 31
0.0
  0
LINE
  5
1ED
  8
LAYER_1
 10
126.872328
 20
70.121695
 30
0.0
 11
127.108564
 21
70.52986799999999
 31
0.0
  0
LINE
  5
1EE
  8
LAYER_1
 10
127.108564
 20
70.52986799999999
 30
0.0
 11
127.746949
 21
70.718424
 31
0.0
  0
LINE
  5
1EF
  8
LAYER_1
 10
127.746949
 20
70.718424
 30
0.0
 11
128.682003
 21
70.677469
 31
0.0
  0
LINE
  5
1F0
  8
LAYER_1
 10
128.682003
 20
70.677469
 30
0.0
 11
129.808247
 21
70.397108
 31
0.0
  0
LINE
  5
1F1
  8
LAYER_1
 10
129.808247
 20
70.397108
 30
0.0
 11
131.290226
 21
70.037768
 31
0.0
  0
LINE
  5
1F2
  8
LAYER_1
 10
131.290226
 20
70.037768
 30
0.0
 11
132.816338
 21
70.390063
 31
0.0
  0
LINE
  5
1F3
  8
LAYER_1
 10
132.816338
 20
70.390063
 30
0.0
 11
135.22816
 21
71.46732900000001
 31
0.0
  0
LINE
  5
1F4
  8
LAYER_1
 10
135.22816
 20
71.46732900000001
 30
0.0
 11
136.117098
 21
72.04069300000001
 31
0.0
  0
LINE
  5
1F5
  8
LAYER_1
 10
136.117098
 20
72.04069300000001
 30
0.0
 11
136.467884
 21
72.4526
 31
0.0
  0
LINE
  5
1F6
  8
LAYER_1
 10
136.467884
 20
72.4526
 30
0.0
 11
135.800701
 21
72.570442
 31
0.0
  0
LINE
  5
1F7
  8
LAYER_1
 10
135.800701
 20
72.570442
 30
0.0
 11
134.196622
 21
72.559212
 31
0.0
  0
LINE
  5
1F8
  8
LAYER_1
 10
134.196622
 20
72.559212
 30
0.0
 11
130.840271
 21
72.672161
 31
0.0
  0
LINE
  5
1F9
  8
LAYER_1
 10
130.840271
 20
72.672161
 30
0.0
 11
127.629357
 21
73.22137100000001
 31
0.0
  0
LINE
  5
1FA
  8
LAYER_1
 10
127.629357
 20
73.22137100000001
 30
0.0
 11
125.086864
 21
74.078962
 31
0.0
  0
LINE
  5
1FB
  8
LAYER_1
 10
125.086864
 20
74.078962
 30
0.0
 11
124.229708
 21
74.583439
 31
0.0
  0
LINE
  5
1FC
  8
LAYER_1
 10
124.229708
 20
74.583439
 30
0.0
 11
123.735775
 21
75.117057
 31
0.0
  0
LINE
  5
1FD
  8
LAYER_1
 10
123.735775
 20
75.117057
 30
0.0
 11
123.413338
 21
75.47783800000001
 31
0.0
  0
LINE
  5
1FE
  8
LAYER_1
 10
123.413338
 20
75.47783800000001
 30
0.0
 11
122.908554
 21
74.96395099999999
 31
0.0
  0
LINE
  5
1FF
  8
LAYER_1
 10
122.908554
 20
74.96395099999999
 30
0.0
 11
122.076234
 21
74.16640700000001
 31
0.0
  0
LINE
  5
200
  8
LAYER_1
 10
122.076234
 20
74.16640700000001
 30
0.0
 11
120.886359
 21
73.355807
 31
0.0
  0
LINE
  5
201
  8
LAYER_1
 10
120.886359
 20
73.355807
 30
0.0
 11
119.516135
 21
72.63795
 31
0.0
  0
LINE
  5
202
  8
LAYER_1
 10
119.516135
 20
72.63795
 30
0.0
 11
118.142772
 21
72.118635
 31
0.0
  0
LINE
  5
203
  8
LAYER_1
 10
118.142772
 20
72.118635
 30
0.0
 11
115.764697
 21
71.73240199999999
 31
0.0
  0
LINE
  5
204
  8
LAYER_1
 10
115.764697
 20
71.73240199999999
 30
0.0
 11
113.27028
 21
71.76462600000001
 31
0.0
  0
LINE
  5
205
  8
LAYER_1
 10
113.27028
 20
71.76462600000001
 30
0.0
 11
111.302275
 21
72.154507
 31
0.0
  0
LINE
  5
206
  8
LAYER_1
 10
111.302275
 20
72.154507
 30
0.0
 11
110.716539
 21
72.46457
 31
0.0
  0
LINE
  5
207
  8
LAYER_1
 10
110.716539
 20
72.46457
 30
0.0
 11
110.503439
 21
72.84124799999999
 31
0.0
  0
LINE
  5
208
  8
LAYER_1
 10
110.503439
 20
72.84124799999999
 30
0.0
 11
110.697762
 21
73.328383
 31
0.0
  0
LINE
  5
209
  8
LAYER_1
 10
110.697762
 20
73.328383
 30
0.0
 11
111.164963
 21
73.784161
 31
0.0
  0
LINE
  5
20A
  8
LAYER_1
 10
111.164963
 20
73.784161
 30
0.0
 11
111.562063
 21
74.002803
 31
0.0
  0
LINE
  5
20B
  8
LAYER_1
 10
111.562063
 20
74.002803
 30
0.0
 11
111.939298
 21
74.05371100000001
 31
0.0
  0
LINE
  5
20C
  8
LAYER_1
 10
111.939298
 20
74.05371100000001
 30
0.0
 11
113.211074
 21
73.600556
 31
0.0
  0
LINE
  5
20D
  8
LAYER_1
 10
113.211074
 20
73.600556
 30
0.0
 11
114.404803
 21
73.196935
 31
0.0
  0
LINE
  5
20E
  8
LAYER_1
 10
114.404803
 20
73.196935
 30
0.0
 11
115.613859
 21
73.03775899999999
 31
0.0
  0
LINE
  5
20F
  8
LAYER_1
 10
115.613859
 20
73.03775899999999
 30
0.0
 11
116.82808
 21
73.119345
 31
0.0
  0
LINE
  5
210
  8
LAYER_1
 10
116.82808
 20
73.119345
 30
0.0
 11
118.037302
 21
73.438012
 31
0.0
  0
LINE
  5
211
  8
LAYER_1
 10
118.037302
 20
73.438012
 30
0.0
 11
119.231364
 21
73.990077
 31
0.0
  0
LINE
  5
212
  8
LAYER_1
 10
119.231364
 20
73.990077
 30
0.0
 11
120.400102
 21
74.771857
 31
0.0
  0
LINE
  5
213
  8
LAYER_1
 10
120.400102
 20
74.771857
 30
0.0
 11
121.533354
 21
75.77967200000001
 31
0.0
  0
LINE
  5
214
  8
LAYER_1
 10
121.533354
 20
75.77967200000001
 30
0.0
 11
122.620958
 21
77.009839
 31
0.0
  0
LINE
  5
215
  8
LAYER_1
 10
122.620958
 20
77.009839
 30
0.0
 11
123.499443
 21
78.119018
 31
0.0
  0
LINE
  5
216
  8
LAYER_1
 10
123.499443
 20
78.119018
 30
0.0
 11
121.446442
 21
77.965548
 31
0.0
  0
LINE
  5
217
  8
LAYER_1
 10
121.446442
 20
77.965548
 30
0.0
 11
119.641106
 21
77.934904
 31
0.0
  0
LINE
  5
218
  8
LAYER_1
 10
119.641106
 20
77.934904
 30
0.0
 11
119.205048
 21
78.09484999999999
 31
0.0
  0
LINE
  5
219
  8
LAYER_1
 10
119.205048
 20
78.09484999999999
 30
0.0
 11
118.855809
 21
78.41012499999999
 31
0.0
  0
LINE
  5
21A
  8
LAYER_1
 10
118.855809
 20
78.41012499999999
 30
0.0
 11
118.318178
 21
79.00817000000001
 31
0.0
  0
LINE
  5
21B
  8
LAYER_1
 10
118.318178
 20
79.00817000000001
 30
0.0
 11
119.863867
 21
79.00817000000001
 31
0.0
  0
LINE
  5
21C
  8
LAYER_1
 10
119.863867
 20
79.00817000000001
 30
0.0
 11
121.522217
 21
79.147277
 31
0.0
  0
LINE
  5
21D
  8
LAYER_1
 10
121.522217
 20
79.147277
 30
0.0
 11
123.002132
 21
79.57729500000001
 31
0.0
  0
LINE
  5
21E
  8
LAYER_1
 10
123.002132
 20
79.57729500000001
 30
0.0
 11
124.349645
 21
80.317272
 31
0.0
  0
LINE
  5
21F
  8
LAYER_1
 10
124.349645
 20
80.317272
 30
0.0
 11
125.610787
 21
81.386257
 31
0.0
  0
LINE
  5
220
  8
LAYER_1
 10
125.610787
 20
81.386257
 30
0.0
 11
126.694231
 21
82.64093800000001
 31
0.0
  0
LINE
  5
221
  8
LAYER_1
 10
126.694231
 20
82.64093800000001
 30
0.0
 11
127.560166
 21
83.92864899999999
 31
0.0
  0
LINE
  5
222
  8
LAYER_1
 10
127.560166
 20
83.92864899999999
 30
0.0
 11
128.042742
 21
84.96371600000001
 31
0.0
  0
LINE
  5
223
  8
LAYER_1
 10
128.042742
 20
84.96371600000001
 30
0.0
 11
128.088442
 21
85.297234
 31
0.0
  0
LINE
  5
224
  8
LAYER_1
 10
128.088442
 20
85.297234
 30
0.0
 11
127.976108
 21
85.460465
 31
0.0
  0
LINE
  5
225
  8
LAYER_1
 10
127.976108
 20
85.460465
 30
0.0
 11
126.590106
 21
85.075948
 31
0.0
  0
LINE
  5
226
  8
LAYER_1
 10
126.590106
 20
85.075948
 30
0.0
 11
125.512799
 21
84.68281399999999
 31
0.0
  0
LINE
  5
227
  8
LAYER_1
 10
125.512799
 20
84.68281399999999
 30
0.0
 11
125.280302
 21
84.689266
 31
0.0
  0
LINE
  5
228
  8
LAYER_1
 10
125.280302
 20
84.689266
 30
0.0
 11
125.250223
 21
84.82626999999999
 31
0.0
  0
LINE
  5
229
  8
LAYER_1
 10
125.250223
 20
84.82626999999999
 30
0.0
 11
125.792265
 21
85.477563
 31
0.0
  0
LINE
  5
22A
  8
LAYER_1
 10
125.792265
 20
85.477563
 30
0.0
 11
127.128818
 21
86.607941
 31
0.0
  0
LINE
  5
22B
  8
LAYER_1
 10
127.128818
 20
86.607941
 30
0.0
 11
128.651653
 21
87.934101
 31
0.0
  0
LINE
  5
22C
  8
LAYER_1
 10
128.651653
 20
87.934101
 30
0.0
 11
129.918531
 21
89.27831500000001
 31
0.0
  0
LINE
  5
22D
  8
LAYER_1
 10
129.918531
 20
89.27831500000001
 30
0.0
 11
130.784764
 21
90.468661
 31
0.0
  0
LINE
  5
22E
  8
LAYER_1
 10
130.784764
 20
90.468661
 30
0.0
 11
131.105662
 21
91.333221
 31
0.0
  0
LINE
  5
22F
  8
LAYER_1
 10
131.105662
 20
91.333221
 30
0.0
 11
131.012435
 21
91.640191
 31
0.0
  0
LINE
  5
230
  8
LAYER_1
 10
131.012435
 20
91.640191
 30
0.0
 11
130.673615
 21
91.617037
 31
0.0
  0
LINE
  5
231
  8
LAYER_1
 10
130.673615
 20
91.617037
 30
0.0
 11
128.904365
 21
90.435684
 31
0.0
  0
LINE
  5
232
  8
LAYER_1
 10
128.904365
 20
90.435684
 30
0.0
 11
127.53831
 21
89.476314
 31
0.0
  0
LINE
  5
233
  8
LAYER_1
 10
127.53831
 20
89.476314
 30
0.0
 11
126.228334
 21
88.78685900000001
 31
0.0
  0
LINE
  5
234
  8
LAYER_1
 10
126.228334
 20
88.78685900000001
 30
0.0
 11
124.538595
 21
88.178798
 31
0.0
  0
LINE
  5
235
  8
LAYER_1
 10
124.538595
 20
88.178798
 30
0.0
 11
122.03325
 21
87.463607
 31
0.0
  0
LINE
  5
236
  8
LAYER_1
 10
122.03325
 20
87.463607
 30
0.0
 11
119.182689
 21
86.577068
 31
0.0
  0
LINE
  5
237
  8
LAYER_1
 10
119.182689
 20
86.577068
 30
0.0
 11
117.011565
 21
85.570688
 31
0.0
  0
LINE
  5
238
  8
LAYER_1
 10
117.011565
 20
85.570688
 30
0.0
 11
115.125183
 21
84.21466
 31
0.0
  0
LINE
  5
239
  8
LAYER_1
 10
115.125183
 20
84.21466
 30
0.0
 11
113.128846
 21
82.27918200000001
 31
0.0
  0
LINE
  5
23A
  8
LAYER_1
 10
113.128846
 20
82.27918200000001
 30
0.0
 11
111.314466
 21
80.42311700000001
 31
0.0
  0
LINE
  5
23B
  8
LAYER_1
 10
111.314466
 20
80.42311700000001
 30
0.0
 11
110.071188
 21
79.34751
 31
0.0
  0
LINE
  5
23C
  8
LAYER_1
 10
110.071188
 20
79.34751
 30
0.0
 11
109.116089
 21
78.849896
 31
0.0
  0
LINE
  5
23D
  8
LAYER_1
 10
109.116089
 20
78.849896
 30
0.0
 11
108.16625
 21
78.727808
 31
0.0
  0
LINE
  5
23E
  8
LAYER_1
 10
108.16625
 20
78.727808
 30
0.0
 11
107.376972
 21
78.851451
 31
0.0
  0
LINE
  5
23F
  8
LAYER_1
 10
107.376972
 20
78.851451
 30
0.0
 11
106.917071
 21
79.16332300000001
 31
0.0
  0
LINE
  5
240
  8
LAYER_1
 10
106.917071
 20
79.16332300000001
 30
0.0
 11
106.854503
 21
79.569968
 31
0.0
  0
LINE
  5
241
  8
LAYER_1
 10
106.854503
 20
79.569968
 30
0.0
 11
107.257223
 21
79.977931
 31
0.0
  0
LINE
  5
242
  8
LAYER_1
 10
107.257223
 20
79.977931
 30
0.0
 11
109.913245
 21
82.228515
 31
0.0
  0
LINE
  5
243
  8
LAYER_1
 10
109.913245
 20
82.228515
 30
0.0
 11
113.075539
 21
84.949798
 31
0.0
  0
LINE
  5
244
  8
LAYER_1
 10
113.075539
 20
84.949798
 30
0.0
 11
115.752227
 21
86.81373499999999
 31
0.0
  0
LINE
  5
245
  8
LAYER_1
 10
115.752227
 20
86.81373499999999
 30
0.0
 11
118.275084
 21
88.015973
 31
0.0
  0
LINE
  5
246
  8
LAYER_1
 10
118.275084
 20
88.015973
 30
0.0
 11
120.975885
 21
88.752161
 31
0.0
  0
LINE
  5
247
  8
LAYER_1
 10
120.975885
 20
88.752161
 30
0.0
 11
123.217621
 21
89.360867
 31
0.0
  0
LINE
  5
248
  8
LAYER_1
 10
123.217621
 20
89.360867
 30
0.0
 11
125.505786
 21
90.291859
 31
0.0
  0
LINE
  5
249
  8
LAYER_1
 10
125.505786
 20
90.291859
 30
0.0
 11
127.701455
 21
91.479495
 31
0.0
  0
LINE
  5
24A
  8
LAYER_1
 10
127.701455
 20
91.479495
 30
0.0
 11
129.665705
 21
92.858133
 31
0.0
  0
LINE
  5
24B
  8
LAYER_1
 10
129.665705
 20
92.858133
 30
0.0
 11
131.186661
 21
93.953377
 31
0.0
  0
LINE
  5
24C
  8
LAYER_1
 10
131.186661
 20
93.953377
 30
0.0
 11
131.576603
 21
94.051835
 31
0.0
  0
LINE
  5
24D
  8
LAYER_1
 10
131.576603
 20
94.051835
 30
0.0
 11
131.86511
 21
93.921222
 31
0.0
  0
LINE
  5
24E
  8
LAYER_1
 10
131.86511
 20
93.921222
 30
0.0
 11
132.128039
 21
93.506467
 31
0.0
  0
LINE
  5
24F
  8
LAYER_1
 10
132.128039
 20
93.506467
 30
0.0
 11
132.217357
 21
92.883731
 31
0.0
  0
LINE
  5
250
  8
LAYER_1
 10
132.217357
 20
92.883731
 30
0.0
 11
131.934544
 21
91.21116499999999
 31
0.0
  0
LINE
  5
251
  8
LAYER_1
 10
131.934544
 20
91.21116499999999
 30
0.0
 11
131.135435
 21
89.297214
 31
0.0
  0
LINE
  5
252
  8
LAYER_1
 10
131.135435
 20
89.297214
 30
0.0
 11
129.938791
 21
87.535571
 31
0.0
  0
LINE
  5
253
  8
LAYER_1
 10
129.938791
 20
87.535571
 30
0.0
 11
129.436294
 21
86.902146
 31
0.0
  0
LINE
  5
254
  8
LAYER_1
 10
129.436294
 20
86.902146
 30
0.0
 11
129.168961
 21
86.331994
 31
0.0
  0
LINE
  5
255
  8
LAYER_1
 10
129.168961
 20
86.331994
 30
0.0
 11
129.115589
 21
84.57526900000001
 31
0.0
  0
LINE
  5
256
  8
LAYER_1
 10
129.115589
 20
84.57526900000001
 30
0.0
 11
129.09284
 21
83.937207
 31
0.0
  0
LINE
  5
257
  8
LAYER_1
 10
129.09284
 20
83.937207
 30
0.0
 11
128.839336
 21
83.336212
 31
0.0
  0
LINE
  5
258
  8
LAYER_1
 10
128.839336
 20
83.336212
 30
0.0
 11
127.060125
 21
81.329713
 31
0.0
  0
LINE
  5
259
  8
LAYER_1
 10
127.060125
 20
81.329713
 30
0.0
 11
125.408755
 21
79.436899
 31
0.0
  0
LINE
  5
25A
  8
LAYER_1
 10
125.408755
 20
79.436899
 30
0.0
 11
124.533206
 21
78.020393
 31
0.0
  0
LINE
  5
25B
  8
LAYER_1
 10
124.533206
 20
78.020393
 30
0.0
 11
123.941696
 21
76.462453
 31
0.0
  0
LINE
  5
25C
  8
LAYER_1
 10
123.941696
 20
76.462453
 30
0.0
 11
123.996385
 21
76.203028
 31
0.0
  0
LINE
  5
25D
  8
LAYER_1
 10
123.996385
 20
76.203028
 30
0.0
 11
124.451427
 21
75.898775
 31
0.0
  0
LINE
  5
25E
  8
LAYER_1
 10
124.451427
 20
75.898775
 30
0.0
 11
126.993436
 21
74.940967
 31
0.0
  0
LINE
  5
25F
  8
LAYER_1
 10
126.993436
 20
74.940967
 30
0.0
 11
129.022703
 21
74.278316
 31
0.0
  0
LINE
  5
260
  8
LAYER_1
 10
129.022703
 20
74.278316
 30
0.0
 11
130.516467
 21
74.002865
 31
0.0
  0
LINE
  5
261
  8
LAYER_1
 10
130.516467
 20
74.002865
 30
0.0
 11
132.370383
 21
74.054821
 31
0.0
  0
LINE
  5
262
  8
LAYER_1
 10
132.370383
 20
74.054821
 30
0.0
 11
135.480106
 21
74.37438899999999
 31
0.0
  0
LINE
  5
263
  8
LAYER_1
 10
135.480106
 20
74.37438899999999
 30
0.0
 11
136.976191
 21
74.4254
 31
0.0
  0
LINE
  5
264
  8
LAYER_1
 10
136.976191
 20
74.4254
 30
0.0
 11
137.369367
 21
74.272205
 31
0.0
  0
LINE
  5
265
  8
LAYER_1
 10
137.369367
 20
74.272205
 30
0.0
 11
137.704551
 21
73.96718199999999
 31
0.0
  0
LINE
  5
266
  8
LAYER_1
 10
137.704551
 20
73.96718199999999
 30
0.0
 11
138.083697
 21
73.330083
 31
0.0
  0
LINE
  5
267
  8
LAYER_1
 10
138.083697
 20
73.330083
 30
0.0
 11
137.87486
 21
72.50708
 31
0.0
  0
LINE
  5
268
  8
LAYER_1
 10
137.87486
 20
72.50708
 30
0.0
 11
137.323174
 21
71.632108
 31
0.0
  0
LINE
  5
269
  8
LAYER_1
 10
137.323174
 20
71.632108
 30
0.0
 11
136.4149
 21
70.84026299999999
 31
0.0
  0
LINE
  5
26A
  8
LAYER_1
 10
136.4149
 20
70.84026299999999
 30
0.0
 11
135.123782
 21
70.113415
 31
0.0
  0
LINE
  5
26B
  8
LAYER_1
 10
135.123782
 20
70.113415
 30
0.0
 11
133.423561
 21
69.43343400000001
 31
0.0
  0
LINE
  5
26C
  8
LAYER_1
 10
133.423561
 20
69.43343400000001
 30
0.0
 11
131.220805
 21
68.670689
 31
0.0
  0
LINE
  5
26D
  8
LAYER_1
 10
131.220805
 20
68.670689
 30
0.0
 11
131.865158
 21
67.277762
 31
0.0
  0
LINE
  5
26E
  8
LAYER_1
 10
131.865158
 20
67.277762
 30
0.0
 11
132.373595
 21
65.692656
 31
0.0
  0
LINE
  5
26F
  8
LAYER_1
 10
132.373595
 20
65.692656
 30
0.0
 11
132.544389
 21
64.008161
 31
0.0
  0
LINE
  5
270
  8
LAYER_1
 10
132.544389
 20
64.008161
 30
0.0
 11
132.377297
 21
62.438863
 31
0.0
  0
LINE
  5
271
  8
LAYER_1
 10
132.377297
 20
62.438863
 30
0.0
 11
131.872076
 21
61.19935
 31
0.0
  0
LINE
  5
272
  8
LAYER_1
 10
131.872076
 20
61.19935
 30
0.0
 11
131.237948
 21
60.496234
 31
0.0
  0
LINE
  5
273
  8
LAYER_1
 10
131.237948
 20
60.496234
 30
0.0
 11
130.618662
 21
60.152382
 31
0.0
  0
LINE
  5
274
  8
LAYER_1
 10
130.618662
 20
60.152382
 30
0.0
 11
129.967406
 21
59.735055
 31
0.0
  0
LINE
  5
275
  8
LAYER_1
 10
129.967406
 20
59.735055
 30
0.0
 11
129.24168
 21
58.74127
 31
0.0
  0
LINE
  5
276
  8
LAYER_1
 10
129.24168
 20
58.74127
 30
0.0
 11
128.429753
 21
57.492475
 31
0.0
  0
LINE
  5
277
  8
LAYER_1
 10
128.429753
 20
57.492475
 30
0.0
 11
127.879982
 21
57.011234
 31
0.0
  0
LINE
  5
278
  8
LAYER_1
 10
127.879982
 20
57.011234
 30
0.0
 11
127.698027
 21
57.057194
 31
0.0
  0
LINE
  5
279
  8
LAYER_1
 10
127.698027
 20
57.057194
 30
0.0
 11
127.575157
 21
57.293542
 31
0.0
  0
LINE
  5
27A
  8
LAYER_1
 10
127.575157
 20
57.293542
 30
0.0
 11
127.498069
 21
58.335393
 31
0.0
  0
LINE
  5
27B
  8
LAYER_1
 10
127.498069
 20
58.335393
 30
0.0
 11
127.435459
 21
59.219041
 31
0.0
  0
LINE
  5
27C
  8
LAYER_1
 10
127.435459
 20
59.219041
 30
0.0
 11
127.211658
 21
60.109744
 31
0.0
  0
LINE
  5
27D
  8
LAYER_1
 10
127.211658
 20
60.109744
 30
0.0
 11
126.295024
 21
61.891245
 31
0.0
  0
LINE
  5
27E
  8
LAYER_1
 10
126.295024
 20
61.891245
 30
0.0
 11
124.777251
 21
63.637746
 31
0.0
  0
LINE
  5
27F
  8
LAYER_1
 10
124.777251
 20
63.637746
 30
0.0
 11
122.687421
 21
65.307097
 31
0.0
  0
LINE
  5
280
  8
LAYER_1
 10
122.687421
 20
65.307097
 30
0.0
 11
120.734362
 21
66.641565
 31
0.0
  0
LINE
  5
281
  8
LAYER_1
 10
120.734362
 20
66.641565
 30
0.0
 11
119.80628
 21
66.161632
 31
0.0
  0
LINE
  5
282
  8
LAYER_1
 10
119.80628
 20
66.161632
 30
0.0
 11
117.401649
 21
65.170097
 31
0.0
  0
LINE
  5
283
  8
LAYER_1
 10
117.401649
 20
65.170097
 30
0.0
 11
114.787679
 21
64.581079
 31
0.0
  0
LINE
  5
284
  8
LAYER_1
 10
114.787679
 20
64.581079
 30
0.0
 11
111.936815
 21
64.39064999999999
 31
0.0
  0
LINE
  5
285
  8
LAYER_1
 10
111.936815
 20
64.39064999999999
 30
0.0
 11
108.821502
 21
64.59487799999999
 31
0.0
  0
LINE
  5
286
  8
LAYER_1
 10
108.821502
 20
64.59487799999999
 30
0.0
 11
106.690335
 21
64.942829
 31
0.0
  0
LINE
  5
287
  8
LAYER_1
 10
106.690335
 20
64.942829
 30
0.0
 11
105.061343
 21
65.46606900000001
 31
0.0
  0
LINE
  5
288
  8
LAYER_1
 10
105.061343
 20
65.46606900000001
 30
0.0
 11
103.630542
 21
66.29936600000001
 31
0.0
  0
LINE
  5
289
  8
LAYER_1
 10
103.630542
 20
66.29936600000001
 30
0.0
 11
102.093948
 21
67.57749
 31
0.0
  0
LINE
  5
28A
  8
LAYER_1
 10
102.093948
 20
67.57749
 30
0.0
 11
100.365712
 21
69.42906600000001
 31
0.0
  0
LINE
  5
28B
  8
LAYER_1
 10
100.365712
 20
69.42906600000001
 30
0.0
 11
99.126977
 21
71.545917
 31
0.0
  0
LINE
  5
28C
  8
LAYER_1
 10
99.126977
 20
71.545917
 30
0.0
 11
98.189988
 21
74.352947
 31
0.0
  0
LINE
  5
28D
  8
LAYER_1
 10
98.189988
 20
74.352947
 30
0.0
 11
97.36699400000001
 21
78.27506099999999
 31
0.0
  0
LINE
  5
28E
  8
LAYER_1
 10
97.36699400000001
 20
78.27506099999999
 30
0.0
 11
96.71097
 21
81.57854399999999
 31
0.0
  0
LINE
  5
28F
  8
LAYER_1
 10
96.71097
 20
81.57854399999999
 30
0.0
 11
96.055859
 21
84.087062
 31
0.0
  0
LINE
  5
290
  8
LAYER_1
 10
96.055859
 20
84.087062
 30
0.0
 11
95.35126
 21
85.96314700000001
 31
0.0
  0
LINE
  5
291
  8
LAYER_1
 10
95.35126
 20
85.96314700000001
 30
0.0
 11
94.54677
 21
87.369331
 31
0.0
  0
LINE
  5
292
  8
LAYER_1
 10
94.54677
 20
87.369331
 30
0.0
 11
93.632822
 21
88.654819
 31
0.0
  0
LINE
  5
293
  8
LAYER_1
 10
93.632822
 20
88.654819
 30
0.0
 11
93.632822
 21
86.538731
 31
0.0
  0
LINE
  5
294
  8
LAYER_1
 10
93.632822
 20
86.538731
 30
0.0
 11
93.508912
 21
84.61973399999999
 31
0.0
  0
LINE
  5
295
  8
LAYER_1
 10
93.508912
 20
84.61973399999999
 30
0.0
 11
93.120594
 21
82.970885
 31
0.0
  0
LINE
  5
296
  8
LAYER_1
 10
93.120594
 20
82.970885
 30
0.0
 11
92.442988
 21
81.519824
 31
0.0
  0
LINE
  5
297
  8
LAYER_1
 10
92.442988
 20
81.519824
 30
0.0
 11
91.451213
 21
80.19419499999999
 31
0.0
  0
LINE
  5
298
  8
LAYER_1
 10
91.451213
 20
80.19419499999999
 30
0.0
 11
90.312696
 21
79.14340300000001
 31
0.0
  0
LINE
  5
299
  8
LAYER_1
 10
90.312696
 20
79.14340300000001
 30
0.0
 11
88.897854
 21
78.162257
 31
0.0
  0
LINE
  5
29A
  8
LAYER_1
 10
88.897854
 20
78.162257
 30
0.0
 11
87.367869
 21
77.348972
 31
0.0
  0
LINE
  5
29B
  8
LAYER_1
 10
87.367869
 20
77.348972
 30
0.0
 11
85.883922
 21
76.801766
 31
0.0
  0
LINE
  5
29C
  8
LAYER_1
 10
85.883922
 20
76.801766
 30
0.0
 11
84.82996
 21
76.516083
 31
0.0
  0
LINE
  5
29D
  8
LAYER_1
 10
84.82996
 20
76.516083
 30
0.0
 11
82.957351
 21
78.761223
 31
0.0
  0
LINE
  5
29E
  8
LAYER_1
 10
82.957351
 20
78.761223
 30
0.0
 11
81.08474200000001
 21
81.006366
 31
0.0
  0
LINE
  5
29F
  8
LAYER_1
 10
81.08474200000001
 20
81.006366
 30
0.0
 11
80.126216
 21
79.886545
 31
0.0
  0
LINE
  5
2A0
  8
LAYER_1
 10
80.126216
 20
79.886545
 30
0.0
 11
79.15421600000001
 21
78.9983
 31
0.0
  0
LINE
  5
2A1
  8
LAYER_1
 10
79.15421600000001
 20
78.9983
 30
0.0
 11
78.163293
 21
78.435242
 31
0.0
  0
LINE
  5
2A2
  8
LAYER_1
 10
78.163293
 20
78.435242
 30
0.0
 11
77.326348
 21
78.280103
 31
0.0
  0
LINE
  5
2A3
  8
LAYER_1
 10
77.326348
 20
78.280103
 30
0.0
 11
76.27173999999999
 21
78.263015
 31
0.0
  0
LINE
  5
2A4
  8
LAYER_1
 10
76.27173999999999
 20
78.263015
 30
0.0
 11
74.026217
 21
78.61993099999999
 31
0.0
  0
LINE
  5
2A5
  8
LAYER_1
 10
74.026217
 20
78.61993099999999
 30
0.0
 11
73.766741
 21
78.638447
 31
0.0
  0
LINE
  5
2A6
  8
LAYER_1
 10
73.766741
 20
78.638447
 30
0.0
 11
73.617223
 21
78.44333
 31
0.0
  0
LINE
  5
2A7
  8
LAYER_1
 10
73.617223
 20
78.44333
 30
0.0
 11
73.53232800000001
 21
77.042569
 31
0.0
  0
LINE
  5
2A8
  8
LAYER_1
 10
73.53232800000001
 20
77.042569
 30
0.0
 11
73.428386
 21
75.547804
 31
0.0
  0
LINE
  5
2A9
  8
LAYER_1
 10
73.428386
 20
75.547804
 30
0.0
 11
73.110011
 21
74.37848200000001
 31
0.0
  0
LINE
  5
2AA
  8
LAYER_1
 10
73.110011
 20
74.37848200000001
 30
0.0
 11
72.56738
 21
73.51137300000001
 31
0.0
  0
LINE
  5
2AB
  8
LAYER_1
 10
72.56738
 20
73.51137300000001
 30
0.0
 11
71.790673
 21
72.92324499999999
 31
0.0
  0
LINE
  5
2AC
  8
LAYER_1
 10
71.790673
 20
72.92324499999999
 30
0.0
 11
70.78001
 21
72.38644100000001
 31
0.0
  0
LINE
  5
2AD
  8
LAYER_1
 10
70.78001
 20
72.38644100000001
 30
0.0
 11
71.54204900000001
 21
70.65844199999999
 31
0.0
  0
LINE
  5
2AE
  8
LAYER_1
 10
71.54204900000001
 20
70.65844199999999
 30
0.0
 11
72.516237
 21
68.329623
 31
0.0
  0
LINE
  5
2AF
  8
LAYER_1
 10
72.516237
 20
68.329623
 30
0.0
 11
73.18447999999999
 21
65.822174
 31
0.0
  0
LINE
  5
2B0
  8
LAYER_1
 10
73.18447999999999
 20
65.822174
 30
0.0
 11
73.545084
 21
63.08423
 31
0.0
  0
LINE
  5
2B1
  8
LAYER_1
 10
73.545084
 20
63.08423
 30
0.0
 11
73.596351
 21
60.063928
 31
0.0
  0
LINE
  5
2B2
  8
LAYER_1
 10
73.596351
 20
60.063928
 30
0.0
 11
73.336586
 21
56.709403
 31
0.0
  0
LINE
  5
2B3
  8
LAYER_1
 10
73.336586
 20
56.709403
 30
0.0
 11
72.76409099999999
 21
52.968793
 31
0.0
  0
LINE
  5
2B4
  8
LAYER_1
 10
72.76409099999999
 20
52.968793
 30
0.0
 11
71.877171
 21
48.790232
 31
0.0
  0
LINE
  5
2B5
  8
LAYER_1
 10
71.877171
 20
48.790232
 30
0.0
 11
70.674128
 21
44.121857
 31
0.0
  0
LINE
  5
2B6
  8
LAYER_1
 10
70.674128
 20
44.121857
 30
0.0
 11
69.513817
 21
39.920393
 31
0.0
  0
LINE
  5
2B7
  8
LAYER_1
 10
69.513817
 20
39.920393
 30
0.0
 11
69.693231
 21
34.55817
 31
0.0
  0
LINE
  5
2B8
  8
LAYER_1
 10
69.693231
 20
34.55817
 30
0.0
 11
70.11348700000001
 21
26.701349
 31
0.0
  0
LINE
  5
2B9
  8
LAYER_1
 10
70.11348700000001
 20
26.701349
 30
0.0
 11
70.441069
 21
23.546581
 31
0.0
  0
LINE
  5
2BA
  8
LAYER_1
 10
70.441069
 20
23.546581
 30
0.0
 11
70.87435499999999
 21
20.760968
 31
0.0
  0
LINE
  5
2BB
  8
LAYER_1
 10
70.87435499999999
 20
20.760968
 30
0.0
 11
71.433896
 21
18.234554
 31
0.0
  0
LINE
  5
2BC
  8
LAYER_1
 10
71.433896
 20
18.234554
 30
0.0
 11
72.140242
 21
15.857386
 31
0.0
  0
LINE
  5
2BD
  8
LAYER_1
 10
72.140242
 20
15.857386
 30
0.0
 11
73.01394500000001
 21
13.519508
 31
0.0
  0
LINE
  5
2BE
  8
LAYER_1
 10
73.01394500000001
 20
13.519508
 30
0.0
 11
74.07555499999999
 21
11.110965
 31
0.0
  0
LINE
  5
2BF
  8
LAYER_1
 10
74.07555499999999
 20
11.110965
 30
0.0
 11
75.917407
 21
7.650373
 31
0.0
  0
LINE
  5
2C0
  8
LAYER_1
 10
75.917407
 20
7.650373
 30
0.0
 11
77.850579
 21
4.886385
 31
0.0
  0
LINE
  5
2C1
  8
LAYER_1
 10
77.850579
 20
4.886385
 30
0.0
 11
79.795982
 21
2.915553
 31
0.0
  0
LINE
  5
2C2
  8
LAYER_1
 10
79.795982
 20
2.915553
 30
0.0
 11
80.748555
 21
2.257741
 31
0.0
  0
LINE
  5
2C3
  8
LAYER_1
 10
80.748555
 20
2.257741
 30
0.0
 11
81.674527
 21
1.834425
 31
0.0
  0
LINE
  5
2C4
  8
LAYER_1
 10
81.674527
 20
1.834425
 30
0.0
 11
83.06335
 21
1.58271
 31
0.0
  0
LINE
  5
2C5
  8
LAYER_1
 10
83.06335
 20
1.58271
 30
0.0
 11
83.662243
 21
1.661755
 31
0.0
  0
LINE
  5
2C6
  8
LAYER_1
 10
83.662243
 20
1.661755
 30
0.0
 11
84.213319
 21
1.88635
 31
0.0
  0
LINE
  5
2C7
  8
LAYER_1
 10
84.213319
 20
1.88635
 30
0.0
 11
85.21960799999999
 21
2.799034
 31
0.0
  0
LINE
  5
2C8
  8
LAYER_1
 10
85.21960799999999
 20
2.799034
 30
0.0
 11
86.177391
 21
4.374447
 31
0.0
  0
LINE
  5
2C9
  8
LAYER_1
 10
86.177391
 20
4.374447
 30
0.0
 11
86.639968
 21
5.552299
 31
0.0
  0
LINE
  5
2CA
  8
LAYER_1
 10
86.639968
 20
5.552299
 30
0.0
 11
87.023645
 21
7.045064
 31
0.0
  0
LINE
  5
2CB
  8
LAYER_1
 10
87.023645
 20
7.045064
 30
0.0
 11
87.531586
 21
10.697518
 31
0.0
  0
LINE
  5
2CC
  8
LAYER_1
 10
87.531586
 20
10.697518
 30
0.0
 11
87.65578100000001
 21
14.776168
 31
0.0
  0
LINE
  5
2CD
  8
LAYER_1
 10
87.65578100000001
 20
14.776168
 30
0.0
 11
87.350798
 21
18.725377
 31
0.0
  0
LINE
  5
2CE
  8
LAYER_1
 10
87.350798
 20
18.725377
 30
0.0
 11
87.144722
 21
20.741143
 31
0.0
  0
LINE
  5
2CF
  8
LAYER_1
 10
87.144722
 20
20.741143
 30
0.0
 11
90.431281
 21
18.511715
 31
0.0
  0
LINE
  5
2D0
  8
LAYER_1
 10
90.431281
 20
18.511715
 30
0.0
 11
93.64245699999999
 21
16.213726
 31
0.0
  0
LINE
  5
2D1
  8
LAYER_1
 10
93.64245699999999
 20
16.213726
 30
0.0
 11
93.467253
 21
13.09696
 31
0.0
  0
LINE
  5
2D2
  8
LAYER_1
 10
93.467253
 20
13.09696
 30
0.0
 11
93.189307
 21
10.381487
 31
0.0
  0
LINE
  5
2D3
  8
LAYER_1
 10
93.189307
 20
10.381487
 30
0.0
 11
92.67768
 21
8.015461999999999
 31
0.0
  0
LINE
  5
2D4
  8
LAYER_1
 10
92.67768
 20
8.015461999999999
 30
0.0
 11
91.927939
 21
5.992848
 31
0.0
  0
LINE
  5
2D5
  8
LAYER_1
 10
91.927939
 20
5.992848
 30
0.0
 11
90.93565099999999
 21
4.307611
 31
0.0
  0
LINE
  5
2D6
  8
LAYER_1
 10
90.93565099999999
 20
4.307611
 30
0.0
 11
89.696386
 21
2.953713
 31
0.0
  0
LINE
  5
2D7
  8
LAYER_1
 10
89.696386
 20
2.953713
 30
0.0
 11
88.20571
 21
1.925119
 31
0.0
  0
LINE
  5
2D8
  8
LAYER_1
 10
88.20571
 20
1.925119
 30
0.0
 11
86.459191
 21
1.215793
 31
0.0
  0
LINE
  5
2D9
  8
LAYER_1
 10
86.459191
 20
1.215793
 30
0.0
 11
84.452398
 21
0.819698
 31
0.0
  0
LINE
  5
2DA
  8
LAYER_1
 10
84.452398
 20
0.819698
 30
0.0
 11
81.99899499999999
 21
0.452981
 31
0.0
  0
LINE
  5
2DB
  8
LAYER_1
 10
81.99899499999999
 20
0.452981
 30
0.0
 11
81.205696
 21
0.475382
 31
0.0
  0
LINE
  5
2DC
  8
LAYER_1
 10
81.205696
 20
0.475382
 30
0.0
 11
79.892872
 21
0.722266
 31
0.0
  0
LINE
  5
2DD
  8
LAYER_1
 10
79.892872
 20
0.722266
 30
0.0
 11
79.892872
 21
0.722266
 31
0.0
  0
LINE
  5
2DE
  8
LAYER_1
 10
78.874239
 20
2.737615
 30
0.0
 11
76.951047
 21
4.874468
 31
0.0
  0
LINE
  5
2DF
  8
LAYER_1
 10
76.951047
 20
4.874468
 30
0.0
 11
75.041878
 21
7.769226
 31
0.0
  0
LINE
  5
2E0
  8
LAYER_1
 10
75.041878
 20
7.769226
 30
0.0
 11
73.234833
 21
11.270261
 31
0.0
  0
LINE
  5
2E1
  8
LAYER_1
 10
73.234833
 20
11.270261
 30
0.0
 11
71.61801199999999
 21
15.225948
 31
0.0
  0
LINE
  5
2E2
  8
LAYER_1
 10
71.61801199999999
 20
15.225948
 30
0.0
 11
70.637468
 21
18.529393
 31
0.0
  0
LINE
  5
2E3
  8
LAYER_1
 10
70.637468
 20
18.529393
 30
0.0
 11
69.912032
 21
22.41232
 31
0.0
  0
LINE
  5
2E4
  8
LAYER_1
 10
69.912032
 20
22.41232
 30
0.0
 11
69.402683
 21
27.147062
 31
0.0
  0
LINE
  5
2E5
  8
LAYER_1
 10
69.402683
 20
27.147062
 30
0.0
 11
69.070401
 21
33.005948
 31
0.0
  0
LINE
  5
2E6
  8
LAYER_1
 10
69.070401
 20
33.005948
 30
0.0
 11
68.87566200000001
 21
37.944837
 31
0.0
  0
LINE
  5
2E7
  8
LAYER_1
 10
68.87566200000001
 20
37.944837
 30
0.0
 11
67.605662
 21
33.852615
 31
0.0
  0
LINE
  5
2E8
  8
LAYER_1
 10
67.605662
 20
33.852615
 30
0.0
 11
66.335662
 21
29.760393
 31
0.0
  0
LINE
  5
2E9
  8
LAYER_1
 10
66.335662
 20
29.760393
 30
0.0
 11
66.34764800000001
 21
25.103726
 31
0.0
  0
LINE
  5
2EA
  8
LAYER_1
 10
66.34764800000001
 20
25.103726
 30
0.0
 11
66.42789000000001
 21
22.372442
 31
0.0
  0
LINE
  5
2EB
  8
LAYER_1
 10
66.42789000000001
 20
22.372442
 30
0.0
 11
66.656002
 21
19.811208
 31
0.0
  0
LINE
  5
2EC
  8
LAYER_1
 10
66.656002
 20
19.811208
 30
0.0
 11
67.034835
 21
17.40984
 31
0.0
  0
LINE
  5
2ED
  8
LAYER_1
 10
67.034835
 20
17.40984
 30
0.0
 11
67.567238
 21
15.158153
 31
0.0
  0
LINE
  5
2EE
  8
LAYER_1
 10
67.567238
 20
15.158153
 30
0.0
 11
68.256063
 21
13.045962
 31
0.0
  0
LINE
  5
2EF
  8
LAYER_1
 10
68.256063
 20
13.045962
 30
0.0
 11
69.104158
 21
11.063082
 31
0.0
  0
LINE
  5
2F0
  8
LAYER_1
 10
69.104158
 20
11.063082
 30
0.0
 11
70.11437599999999
 21
9.199328
 31
0.0
  0
LINE
  5
2F1
  8
LAYER_1
 10
70.11437599999999
 20
9.199328
 30
0.0
 11
71.289565
 21
7.444514
 31
0.0
  0
LINE
  5
2F2
  8
LAYER_1
 10
71.289565
 20
7.444514
 30
0.0
 11
73.22305
 21
5.325526
 31
0.0
  0
LINE
  5
2F3
  8
LAYER_1
 10
73.22305
 20
5.325526
 30
0.0
 11
75.59737300000001
 21
3.420752
 31
0.0
  0
LINE
  5
2F4
  8
LAYER_1
 10
75.59737300000001
 20
3.420752
 30
0.0
 11
77.991252
 21
2.022059
 31
0.0
  0
LINE
  5
2F5
  8
LAYER_1
 10
77.991252
 20
2.022059
 30
0.0
 11
79.063875
 21
1.603702
 31
0.0
  0
LINE
  5
2F6
  8
LAYER_1
 10
79.063875
 20
1.603702
 30
0.0
 11
79.983406
 21
1.421316
 31
0.0
  0
LINE
  5
2F7
  8
LAYER_1
 10
79.983406
 20
1.421316
 30
0.0
 11
80.01447
 21
1.517676
 31
0.0
  0
LINE
  5
2F8
  8
LAYER_1
 10
80.01447
 20
1.517676
 30
0.0
 11
79.815701
 21
1.797973
 31
0.0
  0
LINE
  5
2F9
  8
LAYER_1
 10
79.815701
 20
1.797973
 30
0.0
 11
78.874239
 21
2.737615
 31
0.0
  0
LINE
  5
2FA
  8
LAYER_1
 10
78.874239
 20
2.737615
 30
0.0
 11
78.874239
 21
2.737615
 31
0.0
  0
LINE
  5
2FB
  8
LAYER_1
 10
87.52527600000001
 20
2.352554
 30
0.0
 11
88.81921300000001
 21
3.155978
 31
0.0
  0
LINE
  5
2FC
  8
LAYER_1
 10
88.81921300000001
 20
3.155978
 30
0.0
 11
89.964786
 21
4.287354
 31
0.0
  0
LINE
  5
2FD
  8
LAYER_1
 10
89.964786
 20
4.287354
 30
0.0
 11
90.952327
 21
5.734992
 31
0.0
  0
LINE
  5
2FE
  8
LAYER_1
 10
90.952327
 20
5.734992
 30
0.0
 11
91.772167
 21
7.487203
 31
0.0
  0
LINE
  5
2FF
  8
LAYER_1
 10
91.772167
 20
7.487203
 30
0.0
 11
92.40318499999999
 21
9.693785
 31
0.0
  0
LINE
  5
300
  8
LAYER_1
 10
92.40318499999999
 20
9.693785
 30
0.0
 11
92.65589799999999
 21
12.685948
 31
0.0
  0
LINE
  5
301
  8
LAYER_1
 10
92.65589799999999
 20
12.685948
 30
0.0
 11
92.78658400000001
 21
15.931504
 31
0.0
  0
LINE
  5
302
  8
LAYER_1
 10
92.78658400000001
 20
15.931504
 30
0.0
 11
90.517946
 21
17.554281
 31
0.0
  0
LINE
  5
303
  8
LAYER_1
 10
90.517946
 20
17.554281
 30
0.0
 11
88.158041
 21
19.177435
 31
0.0
  0
LINE
  5
304
  8
LAYER_1
 10
88.158041
 20
19.177435
 30
0.0
 11
88.163479
 21
14.450212
 31
0.0
  0
LINE
  5
305
  8
LAYER_1
 10
88.163479
 20
14.450212
 30
0.0
 11
88.104156
 21
10.063236
 31
0.0
  0
LINE
  5
306
  8
LAYER_1
 10
88.104156
 20
10.063236
 30
0.0
 11
87.70177099999999
 21
6.708732
 31
0.0
  0
LINE
  5
307
  8
LAYER_1
 10
87.70177099999999
 20
6.708732
 30
0.0
 11
87.36179199999999
 21
5.36852
 31
0.0
  0
LINE
  5
308
  8
LAYER_1
 10
87.36179199999999
 20
5.36852
 30
0.0
 11
86.92388200000001
 21
4.226263
 31
0.0
  0
LINE
  5
309
  8
LAYER_1
 10
86.92388200000001
 20
4.226263
 30
0.0
 11
86.383985
 21
3.261905
 31
0.0
  0
LINE
  5
30A
  8
LAYER_1
 10
86.383985
 20
3.261905
 30
0.0
 11
85.738047
 21
2.455393
 31
0.0
  0
LINE
  5
30B
  8
LAYER_1
 10
85.738047
 20
2.455393
 30
0.0
 11
85.20574600000001
 21
1.805114
 31
0.0
  0
LINE
  5
30C
  8
LAYER_1
 10
85.20574600000001
 20
1.805114
 30
0.0
 11
85.27267000000001
 21
1.703325
 31
0.0
  0
LINE
  5
30D
  8
LAYER_1
 10
85.27267000000001
 20
1.703325
 30
0.0
 11
85.544527
 21
1.682039
 31
0.0
  0
LINE
  5
30E
  8
LAYER_1
 10
85.544527
 20
1.682039
 30
0.0
 11
87.52527600000001
 21
2.352554
 31
0.0
  0
LINE
  5
30F
  8
LAYER_1
 10
87.52527600000001
 20
2.352554
 30
0.0
 11
87.52527600000001
 21
2.352554
 31
0.0
  0
LINE
  5
310
  8
LAYER_1
 10
41.358995
 20
25.767532
 30
0.0
 11
43.51715
 21
26.810661
 31
0.0
  0
LINE
  5
311
  8
LAYER_1
 10
43.51715
 20
26.810661
 30
0.0
 11
45.593033
 21
28.130929
 31
0.0
  0
LINE
  5
312
  8
LAYER_1
 10
45.593033
 20
28.130929
 30
0.0
 11
47.586139
 21
29.727793
 31
0.0
  0
LINE
  5
313
  8
LAYER_1
 10
47.586139
 20
29.727793
 30
0.0
 11
49.495962
 21
31.600711
 31
0.0
  0
LINE
  5
314
  8
LAYER_1
 10
49.495962
 20
31.600711
 30
0.0
 11
51.322
 21
33.74914
 31
0.0
  0
LINE
  5
315
  8
LAYER_1
 10
51.322
 20
33.74914
 30
0.0
 11
53.063746
 21
36.172536
 31
0.0
  0
LINE
  5
316
  8
LAYER_1
 10
53.063746
 20
36.172536
 30
0.0
 11
54.720698
 21
38.870356
 31
0.0
  0
LINE
  5
317
  8
LAYER_1
 10
54.720698
 20
38.870356
 30
0.0
 11
56.292349
 21
41.842058
 31
0.0
  0
LINE
  5
318
  8
LAYER_1
 10
56.292349
 20
41.842058
 30
0.0
 11
58.671194
 21
47.12205
 31
0.0
  0
LINE
  5
319
  8
LAYER_1
 10
58.671194
 20
47.12205
 30
0.0
 11
60.349761
 21
51.916131
 31
0.0
  0
LINE
  5
31A
  8
LAYER_1
 10
60.349761
 20
51.916131
 30
0.0
 11
61.383386
 21
56.41387
 31
0.0
  0
LINE
  5
31B
  8
LAYER_1
 10
61.383386
 20
56.41387
 30
0.0
 11
61.827402
 21
60.804837
 31
0.0
  0
LINE
  5
31C
  8
LAYER_1
 10
61.827402
 20
60.804837
 30
0.0
 11
62.097268
 21
66.30817
 31
0.0
  0
LINE
  5
31D
  8
LAYER_1
 10
62.097268
 20
66.30817
 30
0.0
 11
62.135696
 21
67.312766
 31
0.0
  0
LINE
  5
31E
  8
LAYER_1
 10
62.135696
 20
67.312766
 30
0.0
 11
62.059561
 21
67.357399
 31
0.0
  0
LINE
  5
31F
  8
LAYER_1
 10
62.059561
 20
67.357399
 30
0.0
 11
61.88598
 21
67.015326
 31
0.0
  0
LINE
  5
320
  8
LAYER_1
 10
61.88598
 20
67.015326
 30
0.0
 11
59.709042
 21
60.556027
 31
0.0
  0
LINE
  5
321
  8
LAYER_1
 10
59.709042
 20
60.556027
 30
0.0
 11
57.234951
 21
53.369042
 31
0.0
  0
LINE
  5
322
  8
LAYER_1
 10
57.234951
 20
53.369042
 30
0.0
 11
54.93808
 21
47.636006
 31
0.0
  0
LINE
  5
323
  8
LAYER_1
 10
54.93808
 20
47.636006
 30
0.0
 11
52.600952
 21
42.863905
 31
0.0
  0
LINE
  5
324
  8
LAYER_1
 10
52.600952
 20
42.863905
 30
0.0
 11
50.006089
 21
38.559726
 31
0.0
  0
LINE
  5
325
  8
LAYER_1
 10
50.006089
 20
38.559726
 30
0.0
 11
46.34961
 21
33.424
 31
0.0
  0
LINE
  5
326
  8
LAYER_1
 10
46.34961
 20
33.424
 30
0.0
 11
42.915959
 21
29.416367
 31
0.0
  0
LINE
  5
327
  8
LAYER_1
 10
42.915959
 20
29.416367
 30
0.0
 11
41.294994
 21
27.848336
 31
0.0
  0
LINE
  5
328
  8
LAYER_1
 10
41.294994
 20
27.848336
 30
0.0
 11
39.744497
 21
26.577628
 31
0.0
  0
LINE
  5
329
  8
LAYER_1
 10
39.744497
 20
26.577628
 30
0.0
 11
38.269389
 21
25.609344
 31
0.0
  0
LINE
  5
32A
  8
LAYER_1
 10
38.269389
 20
25.609344
 30
0.0
 11
36.874588
 21
24.948583
 31
0.0
  0
LINE
  5
32B
  8
LAYER_1
 10
36.874588
 20
24.948583
 30
0.0
 11
36.213078
 21
24.639874
 31
0.0
  0
LINE
  5
32C
  8
LAYER_1
 10
36.213078
 20
24.639874
 30
0.0
 11
37.548995
 21
24.732559
 31
0.0
  0
LINE
  5
32D
  8
LAYER_1
 10
37.548995
 20
24.732559
 30
0.0
 11
39.366682
 21
25.104442
 31
0.0
  0
LINE
  5
32E
  8
LAYER_1
 10
39.366682
 20
25.104442
 30
0.0
 11
41.358995
 21
25.767532
 31
0.0
  0
LINE
  5
32F
  8
LAYER_1
 10
41.358995
 20
25.767532
 30
0.0
 11
41.358995
 21
25.767532
 31
0.0
  0
LINE
  5
330
  8
LAYER_1
 10
32.295981
 20
26.859591
 30
0.0
 11
31.968843
 21
27.606951
 31
0.0
  0
LINE
  5
331
  8
LAYER_1
 10
31.968843
 20
27.606951
 30
0.0
 11
31.807318
 21
28.433894
 31
0.0
  0
LINE
  5
332
  8
LAYER_1
 10
31.807318
 20
28.433894
 30
0.0
 11
31.853835
 21
31.727925
 31
0.0
  0
LINE
  5
333
  8
LAYER_1
 10
31.853835
 20
31.727925
 30
0.0
 11
32.152184
 21
35.202225
 31
0.0
  0
LINE
  5
334
  8
LAYER_1
 10
32.152184
 20
35.202225
 30
0.0
 11
32.744859
 21
38.227059
 31
0.0
  0
LINE
  5
335
  8
LAYER_1
 10
32.744859
 20
38.227059
 30
0.0
 11
34.275479
 21
43.313775
 31
0.0
  0
LINE
  5
336
  8
LAYER_1
 10
34.275479
 20
43.313775
 30
0.0
 11
35.8625
 21
47.800734
 31
0.0
  0
LINE
  5
337
  8
LAYER_1
 10
35.8625
 20
47.800734
 30
0.0
 11
35.92694
 21
48.049998
 31
0.0
  0
LINE
  5
338
  8
LAYER_1
 10
35.92694
 20
48.049998
 30
0.0
 11
35.777559
 21
48.091979
 31
0.0
  0
LINE
  5
339
  8
LAYER_1
 10
35.777559
 20
48.091979
 30
0.0
 11
34.563979
 21
47.488323
 31
0.0
  0
LINE
  5
33A
  8
LAYER_1
 10
34.563979
 20
47.488323
 30
0.0
 11
31.644654
 21
45.858162
 31
0.0
  0
LINE
  5
33B
  8
LAYER_1
 10
31.644654
 20
45.858162
 30
0.0
 11
30.232837
 21
44.916439
 31
0.0
  0
LINE
  5
33C
  8
LAYER_1
 10
30.232837
 20
44.916439
 30
0.0
 11
29.663592
 21
44.059409
 31
0.0
  0
LINE
  5
33D
  8
LAYER_1
 10
29.663592
 20
44.059409
 30
0.0
 11
29.271982
 21
42.683326
 31
0.0
  0
LINE
  5
33E
  8
LAYER_1
 10
29.271982
 20
42.683326
 30
0.0
 11
28.238027
 21
38.29495
 31
0.0
  0
LINE
  5
33F
  8
LAYER_1
 10
28.238027
 20
38.29495
 30
0.0
 11
27.851422
 21
34.59041
 31
0.0
  0
LINE
  5
340
  8
LAYER_1
 10
27.851422
 20
34.59041
 30
0.0
 11
27.900408
 21
32.969648
 31
0.0
  0
LINE
  5
341
  8
LAYER_1
 10
27.900408
 20
32.969648
 30
0.0
 11
28.110673
 21
31.489928
 31
0.0
  0
LINE
  5
342
  8
LAYER_1
 10
28.110673
 20
31.489928
 30
0.0
 11
28.482028
 21
30.141278
 31
0.0
  0
LINE
  5
343
  8
LAYER_1
 10
28.482028
 20
30.141278
 30
0.0
 11
29.014287
 21
28.913726
 31
0.0
  0
LINE
  5
344
  8
LAYER_1
 10
29.014287
 20
28.913726
 30
0.0
 11
29.738971
 21
27.865652
 31
0.0
  0
LINE
  5
345
  8
LAYER_1
 10
29.738971
 20
27.865652
 30
0.0
 11
30.719759
 21
26.890582
 31
0.0
  0
LINE
  5
346
  8
LAYER_1
 10
30.719759
 20
26.890582
 30
0.0
 11
31.801117
 21
26.120168
 31
0.0
  0
LINE
  5
347
  8
LAYER_1
 10
31.801117
 20
26.120168
 30
0.0
 11
32.827508
 21
25.68606
 31
0.0
  0
LINE
  5
348
  8
LAYER_1
 10
32.827508
 20
25.68606
 30
0.0
 11
32.295981
 21
26.859591
 31
0.0
  0
LINE
  5
349
  8
LAYER_1
 10
32.295981
 20
26.859591
 30
0.0
 11
32.295981
 21
26.859591
 31
0.0
  0
LINE
  5
34A
  8
LAYER_1
 10
71.097651
 20
48.457615
 30
0.0
 11
72.25733200000001
 21
53.88163
 31
0.0
  0
LINE
  5
34B
  8
LAYER_1
 10
72.25733200000001
 20
53.88163
 30
0.0
 11
72.864561
 21
58.31709
 31
0.0
  0
LINE
  5
34C
  8
LAYER_1
 10
72.864561
 20
58.31709
 30
0.0
 11
72.944125
 21
62.05912
 31
0.0
  0
LINE
  5
34D
  8
LAYER_1
 10
72.944125
 20
62.05912
 30
0.0
 11
72.52081
 21
65.40284699999999
 31
0.0
  0
LINE
  5
34E
  8
LAYER_1
 10
72.52081
 20
65.40284699999999
 30
0.0
 11
72.010868
 21
67.352437
 31
0.0
  0
LINE
  5
34F
  8
LAYER_1
 10
72.010868
 20
67.352437
 30
0.0
 11
71.3074
 21
69.38224099999999
 31
0.0
  0
LINE
  5
350
  8
LAYER_1
 10
71.3074
 20
69.38224099999999
 30
0.0
 11
70.54325300000001
 21
71.148631
 31
0.0
  0
LINE
  5
351
  8
LAYER_1
 10
70.54325300000001
 20
71.148631
 30
0.0
 11
69.85127300000001
 21
72.30798299999999
 31
0.0
  0
LINE
  5
352
  8
LAYER_1
 10
69.85127300000001
 20
72.30798299999999
 30
0.0
 11
69.451881
 21
72.698115
 31
0.0
  0
LINE
  5
353
  8
LAYER_1
 10
69.451881
 20
72.698115
 30
0.0
 11
69.74279799999999
 21
71.72176
 31
0.0
  0
LINE
  5
354
  8
LAYER_1
 10
69.74279799999999
 20
71.72176
 30
0.0
 11
70.268981
 21
69.55668300000001
 31
0.0
  0
LINE
  5
355
  8
LAYER_1
 10
70.268981
 20
69.55668300000001
 30
0.0
 11
70.565032
 21
66.840592
 31
0.0
  0
LINE
  5
356
  8
LAYER_1
 10
70.565032
 20
66.840592
 30
0.0
 11
70.631203
 21
63.569312
 31
0.0
  0
LINE
  5
357
  8
LAYER_1
 10
70.631203
 20
63.569312
 30
0.0
 11
70.467748
 21
59.738666
 31
0.0
  0
LINE
  5
358
  8
LAYER_1
 10
70.467748
 20
59.738666
 30
0.0
 11
69.958175
 21
49.598852
 31
0.0
  0
LINE
  5
359
  8
LAYER_1
 10
69.958175
 20
49.598852
 30
0.0
 11
69.867795
 21
45.801223
 31
0.0
  0
LINE
  5
35A
  8
LAYER_1
 10
69.867795
 20
45.801223
 30
0.0
 11
69.936645
 21
44.294837
 31
0.0
  0
LINE
  5
35B
  8
LAYER_1
 10
69.936645
 20
44.294837
 30
0.0
 11
71.097651
 21
48.457615
 31
0.0
  0
LINE
  5
35C
  8
LAYER_1
 10
71.097651
 20
48.457615
 30
0.0
 11
71.097651
 21
48.457615
 31
0.0
  0
LINE
  5
35D
  8
LAYER_1
 10
62.418606
 20
74.34151
 30
0.0
 11
63.358098
 21
75.50131500000001
 31
0.0
  0
LINE
  5
35E
  8
LAYER_1
 10
63.358098
 20
75.50131500000001
 30
0.0
 11
63.925234
 21
76.633077
 31
0.0
  0
LINE
  5
35F
  8
LAYER_1
 10
63.925234
 20
76.633077
 30
0.0
 11
64.121585
 21
77.741396
 31
0.0
  0
LINE
  5
360
  8
LAYER_1
 10
64.121585
 20
77.741396
 30
0.0
 11
63.948716
 21
78.83087
 31
0.0
  0
LINE
  5
361
  8
LAYER_1
 10
63.948716
 20
78.83087
 30
0.0
 11
63.696051
 21
79.494923
 31
0.0
  0
LINE
  5
362
  8
LAYER_1
 10
63.696051
 20
79.494923
 30
0.0
 11
63.427284
 21
79.785645
 31
0.0
  0
LINE
  5
363
  8
LAYER_1
 10
63.427284
 20
79.785645
 30
0.0
 11
63.018618
 21
79.749572
 31
0.0
  0
LINE
  5
364
  8
LAYER_1
 10
63.018618
 20
79.749572
 30
0.0
 11
62.346256
 21
79.43324200000001
 31
0.0
  0
LINE
  5
365
  8
LAYER_1
 10
62.346256
 20
79.43324200000001
 30
0.0
 11
61.643312
 21
79.130196
 31
0.0
  0
LINE
  5
366
  8
LAYER_1
 10
61.643312
 20
79.130196
 30
0.0
 11
61.065756
 21
79.03197900000001
 31
0.0
  0
LINE
  5
367
  8
LAYER_1
 10
61.065756
 20
79.03197900000001
 30
0.0
 11
60.578743
 21
79.138876
 31
0.0
  0
LINE
  5
368
  8
LAYER_1
 10
60.578743
 20
79.138876
 30
0.0
 11
60.147423
 21
79.451172
 31
0.0
  0
LINE
  5
369
  8
LAYER_1
 10
60.147423
 20
79.451172
 30
0.0
 11
59.726231
 21
79.69687399999999
 31
0.0
  0
LINE
  5
36A
  8
LAYER_1
 10
59.726231
 20
79.69687399999999
 30
0.0
 11
59.398349
 21
79.098394
 31
0.0
  0
LINE
  5
36B
  8
LAYER_1
 10
59.398349
 20
79.098394
 30
0.0
 11
58.799036
 21
76.65586500000001
 31
0.0
  0
LINE
  5
36C
  8
LAYER_1
 10
58.799036
 20
76.65586500000001
 30
0.0
 11
58.665517
 21
75.40214400000001
 31
0.0
  0
LINE
  5
36D
  8
LAYER_1
 10
58.665517
 20
75.40214400000001
 30
0.0
 11
58.776801
 21
74.458485
 31
0.0
  0
LINE
  5
36E
  8
LAYER_1
 10
58.776801
 20
74.458485
 30
0.0
 11
59.142368
 21
73.79289300000001
 31
0.0
  0
LINE
  5
36F
  8
LAYER_1
 10
59.142368
 20
73.79289300000001
 30
0.0
 11
59.771701
 21
73.373369
 31
0.0
  0
LINE
  5
370
  8
LAYER_1
 10
59.771701
 20
73.373369
 30
0.0
 11
60.47318
 21
73.156645
 31
0.0
  0
LINE
  5
371
  8
LAYER_1
 10
60.47318
 20
73.156645
 30
0.0
 11
61.040757
 21
73.206478
 31
0.0
  0
LINE
  5
372
  8
LAYER_1
 10
61.040757
 20
73.206478
 30
0.0
 11
61.635533
 21
73.58179199999999
 31
0.0
  0
LINE
  5
373
  8
LAYER_1
 10
61.635533
 20
73.58179199999999
 30
0.0
 11
62.418606
 21
74.34151
 31
0.0
  0
LINE
  5
374
  8
LAYER_1
 10
62.418606
 20
74.34151
 30
0.0
 11
62.418606
 21
74.34151
 31
0.0
  0
LINE
  5
375
  8
LAYER_1
 10
72.32872399999999
 20
74.794511
 30
0.0
 11
72.574336
 21
75.52762300000001
 31
0.0
  0
LINE
  5
376
  8
LAYER_1
 10
72.574336
 20
75.52762300000001
 30
0.0
 11
72.675304
 21
76.32705900000001
 31
0.0
  0
LINE
  5
377
  8
LAYER_1
 10
72.675304
 20
76.32705900000001
 30
0.0
 11
72.512585
 21
77.310429
 31
0.0
  0
LINE
  5
378
  8
LAYER_1
 10
72.512585
 20
77.310429
 30
0.0
 11
72.110056
 21
78.385199
 31
0.0
  0
LINE
  5
379
  8
LAYER_1
 10
72.110056
 20
78.385199
 30
0.0
 11
71.590013
 21
79.28907599999999
 31
0.0
  0
LINE
  5
37A
  8
LAYER_1
 10
71.590013
 20
79.28907599999999
 30
0.0
 11
71.07475700000001
 21
79.759762
 31
0.0
  0
LINE
  5
37B
  8
LAYER_1
 10
71.07475700000001
 20
79.759762
 30
0.0
 11
69.65011300000001
 21
80.617757
 31
0.0
  0
LINE
  5
37C
  8
LAYER_1
 10
69.65011300000001
 20
80.617757
 30
0.0
 11
68.92945
 21
81.053305
 31
0.0
  0
LINE
  5
37D
  8
LAYER_1
 10
68.92945
 20
81.053305
 30
0.0
 11
68.48714
 21
81.146351
 31
0.0
  0
LINE
  5
37E
  8
LAYER_1
 10
68.48714
 20
81.146351
 30
0.0
 11
68.274675
 21
80.622727
 31
0.0
  0
LINE
  5
37F
  8
LAYER_1
 10
68.274675
 20
80.622727
 30
0.0
 11
68.10662000000001
 21
79.57564000000001
 31
0.0
  0
LINE
  5
380
  8
LAYER_1
 10
68.10662000000001
 20
79.57564000000001
 30
0.0
 11
67.867215
 21
78.414799
 31
0.0
  0
LINE
  5
381
  8
LAYER_1
 10
67.867215
 20
78.414799
 30
0.0
 11
67.48320800000001
 21
77.617678
 31
0.0
  0
LINE
  5
382
  8
LAYER_1
 10
67.48320800000001
 20
77.617678
 30
0.0
 11
67.16557899999999
 21
77.084135
 31
0.0
  0
LINE
  5
383
  8
LAYER_1
 10
67.16557899999999
 20
77.084135
 30
0.0
 11
67.278603
 21
76.56220399999999
 31
0.0
  0
LINE
  5
384
  8
LAYER_1
 10
67.278603
 20
76.56220399999999
 30
0.0
 11
68.654218
 21
75.016514
 31
0.0
  0
LINE
  5
385
  8
LAYER_1
 10
68.654218
 20
75.016514
 30
0.0
 11
70.145662
 21
73.866378
 31
0.0
  0
LINE
  5
386
  8
LAYER_1
 10
70.145662
 20
73.866378
 30
0.0
 11
70.754051
 21
73.814798
 31
0.0
  0
LINE
  5
387
  8
LAYER_1
 10
70.754051
 20
73.814798
 30
0.0
 11
71.38537700000001
 21
73.979795
 31
0.0
  0
LINE
  5
388
  8
LAYER_1
 10
71.38537700000001
 20
73.979795
 30
0.0
 11
71.942612
 21
74.320117
 31
0.0
  0
LINE
  5
389
  8
LAYER_1
 10
71.942612
 20
74.320117
 30
0.0
 11
72.32872399999999
 21
74.794511
 31
0.0
  0
LINE
  5
38A
  8
LAYER_1
 10
72.32872399999999
 20
74.794511
 30
0.0
 11
72.32872399999999
 21
74.794511
 31
0.0
  0
LINE
  5
38B
  8
LAYER_1
 10
88.310379
 20
78.49735699999999
 30
0.0
 11
89.20935400000001
 21
79.055183
 31
0.0
  0
LINE
  5
38C
  8
LAYER_1
 10
89.20935400000001
 20
79.055183
 30
0.0
 11
90.06851
 21
79.777213
 31
0.0
  0
LINE
  5
38D
  8
LAYER_1
 10
90.06851
 20
79.777213
 30
0.0
 11
91.568681
 21
81.56674700000001
 31
0.0
  0
LINE
  5
38E
  8
LAYER_1
 10
91.568681
 20
81.56674700000001
 30
0.0
 11
92.61352100000001
 21
83.571691
 31
0.0
  0
LINE
  5
38F
  8
LAYER_1
 10
92.61352100000001
 20
83.571691
 30
0.0
 11
92.903515
 21
84.562983
 31
0.0
  0
LINE
  5
390
  8
LAYER_1
 10
92.903515
 20
84.562983
 30
0.0
 11
93.005662
 21
85.497777
 31
0.0
  0
LINE
  5
391
  8
LAYER_1
 10
93.005662
 20
85.497777
 30
0.0
 11
93.005662
 21
86.32176699999999
 31
0.0
  0
LINE
  5
392
  8
LAYER_1
 10
93.005662
 20
86.32176699999999
 30
0.0
 11
91.741837
 21
84.970634
 31
0.0
  0
LINE
  5
393
  8
LAYER_1
 10
91.741837
 20
84.970634
 30
0.0
 11
90.440669
 21
83.835612
 31
0.0
  0
LINE
  5
394
  8
LAYER_1
 10
90.440669
 20
83.835612
 30
0.0
 11
88.783227
 21
82.81931899999999
 31
0.0
  0
LINE
  5
395
  8
LAYER_1
 10
88.783227
 20
82.81931899999999
 30
0.0
 11
86.803597
 21
81.939526
 31
0.0
  0
LINE
  5
396
  8
LAYER_1
 10
86.803597
 20
81.939526
 30
0.0
 11
84.535865
 21
81.21400199999999
 31
0.0
  0
LINE
  5
397
  8
LAYER_1
 10
84.535865
 20
81.21400199999999
 30
0.0
 11
82.29984399999999
 21
80.61553600000001
 31
0.0
  0
LINE
  5
398
  8
LAYER_1
 10
82.29984399999999
 20
80.61553600000001
 30
0.0
 11
83.708271
 21
78.989767
 31
0.0
  0
LINE
  5
399
  8
LAYER_1
 10
83.708271
 20
78.989767
 30
0.0
 11
84.53713999999999
 21
78.057339
 31
0.0
  0
LINE
  5
39A
  8
LAYER_1
 10
84.53713999999999
 20
78.057339
 30
0.0
 11
85.071566
 21
77.606291
 31
0.0
  0
LINE
  5
39B
  8
LAYER_1
 10
85.071566
 20
77.606291
 30
0.0
 11
85.539378
 21
77.512849
 31
0.0
  0
LINE
  5
39C
  8
LAYER_1
 10
85.539378
 20
77.512849
 30
0.0
 11
86.168402
 21
77.65324099999999
 31
0.0
  0
LINE
  5
39D
  8
LAYER_1
 10
86.168402
 20
77.65324099999999
 30
0.0
 11
88.310379
 21
78.49735699999999
 31
0.0
  0
LINE
  5
39E
  8
LAYER_1
 10
88.310379
 20
78.49735699999999
 30
0.0
 11
88.310379
 21
78.49735699999999
 31
0.0
  0
LINE
  5
39F
  8
LAYER_1
 10
67.205815
 20
78.514281
 30
0.0
 11
67.35102500000001
 21
79.306991
 31
0.0
  0
LINE
  5
3A0
  8
LAYER_1
 10
67.35102500000001
 20
79.306991
 30
0.0
 11
67.35225699999999
 21
80.254284
 31
0.0
  0
LINE
  5
3A1
  8
LAYER_1
 10
67.35225699999999
 20
80.254284
 30
0.0
 11
66.946478
 21
82.269547
 31
0.0
  0
LINE
  5
3A2
  8
LAYER_1
 10
66.946478
 20
82.269547
 30
0.0
 11
66.49355300000001
 21
83.167365
 31
0.0
  0
LINE
  5
3A3
  8
LAYER_1
 10
66.49355300000001
 20
83.167365
 30
0.0
 11
66.210956
 21
83.342191
 31
0.0
  0
LINE
  5
3A4
  8
LAYER_1
 10
66.210956
 20
83.342191
 30
0.0
 11
65.83026700000001
 21
83.395493
 31
0.0
  0
LINE
  5
3A5
  8
LAYER_1
 10
65.83026700000001
 20
83.395493
 30
0.0
 11
65.28078600000001
 21
83.235337
 31
0.0
  0
LINE
  5
3A6
  8
LAYER_1
 10
65.28078600000001
 20
83.235337
 30
0.0
 11
64.83814099999999
 21
82.78574
 31
0.0
  0
LINE
  5
3A7
  8
LAYER_1
 10
64.83814099999999
 20
82.78574
 30
0.0
 11
64.513997
 21
82.12467
 31
0.0
  0
LINE
  5
3A8
  8
LAYER_1
 10
64.513997
 20
82.12467
 30
0.0
 11
64.320021
 21
81.33009300000001
 31
0.0
  0
LINE
  5
3A9
  8
LAYER_1
 10
64.320021
 20
81.33009300000001
 30
0.0
 11
64.267881
 21
80.47997599999999
 31
0.0
  0
LINE
  5
3AA
  8
LAYER_1
 10
64.267881
 20
80.47997599999999
 30
0.0
 11
64.36924500000001
 21
79.65228500000001
 31
0.0
  0
LINE
  5
3AB
  8
LAYER_1
 10
64.36924500000001
 20
79.65228500000001
 30
0.0
 11
64.635778
 21
78.92498999999999
 31
0.0
  0
LINE
  5
3AC
  8
LAYER_1
 10
64.635778
 20
78.92498999999999
 30
0.0
 11
65.079149
 21
78.37605499999999
 31
0.0
  0
LINE
  5
3AD
  8
LAYER_1
 10
65.079149
 20
78.37605499999999
 30
0.0
 11
65.74472299999999
 21
77.989785
 31
0.0
  0
LINE
  5
3AE
  8
LAYER_1
 10
65.74472299999999
 20
77.989785
 30
0.0
 11
66.376524
 21
77.88767300000001
 31
0.0
  0
LINE
  5
3AF
  8
LAYER_1
 10
66.376524
 20
77.88767300000001
 30
0.0
 11
66.89130400000001
 21
78.06430899999999
 31
0.0
  0
LINE
  5
3B0
  8
LAYER_1
 10
66.89130400000001
 20
78.06430899999999
 30
0.0
 11
67.205815
 21
78.514281
 31
0.0
  0
LINE
  5
3B1
  8
LAYER_1
 10
67.205815
 20
78.514281
 30
0.0
 11
67.205815
 21
78.514281
 31
0.0
  0
LINE
  5
3B2
  8
LAYER_1
 10
78.760216
 20
79.98198100000001
 30
0.0
 11
79.607866
 21
80.71377
 31
0.0
  0
LINE
  5
3B3
  8
LAYER_1
 10
79.607866
 20
80.71377
 30
0.0
 11
80.05156100000001
 21
81.349124
 31
0.0
  0
LINE
  5
3B4
  8
LAYER_1
 10
80.05156100000001
 20
81.349124
 30
0.0
 11
80.128362
 21
81.97806
 31
0.0
  0
LINE
  5
3B5
  8
LAYER_1
 10
80.128362
 20
81.97806
 30
0.0
 11
79.875326
 21
82.690597
 31
0.0
  0
LINE
  5
3B6
  8
LAYER_1
 10
79.875326
 20
82.690597
 30
0.0
 11
79.454318
 21
83.27159399999999
 31
0.0
  0
LINE
  5
3B7
  8
LAYER_1
 10
79.454318
 20
83.27159399999999
 30
0.0
 11
78.822593
 21
83.85938299999999
 31
0.0
  0
LINE
  5
3B8
  8
LAYER_1
 10
78.822593
 20
83.85938299999999
 30
0.0
 11
77.20579100000001
 21
84.909798
 31
0.0
  0
LINE
  5
3B9
  8
LAYER_1
 10
77.20579100000001
 20
84.909798
 30
0.0
 11
75.58252
 21
85.550765
 31
0.0
  0
LINE
  5
3BA
  8
LAYER_1
 10
75.58252
 20
85.550765
 30
0.0
 11
74.942708
 21
85.626744
 31
0.0
  0
LINE
  5
3BB
  8
LAYER_1
 10
74.942708
 20
85.626744
 30
0.0
 11
74.510378
 21
85.491207
 31
0.0
  0
LINE
  5
3BC
  8
LAYER_1
 10
74.510378
 20
85.491207
 30
0.0
 11
72.922909
 21
85.045367
 31
0.0
  0
LINE
  5
3BD
  8
LAYER_1
 10
72.922909
 20
85.045367
 30
0.0
 11
71.66488099999999
 21
84.872934
 31
0.0
  0
LINE
  5
3BE
  8
LAYER_1
 10
71.66488099999999
 20
84.872934
 30
0.0
 11
72.33404899999999
 21
83.56332999999999
 31
0.0
  0
LINE
  5
3BF
  8
LAYER_1
 10
72.33404899999999
 20
83.56332999999999
 30
0.0
 11
72.80440900000001
 21
82.34475999999999
 31
0.0
  0
LINE
  5
3C0
  8
LAYER_1
 10
72.80440900000001
 20
82.34475999999999
 30
0.0
 11
72.89676400000001
 21
81.299279
 31
0.0
  0
LINE
  5
3C1
  8
LAYER_1
 10
72.89676400000001
 20
81.299279
 30
0.0
 11
72.87084299999999
 21
80.75344
 31
0.0
  0
LINE
  5
3C2
  8
LAYER_1
 10
72.87084299999999
 20
80.75344
 30
0.0
 11
73.013408
 21
80.384608
 31
0.0
  0
LINE
  5
3C3
  8
LAYER_1
 10
73.013408
 20
80.384608
 30
0.0
 11
74.219652
 21
79.664216
 31
0.0
  0
LINE
  5
3C4
  8
LAYER_1
 10
74.219652
 20
79.664216
 30
0.0
 11
75.474446
 21
79.21335500000001
 31
0.0
  0
LINE
  5
3C5
  8
LAYER_1
 10
75.474446
 20
79.21335500000001
 30
0.0
 11
76.62907800000001
 21
79.11460200000001
 31
0.0
  0
LINE
  5
3C6
  8
LAYER_1
 10
76.62907800000001
 20
79.11460200000001
 30
0.0
 11
77.714139
 21
79.370098
 31
0.0
  0
LINE
  5
3C7
  8
LAYER_1
 10
77.714139
 20
79.370098
 30
0.0
 11
78.760216
 21
79.98198100000001
 31
0.0
  0
LINE
  5
3C8
  8
LAYER_1
 10
78.760216
 20
79.98198100000001
 30
0.0
 11
78.760216
 21
79.98198100000001
 31
0.0
  0
LINE
  5
3C9
  8
LAYER_1
 10
62.462997
 20
80.493689
 30
0.0
 11
63.393091
 21
81.96739700000001
 31
0.0
  0
LINE
  5
3CA
  8
LAYER_1
 10
63.393091
 20
81.96739700000001
 30
0.0
 11
63.936773
 21
83.37354999999999
 31
0.0
  0
LINE
  5
3CB
  8
LAYER_1
 10
63.936773
 20
83.37354999999999
 30
0.0
 11
63.504583
 21
83.523726
 31
0.0
  0
LINE
  5
3CC
  8
LAYER_1
 10
63.504583
 20
83.523726
 30
0.0
 11
63.151628
 21
83.64807999999999
 31
0.0
  0
LINE
  5
3CD
  8
LAYER_1
 10
63.151628
 20
83.64807999999999
 30
0.0
 11
62.909944
 21
83.947059
 31
0.0
  0
LINE
  5
3CE
  8
LAYER_1
 10
62.909944
 20
83.947059
 30
0.0
 11
62.683948
 21
84.246038
 31
0.0
  0
LINE
  5
3CF
  8
LAYER_1
 10
62.683948
 20
84.246038
 30
0.0
 11
62.368718
 21
84.37039300000001
 31
0.0
  0
LINE
  5
3D0
  8
LAYER_1
 10
62.368718
 20
84.37039300000001
 30
0.0
 11
61.867639
 21
84.092466
 31
0.0
  0
LINE
  5
3D1
  8
LAYER_1
 10
61.867639
 20
84.092466
 30
0.0
 11
61.275781
 21
83.398985
 31
0.0
  0
LINE
  5
3D2
  8
LAYER_1
 10
61.275781
 20
83.398985
 30
0.0
 11
60.741945
 21
82.50040199999999
 31
0.0
  0
LINE
  5
3D3
  8
LAYER_1
 10
60.741945
 20
82.50040199999999
 30
0.0
 11
60.414936
 21
81.60716600000001
 31
0.0
  0
LINE
  5
3D4
  8
LAYER_1
 10
60.414936
 20
81.60716600000001
 30
0.0
 11
60.42532
 21
80.562782
 31
0.0
  0
LINE
  5
3D5
  8
LAYER_1
 10
60.42532
 20
80.562782
 30
0.0
 11
60.60586
 21
80.204943
 31
0.0
  0
LINE
  5
3D6
  8
LAYER_1
 10
60.60586
 20
80.204943
 30
0.0
 11
60.876663
 21
79.971152
 31
0.0
  0
LINE
  5
3D7
  8
LAYER_1
 10
60.876663
 20
79.971152
 30
0.0
 11
61.217755
 21
79.872271
 31
0.0
  0
LINE
  5
3D8
  8
LAYER_1
 10
61.217755
 20
79.872271
 30
0.0
 11
61.609158
 21
79.91916000000001
 31
0.0
  0
LINE
  5
3D9
  8
LAYER_1
 10
61.609158
 20
79.91916000000001
 30
0.0
 11
62.462997
 21
80.493689
 31
0.0
  0
LINE
  5
3DA
  8
LAYER_1
 10
62.462997
 20
80.493689
 30
0.0
 11
62.462997
 21
80.493689
 31
0.0
  0
LINE
  5
3DB
  8
LAYER_1
 10
57.915804
 20
81.039064
 30
0.0
 11
59.32201
 21
81.75874
 31
0.0
  0
LINE
  5
3DC
  8
LAYER_1
 10
59.32201
 20
81.75874
 30
0.0
 11
59.729903
 21
82.164574
 31
0.0
  0
LINE
  5
3DD
  8
LAYER_1
 10
59.729903
 20
82.164574
 30
0.0
 11
60.0403
 21
82.677669
 31
0.0
  0
LINE
  5
3DE
  8
LAYER_1
 10
60.0403
 20
82.677669
 30
0.0
 11
60.536551
 21
83.80798299999999
 31
0.0
  0
LINE
  5
3DF
  8
LAYER_1
 10
60.536551
 20
83.80798299999999
 30
0.0
 11
59.274608
 21
83.849681
 31
0.0
  0
LINE
  5
3E0
  8
LAYER_1
 10
59.274608
 20
83.849681
 30
0.0
 11
58.070454
 21
83.889725
 31
0.0
  0
LINE
  5
3E1
  8
LAYER_1
 10
58.070454
 20
83.889725
 30
0.0
 11
57.22098
 21
84.21998600000001
 31
0.0
  0
LINE
  5
3E2
  8
LAYER_1
 10
57.22098
 20
84.21998600000001
 30
0.0
 11
56.744527
 21
84.82749200000001
 31
0.0
  0
LINE
  5
3E3
  8
LAYER_1
 10
56.744527
 20
84.82749200000001
 30
0.0
 11
56.659433
 21
85.699275
 31
0.0
  0
LINE
  5
3E4
  8
LAYER_1
 10
56.659433
 20
85.699275
 30
0.0
 11
56.775824
 21
86.696259
 31
0.0
  0
LINE
  5
3E5
  8
LAYER_1
 10
56.775824
 20
86.696259
 30
0.0
 11
55.258795
 21
86.539688
 31
0.0
  0
LINE
  5
3E6
  8
LAYER_1
 10
55.258795
 20
86.539688
 30
0.0
 11
53.507886
 21
86.166365
 31
0.0
  0
LINE
  5
3E7
  8
LAYER_1
 10
53.507886
 20
86.166365
 30
0.0
 11
52.100932
 21
85.46384500000001
 31
0.0
  0
LINE
  5
3E8
  8
LAYER_1
 10
52.100932
 20
85.46384500000001
 30
0.0
 11
51.089353
 21
84.468232
 31
0.0
  0
LINE
  5
3E9
  8
LAYER_1
 10
51.089353
 20
84.468232
 30
0.0
 11
50.524574
 21
83.215632
 31
0.0
  0
LINE
  5
3EA
  8
LAYER_1
 10
50.524574
 20
83.215632
 30
0.0
 11
50.598387
 21
82.442025
 31
0.0
  0
LINE
  5
3EB
  8
LAYER_1
 10
50.598387
 20
82.442025
 30
0.0
 11
51.071906
 21
81.62038
 31
0.0
  0
LINE
  5
3EC
  8
LAYER_1
 10
51.071906
 20
81.62038
 30
0.0
 11
51.826075
 21
80.900216
 31
0.0
  0
LINE
  5
3ED
  8
LAYER_1
 10
51.826075
 20
80.900216
 30
0.0
 11
52.741838
 21
80.43105
 31
0.0
  0
LINE
  5
3EE
  8
LAYER_1
 10
52.741838
 20
80.43105
 30
0.0
 11
53.812697
 21
80.255686
 31
0.0
  0
LINE
  5
3EF
  8
LAYER_1
 10
53.812697
 20
80.255686
 30
0.0
 11
55.082739
 21
80.304532
 31
0.0
  0
LINE
  5
3F0
  8
LAYER_1
 10
55.082739
 20
80.304532
 30
0.0
 11
56.475821
 21
80.568641
 31
0.0
  0
LINE
  5
3F1
  8
LAYER_1
 10
56.475821
 20
80.568641
 30
0.0
 11
57.915804
 21
81.039064
 31
0.0
  0
LINE
  5
3F2
  8
LAYER_1
 10
57.915804
 20
81.039064
 30
0.0
 11
57.915804
 21
81.039064
 31
0.0
  0
LINE
  5
3F3
  8
LAYER_1
 10
72.071168
 20
81.639382
 30
0.0
 11
72.018337
 21
82.382153
 31
0.0
  0
LINE
  5
3F4
  8
LAYER_1
 10
72.018337
 20
82.382153
 30
0.0
 11
71.681675
 21
83.12045999999999
 31
0.0
  0
LINE
  5
3F5
  8
LAYER_1
 10
71.681675
 20
83.12045999999999
 30
0.0
 11
71.05246
 21
83.867715
 31
0.0
  0
LINE
  5
3F6
  8
LAYER_1
 10
71.05246
 20
83.867715
 30
0.0
 11
70.12196900000001
 21
84.637332
 31
0.0
  0
LINE
  5
3F7
  8
LAYER_1
 10
70.12196900000001
 20
84.637332
 30
0.0
 11
69.030033
 21
85.284331
 31
0.0
  0
LINE
  5
3F8
  8
LAYER_1
 10
69.030033
 20
85.284331
 30
0.0
 11
68.65214400000001
 21
85.23766000000001
 31
0.0
  0
LINE
  5
3F9
  8
LAYER_1
 10
68.65214400000001
 20
85.23766000000001
 30
0.0
 11
68.158374
 21
84.98450800000001
 31
0.0
  0
LINE
  5
3FA
  8
LAYER_1
 10
68.158374
 20
84.98450800000001
 30
0.0
 11
67.32522299999999
 21
84.321777
 31
0.0
  0
LINE
  5
3FB
  8
LAYER_1
 10
67.32522299999999
 20
84.321777
 30
0.0
 11
67.640269
 21
83.695249
 31
0.0
  0
LINE
  5
3FC
  8
LAYER_1
 10
67.640269
 20
83.695249
 30
0.0
 11
68.40385600000001
 21
82.76195199999999
 31
0.0
  0
LINE
  5
3FD
  8
LAYER_1
 10
68.40385600000001
 20
82.76195199999999
 30
0.0
 11
69.333236
 21
81.83292
 31
0.0
  0
LINE
  5
3FE
  8
LAYER_1
 10
69.333236
 20
81.83292
 30
0.0
 11
70.145662
 21
81.21918700000001
 31
0.0
  0
LINE
  5
3FF
  8
LAYER_1
 10
70.145662
 20
81.21918700000001
 30
0.0
 11
70.968323
 21
80.859273
 31
0.0
  0
LINE
  5
400
  8
LAYER_1
 10
70.968323
 20
80.859273
 30
0.0
 11
71.54396
 21
80.80507900000001
 31
0.0
  0
LINE
  5
401
  8
LAYER_1
 10
71.54396
 20
80.80507900000001
 30
0.0
 11
71.901825
 21
81.062988
 31
0.0
  0
LINE
  5
402
  8
LAYER_1
 10
71.901825
 20
81.062988
 30
0.0
 11
72.071168
 21
81.639382
 31
0.0
  0
LINE
  5
403
  8
LAYER_1
 10
72.071168
 20
81.639382
 30
0.0
 11
72.071168
 21
81.639382
 31
0.0
  0
LINE
  5
404
  8
LAYER_1
 10
84.068641
 20
81.852203
 30
0.0
 11
86.037848
 21
82.448568
 31
0.0
  0
LINE
  5
405
  8
LAYER_1
 10
86.037848
 20
82.448568
 30
0.0
 11
87.91185299999999
 21
83.19162
 31
0.0
  0
LINE
  5
406
  8
LAYER_1
 10
87.91185299999999
 20
83.19162
 30
0.0
 11
89.53454499999999
 21
84.011577
 31
0.0
  0
LINE
  5
407
  8
LAYER_1
 10
89.53454499999999
 20
84.011577
 30
0.0
 11
90.749814
 21
84.83865900000001
 31
0.0
  0
LINE
  5
408
  8
LAYER_1
 10
90.749814
 20
84.83865900000001
 30
0.0
 11
91.502667
 21
85.637266
 31
0.0
  0
LINE
  5
409
  8
LAYER_1
 10
91.502667
 20
85.637266
 30
0.0
 11
92.131619
 21
86.610574
 31
0.0
  0
LINE
  5
40A
  8
LAYER_1
 10
92.131619
 20
86.610574
 30
0.0
 11
92.561914
 21
87.618741
 31
0.0
  0
LINE
  5
40B
  8
LAYER_1
 10
92.561914
 20
87.618741
 30
0.0
 11
92.718797
 21
88.52192700000001
 31
0.0
  0
LINE
  5
40C
  8
LAYER_1
 10
92.718797
 20
88.52192700000001
 30
0.0
 11
92.510716
 21
89.52739099999999
 31
0.0
  0
LINE
  5
40D
  8
LAYER_1
 10
92.510716
 20
89.52739099999999
 30
0.0
 11
91.940945
 21
90.60271899999999
 31
0.0
  0
LINE
  5
40E
  8
LAYER_1
 10
91.940945
 20
90.60271899999999
 30
0.0
 11
91.07459299999999
 21
91.651606
 31
0.0
  0
LINE
  5
40F
  8
LAYER_1
 10
91.07459299999999
 20
91.651606
 30
0.0
 11
89.976771
 21
92.577748
 31
0.0
  0
LINE
  5
410
  8
LAYER_1
 10
89.976771
 20
92.577748
 30
0.0
 11
88.858721
 21
93.24603000000001
 31
0.0
  0
LINE
  5
411
  8
LAYER_1
 10
88.858721
 20
93.24603000000001
 30
0.0
 11
87.519283
 21
93.86382
 31
0.0
  0
LINE
  5
412
  8
LAYER_1
 10
87.519283
 20
93.86382
 30
0.0
 11
84.456239
 21
94.875218
 31
0.0
  0
LINE
  5
413
  8
LAYER_1
 10
84.456239
 20
94.875218
 30
0.0
 11
81.347629
 21
95.46651799999999
 31
0.0
  0
LINE
  5
414
  8
LAYER_1
 10
81.347629
 20
95.46651799999999
 30
0.0
 11
79.95123200000001
 21
95.55918699999999
 31
0.0
  0
LINE
  5
415
  8
LAYER_1
 10
79.95123200000001
 20
95.55918699999999
 30
0.0
 11
78.753439
 21
95.492299
 31
0.0
  0
LINE
  5
416
  8
LAYER_1
 10
78.753439
 20
95.492299
 30
0.0
 11
77.342328
 21
95.29185099999999
 31
0.0
  0
LINE
  5
417
  8
LAYER_1
 10
77.342328
 20
95.29185099999999
 30
0.0
 11
78.805498
 21
94.95570100000001
 31
0.0
  0
LINE
  5
418
  8
LAYER_1
 10
78.805498
 20
94.95570100000001
 30
0.0
 11
80.23663500000001
 21
94.543908
 31
0.0
  0
LINE
  5
419
  8
LAYER_1
 10
80.23663500000001
 20
94.543908
 30
0.0
 11
81.128914
 21
94.04505
 31
0.0
  0
LINE
  5
41A
  8
LAYER_1
 10
81.128914
 20
94.04505
 30
0.0
 11
81.58730300000001
 21
93.367717
 31
0.0
  0
LINE
  5
41B
  8
LAYER_1
 10
81.58730300000001
 20
93.367717
 30
0.0
 11
81.716773
 21
92.42049900000001
 31
0.0
  0
LINE
  5
41C
  8
LAYER_1
 10
81.716773
 20
92.42049900000001
 30
0.0
 11
81.615594
 21
91.15704100000001
 31
0.0
  0
LINE
  5
41D
  8
LAYER_1
 10
81.615594
 20
91.15704100000001
 30
0.0
 11
81.174746
 21
90.249476
 31
0.0
  0
LINE
  5
41E
  8
LAYER_1
 10
81.174746
 20
90.249476
 30
0.0
 11
80.188261
 21
89.45172599999999
 31
0.0
  0
LINE
  5
41F
  8
LAYER_1
 10
80.188261
 20
89.45172599999999
 30
0.0
 11
78.450175
 21
88.51770999999999
 31
0.0
  0
LINE
  5
420
  8
LAYER_1
 10
78.450175
 20
88.51770999999999
 30
0.0
 11
76.571501
 21
87.51229600000001
 31
0.0
  0
LINE
  5
421
  8
LAYER_1
 10
76.571501
 20
87.51229600000001
 30
0.0
 11
75.79010599999999
 21
86.95059000000001
 31
0.0
  0
LINE
  5
422
  8
LAYER_1
 10
75.79010599999999
 20
86.95059000000001
 30
0.0
 11
76.18064800000001
 21
86.62788999999999
 31
0.0
  0
LINE
  5
423
  8
LAYER_1
 10
76.18064800000001
 20
86.62788999999999
 30
0.0
 11
77.119613
 21
86.197113
 31
0.0
  0
LINE
  5
424
  8
LAYER_1
 10
77.119613
 20
86.197113
 30
0.0
 11
78.520155
 21
85.427954
 31
0.0
  0
LINE
  5
425
  8
LAYER_1
 10
78.520155
 20
85.427954
 30
0.0
 11
79.820798
 21
84.32984500000001
 31
0.0
  0
LINE
  5
426
  8
LAYER_1
 10
79.820798
 20
84.32984500000001
 30
0.0
 11
80.779027
 21
83.147605
 31
0.0
  0
LINE
  5
427
  8
LAYER_1
 10
80.779027
 20
83.147605
 30
0.0
 11
81.152328
 21
82.126054
 31
0.0
  0
LINE
  5
428
  8
LAYER_1
 10
81.152328
 20
82.126054
 30
0.0
 11
81.19544500000001
 21
81.547288
 31
0.0
  0
LINE
  5
429
  8
LAYER_1
 10
81.19544500000001
 20
81.547288
 30
0.0
 11
81.510333
 21
81.32614599999999
 31
0.0
  0
LINE
  5
42A
  8
LAYER_1
 10
81.510333
 20
81.32614599999999
 30
0.0
 11
82.375297
 21
81.43649600000001
 31
0.0
  0
LINE
  5
42B
  8
LAYER_1
 10
82.375297
 20
81.43649600000001
 30
0.0
 11
84.068641
 21
81.852203
 31
0.0
  0
LINE
  5
42C
  8
LAYER_1
 10
84.068641
 20
81.852203
 30
0.0
 11
84.068641
 21
81.852203
 31
0.0
  0
LINE
  5
42D
  8
LAYER_1
 10
66.758995
 20
84.904224
 30
0.0
 11
67.414264
 21
85.501169
 31
0.0
  0
LINE
  5
42E
  8
LAYER_1
 10
67.414264
 20
85.501169
 30
0.0
 11
67.849276
 21
86.19025000000001
 31
0.0
  0
LINE
  5
42F
  8
LAYER_1
 10
67.849276
 20
86.19025000000001
 30
0.0
 11
68.065195
 21
86.97410100000001
 31
0.0
  0
LINE
  5
430
  8
LAYER_1
 10
68.065195
 20
86.97410100000001
 30
0.0
 11
68.063183
 21
87.85535400000001
 31
0.0
  0
LINE
  5
431
  8
LAYER_1
 10
68.063183
 20
87.85535400000001
 30
0.0
 11
67.88694099999999
 21
88.597539
 31
0.0
  0
LINE
  5
432
  8
LAYER_1
 10
67.88694099999999
 20
88.597539
 30
0.0
 11
67.56037000000001
 21
89.252239
 31
0.0
  0
LINE
  5
433
  8
LAYER_1
 10
67.56037000000001
 20
89.252239
 30
0.0
 11
67.10843
 21
89.803961
 31
0.0
  0
LINE
  5
434
  8
LAYER_1
 10
67.10843
 20
89.803961
 30
0.0
 11
66.556083
 21
90.237212
 31
0.0
  0
LINE
  5
435
  8
LAYER_1
 10
66.556083
 20
90.237212
 30
0.0
 11
65.928288
 21
90.53649900000001
 31
0.0
  0
LINE
  5
436
  8
LAYER_1
 10
65.928288
 20
90.53649900000001
 30
0.0
 11
65.250005
 21
90.686329
 31
0.0
  0
LINE
  5
437
  8
LAYER_1
 10
65.250005
 20
90.686329
 30
0.0
 11
64.546195
 21
90.67120799999999
 31
0.0
  0
LINE
  5
438
  8
LAYER_1
 10
64.546195
 20
90.67120799999999
 30
0.0
 11
63.841816
 21
90.475644
 31
0.0
  0
LINE
  5
439
  8
LAYER_1
 10
63.841816
 20
90.475644
 30
0.0
 11
62.98269
 21
89.952162
 31
0.0
  0
LINE
  5
43A
  8
LAYER_1
 10
62.98269
 20
89.952162
 30
0.0
 11
62.363648
 21
89.240915
 31
0.0
  0
LINE
  5
43B
  8
LAYER_1
 10
62.363648
 20
89.240915
 30
0.0
 11
61.985678
 21
88.403745
 31
0.0
  0
LINE
  5
43C
  8
LAYER_1
 10
61.985678
 20
88.403745
 30
0.0
 11
61.849764
 21
87.50249700000001
 31
0.0
  0
LINE
  5
43D
  8
LAYER_1
 10
61.849764
 20
87.50249700000001
 30
0.0
 11
61.956895
 21
86.599012
 31
0.0
  0
LINE
  5
43E
  8
LAYER_1
 10
61.956895
 20
86.599012
 30
0.0
 11
62.308054
 21
85.755133
 31
0.0
  0
LINE
  5
43F
  8
LAYER_1
 10
62.308054
 20
85.755133
 30
0.0
 11
62.90423
 21
85.032704
 31
0.0
  0
LINE
  5
440
  8
LAYER_1
 10
62.90423
 20
85.032704
 30
0.0
 11
63.746408
 21
84.493566
 31
0.0
  0
LINE
  5
441
  8
LAYER_1
 10
63.746408
 20
84.493566
 30
0.0
 11
64.50689800000001
 21
84.263638
 31
0.0
  0
LINE
  5
442
  8
LAYER_1
 10
64.50689800000001
 20
84.263638
 30
0.0
 11
65.25648700000001
 21
84.25462
 31
0.0
  0
LINE
  5
443
  8
LAYER_1
 10
65.25648700000001
 20
84.25462
 30
0.0
 11
66.004184
 21
84.46774000000001
 31
0.0
  0
LINE
  5
444
  8
LAYER_1
 10
66.004184
 20
84.46774000000001
 30
0.0
 11
66.758995
 21
84.904224
 31
0.0
  0
LINE
  5
445
  8
LAYER_1
 10
66.758995
 20
84.904224
 30
0.0
 11
66.758995
 21
84.904224
 31
0.0
  0
LINE
  5
446
  8
LAYER_1
 10
50.363566
 20
85.462008
 30
0.0
 11
51.024123
 21
86.138655
 31
0.0
  0
LINE
  5
447
  8
LAYER_1
 10
51.024123
 20
86.138655
 30
0.0
 11
51.802944
 21
86.628884
 31
0.0
  0
LINE
  5
448
  8
LAYER_1
 10
51.802944
 20
86.628884
 30
0.0
 11
52.517484
 21
86.969702
 31
0.0
  0
LINE
  5
449
  8
LAYER_1
 10
52.517484
 20
86.969702
 30
0.0
 11
52.598036
 21
87.05121800000001
 31
0.0
  0
LINE
  5
44A
  8
LAYER_1
 10
52.598036
 20
87.05121800000001
 30
0.0
 11
52.512771
 21
87.074172
 31
0.0
  0
LINE
  5
44B
  8
LAYER_1
 10
52.512771
 20
87.074172
 30
0.0
 11
50.793495
 21
86.590914
 31
0.0
  0
LINE
  5
44C
  8
LAYER_1
 10
50.793495
 20
86.590914
 30
0.0
 11
48.989893
 21
86.114186
 31
0.0
  0
LINE
  5
44D
  8
LAYER_1
 10
48.989893
 20
86.114186
 30
0.0
 11
47.003439
 21
85.802916
 31
0.0
  0
LINE
  5
44E
  8
LAYER_1
 10
47.003439
 20
85.802916
 30
0.0
 11
44.886773
 21
85.609472
 31
0.0
  0
LINE
  5
44F
  8
LAYER_1
 10
44.886773
 20
85.609472
 30
0.0
 11
46.297884
 21
85.1507
 31
0.0
  0
LINE
  5
450
  8
LAYER_1
 10
46.297884
 20
85.1507
 30
0.0
 11
47.788104
 21
84.75555799999999
 31
0.0
  0
LINE
  5
451
  8
LAYER_1
 10
47.788104
 20
84.75555799999999
 30
0.0
 11
48.92023
 21
84.672495
 31
0.0
  0
LINE
  5
452
  8
LAYER_1
 10
48.92023
 20
84.672495
 30
0.0
 11
49.757604
 21
84.906362
 31
0.0
  0
LINE
  5
453
  8
LAYER_1
 10
49.757604
 20
84.906362
 30
0.0
 11
50.363566
 21
85.462008
 31
0.0
  0
LINE
  5
454
  8
LAYER_1
 10
50.363566
 20
85.462008
 30
0.0
 11
50.363566
 21
85.462008
 31
0.0
  0
LINE
  5
455
  8
LAYER_1
 10
60.945389
 20
84.97340800000001
 30
0.0
 11
61.349483
 21
85.27082400000001
 31
0.0
  0
LINE
  5
456
  8
LAYER_1
 10
61.349483
 20
85.27082400000001
 30
0.0
 11
61.528126
 21
85.73243100000001
 31
0.0
  0
LINE
  5
457
  8
LAYER_1
 10
61.528126
 20
85.73243100000001
 30
0.0
 11
61.489077
 21
86.422245
 31
0.0
  0
LINE
  5
458
  8
LAYER_1
 10
61.489077
 20
86.422245
 30
0.0
 11
61.240097
 21
87.404281
 31
0.0
  0
LINE
  5
459
  8
LAYER_1
 10
61.240097
 20
87.404281
 30
0.0
 11
60.975994
 21
87.67681399999999
 31
0.0
  0
LINE
  5
45A
  8
LAYER_1
 10
60.975994
 20
87.67681399999999
 30
0.0
 11
60.47244
 21
87.755205
 31
0.0
  0
LINE
  5
45B
  8
LAYER_1
 10
60.47244
 20
87.755205
 30
0.0
 11
59.085609
 21
87.454594
 31
0.0
  0
LINE
  5
45C
  8
LAYER_1
 10
59.085609
 20
87.454594
 30
0.0
 11
57.756857
 21
86.752515
 31
0.0
  0
LINE
  5
45D
  8
LAYER_1
 10
57.756857
 20
86.752515
 30
0.0
 11
57.325903
 21
86.32907
 31
0.0
  0
LINE
  5
45E
  8
LAYER_1
 10
57.325903
 20
86.32907
 30
0.0
 11
57.163439
 21
85.89903200000001
 31
0.0
  0
LINE
  5
45F
  8
LAYER_1
 10
57.163439
 20
85.89903200000001
 30
0.0
 11
57.261235
 21
85.512528
 31
0.0
  0
LINE
  5
460
  8
LAYER_1
 10
57.261235
 20
85.512528
 30
0.0
 11
57.532508
 21
85.187156
 31
0.0
  0
LINE
  5
461
  8
LAYER_1
 10
57.532508
 20
85.187156
 30
0.0
 11
58.462784
 21
84.75229
 31
0.0
  0
LINE
  5
462
  8
LAYER_1
 10
58.462784
 20
84.75229
 30
0.0
 11
59.688875
 21
84.65939
 31
0.0
  0
LINE
  5
463
  8
LAYER_1
 10
59.688875
 20
84.65939
 30
0.0
 11
60.945389
 21
84.97340800000001
 31
0.0
  0
LINE
  5
464
  8
LAYER_1
 10
60.945389
 20
84.97340800000001
 30
0.0
 11
60.945389
 21
84.97340800000001
 31
0.0
  0
LINE
  5
465
  8
LAYER_1
 10
74.14309400000001
 20
86.228792
 30
0.0
 11
74.805633
 21
86.747337
 31
0.0
  0
LINE
  5
466
  8
LAYER_1
 10
74.805633
 20
86.747337
 30
0.0
 11
74.88958
 21
87.561273
 31
0.0
  0
LINE
  5
467
  8
LAYER_1
 10
74.88958
 20
87.561273
 30
0.0
 11
74.628433
 21
88.357884
 31
0.0
  0
LINE
  5
468
  8
LAYER_1
 10
74.628433
 20
88.357884
 30
0.0
 11
73.775175
 21
88.797892
 31
0.0
  0
LINE
  5
469
  8
LAYER_1
 10
73.775175
 20
88.797892
 30
0.0
 11
72.597143
 21
88.981647
 31
0.0
  0
LINE
  5
46A
  8
LAYER_1
 10
72.597143
 20
88.981647
 30
0.0
 11
70.95295299999999
 21
88.697266
 31
0.0
  0
LINE
  5
46B
  8
LAYER_1
 10
70.95295299999999
 20
88.697266
 30
0.0
 11
69.157884
 21
88.261359
 31
0.0
  0
LINE
  5
46C
  8
LAYER_1
 10
69.157884
 20
88.261359
 30
0.0
 11
69.16068900000001
 21
87.23309999999999
 31
0.0
  0
LINE
  5
46D
  8
LAYER_1
 10
69.16068900000001
 20
87.23309999999999
 30
0.0
 11
69.192331
 21
86.674153
 31
0.0
  0
LINE
  5
46E
  8
LAYER_1
 10
69.192331
 20
86.674153
 30
0.0
 11
69.325503
 21
86.3168
 31
0.0
  0
LINE
  5
46F
  8
LAYER_1
 10
69.325503
 20
86.3168
 30
0.0
 11
70.148467
 21
85.855347
 31
0.0
  0
LINE
  5
470
  8
LAYER_1
 10
70.148467
 20
85.855347
 30
0.0
 11
71.082717
 21
85.656316
 31
0.0
  0
LINE
  5
471
  8
LAYER_1
 10
71.082717
 20
85.656316
 30
0.0
 11
72.120977
 21
85.657922
 31
0.0
  0
LINE
  5
472
  8
LAYER_1
 10
72.120977
 20
85.657922
 30
0.0
 11
73.171639
 21
85.851602
 31
0.0
  0
LINE
  5
473
  8
LAYER_1
 10
73.171639
 20
85.851602
 30
0.0
 11
74.14309400000001
 21
86.228792
 31
0.0
  0
LINE
  5
474
  8
LAYER_1
 10
74.14309400000001
 20
86.228792
 30
0.0
 11
74.14309400000001
 21
86.228792
 31
0.0
  0
LINE
  5
475
  8
LAYER_1
 10
53.633664
 20
87.47160599999999
 30
0.0
 11
53.632142
 21
87.62319700000001
 31
0.0
  0
LINE
  5
476
  8
LAYER_1
 10
53.632142
 20
87.62319700000001
 30
0.0
 11
53.368098
 21
87.582522
 31
0.0
  0
LINE
  5
477
  8
LAYER_1
 10
53.368098
 20
87.582522
 30
0.0
 11
52.946303
 21
87.317211
 31
0.0
  0
LINE
  5
478
  8
LAYER_1
 10
52.946303
 20
87.317211
 30
0.0
 11
53.195672
 21
87.192615
 31
0.0
  0
LINE
  5
479
  8
LAYER_1
 10
53.195672
 20
87.192615
 30
0.0
 11
53.633664
 21
87.47160599999999
 31
0.0
  0
LINE
  5
47A
  8
LAYER_1
 10
53.633664
 20
87.47160599999999
 30
0.0
 11
53.633664
 21
87.47160599999999
 31
0.0
  0
LINE
  5
47B
  8
LAYER_1
 10
59.421217
 20
88.587069
 30
0.0
 11
59.109607
 21
89.04522
 31
0.0
  0
LINE
  5
47C
  8
LAYER_1
 10
59.109607
 20
89.04522
 30
0.0
 11
58.680775
 21
89.57638900000001
 31
0.0
  0
LINE
  5
47D
  8
LAYER_1
 10
58.680775
 20
89.57638900000001
 30
0.0
 11
58.233374
 21
90.510728
 31
0.0
  0
LINE
  5
47E
  8
LAYER_1
 10
58.233374
 20
90.510728
 30
0.0
 11
57.880208
 21
91.567657
 31
0.0
  0
LINE
  5
47F
  8
LAYER_1
 10
57.880208
 20
91.567657
 30
0.0
 11
57.734081
 21
92.46659699999999
 31
0.0
  0
LINE
  5
480
  8
LAYER_1
 10
57.734081
 20
92.46659699999999
 30
0.0
 11
57.682292
 21
92.977761
 31
0.0
  0
LINE
  5
481
  8
LAYER_1
 10
57.682292
 20
92.977761
 30
0.0
 11
57.452725
 21
93.356703
 31
0.0
  0
LINE
  5
482
  8
LAYER_1
 10
57.452725
 20
93.356703
 30
0.0
 11
55.963995
 21
94.205428
 31
0.0
  0
LINE
  5
483
  8
LAYER_1
 10
55.963995
 20
94.205428
 30
0.0
 11
54.324714
 21
94.914095
 31
0.0
  0
LINE
  5
484
  8
LAYER_1
 10
54.324714
 20
94.914095
 30
0.0
 11
53.158258
 21
95.218509
 31
0.0
  0
LINE
  5
485
  8
LAYER_1
 10
53.158258
 20
95.218509
 30
0.0
 11
52.314556
 21
95.135172
 31
0.0
  0
LINE
  5
486
  8
LAYER_1
 10
52.314556
 20
95.135172
 30
0.0
 11
51.643537
 21
94.68059100000001
 31
0.0
  0
LINE
  5
487
  8
LAYER_1
 10
51.643537
 20
94.68059100000001
 30
0.0
 11
51.138998
 21
93.94852400000001
 31
0.0
  0
LINE
  5
488
  8
LAYER_1
 10
51.138998
 20
93.94852400000001
 30
0.0
 11
50.943649
 21
93.117071
 31
0.0
  0
LINE
  5
489
  8
LAYER_1
 10
50.943649
 20
93.117071
 30
0.0
 11
51.03319
 21
92.231661
 31
0.0
  0
LINE
  5
48A
  8
LAYER_1
 10
51.03319
 20
92.231661
 30
0.0
 11
51.383325
 21
91.33772
 31
0.0
  0
LINE
  5
48B
  8
LAYER_1
 10
51.383325
 20
91.33772
 30
0.0
 11
51.969755
 21
90.480676
 31
0.0
  0
LINE
  5
48C
  8
LAYER_1
 10
51.969755
 20
90.480676
 30
0.0
 11
52.768182
 21
89.705955
 31
0.0
  0
LINE
  5
48D
  8
LAYER_1
 10
52.768182
 20
89.705955
 30
0.0
 11
53.754308
 21
89.058986
 31
0.0
  0
LINE
  5
48E
  8
LAYER_1
 10
53.754308
 20
89.058986
 30
0.0
 11
54.903836
 21
88.585195
 31
0.0
  0
LINE
  5
48F
  8
LAYER_1
 10
54.903836
 20
88.585195
 30
0.0
 11
56.042558
 21
88.409859
 31
0.0
  0
LINE
  5
490
  8
LAYER_1
 10
56.042558
 20
88.409859
 30
0.0
 11
57.54731
 21
88.35188100000001
 31
0.0
  0
LINE
  5
491
  8
LAYER_1
 10
57.54731
 20
88.35188100000001
 30
0.0
 11
58.85967
 21
88.411028
 31
0.0
  0
LINE
  5
492
  8
LAYER_1
 10
58.85967
 20
88.411028
 30
0.0
 11
59.421217
 21
88.587069
 31
0.0
  0
LINE
  5
493
  8
LAYER_1
 10
59.421217
 20
88.587069
 30
0.0
 11
59.421217
 21
88.587069
 31
0.0
  0
LINE
  5
494
  8
LAYER_1
 10
62.528744
 20
90.202882
 30
0.0
 11
62.710838
 21
90.561376
 31
0.0
  0
LINE
  5
495
  8
LAYER_1
 10
62.710838
 20
90.561376
 30
0.0
 11
62.730144
 21
90.892883
 31
0.0
  0
LINE
  5
496
  8
LAYER_1
 10
62.730144
 20
90.892883
 30
0.0
 11
62.198131
 21
91.89624600000001
 31
0.0
  0
LINE
  5
497
  8
LAYER_1
 10
62.198131
 20
91.89624600000001
 30
0.0
 11
61.472152
 21
92.80895200000001
 31
0.0
  0
LINE
  5
498
  8
LAYER_1
 10
61.472152
 20
92.80895200000001
 30
0.0
 11
60.735599
 21
93.377413
 31
0.0
  0
LINE
  5
499
  8
LAYER_1
 10
60.735599
 20
93.377413
 30
0.0
 11
60.001409
 21
93.594717
 31
0.0
  0
LINE
  5
49A
  8
LAYER_1
 10
60.001409
 20
93.594717
 30
0.0
 11
59.282516
 21
93.45395499999999
 31
0.0
  0
LINE
  5
49B
  8
LAYER_1
 10
59.282516
 20
93.45395499999999
 30
0.0
 11
58.858166
 21
93.12299400000001
 31
0.0
  0
LINE
  5
49C
  8
LAYER_1
 10
58.858166
 20
93.12299400000001
 30
0.0
 11
58.626928
 21
92.63742000000001
 31
0.0
  0
LINE
  5
49D
  8
LAYER_1
 10
58.626928
 20
92.63742000000001
 30
0.0
 11
58.576327
 21
92.040483
 31
0.0
  0
LINE
  5
49E
  8
LAYER_1
 10
58.576327
 20
92.040483
 30
0.0
 11
58.693889
 21
91.375433
 31
0.0
  0
LINE
  5
49F
  8
LAYER_1
 10
58.693889
 20
91.375433
 30
0.0
 11
59.383598
 21
90.014003
 31
0.0
  0
LINE
  5
4A0
  8
LAYER_1
 10
59.383598
 20
90.014003
 30
0.0
 11
59.930797
 21
89.40412499999999
 31
0.0
  0
LINE
  5
4A1
  8
LAYER_1
 10
59.930797
 20
89.40412499999999
 30
0.0
 11
60.596258
 21
88.89913900000001
 31
0.0
  0
LINE
  5
4A2
  8
LAYER_1
 10
60.596258
 20
88.89913900000001
 30
0.0
 11
61.494238
 21
88.353048
 31
0.0
  0
LINE
  5
4A3
  8
LAYER_1
 10
61.494238
 20
88.353048
 30
0.0
 11
61.818785
 21
88.972274
 31
0.0
  0
LINE
  5
4A4
  8
LAYER_1
 10
61.818785
 20
88.972274
 30
0.0
 11
62.528744
 21
90.202882
 31
0.0
  0
LINE
  5
4A5
  8
LAYER_1
 10
62.528744
 20
90.202882
 30
0.0
 11
62.528744
 21
90.202882
 31
0.0
  0
LINE
  5
4A6
  8
LAYER_1
 10
78.23890900000001
 20
89.60870199999999
 30
0.0
 11
79.53796
 21
90.579109
 31
0.0
  0
LINE
  5
4A7
  8
LAYER_1
 10
79.53796
 20
90.579109
 30
0.0
 11
80.350627
 21
91.62377100000001
 31
0.0
  0
LINE
  5
4A8
  8
LAYER_1
 10
80.350627
 20
91.62377100000001
 30
0.0
 11
80.601191
 21
92.59885199999999
 31
0.0
  0
LINE
  5
4A9
  8
LAYER_1
 10
80.601191
 20
92.59885199999999
 30
0.0
 11
80.492024
 21
93.015351
 31
0.0
  0
LINE
  5
4AA
  8
LAYER_1
 10
80.492024
 20
93.015351
 30
0.0
 11
80.213937
 21
93.360517
 31
0.0
  0
LINE
  5
4AB
  8
LAYER_1
 10
80.213937
 20
93.360517
 30
0.0
 11
78.450048
 21
93.977079
 31
0.0
  0
LINE
  5
4AC
  8
LAYER_1
 10
78.450048
 20
93.977079
 30
0.0
 11
77.01486
 21
94.12405200000001
 31
0.0
  0
LINE
  5
4AD
  8
LAYER_1
 10
77.01486
 20
94.12405200000001
 30
0.0
 11
75.766025
 21
93.936553
 31
0.0
  0
LINE
  5
4AE
  8
LAYER_1
 10
75.766025
 20
93.936553
 30
0.0
 11
74.83155499999999
 21
93.45387599999999
 31
0.0
  0
LINE
  5
4AF
  8
LAYER_1
 10
74.83155499999999
 20
93.45387599999999
 30
0.0
 11
74.339461
 21
92.71531400000001
 31
0.0
  0
LINE
  5
4B0
  8
LAYER_1
 10
74.339461
 20
92.71531400000001
 30
0.0
 11
73.926258
 21
91.873178
 31
0.0
  0
LINE
  5
4B1
  8
LAYER_1
 10
73.926258
 20
91.873178
 30
0.0
 11
73.238191
 21
90.99032099999999
 31
0.0
  0
LINE
  5
4B2
  8
LAYER_1
 10
73.238191
 20
90.99032099999999
 30
0.0
 11
72.72031
 21
90.405371
 31
0.0
  0
LINE
  5
4B3
  8
LAYER_1
 10
72.72031
 20
90.405371
 30
0.0
 11
72.604569
 21
90.04546000000001
 31
0.0
  0
LINE
  5
4B4
  8
LAYER_1
 10
72.604569
 20
90.04546000000001
 30
0.0
 11
72.924774
 21
89.812574
 31
0.0
  0
LINE
  5
4B5
  8
LAYER_1
 10
72.924774
 20
89.812574
 30
0.0
 11
73.714731
 21
89.60869700000001
 31
0.0
  0
LINE
  5
4B6
  8
LAYER_1
 10
73.714731
 20
89.60869700000001
 30
0.0
 11
74.48298
 21
89.318354
 31
0.0
  0
LINE
  5
4B7
  8
LAYER_1
 10
74.48298
 20
89.318354
 30
0.0
 11
75.083125
 21
88.887523
 31
0.0
  0
LINE
  5
4B8
  8
LAYER_1
 10
75.083125
 20
88.887523
 30
0.0
 11
75.518258
 21
88.577765
 31
0.0
  0
LINE
  5
4B9
  8
LAYER_1
 10
75.518258
 20
88.577765
 30
0.0
 11
76.097319
 21
88.573696
 31
0.0
  0
LINE
  5
4BA
  8
LAYER_1
 10
76.097319
 20
88.573696
 30
0.0
 11
76.958229
 21
88.906836
 31
0.0
  0
LINE
  5
4BB
  8
LAYER_1
 10
76.958229
 20
88.906836
 30
0.0
 11
78.23890900000001
 21
89.60870199999999
 31
0.0
  0
LINE
  5
4BC
  8
LAYER_1
 10
78.23890900000001
 20
89.60870199999999
 30
0.0
 11
78.23890900000001
 21
89.60870199999999
 31
0.0
  0
LINE
  5
4BD
  8
LAYER_1
 10
41.123122
 20
89.846333
 30
0.0
 11
41.182773
 21
91.045715
 31
0.0
  0
LINE
  5
4BE
  8
LAYER_1
 10
41.182773
 20
91.045715
 30
0.0
 11
41.580182
 21
92.217039
 31
0.0
  0
LINE
  5
4BF
  8
LAYER_1
 10
41.580182
 20
92.217039
 30
0.0
 11
42.348181
 21
93.42739899999999
 31
0.0
  0
LINE
  5
4C0
  8
LAYER_1
 10
42.348181
 20
93.42739899999999
 30
0.0
 11
43.519601
 21
94.74389100000001
 31
0.0
  0
LINE
  5
4C1
  8
LAYER_1
 10
43.519601
 20
94.74389100000001
 30
0.0
 11
44.994737
 21
96.22739
 31
0.0
  0
LINE
  5
4C2
  8
LAYER_1
 10
44.994737
 20
96.22739
 30
0.0
 11
44.829662
 21
98.19638999999999
 31
0.0
  0
LINE
  5
4C3
  8
LAYER_1
 10
44.829662
 20
98.19638999999999
 30
0.0
 11
44.664588
 21
100.16539
 31
0.0
  0
LINE
  5
4C4
  8
LAYER_1
 10
44.664588
 20
100.16539
 30
0.0
 11
43.547569
 21
99.537589
 31
0.0
  0
LINE
  5
4C5
  8
LAYER_1
 10
43.547569
 20
99.537589
 30
0.0
 11
42.077469
 21
98.446457
 31
0.0
  0
LINE
  5
4C6
  8
LAYER_1
 10
42.077469
 20
98.446457
 30
0.0
 11
40.789686
 21
96.99354200000001
 31
0.0
  0
LINE
  5
4C7
  8
LAYER_1
 10
40.789686
 20
96.99354200000001
 30
0.0
 11
39.806577
 21
95.345904
 31
0.0
  0
LINE
  5
4C8
  8
LAYER_1
 10
39.806577
 20
95.345904
 30
0.0
 11
39.250496
 21
93.67059999999999
 31
0.0
  0
LINE
  5
4C9
  8
LAYER_1
 10
39.250496
 20
93.67059999999999
 30
0.0
 11
39.23418
 21
92.727164
 31
0.0
  0
LINE
  5
4CA
  8
LAYER_1
 10
39.23418
 20
92.727164
 30
0.0
 11
39.465499
 21
91.62563299999999
 31
0.0
  0
LINE
  5
4CB
  8
LAYER_1
 10
39.465499
 20
91.62563299999999
 30
0.0
 11
39.908094
 21
90.48687200000001
 31
0.0
  0
LINE
  5
4CC
  8
LAYER_1
 10
39.908094
 20
90.48687200000001
 30
0.0
 11
40.525607
 21
89.431746
 31
0.0
  0
LINE
  5
4CD
  8
LAYER_1
 10
40.525607
 20
89.431746
 30
0.0
 11
41.16858
 21
88.603726
 31
0.0
  0
LINE
  5
4CE
  8
LAYER_1
 10
41.16858
 20
88.603726
 30
0.0
 11
41.123122
 21
89.846333
 31
0.0
  0
LINE
  5
4CF
  8
LAYER_1
 10
41.123122
 20
89.846333
 30
0.0
 11
41.123122
 21
89.846333
 31
0.0
  0
LINE
  5
4D0
  8
LAYER_1
 10
70.286773
 20
89.70435000000001
 30
0.0
 11
71.29178899999999
 21
90.309377
 31
0.0
  0
LINE
  5
4D1
  8
LAYER_1
 10
71.29178899999999
 20
90.309377
 30
0.0
 11
72.240381
 21
91.125703
 31
0.0
  0
LINE
  5
4D2
  8
LAYER_1
 10
72.240381
 20
91.125703
 30
0.0
 11
73.02110500000001
 21
92.041693
 31
0.0
  0
LINE
  5
4D3
  8
LAYER_1
 10
73.02110500000001
 20
92.041693
 30
0.0
 11
73.522515
 21
92.94570899999999
 31
0.0
  0
LINE
  5
4D4
  8
LAYER_1
 10
73.522515
 20
92.94570899999999
 30
0.0
 11
73.64218
 21
93.713808
 31
0.0
  0
LINE
  5
4D5
  8
LAYER_1
 10
73.64218
 20
93.713808
 30
0.0
 11
73.424151
 21
94.38932
 31
0.0
  0
LINE
  5
4D6
  8
LAYER_1
 10
73.424151
 20
94.38932
 30
0.0
 11
72.90300000000001
 21
94.916021
 31
0.0
  0
LINE
  5
4D7
  8
LAYER_1
 10
72.90300000000001
 20
94.916021
 30
0.0
 11
72.11329499999999
 21
95.237689
 31
0.0
  0
LINE
  5
4D8
  8
LAYER_1
 10
72.11329499999999
 20
95.237689
 30
0.0
 11
71.192797
 21
95.234083
 31
0.0
  0
LINE
  5
4D9
  8
LAYER_1
 10
71.192797
 20
95.234083
 30
0.0
 11
70.13713
 21
94.66559100000001
 31
0.0
  0
LINE
  5
4DA
  8
LAYER_1
 10
70.13713
 20
94.66559100000001
 30
0.0
 11
68.477008
 21
93.136332
 31
0.0
  0
LINE
  5
4DB
  8
LAYER_1
 10
68.477008
 20
93.136332
 30
0.0
 11
67.794864
 21
92.225679
 31
0.0
  0
LINE
  5
4DC
  8
LAYER_1
 10
67.794864
 20
92.225679
 30
0.0
 11
67.276455
 21
91.294421
 31
0.0
  0
LINE
  5
4DD
  8
LAYER_1
 10
67.276455
 20
91.294421
 30
0.0
 11
67.11498899999999
 21
90.869812
 31
0.0
  0
LINE
  5
4DE
  8
LAYER_1
 10
67.11498899999999
 20
90.869812
 30
0.0
 11
67.12007800000001
 21
90.555745
 31
0.0
  0
LINE
  5
4DF
  8
LAYER_1
 10
67.12007800000001
 20
90.555745
 30
0.0
 11
67.764062
 21
89.866394
 31
0.0
  0
LINE
  5
4E0
  8
LAYER_1
 10
67.764062
 20
89.866394
 30
0.0
 11
68.37995700000001
 21
89.402501
 31
0.0
  0
LINE
  5
4E1
  8
LAYER_1
 10
68.37995700000001
 20
89.402501
 30
0.0
 11
68.865467
 21
89.229871
 31
0.0
  0
LINE
  5
4E2
  8
LAYER_1
 10
68.865467
 20
89.229871
 30
0.0
 11
69.430953
 21
89.334991
 31
0.0
  0
LINE
  5
4E3
  8
LAYER_1
 10
69.430953
 20
89.334991
 30
0.0
 11
70.286773
 21
89.70435000000001
 31
0.0
  0
LINE
  5
4E4
  8
LAYER_1
 10
70.286773
 20
89.70435000000001
 30
0.0
 11
70.286773
 21
89.70435000000001
 31
0.0
  0
LINE
  5
4E5
  8
LAYER_1
 10
65.77996899999999
 20
92.324422
 30
0.0
 11
65.80065500000001
 21
94.469201
 31
0.0
  0
LINE
  5
4E6
  8
LAYER_1
 10
65.80065500000001
 20
94.469201
 30
0.0
 11
65.630757
 21
95.48653
 31
0.0
  0
LINE
  5
4E7
  8
LAYER_1
 10
65.630757
 20
95.48653
 30
0.0
 11
65.36994
 21
96.19137000000001
 31
0.0
  0
LINE
  5
4E8
  8
LAYER_1
 10
65.36994
 20
96.19137000000001
 30
0.0
 11
64.93790199999999
 21
96.46483000000001
 31
0.0
  0
LINE
  5
4E9
  8
LAYER_1
 10
64.93790199999999
 20
96.46483000000001
 30
0.0
 11
64.33417300000001
 21
96.373572
 31
0.0
  0
LINE
  5
4EA
  8
LAYER_1
 10
64.33417300000001
 20
96.373572
 30
0.0
 11
63.708066
 21
95.97684099999999
 31
0.0
  0
LINE
  5
4EB
  8
LAYER_1
 10
63.708066
 20
95.97684099999999
 30
0.0
 11
63.208891
 21
95.333882
 31
0.0
  0
LINE
  5
4EC
  8
LAYER_1
 10
63.208891
 20
95.333882
 30
0.0
 11
62.950303
 21
94.632747
 31
0.0
  0
LINE
  5
4ED
  8
LAYER_1
 10
62.950303
 20
94.632747
 30
0.0
 11
62.903759
 21
93.879974
 31
0.0
  0
LINE
  5
4EE
  8
LAYER_1
 10
62.903759
 20
93.879974
 30
0.0
 11
63.075201
 21
92.997771
 31
0.0
  0
LINE
  5
4EF
  8
LAYER_1
 10
63.075201
 20
92.997771
 30
0.0
 11
63.470573
 21
91.908348
 31
0.0
  0
LINE
  5
4F0
  8
LAYER_1
 10
63.470573
 20
91.908348
 30
0.0
 11
63.948637
 21
91.132775
 31
0.0
  0
LINE
  5
4F1
  8
LAYER_1
 10
63.948637
 20
91.132775
 30
0.0
 11
64.263319
 21
91.039806
 31
0.0
  0
LINE
  5
4F2
  8
LAYER_1
 10
64.263319
 20
91.039806
 30
0.0
 11
64.73074
 21
91.07579200000001
 31
0.0
  0
LINE
  5
4F3
  8
LAYER_1
 10
64.73074
 20
91.07579200000001
 30
0.0
 11
65.18827400000001
 21
91.179464
 31
0.0
  0
LINE
  5
4F4
  8
LAYER_1
 10
65.18827400000001
 20
91.179464
 30
0.0
 11
65.474895
 21
91.37361900000001
 31
0.0
  0
LINE
  5
4F5
  8
LAYER_1
 10
65.474895
 20
91.37361900000001
 30
0.0
 11
65.77996899999999
 21
92.324422
 31
0.0
  0
LINE
  5
4F6
  8
LAYER_1
 10
65.77996899999999
 20
92.324422
 30
0.0
 11
65.77996899999999
 21
92.324422
 31
0.0
  0
LINE
  5
4F7
  8
LAYER_1
 10
91.709469
 20
92.993504
 30
0.0
 11
90.911833
 21
94.216161
 31
0.0
  0
LINE
  5
4F8
  8
LAYER_1
 10
90.911833
 20
94.216161
 30
0.0
 11
89.69309199999999
 21
95.682743
 31
0.0
  0
LINE
  5
4F9
  8
LAYER_1
 10
89.69309199999999
 20
95.682743
 30
0.0
 11
87.766936
 21
97.434613
 31
0.0
  0
LINE
  5
4FA
  8
LAYER_1
 10
87.766936
 20
97.434613
 30
0.0
 11
85.70696599999999
 21
98.60758
 31
0.0
  0
LINE
  5
4FB
  8
LAYER_1
 10
85.70696599999999
 20
98.60758
 30
0.0
 11
83.36375700000001
 21
99.263718
 31
0.0
  0
LINE
  5
4FC
  8
LAYER_1
 10
83.36375700000001
 20
99.263718
 30
0.0
 11
80.587884
 21
99.465098
 31
0.0
  0
LINE
  5
4FD
  8
LAYER_1
 10
80.587884
 20
99.465098
 30
0.0
 11
78.231962
 21
99.407995
 31
0.0
  0
LINE
  5
4FE
  8
LAYER_1
 10
78.231962
 20
99.407995
 30
0.0
 11
76.838629
 21
99.14728599999999
 31
0.0
  0
LINE
  5
4FF
  8
LAYER_1
 10
76.838629
 20
99.14728599999999
 30
0.0
 11
76.03146700000001
 21
98.533354
 31
0.0
  0
LINE
  5
500
  8
LAYER_1
 10
76.03146700000001
 20
98.533354
 30
0.0
 11
75.43406
 21
97.41658200000001
 31
0.0
  0
LINE
  5
501
  8
LAYER_1
 10
75.43406
 20
97.41658200000001
 30
0.0
 11
74.80355299999999
 21
95.715825
 31
0.0
  0
LINE
  5
502
  8
LAYER_1
 10
74.80355299999999
 20
95.715825
 30
0.0
 11
76.797769
 21
95.965677
 31
0.0
  0
LINE
  5
503
  8
LAYER_1
 10
76.797769
 20
95.965677
 30
0.0
 11
78.67200200000001
 21
96.153048
 31
0.0
  0
LINE
  5
504
  8
LAYER_1
 10
78.67200200000001
 20
96.153048
 30
0.0
 11
80.711326
 21
96.116597
 31
0.0
  0
LINE
  5
505
  8
LAYER_1
 10
80.711326
 20
96.116597
 30
0.0
 11
82.824237
 21
95.878563
 31
0.0
  0
LINE
  5
506
  8
LAYER_1
 10
82.824237
 20
95.878563
 30
0.0
 11
84.919231
 21
95.46118900000001
 31
0.0
  0
LINE
  5
507
  8
LAYER_1
 10
84.919231
 20
95.46118900000001
 30
0.0
 11
86.90479999999999
 21
94.886717
 31
0.0
  0
LINE
  5
508
  8
LAYER_1
 10
86.90479999999999
 20
94.886717
 30
0.0
 11
88.689442
 21
94.17738799999999
 31
0.0
  0
LINE
  5
509
  8
LAYER_1
 10
88.689442
 20
94.17738799999999
 30
0.0
 11
90.181651
 21
93.35544400000001
 31
0.0
  0
LINE
  5
50A
  8
LAYER_1
 10
90.181651
 20
93.35544400000001
 30
0.0
 11
91.289923
 21
92.443128
 31
0.0
  0
LINE
  5
50B
  8
LAYER_1
 10
91.289923
 20
92.443128
 30
0.0
 11
91.817745
 21
91.94308599999999
 31
0.0
  0
LINE
  5
50C
  8
LAYER_1
 10
91.817745
 20
91.94308599999999
 30
0.0
 11
92.065603
 21
91.870749
 31
0.0
  0
LINE
  5
50D
  8
LAYER_1
 10
92.065603
 20
91.870749
 30
0.0
 11
91.709469
 21
92.993504
 31
0.0
  0
LINE
  5
50E
  8
LAYER_1
 10
91.709469
 20
92.993504
 30
0.0
 11
91.709469
 21
92.993504
 31
0.0
  0
LINE
  5
50F
  8
LAYER_1
 10
63.54014
 20
96.738243
 30
0.0
 11
64.20776600000001
 21
97.13361999999999
 31
0.0
  0
LINE
  5
510
  8
LAYER_1
 10
64.20776600000001
 20
97.13361999999999
 30
0.0
 11
64.908135
 21
97.239136
 31
0.0
  0
LINE
  5
511
  8
LAYER_1
 10
64.908135
 20
97.239136
 30
0.0
 11
65.56694899999999
 21
97.05887800000001
 31
0.0
  0
LINE
  5
512
  8
LAYER_1
 10
65.56694899999999
 20
97.05887800000001
 30
0.0
 11
66.10991199999999
 21
96.596929
 31
0.0
  0
LINE
  5
513
  8
LAYER_1
 10
66.10991199999999
 20
96.596929
 30
0.0
 11
66.42312800000001
 21
96.366562
 31
0.0
  0
LINE
  5
514
  8
LAYER_1
 10
66.42312800000001
 20
96.366562
 30
0.0
 11
66.64175400000001
 21
96.923911
 31
0.0
  0
LINE
  5
515
  8
LAYER_1
 10
66.64175400000001
 20
96.923911
 30
0.0
 11
66.764543
 21
98.33810200000001
 31
0.0
  0
LINE
  5
516
  8
LAYER_1
 10
66.764543
 20
98.33810200000001
 30
0.0
 11
66.664327
 21
100.252816
 31
0.0
  0
LINE
  5
517
  8
LAYER_1
 10
66.664327
 20
100.252816
 30
0.0
 11
66.38975499999999
 21
102.170586
 31
0.0
  0
LINE
  5
518
  8
LAYER_1
 10
66.38975499999999
 20
102.170586
 30
0.0
 11
65.989474
 21
103.593947
 31
0.0
  0
LINE
  5
519
  8
LAYER_1
 10
65.989474
 20
103.593947
 30
0.0
 11
65.36205200000001
 21
104.669366
 31
0.0
  0
LINE
  5
51A
  8
LAYER_1
 10
65.36205200000001
 20
104.669366
 30
0.0
 11
64.55817500000001
 21
105.557275
 31
0.0
  0
LINE
  5
51B
  8
LAYER_1
 10
64.55817500000001
 20
105.557275
 30
0.0
 11
63.686774
 21
106.160701
 31
0.0
  0
LINE
  5
51C
  8
LAYER_1
 10
63.686774
 20
106.160701
 30
0.0
 11
62.856785
 21
106.382672
 31
0.0
  0
LINE
  5
51D
  8
LAYER_1
 10
62.856785
 20
106.382672
 30
0.0
 11
62.021664
 21
106.218378
 31
0.0
  0
LINE
  5
51E
  8
LAYER_1
 10
62.021664
 20
106.218378
 30
0.0
 11
61.143696
 21
105.775433
 31
0.0
  0
LINE
  5
51F
  8
LAYER_1
 10
61.143696
 20
105.775433
 30
0.0
 11
60.333555
 21
105.125489
 31
0.0
  0
LINE
  5
520
  8
LAYER_1
 10
60.333555
 20
105.125489
 30
0.0
 11
59.701915
 21
104.340196
 31
0.0
  0
LINE
  5
521
  8
LAYER_1
 10
59.701915
 20
104.340196
 30
0.0
 11
59.343268
 21
103.386462
 31
0.0
  0
LINE
  5
522
  8
LAYER_1
 10
59.343268
 20
103.386462
 30
0.0
 11
59.180984
 21
102.116724
 31
0.0
  0
LINE
  5
523
  8
LAYER_1
 10
59.180984
 20
102.116724
 30
0.0
 11
59.197433
 21
100.641482
 31
0.0
  0
LINE
  5
524
  8
LAYER_1
 10
59.197433
 20
100.641482
 30
0.0
 11
59.374985
 21
99.07123799999999
 31
0.0
  0
LINE
  5
525
  8
LAYER_1
 10
59.374985
 20
99.07123799999999
 30
0.0
 11
59.69601
 21
97.516492
 31
0.0
  0
LINE
  5
526
  8
LAYER_1
 10
59.69601
 20
97.516492
 30
0.0
 11
60.142879
 21
96.087744
 31
0.0
  0
LINE
  5
527
  8
LAYER_1
 10
60.142879
 20
96.087744
 30
0.0
 11
60.697961
 21
94.89549700000001
 31
0.0
  0
LINE
  5
528
  8
LAYER_1
 10
60.697961
 20
94.89549700000001
 30
0.0
 11
61.343627
 21
94.050251
 31
0.0
  0
LINE
  5
529
  8
LAYER_1
 10
61.343627
 20
94.050251
 30
0.0
 11
62.09039
 21
93.358177
 31
0.0
  0
LINE
  5
52A
  8
LAYER_1
 10
62.09039
 20
93.358177
 30
0.0
 11
62.436118
 21
94.72039599999999
 31
0.0
  0
LINE
  5
52B
  8
LAYER_1
 10
62.436118
 20
94.72039599999999
 30
0.0
 11
62.894554
 21
95.889585
 31
0.0
  0
LINE
  5
52C
  8
LAYER_1
 10
62.894554
 20
95.889585
 30
0.0
 11
63.54014
 21
96.738243
 31
0.0
  0
LINE
  5
52D
  8
LAYER_1
 10
63.54014
 20
96.738243
 30
0.0
 11
63.54014
 21
96.738243
 31
0.0
  0
LINE
  5
52E
  8
LAYER_1
 10
68.55269800000001
 20
94.43204900000001
 30
0.0
 11
69.559127
 21
95.158925
 31
0.0
  0
LINE
  5
52F
  8
LAYER_1
 10
69.559127
 20
95.158925
 30
0.0
 11
70.55425700000001
 21
95.627781
 31
0.0
  0
LINE
  5
530
  8
LAYER_1
 10
70.55425700000001
 20
95.627781
 30
0.0
 11
71.55268100000001
 21
95.843628
 31
0.0
  0
LINE
  5
531
  8
LAYER_1
 10
71.55268100000001
 20
95.843628
 30
0.0
 11
72.568991
 21
95.81147900000001
 31
0.0
  0
LINE
  5
532
  8
LAYER_1
 10
72.568991
 20
95.81147900000001
 30
0.0
 11
73.763897
 21
95.632293
 31
0.0
  0
LINE
  5
533
  8
LAYER_1
 10
73.763897
 20
95.632293
 30
0.0
 11
74.378882
 21
97.268565
 31
0.0
  0
LINE
  5
534
  8
LAYER_1
 10
74.378882
 20
97.268565
 30
0.0
 11
74.858124
 21
98.85232499999999
 31
0.0
  0
LINE
  5
535
  8
LAYER_1
 10
74.858124
 20
98.85232499999999
 30
0.0
 11
75.14675200000001
 21
100.362344
 31
0.0
  0
LINE
  5
536
  8
LAYER_1
 10
75.14675200000001
 20
100.362344
 30
0.0
 11
75.15316900000001
 21
101.699068
 31
0.0
  0
LINE
  5
537
  8
LAYER_1
 10
75.15316900000001
 20
101.699068
 30
0.0
 11
74.953434
 21
102.116162
 31
0.0
  0
LINE
  5
538
  8
LAYER_1
 10
74.953434
 20
102.116162
 30
0.0
 11
74.569924
 21
102.549567
 31
0.0
  0
LINE
  5
539
  8
LAYER_1
 10
74.569924
 20
102.549567
 30
0.0
 11
73.888561
 21
103.066691
 31
0.0
  0
LINE
  5
53A
  8
LAYER_1
 10
73.888561
 20
103.066691
 30
0.0
 11
73.18440099999999
 21
103.242272
 31
0.0
  0
LINE
  5
53B
  8
LAYER_1
 10
73.18440099999999
 20
103.242272
 30
0.0
 11
72.40328
 21
103.076671
 31
0.0
  0
LINE
  5
53C
  8
LAYER_1
 10
72.40328
 20
103.076671
 30
0.0
 11
71.491038
 21
102.570253
 31
0.0
  0
LINE
  5
53D
  8
LAYER_1
 10
71.491038
 20
102.570253
 30
0.0
 11
70.534173
 21
101.713761
 31
0.0
  0
LINE
  5
53E
  8
LAYER_1
 10
70.534173
 20
101.713761
 30
0.0
 11
69.676802
 21
100.489303
 31
0.0
  0
LINE
  5
53F
  8
LAYER_1
 10
69.676802
 20
100.489303
 30
0.0
 11
68.88651299999999
 21
98.840356
 31
0.0
  0
LINE
  5
540
  8
LAYER_1
 10
68.88651299999999
 20
98.840356
 30
0.0
 11
68.130894
 21
96.710396
 31
0.0
  0
LINE
  5
541
  8
LAYER_1
 10
68.130894
 20
96.710396
 30
0.0
 11
67.526915
 21
94.71189099999999
 31
0.0
  0
LINE
  5
542
  8
LAYER_1
 10
67.526915
 20
94.71189099999999
 30
0.0
 11
67.37191900000001
 21
93.795472
 31
0.0
  0
LINE
  5
543
  8
LAYER_1
 10
67.37191900000001
 20
93.795472
 30
0.0
 11
67.474026
 21
93.68235300000001
 31
0.0
  0
LINE
  5
544
  8
LAYER_1
 10
67.474026
 20
93.68235300000001
 30
0.0
 11
67.70186200000001
 21
93.766927
 31
0.0
  0
LINE
  5
545
  8
LAYER_1
 10
67.70186200000001
 20
93.766927
 30
0.0
 11
68.55269800000001
 21
94.43204900000001
 31
0.0
  0
LINE
  5
546
  8
LAYER_1
 10
68.55269800000001
 20
94.43204900000001
 30
0.0
 11
68.55269800000001
 21
94.43204900000001
 31
0.0
  0
LINE
  5
547
  8
LAYER_1
 10
72.281655
 20
106.807061
 30
0.0
 11
73.936307
 21
110.321559
 31
0.0
  0
LINE
  5
548
  8
LAYER_1
 10
73.936307
 20
110.321559
 30
0.0
 11
73.95422499999999
 21
110.469849
 31
0.0
  0
LINE
  5
549
  8
LAYER_1
 10
73.95422499999999
 20
110.469849
 30
0.0
 11
73.838926
 21
110.402064
 31
0.0
  0
LINE
  5
54A
  8
LAYER_1
 10
73.838926
 20
110.402064
 30
0.0
 11
73.258841
 21
109.770394
 31
0.0
  0
LINE
  5
54B
  8
LAYER_1
 10
73.258841
 20
109.770394
 30
0.0
 11
71.553336
 21
107.562628
 31
0.0
  0
LINE
  5
54C
  8
LAYER_1
 10
71.553336
 20
107.562628
 30
0.0
 11
69.803324
 21
104.876559
 31
0.0
  0
LINE
  5
54D
  8
LAYER_1
 10
69.803324
 20
104.876559
 30
0.0
 11
68.438332
 21
102.421144
 31
0.0
  0
LINE
  5
54E
  8
LAYER_1
 10
68.438332
 20
102.421144
 30
0.0
 11
67.887884
 21
100.905337
 31
0.0
  0
LINE
  5
54F
  8
LAYER_1
 10
67.887884
 20
100.905337
 30
0.0
 11
67.99633799999999
 21
100.859979
 31
0.0
  0
LINE
  5
550
  8
LAYER_1
 10
67.99633799999999
 20
100.859979
 30
0.0
 11
68.291635
 21
101.042882
 31
0.0
  0
LINE
  5
551
  8
LAYER_1
 10
68.291635
 20
101.042882
 30
0.0
 11
69.26235699999999
 21
101.955621
 31
0.0
  0
LINE
  5
552
  8
LAYER_1
 10
69.26235699999999
 20
101.955621
 30
0.0
 11
70.70368499999999
 21
103.895672
 31
0.0
  0
LINE
  5
553
  8
LAYER_1
 10
70.70368499999999
 20
103.895672
 30
0.0
 11
72.281655
 21
106.807061
 31
0.0
  0
LINE
  5
554
  8
LAYER_1
 10
72.281655
 20
106.807061
 30
0.0
 11
72.281655
 21
106.807061
 31
0.0
  0
LINE
  5
555
  8
LAYER_1
 10
87.361217
 20
107.096525
 30
0.0
 11
89.195662
 21
107.718537
 31
0.0
  0
LINE
  5
556
  8
LAYER_1
 10
89.195662
 20
107.718537
 30
0.0
 11
89.121877
 21
109.661688
 31
0.0
  0
LINE
  5
557
  8
LAYER_1
 10
89.121877
 20
109.661688
 30
0.0
 11
88.989198
 21
111.225002
 31
0.0
  0
LINE
  5
558
  8
LAYER_1
 10
88.989198
 20
111.225002
 30
0.0
 11
88.722708
 21
112.652162
 31
0.0
  0
LINE
  5
559
  8
LAYER_1
 10
88.722708
 20
112.652162
 30
0.0
 11
88.334727
 21
113.920886
 31
0.0
  0
LINE
  5
55A
  8
LAYER_1
 10
88.334727
 20
113.920886
 30
0.0
 11
87.83757799999999
 21
115.008895
 31
0.0
  0
LINE
  5
55B
  8
LAYER_1
 10
87.83757799999999
 20
115.008895
 30
0.0
 11
87.243582
 21
115.893908
 31
0.0
  0
LINE
  5
55C
  8
LAYER_1
 10
87.243582
 20
115.893908
 30
0.0
 11
86.565061
 21
116.553646
 31
0.0
  0
LINE
  5
55D
  8
LAYER_1
 10
86.565061
 20
116.553646
 30
0.0
 11
85.814337
 21
116.965827
 31
0.0
  0
LINE
  5
55E
  8
LAYER_1
 10
85.814337
 20
116.965827
 30
0.0
 11
85.00373
 21
117.108172
 31
0.0
  0
LINE
  5
55F
  8
LAYER_1
 10
85.00373
 20
117.108172
 30
0.0
 11
83.90999600000001
 21
116.986827
 31
0.0
  0
LINE
  5
560
  8
LAYER_1
 10
83.90999600000001
 20
116.986827
 30
0.0
 11
82.635997
 21
116.662283
 31
0.0
  0
LINE
  5
561
  8
LAYER_1
 10
82.635997
 20
116.662283
 30
0.0
 11
81.371348
 21
116.193773
 31
0.0
  0
LINE
  5
562
  8
LAYER_1
 10
81.371348
 20
116.193773
 30
0.0
 11
80.305662
 21
115.640532
 31
0.0
  0
LINE
  5
563
  8
LAYER_1
 10
80.305662
 20
115.640532
 30
0.0
 11
79.541757
 21
115.081559
 31
0.0
  0
LINE
  5
564
  8
LAYER_1
 10
79.541757
 20
115.081559
 30
0.0
 11
80.023439
 21
114.917374
 31
0.0
  0
LINE
  5
565
  8
LAYER_1
 10
80.023439
 20
114.917374
 30
0.0
 11
80.94481
 21
114.720336
 31
0.0
  0
LINE
  5
566
  8
LAYER_1
 10
80.94481
 20
114.720336
 30
0.0
 11
81.71630399999999
 21
114.391868
 31
0.0
  0
LINE
  5
567
  8
LAYER_1
 10
81.71630399999999
 20
114.391868
 30
0.0
 11
82.34018500000001
 21
113.93069
 31
0.0
  0
LINE
  5
568
  8
LAYER_1
 10
82.34018500000001
 20
113.93069
 30
0.0
 11
82.81871200000001
 21
113.335521
 31
0.0
  0
LINE
  5
569
  8
LAYER_1
 10
82.81871200000001
 20
113.335521
 30
0.0
 11
83.268119
 21
112.299647
 31
0.0
  0
LINE
  5
56A
  8
LAYER_1
 10
83.268119
 20
112.299647
 30
0.0
 11
83.635571
 21
110.873676
 31
0.0
  0
LINE
  5
56B
  8
LAYER_1
 10
83.635571
 20
110.873676
 30
0.0
 11
83.88355300000001
 21
109.243877
 31
0.0
  0
LINE
  5
56C
  8
LAYER_1
 10
83.88355300000001
 20
109.243877
 30
0.0
 11
83.97455100000001
 21
107.596518
 31
0.0
  0
LINE
  5
56D
  8
LAYER_1
 10
83.97455100000001
 20
107.596518
 30
0.0
 11
84.003913
 21
106.619146
 31
0.0
  0
LINE
  5
56E
  8
LAYER_1
 10
84.003913
 20
106.619146
 30
0.0
 11
84.10898
 21
106.360375
 31
0.0
  0
LINE
  5
56F
  8
LAYER_1
 10
84.10898
 20
106.360375
 30
0.0
 11
84.33507299999999
 21
106.245909
 31
0.0
  0
LINE
  5
570
  8
LAYER_1
 10
84.33507299999999
 20
106.245909
 30
0.0
 11
85.332638
 21
106.422978
 31
0.0
  0
LINE
  5
571
  8
LAYER_1
 10
85.332638
 20
106.422978
 30
0.0
 11
87.361217
 21
107.096525
 31
0.0
  0
LINE
  5
572
  8
LAYER_1
 10
87.361217
 20
107.096525
 30
0.0
 11
87.361217
 21
107.096525
 31
0.0
  0
LINE
  5
573
  8
LAYER_1
 10
54.524907
 20
17.556601
 30
0.0
 11
53.875107
 21
18.030481
 31
0.0
  0
LINE
  5
574
  8
LAYER_1
 10
53.875107
 20
18.030481
 30
0.0
 11
53.170884
 21
17.791644
 31
0.0
  0
LINE
  5
575
  8
LAYER_1
 10
53.170884
 20
17.791644
 30
0.0
 11
52.420335
 21
17.505773
 31
0.0
  0
LINE
  5
576
  8
LAYER_1
 10
52.420335
 20
17.505773
 30
0.0
 11
51.892956
 21
17.603249
 31
0.0
  0
LINE
  5
577
  8
LAYER_1
 10
51.892956
 20
17.603249
 30
0.0
 11
51.603928
 21
18.073515
 31
0.0
  0
LINE
  5
578
  8
LAYER_1
 10
51.603928
 20
18.073515
 30
0.0
 11
51.568432
 21
18.906016
 31
0.0
  0
LINE
  5
579
  8
LAYER_1
 10
51.568432
 20
18.906016
 30
0.0
 11
51.55852
 21
19.867085
 31
0.0
  0
LINE
  5
57A
  8
LAYER_1
 10
51.55852
 20
19.867085
 30
0.0
 11
51.339127
 21
19.946245
 31
0.0
  0
LINE
  5
57B
  8
LAYER_1
 10
51.339127
 20
19.946245
 30
0.0
 11
50.898628
 21
19.870333
 31
0.0
  0
LINE
  5
57C
  8
LAYER_1
 10
50.898628
 20
19.870333
 30
0.0
 11
49.760133
 21
19.836244
 31
0.0
  0
LINE
  5
57D
  8
LAYER_1
 10
49.760133
 20
19.836244
 30
0.0
 11
49.110862
 21
20.232633
 31
0.0
  0
LINE
  5
57E
  8
LAYER_1
 10
49.110862
 20
20.232633
 30
0.0
 11
48.999176
 21
20.547681
 31
0.0
  0
LINE
  5
57F
  8
LAYER_1
 10
48.999176
 20
20.547681
 30
0.0
 11
49.045187
 21
20.916859
 31
0.0
  0
LINE
  5
580
  8
LAYER_1
 10
49.045187
 20
20.916859
 30
0.0
 11
49.65748
 21
21.746283
 31
0.0
  0
LINE
  5
581
  8
LAYER_1
 10
49.65748
 20
21.746283
 30
0.0
 11
50.335965
 21
22.336218
 31
0.0
  0
LINE
  5
582
  8
LAYER_1
 10
50.335965
 20
22.336218
 30
0.0
 11
49.653297
 21
23.342185
 31
0.0
  0
LINE
  5
583
  8
LAYER_1
 10
49.653297
 20
23.342185
 30
0.0
 11
49.149089
 21
24.279416
 31
0.0
  0
LINE
  5
584
  8
LAYER_1
 10
49.149089
 20
24.279416
 30
0.0
 11
49.177713
 21
24.592551
 31
0.0
  0
LINE
  5
585
  8
LAYER_1
 10
49.177713
 20
24.592551
 30
0.0
 11
49.369362
 21
24.937604
 31
0.0
  0
LINE
  5
586
  8
LAYER_1
 10
49.369362
 20
24.937604
 30
0.0
 11
49.908582
 21
25.385703
 31
0.0
  0
LINE
  5
587
  8
LAYER_1
 10
49.908582
 20
25.385703
 30
0.0
 11
50.784656
 21
25.494869
 31
0.0
  0
LINE
  5
588
  8
LAYER_1
 10
50.784656
 20
25.494869
 30
0.0
 11
51.638286
 21
25.588341
 31
0.0
  0
LINE
  5
589
  8
LAYER_1
 10
51.638286
 20
25.588341
 30
0.0
 11
51.771886
 21
25.810634
 31
0.0
  0
LINE
  5
58A
  8
LAYER_1
 10
51.771886
 20
25.810634
 30
0.0
 11
51.801217
 21
26.214536
 31
0.0
  0
LINE
  5
58B
  8
LAYER_1
 10
51.801217
 20
26.214536
 30
0.0
 11
51.887709
 21
26.826095
 31
0.0
  0
LINE
  5
58C
  8
LAYER_1
 10
51.887709
 20
26.826095
 30
0.0
 11
52.141573
 21
27.274241
 31
0.0
  0
LINE
  5
58D
  8
LAYER_1
 10
52.141573
 20
27.274241
 30
0.0
 11
52.554388
 21
27.549831
 31
0.0
  0
LINE
  5
58E
  8
LAYER_1
 10
52.554388
 20
27.549831
 30
0.0
 11
53.117733
 21
27.643726
 31
0.0
  0
LINE
  5
58F
  8
LAYER_1
 10
53.117733
 20
27.643726
 30
0.0
 11
53.629711
 21
27.507326
 31
0.0
  0
LINE
  5
590
  8
LAYER_1
 10
53.629711
 20
27.507326
 30
0.0
 11
54.014944
 21
27.111028
 31
0.0
  0
LINE
  5
591
  8
LAYER_1
 10
54.014944
 20
27.111028
 30
0.0
 11
54.261592
 21
26.47419
 31
0.0
  0
LINE
  5
592
  8
LAYER_1
 10
54.261592
 20
26.47419
 30
0.0
 11
54.357815
 21
25.616168
 31
0.0
  0
LINE
  5
593
  8
LAYER_1
 10
54.357815
 20
25.616168
 30
0.0
 11
54.426763
 21
24.921725
 31
0.0
  0
LINE
  5
594
  8
LAYER_1
 10
54.426763
 20
24.921725
 30
0.0
 11
54.710592
 21
25.217837
 31
0.0
  0
LINE
  5
595
  8
LAYER_1
 10
54.710592
 20
25.217837
 30
0.0
 11
55.864579
 21
26.713694
 31
0.0
  0
LINE
  5
596
  8
LAYER_1
 10
55.864579
 20
26.713694
 30
0.0
 11
56.740353
 21
27.494226
 31
0.0
  0
LINE
  5
597
  8
LAYER_1
 10
56.740353
 20
27.494226
 30
0.0
 11
57.840135
 21
27.587361
 31
0.0
  0
LINE
  5
598
  8
LAYER_1
 10
57.840135
 20
27.587361
 30
0.0
 11
58.839849
 21
27.375448
 31
0.0
  0
LINE
  5
599
  8
LAYER_1
 10
58.839849
 20
27.375448
 30
0.0
 11
59.010266
 21
27.082099
 31
0.0
  0
LINE
  5
59A
  8
LAYER_1
 10
59.010266
 20
27.082099
 30
0.0
 11
59.088288
 21
26.558994
 31
0.0
  0
LINE
  5
59B
  8
LAYER_1
 10
59.088288
 20
26.558994
 30
0.0
 11
59.028128
 21
25.721147
 31
0.0
  0
LINE
  5
59C
  8
LAYER_1
 10
59.028128
 20
25.721147
 30
0.0
 11
58.691772
 21
25.077327
 31
0.0
  0
LINE
  5
59D
  8
LAYER_1
 10
58.691772
 20
25.077327
 30
0.0
 11
58.388677
 21
24.614162
 31
0.0
  0
LINE
  5
59E
  8
LAYER_1
 10
58.388677
 20
24.614162
 30
0.0
 11
59.038809
 21
24.539281
 31
0.0
  0
LINE
  5
59F
  8
LAYER_1
 10
59.038809
 20
24.539281
 30
0.0
 11
59.634385
 21
24.463267
 31
0.0
  0
LINE
  5
5A0
  8
LAYER_1
 10
59.634385
 20
24.463267
 30
0.0
 11
60.093334
 21
24.257115
 31
0.0
  0
LINE
  5
5A1
  8
LAYER_1
 10
60.093334
 20
24.257115
 30
0.0
 11
60.408404
 21
23.953662
 31
0.0
  0
LINE
  5
5A2
  8
LAYER_1
 10
60.408404
 20
23.953662
 30
0.0
 11
60.572344
 21
23.585744
 31
0.0
  0
LINE
  5
5A3
  8
LAYER_1
 10
60.572344
 20
23.585744
 30
0.0
 11
60.577901
 21
23.186197
 31
0.0
  0
LINE
  5
5A4
  8
LAYER_1
 10
60.577901
 20
23.186197
 30
0.0
 11
60.417824
 21
22.787857
 31
0.0
  0
LINE
  5
5A5
  8
LAYER_1
 10
60.417824
 20
22.787857
 30
0.0
 11
60.08486
 21
22.42356
 31
0.0
  0
LINE
  5
5A6
  8
LAYER_1
 10
60.08486
 20
22.42356
 30
0.0
 11
59.571757
 21
22.126143
 31
0.0
  0
LINE
  5
5A7
  8
LAYER_1
 10
59.571757
 20
22.126143
 30
0.0
 11
58.593409
 21
21.717364
 31
0.0
  0
LINE
  5
5A8
  8
LAYER_1
 10
58.593409
 20
21.717364
 30
0.0
 11
59.198541
 21
20.691737
 31
0.0
  0
LINE
  5
5A9
  8
LAYER_1
 10
59.198541
 20
20.691737
 30
0.0
 11
59.651545
 21
19.750609
 31
0.0
  0
LINE
  5
5AA
  8
LAYER_1
 10
59.651545
 20
19.750609
 30
0.0
 11
59.561225
 21
19.516353
 31
0.0
  0
LINE
  5
5AB
  8
LAYER_1
 10
59.561225
 20
19.516353
 30
0.0
 11
59.267767
 21
19.274248
 31
0.0
  0
LINE
  5
5AC
  8
LAYER_1
 10
59.267767
 20
19.274248
 30
0.0
 11
58.775572
 21
19.041127
 31
0.0
  0
LINE
  5
5AD
  8
LAYER_1
 10
58.775572
 20
19.041127
 30
0.0
 11
58.344762
 21
19.030925
 31
0.0
  0
LINE
  5
5AE
  8
LAYER_1
 10
58.344762
 20
19.030925
 30
0.0
 11
57.279317
 21
19.349723
 31
0.0
  0
LINE
  5
5AF
  8
LAYER_1
 10
57.279317
 20
19.349723
 30
0.0
 11
56.729947
 21
19.361842
 31
0.0
  0
LINE
  5
5B0
  8
LAYER_1
 10
56.729947
 20
19.361842
 30
0.0
 11
56.776231
 21
18.643662
 31
0.0
  0
LINE
  5
5B1
  8
LAYER_1
 10
56.776231
 20
18.643662
 30
0.0
 11
56.732537
 21
17.613747
 31
0.0
  0
LINE
  5
5B2
  8
LAYER_1
 10
56.732537
 20
17.613747
 30
0.0
 11
56.526544
 21
17.262078
 31
0.0
  0
LINE
  5
5B3
  8
LAYER_1
 10
56.526544
 20
17.262078
 30
0.0
 11
56.226779
 21
17.033267
 31
0.0
  0
LINE
  5
5B4
  8
LAYER_1
 10
56.226779
 20
17.033267
 30
0.0
 11
55.432916
 21
16.98622
 31
0.0
  0
LINE
  5
5B5
  8
LAYER_1
 10
55.432916
 20
16.98622
 30
0.0
 11
54.524907
 21
17.556601
 31
0.0
  0
LINE
  5
5B6
  8
LAYER_1
 10
54.524907
 20
17.556601
 30
0.0
 11
54.524907
 21
17.556601
 31
0.0
  0
LINE
  5
5B7
  8
LAYER_1
 10
56.277135
 20
17.695393
 30
0.0
 11
56.372449
 21
18.319749
 31
0.0
  0
LINE
  5
5B8
  8
LAYER_1
 10
56.372449
 20
18.319749
 30
0.0
 11
56.132411
 21
19.205891
 31
0.0
  0
LINE
  5
5B9
  8
LAYER_1
 10
56.132411
 20
19.205891
 30
0.0
 11
55.672609
 21
20.010205
 31
0.0
  0
LINE
  5
5BA
  8
LAYER_1
 10
55.672609
 20
20.010205
 30
0.0
 11
55.402249
 21
20.119119
 31
0.0
  0
LINE
  5
5BB
  8
LAYER_1
 10
55.402249
 20
20.119119
 30
0.0
 11
55.033229
 21
20.090212
 31
0.0
  0
LINE
  5
5BC
  8
LAYER_1
 10
55.033229
 20
20.090212
 30
0.0
 11
54.544496
 21
19.930327
 31
0.0
  0
LINE
  5
5BD
  8
LAYER_1
 10
54.544496
 20
19.930327
 30
0.0
 11
54.341217
 21
19.731685
 31
0.0
  0
LINE
  5
5BE
  8
LAYER_1
 10
54.341217
 20
19.731685
 30
0.0
 11
54.174729
 21
19.071582
 31
0.0
  0
LINE
  5
5BF
  8
LAYER_1
 10
54.174729
 20
19.071582
 30
0.0
 11
54.270284
 21
18.592529
 31
0.0
  0
LINE
  5
5C0
  8
LAYER_1
 10
54.270284
 20
18.592529
 30
0.0
 11
54.686585
 21
17.970451
 31
0.0
  0
LINE
  5
5C1
  8
LAYER_1
 10
54.686585
 20
17.970451
 30
0.0
 11
55.235668
 21
17.431419
 31
0.0
  0
LINE
  5
5C2
  8
LAYER_1
 10
55.235668
 20
17.431419
 30
0.0
 11
55.72957
 21
17.201504
 31
0.0
  0
LINE
  5
5C3
  8
LAYER_1
 10
55.72957
 20
17.201504
 30
0.0
 11
56.00803
 21
17.346584
 31
0.0
  0
LINE
  5
5C4
  8
LAYER_1
 10
56.00803
 20
17.346584
 30
0.0
 11
56.277135
 21
17.695393
 31
0.0
  0
LINE
  5
5C5
  8
LAYER_1
 10
56.277135
 20
17.695393
 30
0.0
 11
56.277135
 21
17.695393
 31
0.0
  0
LINE
  5
5C6
  8
LAYER_1
 10
53.155082
 20
18.120304
 30
0.0
 11
53.637747
 21
19.226005
 31
0.0
  0
LINE
  5
5C7
  8
LAYER_1
 10
53.637747
 20
19.226005
 30
0.0
 11
53.667659
 21
19.884593
 31
0.0
  0
LINE
  5
5C8
  8
LAYER_1
 10
53.667659
 20
19.884593
 30
0.0
 11
53.253801
 21
20.283751
 31
0.0
  0
LINE
  5
5C9
  8
LAYER_1
 10
53.253801
 20
20.283751
 30
0.0
 11
52.706505
 21
20.412212
 31
0.0
  0
LINE
  5
5CA
  8
LAYER_1
 10
52.706505
 20
20.412212
 30
0.0
 11
52.24125
 21
19.961922
 31
0.0
  0
LINE
  5
5CB
  8
LAYER_1
 10
52.24125
 20
19.961922
 30
0.0
 11
51.820971
 21
18.83916
 31
0.0
  0
LINE
  5
5CC
  8
LAYER_1
 10
51.820971
 20
18.83916
 30
0.0
 11
51.825241
 21
18.316356
 31
0.0
  0
LINE
  5
5CD
  8
LAYER_1
 10
51.825241
 20
18.316356
 30
0.0
 11
51.989366
 21
17.954097
 31
0.0
  0
LINE
  5
5CE
  8
LAYER_1
 10
51.989366
 20
17.954097
 30
0.0
 11
52.563788
 21
17.780764
 31
0.0
  0
LINE
  5
5CF
  8
LAYER_1
 10
52.563788
 20
17.780764
 30
0.0
 11
53.155082
 21
18.120304
 31
0.0
  0
LINE
  5
5D0
  8
LAYER_1
 10
53.155082
 20
18.120304
 30
0.0
 11
53.155082
 21
18.120304
 31
0.0
  0
LINE
  5
5D1
  8
LAYER_1
 10
59.088068
 20
20.094281
 30
0.0
 11
58.738897
 21
20.71054
 31
0.0
  0
LINE
  5
5D2
  8
LAYER_1
 10
58.738897
 20
20.71054
 30
0.0
 11
57.932667
 21
21.293726
 31
0.0
  0
LINE
  5
5D3
  8
LAYER_1
 10
57.932667
 20
21.293726
 30
0.0
 11
57.00453
 21
21.687682
 31
0.0
  0
LINE
  5
5D4
  8
LAYER_1
 10
57.00453
 20
21.687682
 30
0.0
 11
56.774262
 21
21.638014
 31
0.0
  0
LINE
  5
5D5
  8
LAYER_1
 10
56.774262
 20
21.638014
 30
0.0
 11
56.596435
 21
21.434837
 31
0.0
  0
LINE
  5
5D6
  8
LAYER_1
 10
56.596435
 20
21.434837
 30
0.0
 11
56.321094
 21
20.66774
 31
0.0
  0
LINE
  5
5D7
  8
LAYER_1
 10
56.321094
 20
20.66774
 30
0.0
 11
56.543813
 21
20.296009
 31
0.0
  0
LINE
  5
5D8
  8
LAYER_1
 10
56.543813
 20
20.296009
 30
0.0
 11
57.102728
 21
19.908659
 31
0.0
  0
LINE
  5
5D9
  8
LAYER_1
 10
57.102728
 20
19.908659
 30
0.0
 11
57.821458
 21
19.60156
 31
0.0
  0
LINE
  5
5DA
  8
LAYER_1
 10
57.821458
 20
19.60156
 30
0.0
 11
58.523624
 21
19.470582
 31
0.0
  0
LINE
  5
5DB
  8
LAYER_1
 10
58.523624
 20
19.470582
 30
0.0
 11
59.02768
 21
19.589939
 31
0.0
  0
LINE
  5
5DC
  8
LAYER_1
 10
59.02768
 20
19.589939
 30
0.0
 11
59.088068
 21
20.094281
 31
0.0
  0
LINE
  5
5DD
  8
LAYER_1
 10
59.088068
 20
20.094281
 30
0.0
 11
59.088068
 21
20.094281
 31
0.0
  0
LINE
  5
5DE
  8
LAYER_1
 10
52.068468
 20
20.720027
 30
0.0
 11
52.193455
 21
21.009658
 31
0.0
  0
LINE
  5
5DF
  8
LAYER_1
 10
52.193455
 20
21.009658
 30
0.0
 11
52.007104
 21
21.518476
 31
0.0
  0
LINE
  5
5E0
  8
LAYER_1
 10
52.007104
 20
21.518476
 30
0.0
 11
51.620056
 21
22.227481
 31
0.0
  0
LINE
  5
5E1
  8
LAYER_1
 10
51.620056
 20
22.227481
 30
0.0
 11
51.264344
 21
22.18384
 31
0.0
  0
LINE
  5
5E2
  8
LAYER_1
 10
51.264344
 20
22.18384
 30
0.0
 11
50.551201
 21
21.8785
 31
0.0
  0
LINE
  5
5E3
  8
LAYER_1
 10
50.551201
 20
21.8785
 30
0.0
 11
49.393664
 21
21.138597
 31
0.0
  0
LINE
  5
5E4
  8
LAYER_1
 10
49.393664
 20
21.138597
 30
0.0
 11
49.355055
 21
20.726081
 31
0.0
  0
LINE
  5
5E5
  8
LAYER_1
 10
49.355055
 20
20.726081
 30
0.0
 11
49.690581
 21
20.404581
 31
0.0
  0
LINE
  5
5E6
  8
LAYER_1
 10
49.690581
 20
20.404581
 30
0.0
 11
50.27042
 21
20.242658
 31
0.0
  0
LINE
  5
5E7
  8
LAYER_1
 10
50.27042
 20
20.242658
 30
0.0
 11
50.96475
 21
20.308875
 31
0.0
  0
LINE
  5
5E8
  8
LAYER_1
 10
50.96475
 20
20.308875
 30
0.0
 11
52.068468
 21
20.720027
 31
0.0
  0
LINE
  5
5E9
  8
LAYER_1
 10
52.068468
 20
20.720027
 30
0.0
 11
52.068468
 21
20.720027
 31
0.0
  0
LINE
  5
5EA
  8
LAYER_1
 10
55.752328
 20
20.870393
 30
0.0
 11
56.091134
 21
21.349344
 31
0.0
  0
LINE
  5
5EB
  8
LAYER_1
 10
56.091134
 20
21.349344
 30
0.0
 11
56.247643
 21
21.889498
 31
0.0
  0
LINE
  5
5EC
  8
LAYER_1
 10
56.247643
 20
21.889498
 30
0.0
 11
56.238496
 21
22.452308
 31
0.0
  0
LINE
  5
5ED
  8
LAYER_1
 10
56.238496
 20
22.452308
 30
0.0
 11
56.080333
 21
22.999227
 31
0.0
  0
LINE
  5
5EE
  8
LAYER_1
 10
56.080333
 20
22.999227
 30
0.0
 11
55.789795
 21
23.491708
 31
0.0
  0
LINE
  5
5EF
  8
LAYER_1
 10
55.789795
 20
23.491708
 30
0.0
 11
55.383521
 21
23.891205
 31
0.0
  0
LINE
  5
5F0
  8
LAYER_1
 10
55.383521
 20
23.891205
 30
0.0
 11
54.878153
 21
24.159171
 31
0.0
  0
LINE
  5
5F1
  8
LAYER_1
 10
54.878153
 20
24.159171
 30
0.0
 11
54.29033
 21
24.257059
 31
0.0
  0
LINE
  5
5F2
  8
LAYER_1
 10
54.29033
 20
24.257059
 30
0.0
 11
53.678984
 21
24.050604
 31
0.0
  0
LINE
  5
5F3
  8
LAYER_1
 10
53.678984
 20
24.050604
 30
0.0
 11
53.051892
 21
23.538587
 31
0.0
  0
LINE
  5
5F4
  8
LAYER_1
 10
53.051892
 20
23.538587
 30
0.0
 11
52.562852
 21
22.882034
 31
0.0
  0
LINE
  5
5F5
  8
LAYER_1
 10
52.562852
 20
22.882034
 30
0.0
 11
52.365662
 21
22.241967
 31
0.0
  0
LINE
  5
5F6
  8
LAYER_1
 10
52.365662
 20
22.241967
 30
0.0
 11
52.464278
 21
21.674821
 31
0.0
  0
LINE
  5
5F7
  8
LAYER_1
 10
52.464278
 20
21.674821
 30
0.0
 11
52.734012
 21
21.189004
 31
0.0
  0
LINE
  5
5F8
  8
LAYER_1
 10
52.734012
 20
21.189004
 30
0.0
 11
53.630151
 21
20.524813
 31
0.0
  0
LINE
  5
5F9
  8
LAYER_1
 10
53.630151
 20
20.524813
 30
0.0
 11
54.740712
 21
20.376305
 31
0.0
  0
LINE
  5
5FA
  8
LAYER_1
 10
54.740712
 20
20.376305
 30
0.0
 11
55.278474
 21
20.535093
 31
0.0
  0
LINE
  5
5FB
  8
LAYER_1
 10
55.278474
 20
20.535093
 30
0.0
 11
55.752328
 21
20.870393
 31
0.0
  0
LINE
  5
5FC
  8
LAYER_1
 10
55.752328
 20
20.870393
 30
0.0
 11
55.752328
 21
20.870393
 31
0.0
  0
LINE
  5
5FD
  8
LAYER_1
 10
59.289171
 20
22.408213
 30
0.0
 11
59.958614
 21
22.832443
 31
0.0
  0
LINE
  5
5FE
  8
LAYER_1
 10
59.958614
 20
22.832443
 30
0.0
 11
60.261893
 21
23.329603
 31
0.0
  0
LINE
  5
5FF
  8
LAYER_1
 10
60.261893
 20
23.329603
 30
0.0
 11
60.17547
 21
23.795196
 31
0.0
  0
LINE
  5
600
  8
LAYER_1
 10
60.17547
 20
23.795196
 30
0.0
 11
59.675807
 21
24.12472
 31
0.0
  0
LINE
  5
601
  8
LAYER_1
 10
59.675807
 20
24.12472
 30
0.0
 11
58.836165
 21
24.129289
 31
0.0
  0
LINE
  5
602
  8
LAYER_1
 10
58.836165
 20
24.129289
 30
0.0
 11
57.818388
 21
23.829814
 31
0.0
  0
LINE
  5
603
  8
LAYER_1
 10
57.818388
 20
23.829814
 30
0.0
 11
56.960117
 21
23.364022
 31
0.0
  0
LINE
  5
604
  8
LAYER_1
 10
56.960117
 20
23.364022
 30
0.0
 11
56.598995
 21
22.869644
 31
0.0
  0
LINE
  5
605
  8
LAYER_1
 10
56.598995
 20
22.869644
 30
0.0
 11
56.787144
 21
22.187431
 31
0.0
  0
LINE
  5
606
  8
LAYER_1
 10
56.787144
 20
22.187431
 30
0.0
 11
57.164772
 21
22.028772
 31
0.0
  0
LINE
  5
607
  8
LAYER_1
 10
57.164772
 20
22.028772
 30
0.0
 11
57.767437
 21
22.017958
 31
0.0
  0
LINE
  5
608
  8
LAYER_1
 10
57.767437
 20
22.017958
 30
0.0
 11
59.289171
 21
22.408213
 31
0.0
  0
LINE
  5
609
  8
LAYER_1
 10
59.289171
 20
22.408213
 30
0.0
 11
59.289171
 21
22.408213
 31
0.0
  0
LINE
  5
60A
  8
LAYER_1
 10
52.300429
 20
23.238813
 30
0.0
 11
52.437032
 21
23.893031
 31
0.0
  0
LINE
  5
60B
  8
LAYER_1
 10
52.437032
 20
23.893031
 30
0.0
 11
51.992951
 21
24.476374
 31
0.0
  0
LINE
  5
60C
  8
LAYER_1
 10
51.992951
 20
24.476374
 30
0.0
 11
51.029437
 21
25.116068
 31
0.0
  0
LINE
  5
60D
  8
LAYER_1
 10
51.029437
 20
25.116068
 30
0.0
 11
50.207115
 21
25.260212
 31
0.0
  0
LINE
  5
60E
  8
LAYER_1
 10
50.207115
 20
25.260212
 30
0.0
 11
49.900767
 21
25.153603
 31
0.0
  0
LINE
  5
60F
  8
LAYER_1
 10
49.900767
 20
25.153603
 30
0.0
 11
49.691958
 21
24.931687
 31
0.0
  0
LINE
  5
610
  8
LAYER_1
 10
49.691958
 20
24.931687
 30
0.0
 11
49.601433
 21
24.597324
 31
0.0
  0
LINE
  5
611
  8
LAYER_1
 10
49.601433
 20
24.597324
 30
0.0
 11
49.649939
 21
24.153374
 31
0.0
  0
LINE
  5
612
  8
LAYER_1
 10
49.649939
 20
24.153374
 30
0.0
 11
49.936155
 21
23.627565
 31
0.0
  0
LINE
  5
613
  8
LAYER_1
 10
49.936155
 20
23.627565
 30
0.0
 11
50.456542
 21
23.122747
 31
0.0
  0
LINE
  5
614
  8
LAYER_1
 10
50.456542
 20
23.122747
 30
0.0
 11
51.082483
 21
22.738656
 31
0.0
  0
LINE
  5
615
  8
LAYER_1
 10
51.082483
 20
22.738656
 30
0.0
 11
51.685359
 21
22.575026
 31
0.0
  0
LINE
  5
616
  8
LAYER_1
 10
51.685359
 20
22.575026
 30
0.0
 11
51.992871
 21
22.765353
 31
0.0
  0
LINE
  5
617
  8
LAYER_1
 10
51.992871
 20
22.765353
 30
0.0
 11
52.300429
 21
23.238813
 31
0.0
  0
LINE
  5
618
  8
LAYER_1
 10
52.300429
 20
23.238813
 30
0.0
 11
52.300429
 21
23.238813
 31
0.0
  0
LINE
  5
619
  8
LAYER_1
 10
57.741399
 20
24.726178
 30
0.0
 11
58.620304
 21
25.694319
 31
0.0
  0
LINE
  5
61A
  8
LAYER_1
 10
58.620304
 20
25.694319
 30
0.0
 11
58.800546
 21
26.490066
 31
0.0
  0
LINE
  5
61B
  8
LAYER_1
 10
58.800546
 20
26.490066
 30
0.0
 11
58.565629
 21
27.087522
 31
0.0
  0
LINE
  5
61C
  8
LAYER_1
 10
58.565629
 20
27.087522
 30
0.0
 11
57.910157
 21
27.31253
 31
0.0
  0
LINE
  5
61D
  8
LAYER_1
 10
57.910157
 20
27.31253
 30
0.0
 11
57.222456
 21
27.227541
 31
0.0
  0
LINE
  5
61E
  8
LAYER_1
 10
57.222456
 20
27.227541
 30
0.0
 11
56.526097
 21
26.845663
 31
0.0
  0
LINE
  5
61F
  8
LAYER_1
 10
56.526097
 20
26.845663
 30
0.0
 11
55.871738
 21
26.205236
 31
0.0
  0
LINE
  5
620
  8
LAYER_1
 10
55.871738
 20
26.205236
 30
0.0
 11
55.310035
 21
25.3446
 31
0.0
  0
LINE
  5
621
  8
LAYER_1
 10
55.310035
 20
25.3446
 30
0.0
 11
55.081105
 21
24.646311
 31
0.0
  0
LINE
  5
622
  8
LAYER_1
 10
55.081105
 20
24.646311
 30
0.0
 11
55.548519
 21
24.159958
 31
0.0
  0
LINE
  5
623
  8
LAYER_1
 10
55.548519
 20
24.159958
 30
0.0
 11
56.076483
 21
23.829348
 31
0.0
  0
LINE
  5
624
  8
LAYER_1
 10
56.076483
 20
23.829348
 30
0.0
 11
56.488063
 21
23.779976
 31
0.0
  0
LINE
  5
625
  8
LAYER_1
 10
56.488063
 20
23.779976
 30
0.0
 11
56.978091
 21
24.06215
 31
0.0
  0
LINE
  5
626
  8
LAYER_1
 10
56.978091
 20
24.06215
 30
0.0
 11
57.741399
 21
24.726178
 31
0.0
  0
LINE
  5
627
  8
LAYER_1
 10
57.741399
 20
24.726178
 30
0.0
 11
57.741399
 21
24.726178
 31
0.0
  0
LINE
  5
628
  8
LAYER_1
 10
53.747726
 20
24.515358
 30
0.0
 11
54.009241
 21
24.955406
 31
0.0
  0
LINE
  5
629
  8
LAYER_1
 10
54.009241
 20
24.955406
 30
0.0
 11
53.969641
 21
25.827234
 31
0.0
  0
LINE
  5
62A
  8
LAYER_1
 10
53.969641
 20
25.827234
 30
0.0
 11
53.772336
 21
26.66662
 31
0.0
  0
LINE
  5
62B
  8
LAYER_1
 10
53.772336
 20
26.66662
 30
0.0
 11
53.502913
 21
27.166088
 31
0.0
  0
LINE
  5
62C
  8
LAYER_1
 10
53.502913
 20
27.166088
 30
0.0
 11
53.152113
 21
27.335627
 31
0.0
  0
LINE
  5
62D
  8
LAYER_1
 10
53.152113
 20
27.335627
 30
0.0
 11
52.710673
 21
27.185228
 31
0.0
  0
LINE
  5
62E
  8
LAYER_1
 10
52.710673
 20
27.185228
 30
0.0
 11
52.319334
 21
26.776072
 31
0.0
  0
LINE
  5
62F
  8
LAYER_1
 10
52.319334
 20
26.776072
 30
0.0
 11
52.14784
 21
26.220341
 31
0.0
  0
LINE
  5
630
  8
LAYER_1
 10
52.14784
 20
26.220341
 30
0.0
 11
52.202973
 21
25.587321
 31
0.0
  0
LINE
  5
631
  8
LAYER_1
 10
52.202973
 20
25.587321
 30
0.0
 11
52.491513
 21
24.946297
 31
0.0
  0
LINE
  5
632
  8
LAYER_1
 10
52.491513
 20
24.946297
 30
0.0
 11
53.080535
 21
24.307905
 31
0.0
  0
LINE
  5
633
  8
LAYER_1
 10
53.080535
 20
24.307905
 30
0.0
 11
53.369178
 21
24.31797
 31
0.0
  0
LINE
  5
634
  8
LAYER_1
 10
53.369178
 20
24.31797
 30
0.0
 11
53.747726
 21
24.515358
 31
0.0
  0
LINE
  5
635
  8
LAYER_1
 10
53.747726
 20
24.515358
 30
0.0
 11
53.747726
 21
24.515358
 31
0.0
  0
LINE
  5
636
  8
LAYER_1
 10
79.192097
 20
36.659512
 30
0.0
 11
78.575519
 21
37.040386
 31
0.0
  0
LINE
  5
637
  8
LAYER_1
 10
78.575519
 20
37.040386
 30
0.0
 11
77.851542
 21
37.153401
 31
0.0
  0
LINE
  5
638
  8
LAYER_1
 10
77.851542
 20
37.153401
 30
0.0
 11
77.19201200000001
 21
37.248486
 31
0.0
  0
LINE
  5
639
  8
LAYER_1
 10
77.19201200000001
 20
37.248486
 30
0.0
 11
77.06010600000001
 21
37.944837
 31
0.0
  0
LINE
  5
63A
  8
LAYER_1
 10
77.06010600000001
 20
37.944837
 30
0.0
 11
76.91884400000001
 21
38.650606
 31
0.0
  0
LINE
  5
63B
  8
LAYER_1
 10
76.91884400000001
 20
38.650606
 30
0.0
 11
76.354551
 21
38.93443
 31
0.0
  0
LINE
  5
63C
  8
LAYER_1
 10
76.354551
 20
38.93443
 30
0.0
 11
75.81101700000001
 21
39.213385
 31
0.0
  0
LINE
  5
63D
  8
LAYER_1
 10
75.81101700000001
 20
39.213385
 30
0.0
 11
75.55762799999999
 21
39.679828
 31
0.0
  0
LINE
  5
63E
  8
LAYER_1
 10
75.55762799999999
 20
39.679828
 30
0.0
 11
75.621985
 21
40.191014
 31
0.0
  0
LINE
  5
63F
  8
LAYER_1
 10
75.621985
 20
40.191014
 30
0.0
 11
76.031688
 21
40.604197
 31
0.0
  0
LINE
  5
640
  8
LAYER_1
 10
76.031688
 20
40.604197
 30
0.0
 11
76.43894400000001
 21
40.997239
 31
0.0
  0
LINE
  5
641
  8
LAYER_1
 10
76.43894400000001
 20
40.997239
 30
0.0
 11
76.269548
 21
41.751168
 31
0.0
  0
LINE
  5
642
  8
LAYER_1
 10
76.269548
 20
41.751168
 30
0.0
 11
76.09986499999999
 21
42.532743
 31
0.0
  0
LINE
  5
643
  8
LAYER_1
 10
76.09986499999999
 20
42.532743
 30
0.0
 11
76.438732
 21
43.088862
 31
0.0
  0
LINE
  5
644
  8
LAYER_1
 10
76.438732
 20
43.088862
 30
0.0
 11
76.941406
 21
43.420114
 31
0.0
  0
LINE
  5
645
  8
LAYER_1
 10
76.941406
 20
43.420114
 30
0.0
 11
77.48800300000001
 21
43.228596
 31
0.0
  0
LINE
  5
646
  8
LAYER_1
 10
77.48800300000001
 20
43.228596
 30
0.0
 11
77.940012
 21
43.020369
 31
0.0
  0
LINE
  5
647
  8
LAYER_1
 10
77.940012
 20
43.020369
 30
0.0
 11
78.070165
 21
43.234113
 31
0.0
  0
LINE
  5
648
  8
LAYER_1
 10
78.070165
 20
43.234113
 30
0.0
 11
78.169167
 21
43.256968
 31
0.0
  0
LINE
  5
649
  8
LAYER_1
 10
78.169167
 20
43.256968
 30
0.0
 11
78.375905
 21
42.81317
 31
0.0
  0
LINE
  5
64A
  8
LAYER_1
 10
78.375905
 20
42.81317
 30
0.0
 11
78.728619
 21
42.245819
 31
0.0
  0
LINE
  5
64B
  8
LAYER_1
 10
78.728619
 20
42.245819
 30
0.0
 11
79.20029
 21
42.037059
 31
0.0
  0
LINE
  5
64C
  8
LAYER_1
 10
79.20029
 20
42.037059
 30
0.0
 11
79.631361
 21
42.234283
 31
0.0
  0
LINE
  5
64D
  8
LAYER_1
 10
79.631361
 20
42.234283
 30
0.0
 11
79.74121700000001
 21
43.00818
 31
0.0
  0
LINE
  5
64E
  8
LAYER_1
 10
79.74121700000001
 20
43.00818
 30
0.0
 11
79.669933
 21
43.699098
 31
0.0
  0
LINE
  5
64F
  8
LAYER_1
 10
79.669933
 20
43.699098
 30
0.0
 11
79.467781
 21
44.10673
 31
0.0
  0
LINE
  5
650
  8
LAYER_1
 10
79.467781
 20
44.10673
 30
0.0
 11
79.15231300000001
 21
44.213631
 31
0.0
  0
LINE
  5
651
  8
LAYER_1
 10
79.15231300000001
 20
44.213631
 30
0.0
 11
78.741078
 21
44.002356
 31
0.0
  0
LINE
  5
652
  8
LAYER_1
 10
78.741078
 20
44.002356
 30
0.0
 11
78.43775100000001
 21
43.828609
 31
0.0
  0
LINE
  5
653
  8
LAYER_1
 10
78.43775100000001
 20
43.828609
 30
0.0
 11
78.330106
 21
43.959041
 31
0.0
  0
LINE
  5
654
  8
LAYER_1
 10
78.330106
 20
43.959041
 30
0.0
 11
78.49590000000001
 21
44.223364
 31
0.0
  0
LINE
  5
655
  8
LAYER_1
 10
78.49590000000001
 20
44.223364
 30
0.0
 11
78.889605
 21
44.426433
 31
0.0
  0
LINE
  5
656
  8
LAYER_1
 10
78.889605
 20
44.426433
 30
0.0
 11
79.355707
 21
44.515423
 31
0.0
  0
LINE
  5
657
  8
LAYER_1
 10
79.355707
 20
44.515423
 30
0.0
 11
79.738691
 21
44.437509
 31
0.0
  0
LINE
  5
658
  8
LAYER_1
 10
79.738691
 20
44.437509
 30
0.0
 11
79.93979400000001
 21
44.019366
 31
0.0
  0
LINE
  5
659
  8
LAYER_1
 10
79.93979400000001
 20
44.019366
 30
0.0
 11
80.023439
 21
43.261167
 31
0.0
  0
LINE
  5
65A
  8
LAYER_1
 10
80.023439
 20
43.261167
 30
0.0
 11
80.023439
 21
42.260811
 31
0.0
  0
LINE
  5
65B
  8
LAYER_1
 10
80.023439
 20
42.260811
 30
0.0
 11
81.021039
 21
43.136713
 31
0.0
  0
LINE
  5
65C
  8
LAYER_1
 10
81.021039
 20
43.136713
 30
0.0
 11
81.717139
 21
43.669993
 31
0.0
  0
LINE
  5
65D
  8
LAYER_1
 10
81.717139
 20
43.669993
 30
0.0
 11
82.314768
 21
43.946025
 31
0.0
  0
LINE
  5
65E
  8
LAYER_1
 10
82.314768
 20
43.946025
 30
0.0
 11
82.85081
 21
43.974724
 31
0.0
  0
LINE
  5
65F
  8
LAYER_1
 10
82.85081
 20
43.974724
 30
0.0
 11
83.362151
 21
43.766003
 31
0.0
  0
LINE
  5
660
  8
LAYER_1
 10
83.362151
 20
43.766003
 30
0.0
 11
83.60215100000001
 21
43.360087
 31
0.0
  0
LINE
  5
661
  8
LAYER_1
 10
83.60215100000001
 20
43.360087
 30
0.0
 11
83.636381
 21
42.743185
 31
0.0
  0
LINE
  5
662
  8
LAYER_1
 10
83.636381
 20
42.743185
 30
0.0
 11
83.48717600000001
 21
42.150304
 31
0.0
  0
LINE
  5
663
  8
LAYER_1
 10
83.48717600000001
 20
42.150304
 30
0.0
 11
83.176869
 21
41.816449
 31
0.0
  0
LINE
  5
664
  8
LAYER_1
 10
83.176869
 20
41.816449
 30
0.0
 11
82.944098
 21
41.826789
 31
0.0
  0
LINE
  5
665
  8
LAYER_1
 10
82.944098
 20
41.826789
 30
0.0
 11
83.150854
 21
42.25119
 31
0.0
  0
LINE
  5
666
  8
LAYER_1
 10
83.150854
 20
42.25119
 30
0.0
 11
83.344932
 21
42.780448
 31
0.0
  0
LINE
  5
667
  8
LAYER_1
 10
83.344932
 20
42.780448
 30
0.0
 11
83.322394
 21
43.269673
 31
0.0
  0
LINE
  5
668
  8
LAYER_1
 10
83.322394
 20
43.269673
 30
0.0
 11
82.989362
 21
43.644918
 31
0.0
  0
LINE
  5
669
  8
LAYER_1
 10
82.989362
 20
43.644918
 30
0.0
 11
82.456645
 21
43.693447
 31
0.0
  0
LINE
  5
66A
  8
LAYER_1
 10
82.456645
 20
43.693447
 30
0.0
 11
81.798586
 21
43.428757
 31
0.0
  0
LINE
  5
66B
  8
LAYER_1
 10
81.798586
 20
43.428757
 30
0.0
 11
81.089525
 21
42.864343
 31
0.0
  0
LINE
  5
66C
  8
LAYER_1
 10
81.089525
 20
42.864343
 30
0.0
 11
80.428624
 21
42.062328
 31
0.0
  0
LINE
  5
66D
  8
LAYER_1
 10
80.428624
 20
42.062328
 30
0.0
 11
80.453948
 21
41.814637
 31
0.0
  0
LINE
  5
66E
  8
LAYER_1
 10
80.453948
 20
41.814637
 30
0.0
 11
80.67747799999999
 21
41.544291
 31
0.0
  0
LINE
  5
66F
  8
LAYER_1
 10
80.67747799999999
 20
41.544291
 30
0.0
 11
81.180617
 21
41.241927
 31
0.0
  0
LINE
  5
670
  8
LAYER_1
 10
81.180617
 20
41.241927
 30
0.0
 11
81.83672799999999
 21
41.411624
 31
0.0
  0
LINE
  5
671
  8
LAYER_1
 10
81.83672799999999
 20
41.411624
 30
0.0
 11
82.533472
 21
41.544394
 31
0.0
  0
LINE
  5
672
  8
LAYER_1
 10
82.533472
 20
41.544394
 30
0.0
 11
83.329961
 21
41.462517
 31
0.0
  0
LINE
  5
673
  8
LAYER_1
 10
83.329961
 20
41.462517
 30
0.0
 11
83.98484500000001
 21
41.219945
 31
0.0
  0
LINE
  5
674
  8
LAYER_1
 10
83.98484500000001
 20
41.219945
 30
0.0
 11
84.256773
 21
40.870632
 31
0.0
  0
LINE
  5
675
  8
LAYER_1
 10
84.256773
 20
40.870632
 30
0.0
 11
84.08944200000001
 21
40.771831
 31
0.0
  0
LINE
  5
676
  8
LAYER_1
 10
84.08944200000001
 20
40.771831
 30
0.0
 11
83.675776
 21
40.917029
 31
0.0
  0
LINE
  5
677
  8
LAYER_1
 10
83.675776
 20
40.917029
 30
0.0
 11
82.97071800000001
 21
41.108614
 31
0.0
  0
LINE
  5
678
  8
LAYER_1
 10
82.97071800000001
 20
41.108614
 30
0.0
 11
82.23972600000001
 21
41.040644
 31
0.0
  0
LINE
  5
679
  8
LAYER_1
 10
82.23972600000001
 20
41.040644
 30
0.0
 11
81.666453
 21
40.761935
 31
0.0
  0
LINE
  5
67A
  8
LAYER_1
 10
81.666453
 20
40.761935
 30
0.0
 11
81.434551
 21
40.321301
 31
0.0
  0
LINE
  5
67B
  8
LAYER_1
 10
81.434551
 20
40.321301
 30
0.0
 11
81.479846
 21
40.051215
 31
0.0
  0
LINE
  5
67C
  8
LAYER_1
 10
81.479846
 20
40.051215
 30
0.0
 11
81.64470799999999
 21
39.885496
 31
0.0
  0
LINE
  5
67D
  8
LAYER_1
 10
81.64470799999999
 20
39.885496
 30
0.0
 11
82.506995
 21
39.779281
 31
0.0
  0
LINE
  5
67E
  8
LAYER_1
 10
82.506995
 20
39.779281
 30
0.0
 11
83.36389200000001
 21
39.878765
 31
0.0
  0
LINE
  5
67F
  8
LAYER_1
 10
83.36389200000001
 20
39.878765
 30
0.0
 11
83.918106
 21
40.117948
 31
0.0
  0
LINE
  5
680
  8
LAYER_1
 10
83.918106
 20
40.117948
 30
0.0
 11
84.186217
 21
40.314034
 31
0.0
  0
LINE
  5
681
  8
LAYER_1
 10
84.186217
 20
40.314034
 30
0.0
 11
84.256773
 21
40.110893
 31
0.0
  0
LINE
  5
682
  8
LAYER_1
 10
84.256773
 20
40.110893
 30
0.0
 11
84.01043900000001
 21
39.81746
 31
0.0
  0
LINE
  5
683
  8
LAYER_1
 10
84.01043900000001
 20
39.81746
 30
0.0
 11
83.41819200000001
 21
39.597454
 31
0.0
  0
LINE
  5
684
  8
LAYER_1
 10
83.41819200000001
 20
39.597454
 30
0.0
 11
82.78505800000001
 21
39.366128
 31
0.0
  0
LINE
  5
685
  8
LAYER_1
 10
82.78505800000001
 20
39.366128
 30
0.0
 11
82.853747
 21
38.917507
 31
0.0
  0
LINE
  5
686
  8
LAYER_1
 10
82.853747
 20
38.917507
 30
0.0
 11
83.103717
 21
38.085165
 31
0.0
  0
LINE
  5
687
  8
LAYER_1
 10
83.103717
 20
38.085165
 30
0.0
 11
82.90607900000001
 21
37.542756
 31
0.0
  0
LINE
  5
688
  8
LAYER_1
 10
82.90607900000001
 20
37.542756
 30
0.0
 11
82.35905700000001
 21
37.382909
 31
0.0
  0
LINE
  5
689
  8
LAYER_1
 10
82.35905700000001
 20
37.382909
 30
0.0
 11
81.560873
 21
37.698257
 31
0.0
  0
LINE
  5
68A
  8
LAYER_1
 10
81.560873
 20
37.698257
 30
0.0
 11
80.965316
 21
37.994538
 31
0.0
  0
LINE
  5
68B
  8
LAYER_1
 10
80.965316
 20
37.994538
 30
0.0
 11
80.87010600000001
 21
37.469295
 31
0.0
  0
LINE
  5
68C
  8
LAYER_1
 10
80.87010600000001
 20
37.469295
 30
0.0
 11
80.585374
 21
36.538826
 31
0.0
  0
LINE
  5
68D
  8
LAYER_1
 10
80.585374
 20
36.538826
 30
0.0
 11
80.295782
 21
36.22859
 31
0.0
  0
LINE
  5
68E
  8
LAYER_1
 10
80.295782
 20
36.22859
 30
0.0
 11
79.966995
 21
36.110393
 31
0.0
  0
LINE
  5
68F
  8
LAYER_1
 10
79.966995
 20
36.110393
 30
0.0
 11
79.192097
 21
36.659512
 31
0.0
  0
LINE
  5
690
  8
LAYER_1
 10
79.192097
 20
36.659512
 30
0.0
 11
79.192097
 21
36.659512
 31
0.0
  0
LINE
  5
691
  8
LAYER_1
 10
80.535049
 20
37.176273
 30
0.0
 11
80.50943700000001
 21
37.738711
 31
0.0
  0
LINE
  5
692
  8
LAYER_1
 10
80.50943700000001
 20
37.738711
 30
0.0
 11
80.323724
 21
38.310452
 31
0.0
  0
LINE
  5
693
  8
LAYER_1
 10
80.323724
 20
38.310452
 30
0.0
 11
80.04122099999999
 21
38.75419
 31
0.0
  0
LINE
  5
694
  8
LAYER_1
 10
80.04122099999999
 20
38.75419
 30
0.0
 11
79.725238
 21
38.932615
 31
0.0
  0
LINE
  5
695
  8
LAYER_1
 10
79.725238
 20
38.932615
 30
0.0
 11
79.434378
 21
38.725695
 31
0.0
  0
LINE
  5
696
  8
LAYER_1
 10
79.434378
 20
38.725695
 30
0.0
 11
79.125945
 21
38.228205
 31
0.0
  0
LINE
  5
697
  8
LAYER_1
 10
79.125945
 20
38.228205
 30
0.0
 11
78.964027
 21
37.548808
 31
0.0
  0
LINE
  5
698
  8
LAYER_1
 10
78.964027
 20
37.548808
 30
0.0
 11
79.32306
 21
36.951339
 31
0.0
  0
LINE
  5
699
  8
LAYER_1
 10
79.32306
 20
36.951339
 30
0.0
 11
79.75639200000001
 21
36.582657
 31
0.0
  0
LINE
  5
69A
  8
LAYER_1
 10
79.75639200000001
 20
36.582657
 30
0.0
 11
80.115629
 21
36.499627
 31
0.0
  0
LINE
  5
69B
  8
LAYER_1
 10
80.115629
 20
36.499627
 30
0.0
 11
80.381579
 21
36.698686
 31
0.0
  0
LINE
  5
69C
  8
LAYER_1
 10
80.381579
 20
36.698686
 30
0.0
 11
80.535049
 21
37.176273
 31
0.0
  0
LINE
  5
69D
  8
LAYER_1
 10
80.535049
 20
37.176273
 30
0.0
 11
80.535049
 21
37.176273
 31
0.0
  0
LINE
  5
69E
  8
LAYER_1
 10
78.512952
 20
37.968922
 30
0.0
 11
78.832122
 21
38.612552
 31
0.0
  0
LINE
  5
69F
  8
LAYER_1
 10
78.832122
 20
38.612552
 30
0.0
 11
78.590013
 21
38.952379
 31
0.0
  0
LINE
  5
6A0
  8
LAYER_1
 10
78.590013
 20
38.952379
 30
0.0
 11
77.987257
 21
39.210516
 31
0.0
  0
LINE
  5
6A1
  8
LAYER_1
 10
77.987257
 20
39.210516
 30
0.0
 11
77.714437
 21
39.027968
 31
0.0
  0
LINE
  5
6A2
  8
LAYER_1
 10
77.714437
 20
39.027968
 30
0.0
 11
77.46011
 21
38.587394
 31
0.0
  0
LINE
  5
6A3
  8
LAYER_1
 10
77.46011
 20
38.587394
 30
0.0
 11
77.300476
 21
38.065893
 31
0.0
  0
LINE
  5
6A4
  8
LAYER_1
 10
77.300476
 20
38.065893
 30
0.0
 11
77.31173800000001
 21
37.640562
 31
0.0
  0
LINE
  5
6A5
  8
LAYER_1
 10
77.31173800000001
 20
37.640562
 30
0.0
 11
77.522312
 21
37.322555
 31
0.0
  0
LINE
  5
6A6
  8
LAYER_1
 10
77.522312
 20
37.322555
 30
0.0
 11
77.799453
 21
37.273124
 31
0.0
  0
LINE
  5
6A7
  8
LAYER_1
 10
77.799453
 20
37.273124
 30
0.0
 11
78.13303999999999
 21
37.489502
 31
0.0
  0
LINE
  5
6A8
  8
LAYER_1
 10
78.13303999999999
 20
37.489502
 30
0.0
 11
78.512952
 21
37.968922
 31
0.0
  0
LINE
  5
6A9
  8
LAYER_1
 10
78.512952
 20
37.968922
 30
0.0
 11
78.512952
 21
37.968922
 31
0.0
  0
LINE
  5
6AA
  8
LAYER_1
 10
82.845662
 20
38.085948
 30
0.0
 11
82.663765
 21
38.513152
 31
0.0
  0
LINE
  5
6AB
  8
LAYER_1
 10
82.663765
 20
38.513152
 30
0.0
 11
82.219493
 21
38.975253
 31
0.0
  0
LINE
  5
6AC
  8
LAYER_1
 10
82.219493
 20
38.975253
 30
0.0
 11
81.66497200000001
 21
39.345479
 31
0.0
  0
LINE
  5
6AD
  8
LAYER_1
 10
81.66497200000001
 20
39.345479
 30
0.0
 11
81.152328
 21
39.497059
 31
0.0
  0
LINE
  5
6AE
  8
LAYER_1
 10
81.152328
 20
39.497059
 30
0.0
 11
80.75368899999999
 21
39.414156
 31
0.0
  0
LINE
  5
6AF
  8
LAYER_1
 10
80.75368899999999
 20
39.414156
 30
0.0
 11
80.587884
 21
39.214837
 31
0.0
  0
LINE
  5
6B0
  8
LAYER_1
 10
80.587884
 20
39.214837
 30
0.0
 11
80.76978
 21
38.787633
 31
0.0
  0
LINE
  5
6B1
  8
LAYER_1
 10
80.76978
 20
38.787633
 30
0.0
 11
81.214052
 21
38.325533
 31
0.0
  0
LINE
  5
6B2
  8
LAYER_1
 10
81.214052
 20
38.325533
 30
0.0
 11
81.768573
 21
37.955306
 31
0.0
  0
LINE
  5
6B3
  8
LAYER_1
 10
81.768573
 20
37.955306
 30
0.0
 11
82.281217
 21
37.803726
 31
0.0
  0
LINE
  5
6B4
  8
LAYER_1
 10
82.281217
 20
37.803726
 30
0.0
 11
82.679856
 21
37.886629
 31
0.0
  0
LINE
  5
6B5
  8
LAYER_1
 10
82.679856
 20
37.886629
 30
0.0
 11
82.845662
 21
38.085948
 31
0.0
  0
LINE
  5
6B6
  8
LAYER_1
 10
82.845662
 20
38.085948
 30
0.0
 11
82.845662
 21
38.085948
 31
0.0
  0
LINE
  5
6B7
  8
LAYER_1
 10
77.454009
 20
39.472898
 30
0.0
 11
77.685138
 21
39.787657
 31
0.0
  0
LINE
  5
6B8
  8
LAYER_1
 10
77.685138
 20
39.787657
 30
0.0
 11
77.66304599999999
 21
40.204065
 31
0.0
  0
LINE
  5
6B9
  8
LAYER_1
 10
77.66304599999999
 20
40.204065
 30
0.0
 11
77.351586
 21
40.540345
 31
0.0
  0
LINE
  5
6BA
  8
LAYER_1
 10
77.351586
 20
40.540345
 30
0.0
 11
76.705277
 21
40.491833
 31
0.0
  0
LINE
  5
6BB
  8
LAYER_1
 10
76.705277
 20
40.491833
 30
0.0
 11
75.857477
 21
40.181998
 31
0.0
  0
LINE
  5
6BC
  8
LAYER_1
 10
75.857477
 20
40.181998
 30
0.0
 11
75.792648
 21
39.974653
 31
0.0
  0
LINE
  5
6BD
  8
LAYER_1
 10
75.792648
 20
39.974653
 30
0.0
 11
75.887495
 21
39.650343
 31
0.0
  0
LINE
  5
6BE
  8
LAYER_1
 10
75.887495
 20
39.650343
 30
0.0
 11
76.123487
 21
39.365728
 31
0.0
  0
LINE
  5
6BF
  8
LAYER_1
 10
76.123487
 20
39.365728
 30
0.0
 11
76.50940900000001
 21
39.236052
 31
0.0
  0
LINE
  5
6C0
  8
LAYER_1
 10
76.50940900000001
 20
39.236052
 30
0.0
 11
76.97600300000001
 21
39.26916
 31
0.0
  0
LINE
  5
6C1
  8
LAYER_1
 10
76.97600300000001
 20
39.26916
 30
0.0
 11
77.454009
 21
39.472898
 31
0.0
  0
LINE
  5
6C2
  8
LAYER_1
 10
77.454009
 20
39.472898
 30
0.0
 11
77.454009
 21
39.472898
 31
0.0
  0
LINE
  5
6C3
  8
LAYER_1
 10
80.461722
 20
39.795803
 30
0.0
 11
80.746228
 21
40.256795
 31
0.0
  0
LINE
  5
6C4
  8
LAYER_1
 10
80.746228
 20
40.256795
 30
0.0
 11
80.756708
 21
40.707962
 31
0.0
  0
LINE
  5
6C5
  8
LAYER_1
 10
80.756708
 20
40.707962
 30
0.0
 11
80.49325
 21
41.148997
 31
0.0
  0
LINE
  5
6C6
  8
LAYER_1
 10
80.49325
 20
41.148997
 30
0.0
 11
79.95594
 21
41.579597
 31
0.0
  0
LINE
  5
6C7
  8
LAYER_1
 10
79.95594
 20
41.579597
 30
0.0
 11
79.356224
 21
41.721942
 31
0.0
  0
LINE
  5
6C8
  8
LAYER_1
 10
79.356224
 20
41.721942
 30
0.0
 11
78.73383800000001
 21
41.531435
 31
0.0
  0
LINE
  5
6C9
  8
LAYER_1
 10
78.73383800000001
 20
41.531435
 30
0.0
 11
78.24549
 21
41.096337
 31
0.0
  0
LINE
  5
6CA
  8
LAYER_1
 10
78.24549
 20
41.096337
 30
0.0
 11
78.047884
 21
40.504912
 31
0.0
  0
LINE
  5
6CB
  8
LAYER_1
 10
78.047884
 20
40.504912
 30
0.0
 11
78.299773
 21
39.730008
 31
0.0
  0
LINE
  5
6CC
  8
LAYER_1
 10
78.299773
 20
39.730008
 30
0.0
 11
78.92074100000001
 21
39.313951
 31
0.0
  0
LINE
  5
6CD
  8
LAYER_1
 10
78.92074100000001
 20
39.313951
 30
0.0
 11
79.70874000000001
 21
39.316097
 31
0.0
  0
LINE
  5
6CE
  8
LAYER_1
 10
79.70874000000001
 20
39.316097
 30
0.0
 11
80.461722
 21
39.795803
 31
0.0
  0
LINE
  5
6CF
  8
LAYER_1
 10
80.461722
 20
39.795803
 30
0.0
 11
80.461722
 21
39.795803
 31
0.0
  0
LINE
  5
6D0
  8
LAYER_1
 10
77.981469
 20
41.471142
 30
0.0
 11
78.16591699999999
 21
42.033481
 31
0.0
  0
LINE
  5
6D1
  8
LAYER_1
 10
78.16591699999999
 20
42.033481
 30
0.0
 11
77.77353599999999
 21
42.59363
 31
0.0
  0
LINE
  5
6D2
  8
LAYER_1
 10
77.77353599999999
 20
42.59363
 30
0.0
 11
77.040256
 21
43.010281
 31
0.0
  0
LINE
  5
6D3
  8
LAYER_1
 10
77.040256
 20
43.010281
 30
0.0
 11
76.745822
 21
42.977948
 31
0.0
  0
LINE
  5
6D4
  8
LAYER_1
 10
76.745822
 20
42.977948
 30
0.0
 11
76.527056
 21
42.818997
 31
0.0
  0
LINE
  5
6D5
  8
LAYER_1
 10
76.527056
 20
42.818997
 30
0.0
 11
76.399117
 21
42.222692
 31
0.0
  0
LINE
  5
6D6
  8
LAYER_1
 10
76.399117
 20
42.222692
 30
0.0
 11
76.821625
 21
41.424281
 31
0.0
  0
LINE
  5
6D7
  8
LAYER_1
 10
76.821625
 20
41.424281
 30
0.0
 11
77.190911
 21
41.058996
 31
0.0
  0
LINE
  5
6D8
  8
LAYER_1
 10
77.190911
 20
41.058996
 30
0.0
 11
77.46044999999999
 21
40.943151
 31
0.0
  0
LINE
  5
6D9
  8
LAYER_1
 10
77.46044999999999
 20
40.943151
 30
0.0
 11
77.700537
 21
41.079586
 31
0.0
  0
LINE
  5
6DA
  8
LAYER_1
 10
77.700537
 20
41.079586
 30
0.0
 11
77.981469
 21
41.471142
 31
0.0
  0
LINE
  5
6DB
  8
LAYER_1
 10
77.981469
 20
41.471142
 30
0.0
 11
77.981469
 21
41.471142
 31
0.0
  0
LINE
  5
6DC
  8
LAYER_1
 10
118.415455
 20
40.268669
 30
0.0
 11
117.556836
 21
40.980919
 31
0.0
  0
LINE
  5
6DD
  8
LAYER_1
 10
117.556836
 20
40.980919
 30
0.0
 11
117.122831
 21
41.3714
 31
0.0
  0
LINE
  5
6DE
  8
LAYER_1
 10
117.122831
 20
41.3714
 30
0.0
 11
116.736376
 21
41.078257
 31
0.0
  0
LINE
  5
6DF
  8
LAYER_1
 10
116.736376
 20
41.078257
 30
0.0
 11
116.386701
 21
40.769964
 31
0.0
  0
LINE
  5
6E0
  8
LAYER_1
 10
116.386701
 20
40.769964
 30
0.0
 11
116.022858
 21
40.638364
 31
0.0
  0
LINE
  5
6E1
  8
LAYER_1
 10
116.022858
 20
40.638364
 30
0.0
 11
115.350497
 21
40.829253
 31
0.0
  0
LINE
  5
6E2
  8
LAYER_1
 10
115.350497
 20
40.829253
 30
0.0
 11
114.914957
 21
41.498942
 31
0.0
  0
LINE
  5
6E3
  8
LAYER_1
 10
114.914957
 20
41.498942
 30
0.0
 11
114.9119
 21
42.495447
 31
0.0
  0
LINE
  5
6E4
  8
LAYER_1
 10
114.9119
 20
42.495447
 30
0.0
 11
114.958547
 21
43.107521
 31
0.0
  0
LINE
  5
6E5
  8
LAYER_1
 10
114.958547
 20
43.107521
 30
0.0
 11
114.330285
 21
43.054284
 31
0.0
  0
LINE
  5
6E6
  8
LAYER_1
 10
114.330285
 20
43.054284
 30
0.0
 11
113.019439
 21
43.032454
 31
0.0
  0
LINE
  5
6E7
  8
LAYER_1
 10
113.019439
 20
43.032454
 30
0.0
 11
112.590392
 21
43.370748
 31
0.0
  0
LINE
  5
6E8
  8
LAYER_1
 10
112.590392
 20
43.370748
 30
0.0
 11
112.482587
 21
43.912236
 31
0.0
  0
LINE
  5
6E9
  8
LAYER_1
 10
112.482587
 20
43.912236
 30
0.0
 11
112.684127
 21
44.512072
 31
0.0
  0
LINE
  5
6EA
  8
LAYER_1
 10
112.684127
 20
44.512072
 30
0.0
 11
113.183117
 21
45.025406
 31
0.0
  0
LINE
  5
6EB
  8
LAYER_1
 10
113.183117
 20
45.025406
 30
0.0
 11
113.887239
 21
45.486763
 31
0.0
  0
LINE
  5
6EC
  8
LAYER_1
 10
113.887239
 20
45.486763
 30
0.0
 11
113.183117
 21
46.323566
 31
0.0
  0
LINE
  5
6ED
  8
LAYER_1
 10
113.183117
 20
46.323566
 30
0.0
 11
112.524563
 21
47.351277
 31
0.0
  0
LINE
  5
6EE
  8
LAYER_1
 10
112.524563
 20
47.351277
 30
0.0
 11
112.549437
 21
47.765263
 31
0.0
  0
LINE
  5
6EF
  8
LAYER_1
 10
112.549437
 20
47.765263
 30
0.0
 11
112.776643
 21
48.274772
 31
0.0
  0
LINE
  5
6F0
  8
LAYER_1
 10
112.776643
 20
48.274772
 30
0.0
 11
113.018623
 21
48.538726
 31
0.0
  0
LINE
  5
6F1
  8
LAYER_1
 10
113.018623
 20
48.538726
 30
0.0
 11
113.384999
 21
48.711795
 31
0.0
  0
LINE
  5
6F2
  8
LAYER_1
 10
113.384999
 20
48.711795
 30
0.0
 11
114.327575
 21
48.79833
 31
0.0
  0
LINE
  5
6F3
  8
LAYER_1
 10
114.327575
 20
48.79833
 30
0.0
 11
115.277641
 21
48.560498
 31
0.0
  0
LINE
  5
6F4
  8
LAYER_1
 10
115.277641
 20
48.560498
 30
0.0
 11
115.908469
 21
48.024415
 31
0.0
  0
LINE
  5
6F5
  8
LAYER_1
 10
115.908469
 20
48.024415
 30
0.0
 11
116.267499
 21
47.605849
 31
0.0
  0
LINE
  5
6F6
  8
LAYER_1
 10
116.267499
 20
47.605849
 30
0.0
 11
116.64727
 21
47.530526
 31
0.0
  0
LINE
  5
6F7
  8
LAYER_1
 10
116.64727
 20
47.530526
 30
0.0
 11
117.299856
 21
47.681504
 31
0.0
  0
LINE
  5
6F8
  8
LAYER_1
 10
117.299856
 20
47.681504
 30
0.0
 11
117.492343
 21
47.83129
 31
0.0
  0
LINE
  5
6F9
  8
LAYER_1
 10
117.492343
 20
47.83129
 30
0.0
 11
117.547045
 21
48.242053
 31
0.0
  0
LINE
  5
6FA
  8
LAYER_1
 10
117.547045
 20
48.242053
 30
0.0
 11
117.249163
 21
49.614946
 31
0.0
  0
LINE
  5
6FB
  8
LAYER_1
 10
117.249163
 20
49.614946
 30
0.0
 11
116.88753
 21
50.236266
 31
0.0
  0
LINE
  5
6FC
  8
LAYER_1
 10
116.88753
 20
50.236266
 30
0.0
 11
116.424614
 21
50.495812
 31
0.0
  0
LINE
  5
6FD
  8
LAYER_1
 10
116.424614
 20
50.495812
 30
0.0
 11
115.95974
 21
50.378369
 31
0.0
  0
LINE
  5
6FE
  8
LAYER_1
 10
115.95974
 20
50.378369
 30
0.0
 11
115.592233
 21
49.868726
 31
0.0
  0
LINE
  5
6FF
  8
LAYER_1
 10
115.592233
 20
49.868726
 30
0.0
 11
115.367645
 21
49.393826
 31
0.0
  0
LINE
  5
700
  8
LAYER_1
 10
115.367645
 20
49.393826
 30
0.0
 11
115.319107
 21
49.838531
 31
0.0
  0
LINE
  5
701
  8
LAYER_1
 10
115.319107
 20
49.838531
 30
0.0
 11
115.399338
 21
50.249724
 31
0.0
  0
LINE
  5
702
  8
LAYER_1
 10
115.399338
 20
50.249724
 30
0.0
 11
115.665501
 21
50.546159
 31
0.0
  0
LINE
  5
703
  8
LAYER_1
 10
115.665501
 20
50.546159
 30
0.0
 11
116.11429
 21
50.725634
 31
0.0
  0
LINE
  5
704
  8
LAYER_1
 10
116.11429
 20
50.725634
 30
0.0
 11
116.742396
 21
50.785948
 31
0.0
  0
LINE
  5
705
  8
LAYER_1
 10
116.742396
 20
50.785948
 30
0.0
 11
117.166756
 21
50.614747
 31
0.0
  0
LINE
  5
706
  8
LAYER_1
 10
117.166756
 20
50.614747
 30
0.0
 11
117.515831
 21
50.145612
 31
0.0
  0
LINE
  5
707
  8
LAYER_1
 10
117.515831
 20
50.145612
 30
0.0
 11
117.756012
 21
49.445246
 31
0.0
  0
LINE
  5
708
  8
LAYER_1
 10
117.756012
 20
49.445246
 30
0.0
 11
117.853691
 21
48.580353
 31
0.0
  0
LINE
  5
709
  8
LAYER_1
 10
117.853691
 20
48.580353
 30
0.0
 11
117.940747
 21
48.072306
 31
0.0
  0
LINE
  5
70A
  8
LAYER_1
 10
117.940747
 20
48.072306
 30
0.0
 11
118.415844
 21
48.86334
 31
0.0
  0
LINE
  5
70B
  8
LAYER_1
 10
118.415844
 20
48.86334
 30
0.0
 11
118.914745
 21
49.633221
 31
0.0
  0
LINE
  5
70C
  8
LAYER_1
 10
118.914745
 20
49.633221
 30
0.0
 11
119.492365
 21
50.242148
 31
0.0
  0
LINE
  5
70D
  8
LAYER_1
 10
119.492365
 20
50.242148
 30
0.0
 11
120.091683
 21
50.641283
 31
0.0
  0
LINE
  5
70E
  8
LAYER_1
 10
120.091683
 20
50.641283
 30
0.0
 11
120.655681
 21
50.781788
 31
0.0
  0
LINE
  5
70F
  8
LAYER_1
 10
120.655681
 20
50.781788
 30
0.0
 11
120.766812
 21
50.67877
 31
0.0
  0
LINE
  5
710
  8
LAYER_1
 10
120.766812
 20
50.67877
 30
0.0
 11
120.38969
 21
50.424898
 31
0.0
  0
LINE
  5
711
  8
LAYER_1
 10
120.38969
 20
50.424898
 30
0.0
 11
119.807412
 21
49.968203
 31
0.0
  0
LINE
  5
712
  8
LAYER_1
 10
119.807412
 20
49.968203
 30
0.0
 11
119.155655
 21
49.246102
 31
0.0
  0
LINE
  5
713
  8
LAYER_1
 10
119.155655
 20
49.246102
 30
0.0
 11
118.624908
 21
48.495787
 31
0.0
  0
LINE
  5
714
  8
LAYER_1
 10
118.624908
 20
48.495787
 30
0.0
 11
118.405662
 21
47.954449
 31
0.0
  0
LINE
  5
715
  8
LAYER_1
 10
118.405662
 20
47.954449
 30
0.0
 11
119.070126
 21
47.311048
 31
0.0
  0
LINE
  5
716
  8
LAYER_1
 10
119.070126
 20
47.311048
 30
0.0
 11
119.767536
 21
47.027665
 31
0.0
  0
LINE
  5
717
  8
LAYER_1
 10
119.767536
 20
47.027665
 30
0.0
 11
120.608646
 21
47.40722
 31
0.0
  0
LINE
  5
718
  8
LAYER_1
 10
120.608646
 20
47.40722
 30
0.0
 11
121.577054
 21
48.279987
 31
0.0
  0
LINE
  5
719
  8
LAYER_1
 10
121.577054
 20
48.279987
 30
0.0
 11
122.118339
 21
49.294404
 31
0.0
  0
LINE
  5
71A
  8
LAYER_1
 10
122.118339
 20
49.294404
 30
0.0
 11
122.140233
 21
50.144926
 31
0.0
  0
LINE
  5
71B
  8
LAYER_1
 10
122.140233
 20
50.144926
 30
0.0
 11
121.927574
 21
50.413244
 31
0.0
  0
LINE
  5
71C
  8
LAYER_1
 10
121.927574
 20
50.413244
 30
0.0
 11
121.550467
 21
50.526007
 31
0.0
  0
LINE
  5
71D
  8
LAYER_1
 10
121.550467
 20
50.526007
 30
0.0
 11
121.294453
 21
50.579273
 31
0.0
  0
LINE
  5
71E
  8
LAYER_1
 10
121.294453
 20
50.579273
 30
0.0
 11
121.449039
 21
50.6938
 31
0.0
  0
LINE
  5
71F
  8
LAYER_1
 10
121.449039
 20
50.6938
 30
0.0
 11
121.845517
 21
50.70139
 31
0.0
  0
LINE
  5
720
  8
LAYER_1
 10
121.845517
 20
50.70139
 30
0.0
 11
122.23117
 21
50.473588
 31
0.0
  0
LINE
  5
721
  8
LAYER_1
 10
122.23117
 20
50.473588
 30
0.0
 11
122.523247
 21
50.085586
 31
0.0
  0
LINE
  5
722
  8
LAYER_1
 10
122.523247
 20
50.085586
 30
0.0
 11
122.638995
 21
49.612573
 31
0.0
  0
LINE
  5
723
  8
LAYER_1
 10
122.638995
 20
49.612573
 30
0.0
 11
122.505107
 21
49.026988
 31
0.0
  0
LINE
  5
724
  8
LAYER_1
 10
122.505107
 20
49.026988
 30
0.0
 11
122.183203
 21
48.377131
 31
0.0
  0
LINE
  5
725
  8
LAYER_1
 10
122.183203
 20
48.377131
 30
0.0
 11
121.896758
 21
47.772096
 31
0.0
  0
LINE
  5
726
  8
LAYER_1
 10
121.896758
 20
47.772096
 30
0.0
 11
122.571981
 21
47.681504
 31
0.0
  0
LINE
  5
727
  8
LAYER_1
 10
122.571981
 20
47.681504
 30
0.0
 11
123.553389
 21
47.437304
 31
0.0
  0
LINE
  5
728
  8
LAYER_1
 10
123.553389
 20
47.437304
 30
0.0
 11
123.843342
 21
47.170939
 31
0.0
  0
LINE
  5
729
  8
LAYER_1
 10
123.843342
 20
47.170939
 30
0.0
 11
123.991951
 21
46.842964
 31
0.0
  0
LINE
  5
72A
  8
LAYER_1
 10
123.991951
 20
46.842964
 30
0.0
 11
123.993586
 21
46.479301
 31
0.0
  0
LINE
  5
72B
  8
LAYER_1
 10
123.993586
 20
46.479301
 30
0.0
 11
123.842616
 21
46.105875
 31
0.0
  0
LINE
  5
72C
  8
LAYER_1
 10
123.842616
 20
46.105875
 30
0.0
 11
123.06033
 21
45.433426
 31
0.0
  0
LINE
  5
72D
  8
LAYER_1
 10
123.06033
 20
45.433426
 30
0.0
 11
122.116319
 21
44.948088
 31
0.0
  0
LINE
  5
72E
  8
LAYER_1
 10
122.116319
 20
44.948088
 30
0.0
 11
122.469097
 21
44.250291
 31
0.0
  0
LINE
  5
72F
  8
LAYER_1
 10
122.469097
 20
44.250291
 30
0.0
 11
122.920049
 21
43.261706
 31
0.0
  0
LINE
  5
730
  8
LAYER_1
 10
122.920049
 20
43.261706
 30
0.0
 11
122.920275
 21
42.86947
 31
0.0
  0
LINE
  5
731
  8
LAYER_1
 10
122.920275
 20
42.86947
 30
0.0
 11
122.783103
 21
42.561739
 31
0.0
  0
LINE
  5
732
  8
LAYER_1
 10
122.783103
 20
42.561739
 30
0.0
 11
122.518112
 21
42.350864
 31
0.0
  0
LINE
  5
733
  8
LAYER_1
 10
122.518112
 20
42.350864
 30
0.0
 11
122.134878
 21
42.249195
 31
0.0
  0
LINE
  5
734
  8
LAYER_1
 10
122.134878
 20
42.249195
 30
0.0
 11
121.051995
 21
42.422877
 31
0.0
  0
LINE
  5
735
  8
LAYER_1
 10
121.051995
 20
42.422877
 30
0.0
 11
119.949832
 21
42.811742
 31
0.0
  0
LINE
  5
736
  8
LAYER_1
 10
119.949832
 20
42.811742
 30
0.0
 11
120.057263
 21
41.685247
 31
0.0
  0
LINE
  5
737
  8
LAYER_1
 10
120.057263
 20
41.685247
 30
0.0
 11
120.027453
 21
40.804385
 31
0.0
  0
LINE
  5
738
  8
LAYER_1
 10
120.027453
 20
40.804385
 30
0.0
 11
119.740484
 21
40.271737
 31
0.0
  0
LINE
  5
739
  8
LAYER_1
 10
119.740484
 20
40.271737
 30
0.0
 11
119.201453
 21
40.0917
 31
0.0
  0
LINE
  5
73A
  8
LAYER_1
 10
119.201453
 20
40.0917
 30
0.0
 11
118.415455
 21
40.268669
 31
0.0
  0
LINE
  5
73B
  8
LAYER_1
 10
118.415455
 20
40.268669
 30
0.0
 11
118.415455
 21
40.268669
 31
0.0
  0
LINE
  5
73C
  8
LAYER_1
 10
119.715277
 20
41.706501
 30
0.0
 11
119.504594
 21
42.523459
 31
0.0
  0
LINE
  5
73D
  8
LAYER_1
 10
119.504594
 20
42.523459
 30
0.0
 11
119.184539
 21
43.032342
 31
0.0
  0
LINE
  5
73E
  8
LAYER_1
 10
119.184539
 20
43.032342
 30
0.0
 11
118.749532
 21
43.238434
 31
0.0
  0
LINE
  5
73F
  8
LAYER_1
 10
118.749532
 20
43.238434
 30
0.0
 11
118.193995
 21
43.147017
 31
0.0
  0
LINE
  5
740
  8
LAYER_1
 10
118.193995
 20
43.147017
 30
0.0
 11
117.865483
 21
42.935034
 31
0.0
  0
LINE
  5
741
  8
LAYER_1
 10
117.865483
 20
42.935034
 30
0.0
 11
117.661194
 21
42.624502
 31
0.0
  0
LINE
  5
742
  8
LAYER_1
 10
117.661194
 20
42.624502
 30
0.0
 11
117.599842
 21
41.841155
 31
0.0
  0
LINE
  5
743
  8
LAYER_1
 10
117.599842
 20
41.841155
 30
0.0
 11
117.959038
 21
41.063704
 31
0.0
  0
LINE
  5
744
  8
LAYER_1
 10
117.959038
 20
41.063704
 30
0.0
 11
118.687884
 21
40.558875
 31
0.0
  0
LINE
  5
745
  8
LAYER_1
 10
118.687884
 20
40.558875
 30
0.0
 11
119.234662
 21
40.47898
 31
0.0
  0
LINE
  5
746
  8
LAYER_1
 10
119.234662
 20
40.47898
 30
0.0
 11
119.587081
 21
40.642421
 31
0.0
  0
LINE
  5
747
  8
LAYER_1
 10
119.587081
 20
40.642421
 30
0.0
 11
119.74675
 21
41.050996
 31
0.0
  0
LINE
  5
748
  8
LAYER_1
 10
119.74675
 20
41.050996
 30
0.0
 11
119.715277
 21
41.706501
 31
0.0
  0
LINE
  5
749
  8
LAYER_1
 10
119.715277
 20
41.706501
 30
0.0
 11
119.715277
 21
41.706501
 31
0.0
  0
LINE
  5
74A
  8
LAYER_1
 10
116.484578
 20
41.402059
 30
0.0
 11
116.918924
 21
42.008788
 31
0.0
  0
LINE
  5
74B
  8
LAYER_1
 10
116.918924
 20
42.008788
 30
0.0
 11
117.114835
 21
42.536798
 31
0.0
  0
LINE
  5
74C
  8
LAYER_1
 10
117.114835
 20
42.536798
 30
0.0
 11
117.07142
 21
42.980409
 31
0.0
  0
LINE
  5
74D
  8
LAYER_1
 10
117.07142
 20
42.980409
 30
0.0
 11
116.787786
 21
43.333941
 31
0.0
  0
LINE
  5
74E
  8
LAYER_1
 10
116.787786
 20
43.333941
 30
0.0
 11
116.355907
 21
43.62366
 31
0.0
  0
LINE
  5
74F
  8
LAYER_1
 10
116.355907
 20
43.62366
 30
0.0
 11
116.060522
 21
43.660629
 31
0.0
  0
LINE
  5
750
  8
LAYER_1
 10
116.060522
 20
43.660629
 30
0.0
 11
115.806407
 21
43.407364
 31
0.0
  0
LINE
  5
751
  8
LAYER_1
 10
115.806407
 20
43.407364
 30
0.0
 11
115.498338
 21
42.826384
 31
0.0
  0
LINE
  5
752
  8
LAYER_1
 10
115.498338
 20
42.826384
 30
0.0
 11
115.229416
 21
42.0169
 31
0.0
  0
LINE
  5
753
  8
LAYER_1
 10
115.229416
 20
42.0169
 30
0.0
 11
115.331906
 21
41.415273
 31
0.0
  0
LINE
  5
754
  8
LAYER_1
 10
115.331906
 20
41.415273
 30
0.0
 11
115.580049
 21
41.056667
 31
0.0
  0
LINE
  5
755
  8
LAYER_1
 10
115.580049
 20
41.056667
 30
0.0
 11
115.834246
 21
40.935166
 31
0.0
  0
LINE
  5
756
  8
LAYER_1
 10
115.834246
 20
40.935166
 30
0.0
 11
116.125441
 21
41.050415
 31
0.0
  0
LINE
  5
757
  8
LAYER_1
 10
116.125441
 20
41.050415
 30
0.0
 11
116.484578
 21
41.402059
 31
0.0
  0
LINE
  5
758
  8
LAYER_1
 10
116.484578
 20
41.402059
 30
0.0
 11
116.484578
 21
41.402059
 31
0.0
  0
LINE
  5
759
  8
LAYER_1
 10
122.49428
 20
42.877892
 30
0.0
 11
122.546678
 21
43.288465
 31
0.0
  0
LINE
  5
75A
  8
LAYER_1
 10
122.546678
 20
43.288465
 30
0.0
 11
122.308626
 21
43.763203
 31
0.0
  0
LINE
  5
75B
  8
LAYER_1
 10
122.308626
 20
43.763203
 30
0.0
 11
121.840037
 21
44.222879
 31
0.0
  0
LINE
  5
75C
  8
LAYER_1
 10
121.840037
 20
44.222879
 30
0.0
 11
121.200827
 21
44.588266
 31
0.0
  0
LINE
  5
75D
  8
LAYER_1
 10
121.200827
 20
44.588266
 30
0.0
 11
120.390769
 21
44.81144
 31
0.0
  0
LINE
  5
75E
  8
LAYER_1
 10
120.390769
 20
44.81144
 30
0.0
 11
119.924822
 21
44.438463
 31
0.0
  0
LINE
  5
75F
  8
LAYER_1
 10
119.924822
 20
44.438463
 30
0.0
 11
119.692761
 21
43.941208
 31
0.0
  0
LINE
  5
760
  8
LAYER_1
 10
119.692761
 20
43.941208
 30
0.0
 11
119.882313
 21
43.51031
 31
0.0
  0
LINE
  5
761
  8
LAYER_1
 10
119.882313
 20
43.51031
 30
0.0
 11
120.513896
 21
43.010708
 31
0.0
  0
LINE
  5
762
  8
LAYER_1
 10
120.513896
 20
43.010708
 30
0.0
 11
121.304098
 21
42.703821
 31
0.0
  0
LINE
  5
763
  8
LAYER_1
 10
121.304098
 20
42.703821
 30
0.0
 11
122.0364
 21
42.642074
 31
0.0
  0
LINE
  5
764
  8
LAYER_1
 10
122.0364
 20
42.642074
 30
0.0
 11
122.49428
 21
42.877892
 31
0.0
  0
LINE
  5
765
  8
LAYER_1
 10
122.49428
 20
42.877892
 30
0.0
 11
122.49428
 21
42.877892
 31
0.0
  0
LINE
  5
766
  8
LAYER_1
 10
115.012092
 20
43.726698
 30
0.0
 11
115.30109
 21
44.043497
 31
0.0
  0
LINE
  5
767
  8
LAYER_1
 10
115.30109
 20
44.043497
 30
0.0
 11
115.39327
 21
44.49488
 31
0.0
  0
LINE
  5
768
  8
LAYER_1
 10
115.39327
 20
44.49488
 30
0.0
 11
115.290142
 21
44.955134
 31
0.0
  0
LINE
  5
769
  8
LAYER_1
 10
115.290142
 20
44.955134
 30
0.0
 11
114.993217
 21
45.298546
 31
0.0
  0
LINE
  5
76A
  8
LAYER_1
 10
114.993217
 20
45.298546
 30
0.0
 11
114.588197
 21
45.273647
 31
0.0
  0
LINE
  5
76B
  8
LAYER_1
 10
114.588197
 20
45.273647
 30
0.0
 11
113.944667
 21
45.021579
 31
0.0
  0
LINE
  5
76C
  8
LAYER_1
 10
113.944667
 20
45.021579
 30
0.0
 11
112.90357
 21
44.296844
 31
0.0
  0
LINE
  5
76D
  8
LAYER_1
 10
112.90357
 20
44.296844
 30
0.0
 11
112.814794
 21
44.030838
 31
0.0
  0
LINE
  5
76E
  8
LAYER_1
 10
112.814794
 20
44.030838
 30
0.0
 11
112.88129
 21
43.805707
 31
0.0
  0
LINE
  5
76F
  8
LAYER_1
 10
112.88129
 20
43.805707
 30
0.0
 11
113.37089
 21
43.507598
 31
0.0
  0
LINE
  5
770
  8
LAYER_1
 10
113.37089
 20
43.507598
 30
0.0
 11
114.15396
 21
43.461576
 31
0.0
  0
LINE
  5
771
  8
LAYER_1
 10
114.15396
 20
43.461576
 30
0.0
 11
115.012092
 21
43.726698
 31
0.0
  0
LINE
  5
772
  8
LAYER_1
 10
115.012092
 20
43.726698
 30
0.0
 11
115.012092
 21
43.726698
 31
0.0
  0
LINE
  5
773
  8
LAYER_1
 10
119.124044
 20
44.140899
 30
0.0
 11
119.613283
 21
44.803479
 31
0.0
  0
LINE
  5
774
  8
LAYER_1
 10
119.613283
 20
44.803479
 30
0.0
 11
119.816773
 21
45.423726
 31
0.0
  0
LINE
  5
775
  8
LAYER_1
 10
119.816773
 20
45.423726
 30
0.0
 11
119.610173
 21
46.07644
 31
0.0
  0
LINE
  5
776
  8
LAYER_1
 10
119.610173
 20
46.07644
 30
0.0
 11
119.090519
 21
46.717311
 31
0.0
  0
LINE
  5
777
  8
LAYER_1
 10
119.090519
 20
46.717311
 30
0.0
 11
118.408032
 21
47.205279
 31
0.0
  0
LINE
  5
778
  8
LAYER_1
 10
118.408032
 20
47.205279
 30
0.0
 11
117.712933
 21
47.399281
 31
0.0
  0
LINE
  5
779
  8
LAYER_1
 10
117.712933
 20
47.399281
 30
0.0
 11
117.02549
 21
47.238221
 31
0.0
  0
LINE
  5
77A
  8
LAYER_1
 10
117.02549
 20
47.238221
 30
0.0
 11
116.435011
 21
46.811037
 31
0.0
  0
LINE
  5
77B
  8
LAYER_1
 10
116.435011
 20
46.811037
 30
0.0
 11
116.022755
 21
46.201725
 31
0.0
  0
LINE
  5
77C
  8
LAYER_1
 10
116.022755
 20
46.201725
 30
0.0
 11
115.869982
 21
45.494281
 31
0.0
  0
LINE
  5
77D
  8
LAYER_1
 10
115.869982
 20
45.494281
 30
0.0
 11
116.074766
 21
44.462227
 31
0.0
  0
LINE
  5
77E
  8
LAYER_1
 10
116.074766
 20
44.462227
 30
0.0
 11
116.853439
 21
43.785412
 31
0.0
  0
LINE
  5
77F
  8
LAYER_1
 10
116.853439
 20
43.785412
 30
0.0
 11
117.472602
 21
43.525098
 31
0.0
  0
LINE
  5
780
  8
LAYER_1
 10
117.472602
 20
43.525098
 30
0.0
 11
118.035497
 21
43.494141
 31
0.0
  0
LINE
  5
781
  8
LAYER_1
 10
118.035497
 20
43.494141
 30
0.0
 11
118.575014
 21
43.697692
 31
0.0
  0
LINE
  5
782
  8
LAYER_1
 10
118.575014
 20
43.697692
 30
0.0
 11
119.124044
 21
44.140899
 31
0.0
  0
LINE
  5
783
  8
LAYER_1
 10
119.124044
 20
44.140899
 30
0.0
 11
119.124044
 21
44.140899
 31
0.0
  0
LINE
  5
784
  8
LAYER_1
 10
122.638995
 20
45.63583
 30
0.0
 11
123.198753
 21
45.987904
 31
0.0
  0
LINE
  5
785
  8
LAYER_1
 10
123.198753
 20
45.987904
 30
0.0
 11
123.521757
 21
46.343736
 31
0.0
  0
LINE
  5
786
  8
LAYER_1
 10
123.521757
 20
46.343736
 30
0.0
 11
123.626462
 21
46.678257
 31
0.0
  0
LINE
  5
787
  8
LAYER_1
 10
123.626462
 20
46.678257
 30
0.0
 11
123.531324
 21
46.966398
 31
0.0
  0
LINE
  5
788
  8
LAYER_1
 10
123.531324
 20
46.966398
 30
0.0
 11
123.254799
 21
47.183092
 31
0.0
  0
LINE
  5
789
  8
LAYER_1
 10
123.254799
 20
47.183092
 30
0.0
 11
122.815342
 21
47.303269
 31
0.0
  0
LINE
  5
78A
  8
LAYER_1
 10
122.815342
 20
47.303269
 30
0.0
 11
121.521454
 21
47.153802
 31
0.0
  0
LINE
  5
78B
  8
LAYER_1
 10
121.521454
 20
47.153802
 30
0.0
 11
120.768037
 21
46.858114
 31
0.0
  0
LINE
  5
78C
  8
LAYER_1
 10
120.768037
 20
46.858114
 30
0.0
 11
120.303656
 21
46.502936
 31
0.0
  0
LINE
  5
78D
  8
LAYER_1
 10
120.303656
 20
46.502936
 30
0.0
 11
120.118074
 21
46.07595
 31
0.0
  0
LINE
  5
78E
  8
LAYER_1
 10
120.118074
 20
46.07595
 30
0.0
 11
120.201055
 21
45.564837
 31
0.0
  0
LINE
  5
78F
  8
LAYER_1
 10
120.201055
 20
45.564837
 30
0.0
 11
120.502807
 21
45.252816
 31
0.0
  0
LINE
  5
790
  8
LAYER_1
 10
120.502807
 20
45.252816
 30
0.0
 11
121.046562
 21
45.161714
 31
0.0
  0
LINE
  5
791
  8
LAYER_1
 10
121.046562
 20
45.161714
 30
0.0
 11
121.777049
 21
45.289922
 31
0.0
  0
LINE
  5
792
  8
LAYER_1
 10
121.777049
 20
45.289922
 30
0.0
 11
122.638995
 21
45.63583
 31
0.0
  0
LINE
  5
793
  8
LAYER_1
 10
122.638995
 20
45.63583
 30
0.0
 11
122.638995
 21
45.63583
 31
0.0
  0
LINE
  5
794
  8
LAYER_1
 10
115.702591
 20
46.424483
 30
0.0
 11
115.790838
 21
46.983809
 31
0.0
  0
LINE
  5
795
  8
LAYER_1
 10
115.790838
 20
46.983809
 30
0.0
 11
115.691383
 21
47.394461
 31
0.0
  0
LINE
  5
796
  8
LAYER_1
 10
115.691383
 20
47.394461
 30
0.0
 11
115.356072
 21
47.740215
 31
0.0
  0
LINE
  5
797
  8
LAYER_1
 10
115.356072
 20
47.740215
 30
0.0
 11
114.736753
 21
48.104846
 31
0.0
  0
LINE
  5
798
  8
LAYER_1
 10
114.736753
 20
48.104846
 30
0.0
 11
114.134166
 21
48.326662
 31
0.0
  0
LINE
  5
799
  8
LAYER_1
 10
114.134166
 20
48.326662
 30
0.0
 11
113.643459
 21
48.342357
 31
0.0
  0
LINE
  5
79A
  8
LAYER_1
 10
113.643459
 20
48.342357
 30
0.0
 11
113.280915
 21
48.190491
 31
0.0
  0
LINE
  5
79B
  8
LAYER_1
 10
113.280915
 20
48.190491
 30
0.0
 11
113.062822
 21
47.909621
 31
0.0
  0
LINE
  5
79C
  8
LAYER_1
 10
113.062822
 20
47.909621
 30
0.0
 11
113.005464
 21
47.538308
 31
0.0
  0
LINE
  5
79D
  8
LAYER_1
 10
113.005464
 20
47.538308
 30
0.0
 11
113.125128
 21
47.115111
 31
0.0
  0
LINE
  5
79E
  8
LAYER_1
 10
113.125128
 20
47.115111
 30
0.0
 11
113.438098
 21
46.678588
 31
0.0
  0
LINE
  5
79F
  8
LAYER_1
 10
113.438098
 20
46.678588
 30
0.0
 11
113.960662
 21
46.267299
 31
0.0
  0
LINE
  5
7A0
  8
LAYER_1
 10
113.960662
 20
46.267299
 30
0.0
 11
114.711368
 21
45.859981
 31
0.0
  0
LINE
  5
7A1
  8
LAYER_1
 10
114.711368
 20
45.859981
 30
0.0
 11
115.202766
 21
45.74597
 31
0.0
  0
LINE
  5
7A2
  8
LAYER_1
 10
115.202766
 20
45.74597
 30
0.0
 11
115.508594
 21
45.931919
 31
0.0
  0
LINE
  5
7A3
  8
LAYER_1
 10
115.508594
 20
45.931919
 30
0.0
 11
115.702591
 21
46.424483
 31
0.0
  0
LINE
  5
7A4
  8
LAYER_1
 10
115.702591
 20
46.424483
 30
0.0
 11
115.702591
 21
46.424483
 31
0.0
  0
LINE
  5
7A5
  8
LAYER_1
 10
46.113469
 20
43.946589
 30
0.0
 11
45.608329
 21
44.329362
 31
0.0
  0
LINE
  5
7A6
  8
LAYER_1
 10
45.608329
 20
44.329362
 30
0.0
 11
44.886773
 21
44.456536
 31
0.0
  0
LINE
  5
7A7
  8
LAYER_1
 10
44.886773
 20
44.456536
 30
0.0
 11
44.42677
 21
44.469896
 31
0.0
  0
LINE
  5
7A8
  8
LAYER_1
 10
44.42677
 20
44.469896
 30
0.0
 11
44.177591
 21
44.581099
 31
0.0
  0
LINE
  5
7A9
  8
LAYER_1
 10
44.177591
 20
44.581099
 30
0.0
 11
44.08172
 21
45.35317
 31
0.0
  0
LINE
  5
7AA
  8
LAYER_1
 10
44.08172
 20
45.35317
 30
0.0
 11
43.995958
 21
46.109711
 31
0.0
  0
LINE
  5
7AB
  8
LAYER_1
 10
43.995958
 20
46.109711
 30
0.0
 11
43.437861
 21
46.270393
 31
0.0
  0
LINE
  5
7AC
  8
LAYER_1
 10
43.437861
 20
46.270393
 30
0.0
 11
42.860306
 21
46.406824
 31
0.0
  0
LINE
  5
7AD
  8
LAYER_1
 10
42.860306
 20
46.406824
 30
0.0
 11
42.577666
 21
46.753627
 31
0.0
  0
LINE
  5
7AE
  8
LAYER_1
 10
42.577666
 20
46.753627
 30
0.0
 11
42.617976
 21
47.217062
 31
0.0
  0
LINE
  5
7AF
  8
LAYER_1
 10
42.617976
 20
47.217062
 30
0.0
 11
43.009272
 21
47.70339
 31
0.0
  0
LINE
  5
7B0
  8
LAYER_1
 10
43.009272
 20
47.70339
 30
0.0
 11
43.458589
 21
48.239193
 31
0.0
  0
LINE
  5
7B1
  8
LAYER_1
 10
43.458589
 20
48.239193
 30
0.0
 11
43.301457
 21
48.911434
 31
0.0
  0
LINE
  5
7B2
  8
LAYER_1
 10
43.301457
 20
48.911434
 30
0.0
 11
43.12389
 21
49.544954
 31
0.0
  0
LINE
  5
7B3
  8
LAYER_1
 10
43.12389
 20
49.544954
 30
0.0
 11
43.15101
 21
50.071596
 31
0.0
  0
LINE
  5
7B4
  8
LAYER_1
 10
43.15101
 20
50.071596
 30
0.0
 11
43.588603
 21
50.403576
 31
0.0
  0
LINE
  5
7B5
  8
LAYER_1
 10
43.588603
 20
50.403576
 30
0.0
 11
44.342214
 21
50.467183
 31
0.0
  0
LINE
  5
7B6
  8
LAYER_1
 10
44.342214
 20
50.467183
 30
0.0
 11
45.118467
 21
50.285132
 31
0.0
  0
LINE
  5
7B7
  8
LAYER_1
 10
45.118467
 20
50.285132
 30
0.0
 11
45.623982
 21
49.880136
 31
0.0
  0
LINE
  5
7B8
  8
LAYER_1
 10
45.623982
 20
49.880136
 30
0.0
 11
45.930822
 21
49.523268
 31
0.0
  0
LINE
  5
7B9
  8
LAYER_1
 10
45.930822
 20
49.523268
 30
0.0
 11
46.288796
 21
49.374837
 31
0.0
  0
LINE
  5
7BA
  8
LAYER_1
 10
46.288796
 20
49.374837
 30
0.0
 11
46.641041
 21
49.540629
 31
0.0
  0
LINE
  5
7BB
  8
LAYER_1
 10
46.641041
 20
49.540629
 30
0.0
 11
46.852524
 21
49.957172
 31
0.0
  0
LINE
  5
7BC
  8
LAYER_1
 10
46.852524
 20
49.957172
 30
0.0
 11
46.891675
 21
50.503216
 31
0.0
  0
LINE
  5
7BD
  8
LAYER_1
 10
46.891675
 20
50.503216
 30
0.0
 11
46.726924
 21
51.057511
 31
0.0
  0
LINE
  5
7BE
  8
LAYER_1
 10
46.726924
 20
51.057511
 30
0.0
 11
46.570761
 21
51.485951
 31
0.0
  0
LINE
  5
7BF
  8
LAYER_1
 10
46.570761
 20
51.485951
 30
0.0
 11
46.705909
 21
51.632615
 31
0.0
  0
LINE
  5
7C0
  8
LAYER_1
 10
46.705909
 20
51.632615
 30
0.0
 11
46.970365
 21
51.425095
 31
0.0
  0
LINE
  5
7C1
  8
LAYER_1
 10
46.970365
 20
51.425095
 30
0.0
 11
47.159933
 21
50.933575
 31
0.0
  0
LINE
  5
7C2
  8
LAYER_1
 10
47.159933
 20
50.933575
 30
0.0
 11
47.227415
 21
50.354613
 31
0.0
  0
LINE
  5
7C3
  8
LAYER_1
 10
47.227415
 20
50.354613
 30
0.0
 11
47.125611
 21
49.884767
 31
0.0
  0
LINE
  5
7C4
  8
LAYER_1
 10
47.125611
 20
49.884767
 30
0.0
 11
47.096531
 21
49.788885
 31
0.0
  0
LINE
  5
7C5
  8
LAYER_1
 10
47.096531
 20
49.788885
 30
0.0
 11
47.174946
 21
49.800461
 31
0.0
  0
LINE
  5
7C6
  8
LAYER_1
 10
47.174946
 20
49.800461
 30
0.0
 11
47.592931
 21
50.115682
 31
0.0
  0
LINE
  5
7C7
  8
LAYER_1
 10
47.592931
 20
50.115682
 30
0.0
 11
48.948677
 21
51.040158
 31
0.0
  0
LINE
  5
7C8
  8
LAYER_1
 10
48.948677
 20
51.040158
 30
0.0
 11
49.522954
 21
51.200933
 31
0.0
  0
LINE
  5
7C9
  8
LAYER_1
 10
49.522954
 20
51.200933
 30
0.0
 11
50.042733
 21
51.166982
 31
0.0
  0
LINE
  5
7CA
  8
LAYER_1
 10
50.042733
 20
51.166982
 30
0.0
 11
50.530205
 21
50.927424
 31
0.0
  0
LINE
  5
7CB
  8
LAYER_1
 10
50.530205
 20
50.927424
 30
0.0
 11
50.785848
 21
50.547142
 31
0.0
  0
LINE
  5
7CC
  8
LAYER_1
 10
50.785848
 20
50.547142
 30
0.0
 11
50.798118
 21
50.063372
 31
0.0
  0
LINE
  5
7CD
  8
LAYER_1
 10
50.798118
 20
50.063372
 30
0.0
 11
50.555469
 21
49.513352
 31
0.0
  0
LINE
  5
7CE
  8
LAYER_1
 10
50.555469
 20
49.513352
 30
0.0
 11
50.311879
 21
48.932986
 31
0.0
  0
LINE
  5
7CF
  8
LAYER_1
 10
50.311879
 20
48.932986
 30
0.0
 11
50.831287
 21
48.57139
 31
0.0
  0
LINE
  5
7D0
  8
LAYER_1
 10
50.831287
 20
48.57139
 30
0.0
 11
51.372197
 21
48.095652
 31
0.0
  0
LINE
  5
7D1
  8
LAYER_1
 10
51.372197
 20
48.095652
 30
0.0
 11
51.435412
 21
47.521423
 31
0.0
  0
LINE
  5
7D2
  8
LAYER_1
 10
51.435412
 20
47.521423
 30
0.0
 11
51.074268
 21
47.03804
 31
0.0
  0
LINE
  5
7D3
  8
LAYER_1
 10
51.074268
 20
47.03804
 30
0.0
 11
50.3421
 21
46.834837
 31
0.0
  0
LINE
  5
7D4
  8
LAYER_1
 10
50.3421
 20
46.834837
 30
0.0
 11
50.098288
 21
46.788925
 31
0.0
  0
LINE
  5
7D5
  8
LAYER_1
 10
50.098288
 20
46.788925
 30
0.0
 11
49.954998
 21
46.625118
 31
0.0
  0
LINE
  5
7D6
  8
LAYER_1
 10
49.954998
 20
46.625118
 30
0.0
 11
49.904656
 21
45.787389
 31
0.0
  0
LINE
  5
7D7
  8
LAYER_1
 10
49.904656
 20
45.787389
 30
0.0
 11
49.849885
 21
45.05515
 31
0.0
  0
LINE
  5
7D8
  8
LAYER_1
 10
49.849885
 20
45.05515
 30
0.0
 11
49.592112
 21
44.674533
 31
0.0
  0
LINE
  5
7D9
  8
LAYER_1
 10
49.592112
 20
44.674533
 30
0.0
 11
49.151998
 21
44.657315
 31
0.0
  0
LINE
  5
7DA
  8
LAYER_1
 10
49.151998
 20
44.657315
 30
0.0
 11
48.550203
 21
45.015274
 31
0.0
  0
LINE
  5
7DB
  8
LAYER_1
 10
48.550203
 20
45.015274
 30
0.0
 11
48.133546
 21
45.388774
 31
0.0
  0
LINE
  5
7DC
  8
LAYER_1
 10
48.133546
 20
45.388774
 30
0.0
 11
48.555662
 21
45.284743
 31
0.0
  0
LINE
  5
7DD
  8
LAYER_1
 10
48.555662
 20
45.284743
 30
0.0
 11
49.478554
 21
45.077934
 31
0.0
  0
LINE
  5
7DE
  8
LAYER_1
 10
49.478554
 20
45.077934
 30
0.0
 11
49.658966
 21
45.195326
 31
0.0
  0
LINE
  5
7DF
  8
LAYER_1
 10
49.658966
 20
45.195326
 30
0.0
 11
49.755608
 21
45.476465
 31
0.0
  0
LINE
  5
7E0
  8
LAYER_1
 10
49.755608
 20
45.476465
 30
0.0
 11
49.618954
 21
45.954449
 31
0.0
  0
LINE
  5
7E1
  8
LAYER_1
 10
49.618954
 20
45.954449
 30
0.0
 11
49.144319
 21
46.411541
 31
0.0
  0
LINE
  5
7E2
  8
LAYER_1
 10
49.144319
 20
46.411541
 30
0.0
 11
48.52683
 21
46.712334
 31
0.0
  0
LINE
  5
7E3
  8
LAYER_1
 10
48.52683
 20
46.712334
 30
0.0
 11
47.961612
 21
46.721418
 31
0.0
  0
LINE
  5
7E4
  8
LAYER_1
 10
47.961612
 20
46.721418
 30
0.0
 11
47.678445
 21
46.505097
 31
0.0
  0
LINE
  5
7E5
  8
LAYER_1
 10
47.678445
 20
46.505097
 30
0.0
 11
47.788748
 21
46.196498
 31
0.0
  0
LINE
  5
7E6
  8
LAYER_1
 10
47.788748
 20
46.196498
 30
0.0
 11
47.93764
 21
45.62243
 31
0.0
  0
LINE
  5
7E7
  8
LAYER_1
 10
47.93764
 20
45.62243
 30
0.0
 11
47.887289
 21
44.71817
 31
0.0
  0
LINE
  5
7E8
  8
LAYER_1
 10
47.887289
 20
44.71817
 30
0.0
 11
47.612541
 21
43.81081
 31
0.0
  0
LINE
  5
7E9
  8
LAYER_1
 10
47.612541
 20
43.81081
 30
0.0
 11
47.097445
 21
43.502667
 31
0.0
  0
LINE
  5
7EA
  8
LAYER_1
 10
47.097445
 20
43.502667
 30
0.0
 11
46.557343
 21
43.592023
 31
0.0
  0
LINE
  5
7EB
  8
LAYER_1
 10
46.557343
 20
43.592023
 30
0.0
 11
46.113469
 21
43.946589
 31
0.0
  0
LINE
  5
7EC
  8
LAYER_1
 10
46.113469
 20
43.946589
 30
0.0
 11
46.113469
 21
43.946589
 31
0.0
  0
LINE
  5
7ED
  8
LAYER_1
 10
47.499882
 20
44.598824
 30
0.0
 11
47.480599
 21
45.211525
 31
0.0
  0
LINE
  5
7EE
  8
LAYER_1
 10
47.480599
 20
45.211525
 30
0.0
 11
47.302074
 21
45.666426
 31
0.0
  0
LINE
  5
7EF
  8
LAYER_1
 10
47.302074
 20
45.666426
 30
0.0
 11
46.999629
 21
45.912081
 31
0.0
  0
LINE
  5
7F0
  8
LAYER_1
 10
46.999629
 20
45.912081
 30
0.0
 11
46.608588
 21
45.897041
 31
0.0
  0
LINE
  5
7F1
  8
LAYER_1
 10
46.608588
 20
45.897041
 30
0.0
 11
46.298154
 21
45.593715
 31
0.0
  0
LINE
  5
7F2
  8
LAYER_1
 10
46.298154
 20
45.593715
 30
0.0
 11
46.170495
 21
45.088605
 31
0.0
  0
LINE
  5
7F3
  8
LAYER_1
 10
46.170495
 20
45.088605
 30
0.0
 11
46.234477
 21
44.529837
 31
0.0
  0
LINE
  5
7F4
  8
LAYER_1
 10
46.234477
 20
44.529837
 30
0.0
 11
46.498967
 21
44.065531
 31
0.0
  0
LINE
  5
7F5
  8
LAYER_1
 10
46.498967
 20
44.065531
 30
0.0
 11
46.849615
 21
43.83094
 31
0.0
  0
LINE
  5
7F6
  8
LAYER_1
 10
46.849615
 20
43.83094
 30
0.0
 11
47.150861
 21
43.850972
 31
0.0
  0
LINE
  5
7F7
  8
LAYER_1
 10
47.150861
 20
43.850972
 30
0.0
 11
47.376388
 21
44.111607
 31
0.0
  0
LINE
  5
7F8
  8
LAYER_1
 10
47.376388
 20
44.111607
 30
0.0
 11
47.499882
 21
44.598824
 31
0.0
  0
LINE
  5
7F9
  8
LAYER_1
 10
47.499882
 20
44.598824
 30
0.0
 11
47.499882
 21
44.598824
 31
0.0
  0
LINE
  5
7FA
  8
LAYER_1
 10
45.358439
 20
45.044134
 30
0.0
 11
45.717337
 21
45.459821
 31
0.0
  0
LINE
  5
7FB
  8
LAYER_1
 10
45.717337
 20
45.459821
 30
0.0
 11
45.853842
 21
45.838475
 31
0.0
  0
LINE
  5
7FC
  8
LAYER_1
 10
45.853842
 20
45.838475
 30
0.0
 11
45.765982
 21
46.151984
 31
0.0
  0
LINE
  5
7FD
  8
LAYER_1
 10
45.765982
 20
46.151984
 30
0.0
 11
45.451779
 21
46.372235
 31
0.0
  0
LINE
  5
7FE
  8
LAYER_1
 10
45.451779
 20
46.372235
 30
0.0
 11
45.028238
 21
46.281277
 31
0.0
  0
LINE
  5
7FF
  8
LAYER_1
 10
45.028238
 20
46.281277
 30
0.0
 11
44.593874
 21
45.864073
 31
0.0
  0
LINE
  5
800
  8
LAYER_1
 10
44.593874
 20
45.864073
 30
0.0
 11
44.304182
 21
45.325815
 31
0.0
  0
LINE
  5
801
  8
LAYER_1
 10
44.304182
 20
45.325815
 30
0.0
 11
44.314658
 21
44.871694
 31
0.0
  0
LINE
  5
802
  8
LAYER_1
 10
44.314658
 20
44.871694
 30
0.0
 11
44.498428
 21
44.651824
 31
0.0
  0
LINE
  5
803
  8
LAYER_1
 10
44.498428
 20
44.651824
 30
0.0
 11
44.704598
 21
44.602476
 31
0.0
  0
LINE
  5
804
  8
LAYER_1
 10
44.704598
 20
44.602476
 30
0.0
 11
45.358439
 21
45.044134
 31
0.0
  0
LINE
  5
805
  8
LAYER_1
 10
45.358439
 20
45.044134
 30
0.0
 11
45.358439
 21
45.044134
 31
0.0
  0
LINE
  5
806
  8
LAYER_1
 10
44.604551
 20
47.25817
 30
0.0
 11
44.456384
 21
47.686403
 31
0.0
  0
LINE
  5
807
  8
LAYER_1
 10
44.456384
 20
47.686403
 30
0.0
 11
43.904995
 21
47.743948
 31
0.0
  0
LINE
  5
808
  8
LAYER_1
 10
43.904995
 20
47.743948
 30
0.0
 11
42.955918
 21
47.41576
 31
0.0
  0
LINE
  5
809
  8
LAYER_1
 10
42.955918
 20
47.41576
 30
0.0
 11
42.80713
 21
47.098367
 31
0.0
  0
LINE
  5
80A
  8
LAYER_1
 10
42.80713
 20
47.098367
 30
0.0
 11
42.950818
 21
46.818718
 31
0.0
  0
LINE
  5
80B
  8
LAYER_1
 10
42.950818
 20
46.818718
 30
0.0
 11
43.32185
 21
46.6354
 31
0.0
  0
LINE
  5
80C
  8
LAYER_1
 10
43.32185
 20
46.6354
 30
0.0
 11
43.855092
 21
46.606996
 31
0.0
  0
LINE
  5
80D
  8
LAYER_1
 10
43.855092
 20
46.606996
 30
0.0
 11
44.429472
 21
46.805324
 31
0.0
  0
LINE
  5
80E
  8
LAYER_1
 10
44.429472
 20
46.805324
 30
0.0
 11
44.604551
 21
47.25817
 31
0.0
  0
LINE
  5
80F
  8
LAYER_1
 10
44.604551
 20
47.25817
 30
0.0
 11
44.604551
 21
47.25817
 31
0.0
  0
LINE
  5
810
  8
LAYER_1
 10
47.511439
 20
46.891281
 30
0.0
 11
47.791219
 21
47.33372
 31
0.0
  0
LINE
  5
811
  8
LAYER_1
 10
47.791219
 20
47.33372
 30
0.0
 11
47.817251
 21
47.811752
 31
0.0
  0
LINE
  5
812
  8
LAYER_1
 10
47.817251
 20
47.811752
 30
0.0
 11
47.598655
 21
48.280538
 31
0.0
  0
LINE
  5
813
  8
LAYER_1
 10
47.598655
 20
48.280538
 30
0.0
 11
47.144551
 21
48.695235
 31
0.0
  0
LINE
  5
814
  8
LAYER_1
 10
47.144551
 20
48.695235
 30
0.0
 11
46.438995
 21
49.01642
 31
0.0
  0
LINE
  5
815
  8
LAYER_1
 10
46.438995
 20
49.01642
 30
0.0
 11
45.733439
 21
48.695235
 31
0.0
  0
LINE
  5
816
  8
LAYER_1
 10
45.733439
 20
48.695235
 30
0.0
 11
45.129789
 21
48.027584
 31
0.0
  0
LINE
  5
817
  8
LAYER_1
 10
45.129789
 20
48.027584
 30
0.0
 11
45.085643
 21
47.328043
 31
0.0
  0
LINE
  5
818
  8
LAYER_1
 10
45.085643
 20
47.328043
 30
0.0
 11
45.541785
 21
46.776444
 31
0.0
  0
LINE
  5
819
  8
LAYER_1
 10
45.541785
 20
46.776444
 30
0.0
 11
46.438995
 21
46.552615
 31
0.0
  0
LINE
  5
81A
  8
LAYER_1
 10
46.438995
 20
46.552615
 30
0.0
 11
47.056709
 21
46.652098
 31
0.0
  0
LINE
  5
81B
  8
LAYER_1
 10
47.056709
 20
46.652098
 30
0.0
 11
47.511439
 21
46.891281
 31
0.0
  0
LINE
  5
81C
  8
LAYER_1
 10
47.511439
 20
46.891281
 30
0.0
 11
47.511439
 21
46.891281
 31
0.0
  0
LINE
  5
81D
  8
LAYER_1
 10
51.095662
 20
47.454718
 30
0.0
 11
51.134412
 21
47.77391
 31
0.0
  0
LINE
  5
81E
  8
LAYER_1
 10
51.134412
 20
47.77391
 30
0.0
 11
50.825729
 21
48.128856
 31
0.0
  0
LINE
  5
81F
  8
LAYER_1
 10
50.825729
 20
48.128856
 30
0.0
 11
50.348405
 21
48.381375
 31
0.0
  0
LINE
  5
820
  8
LAYER_1
 10
50.348405
 20
48.381375
 30
0.0
 11
49.881234
 21
48.393288
 31
0.0
  0
LINE
  5
821
  8
LAYER_1
 10
49.881234
 20
48.393288
 30
0.0
 11
48.955912
 21
48.245948
 31
0.0
  0
LINE
  5
822
  8
LAYER_1
 10
48.955912
 20
48.245948
 30
0.0
 11
48.559156
 21
48.080832
 31
0.0
  0
LINE
  5
823
  8
LAYER_1
 10
48.559156
 20
48.080832
 30
0.0
 11
48.414307
 21
47.70485
 31
0.0
  0
LINE
  5
824
  8
LAYER_1
 10
48.414307
 20
47.70485
 30
0.0
 11
48.528392
 21
47.297052
 31
0.0
  0
LINE
  5
825
  8
LAYER_1
 10
48.528392
 20
47.297052
 30
0.0
 11
48.908439
 21
47.036488
 31
0.0
  0
LINE
  5
826
  8
LAYER_1
 10
48.908439
 20
47.036488
 30
0.0
 11
50.099274
 21
47.058129
 31
0.0
  0
LINE
  5
827
  8
LAYER_1
 10
50.099274
 20
47.058129
 30
0.0
 11
51.095662
 21
47.454718
 31
0.0
  0
LINE
  5
828
  8
LAYER_1
 10
51.095662
 20
47.454718
 30
0.0
 11
51.095662
 21
47.454718
 31
0.0
  0
LINE
  5
829
  8
LAYER_1
 10
45.132467
 20
48.87409
 30
0.0
 11
45.236423
 21
49.320916
 31
0.0
  0
LINE
  5
82A
  8
LAYER_1
 10
45.236423
 20
49.320916
 30
0.0
 11
45.063942
 21
49.757835
 31
0.0
  0
LINE
  5
82B
  8
LAYER_1
 10
45.063942
 20
49.757835
 30
0.0
 11
44.683437
 21
50.089735
 31
0.0
  0
LINE
  5
82C
  8
LAYER_1
 10
44.683437
 20
50.089735
 30
0.0
 11
44.163316
 21
50.221504
 31
0.0
  0
LINE
  5
82D
  8
LAYER_1
 10
44.163316
 20
50.221504
 30
0.0
 11
43.700065
 21
50.130092
 31
0.0
  0
LINE
  5
82E
  8
LAYER_1
 10
43.700065
 20
50.130092
 30
0.0
 11
43.472725
 21
49.869411
 31
0.0
  0
LINE
  5
82F
  8
LAYER_1
 10
43.472725
 20
49.869411
 30
0.0
 11
43.487739
 21
49.459793
 31
0.0
  0
LINE
  5
830
  8
LAYER_1
 10
43.487739
 20
49.459793
 30
0.0
 11
43.751545
 21
48.921571
 31
0.0
  0
LINE
  5
831
  8
LAYER_1
 10
43.751545
 20
48.921571
 30
0.0
 11
44.113059
 21
48.490811
 31
0.0
  0
LINE
  5
832
  8
LAYER_1
 10
44.113059
 20
48.490811
 30
0.0
 11
44.456769
 21
48.339549
 31
0.0
  0
LINE
  5
833
  8
LAYER_1
 10
44.456769
 20
48.339549
 30
0.0
 11
44.793097
 21
48.467429
 31
0.0
  0
LINE
  5
834
  8
LAYER_1
 10
44.793097
 20
48.467429
 30
0.0
 11
45.132467
 21
48.87409
 31
0.0
  0
LINE
  5
835
  8
LAYER_1
 10
45.132467
 20
48.87409
 30
0.0
 11
45.132467
 21
48.87409
 31
0.0
  0
LINE
  5
836
  8
LAYER_1
 10
49.902852
 20
49.408611
 30
0.0
 11
50.584661
 21
50.220054
 31
0.0
  0
LINE
  5
837
  8
LAYER_1
 10
50.584661
 20
50.220054
 30
0.0
 11
50.530321
 21
50.44132
 31
0.0
  0
LINE
  5
838
  8
LAYER_1
 10
50.530321
 20
50.44132
 30
0.0
 11
50.250536
 21
50.678611
 31
0.0
  0
LINE
  5
839
  8
LAYER_1
 10
50.250536
 20
50.678611
 30
0.0
 11
49.794396
 21
50.967812
 31
0.0
  0
LINE
  5
83A
  8
LAYER_1
 10
49.794396
 20
50.967812
 30
0.0
 11
49.423639
 21
51.01613
 31
0.0
  0
LINE
  5
83B
  8
LAYER_1
 10
49.423639
 20
51.01613
 30
0.0
 11
48.996668
 21
50.792435
 31
0.0
  0
LINE
  5
83C
  8
LAYER_1
 10
48.996668
 20
50.792435
 30
0.0
 11
48.371887
 21
50.265598
 31
0.0
  0
LINE
  5
83D
  8
LAYER_1
 10
48.371887
 20
50.265598
 30
0.0
 11
47.741853
 21
49.546438
 31
0.0
  0
LINE
  5
83E
  8
LAYER_1
 10
47.741853
 20
49.546438
 30
0.0
 11
47.653022
 21
48.995598
 31
0.0
  0
LINE
  5
83F
  8
LAYER_1
 10
47.653022
 20
48.995598
 30
0.0
 11
47.988051
 21
48.615146
 31
0.0
  0
LINE
  5
840
  8
LAYER_1
 10
47.988051
 20
48.615146
 30
0.0
 11
48.522673
 21
48.565971
 31
0.0
  0
LINE
  5
841
  8
LAYER_1
 10
48.522673
 20
48.565971
 30
0.0
 11
49.184928
 21
48.834863
 31
0.0
  0
LINE
  5
842
  8
LAYER_1
 10
49.184928
 20
48.834863
 30
0.0
 11
49.902852
 21
49.408611
 31
0.0
  0
LINE
  5
843
  8
LAYER_1
 10
49.902852
 20
49.408611
 30
0.0
 11
49.902852
 21
49.408611
 31
0.0
  0
LINE
  5
844
  8
LAYER_1
 10
45.310106
 20
51.040388
 30
0.0
 11
45.598407
 21
51.48803
 31
0.0
  0
LINE
  5
845
  8
LAYER_1
 10
45.598407
 20
51.48803
 30
0.0
 11
45.830157
 21
51.616228
 31
0.0
  0
LINE
  5
846
  8
LAYER_1
 10
45.830157
 20
51.616228
 30
0.0
 11
46.005973
 21
51.590321
 31
0.0
  0
LINE
  5
847
  8
LAYER_1
 10
46.005973
 20
51.590321
 30
0.0
 11
45.704974
 21
51.127598
 31
0.0
  0
LINE
  5
848
  8
LAYER_1
 10
45.704974
 20
51.127598
 30
0.0
 11
45.426098
 21
50.95187
 31
0.0
  0
LINE
  5
849
  8
LAYER_1
 10
45.426098
 20
50.95187
 30
0.0
 11
45.310106
 21
51.040388
 31
0.0
  0
LINE
  5
84A
  8
LAYER_1
 10
45.310106
 20
51.040388
 30
0.0
 11
45.310106
 21
51.040388
 31
0.0
  0
LINE
  5
84B
  8
LAYER_1
 10
82.109409
 20
58.525286
 30
0.0
 11
81.76025300000001
 21
58.837413
 31
0.0
  0
LINE
  5
84C
  8
LAYER_1
 10
81.76025300000001
 20
58.837413
 30
0.0
 11
81.05268100000001
 21
58.896967
 31
0.0
  0
LINE
  5
84D
  8
LAYER_1
 10
81.05268100000001
 20
58.896967
 30
0.0
 11
80.299852
 21
58.975819
 31
0.0
  0
LINE
  5
84E
  8
LAYER_1
 10
80.299852
 20
58.975819
 30
0.0
 11
80.16599600000001
 21
59.725049
 31
0.0
  0
LINE
  5
84F
  8
LAYER_1
 10
80.16599600000001
 20
59.725049
 30
0.0
 11
80.023285
 21
60.483828
 31
0.0
  0
LINE
  5
850
  8
LAYER_1
 10
80.023285
 20
60.483828
 30
0.0
 11
79.389884
 21
60.776327
 31
0.0
  0
LINE
  5
851
  8
LAYER_1
 10
79.389884
 20
60.776327
 30
0.0
 11
78.844922
 21
61.036958
 31
0.0
  0
LINE
  5
852
  8
LAYER_1
 10
78.844922
 20
61.036958
 30
0.0
 11
78.61209100000001
 21
61.462992
 31
0.0
  0
LINE
  5
853
  8
LAYER_1
 10
78.61209100000001
 20
61.462992
 30
0.0
 11
78.709001
 21
61.93773
 31
0.0
  0
LINE
  5
854
  8
LAYER_1
 10
78.709001
 20
61.93773
 30
0.0
 11
79.153261
 21
62.344475
 31
0.0
  0
LINE
  5
855
  8
LAYER_1
 10
79.153261
 20
62.344475
 30
0.0
 11
79.543593
 21
62.728819
 31
0.0
  0
LINE
  5
856
  8
LAYER_1
 10
79.543593
 20
62.728819
 30
0.0
 11
79.382149
 21
63.46067
 31
0.0
  0
LINE
  5
857
  8
LAYER_1
 10
79.382149
 20
63.46067
 30
0.0
 11
79.242588
 21
64.179435
 31
0.0
  0
LINE
  5
858
  8
LAYER_1
 10
79.242588
 20
64.179435
 30
0.0
 11
79.416802
 21
64.70981500000001
 31
0.0
  0
LINE
  5
859
  8
LAYER_1
 10
79.416802
 20
64.70981500000001
 30
0.0
 11
79.88393600000001
 21
65.024332
 31
0.0
  0
LINE
  5
85A
  8
LAYER_1
 10
79.88393600000001
 20
65.024332
 30
0.0
 11
80.623131
 21
65.095512
 31
0.0
  0
LINE
  5
85B
  8
LAYER_1
 10
80.623131
 20
65.095512
 30
0.0
 11
81.30367699999999
 21
64.906159
 31
0.0
  0
LINE
  5
85C
  8
LAYER_1
 10
81.30367699999999
 20
64.906159
 30
0.0
 11
81.617913
 21
64.40317
 31
0.0
  0
LINE
  5
85D
  8
LAYER_1
 10
81.617913
 20
64.40317
 30
0.0
 11
81.881351
 21
63.943803
 31
0.0
  0
LINE
  5
85E
  8
LAYER_1
 10
81.881351
 20
63.943803
 30
0.0
 11
82.311813
 21
63.76817
 31
0.0
  0
LINE
  5
85F
  8
LAYER_1
 10
82.311813
 20
63.76817
 30
0.0
 11
82.73632000000001
 21
63.967073
 31
0.0
  0
LINE
  5
860
  8
LAYER_1
 10
82.73632000000001
 20
63.967073
 30
0.0
 11
82.845662
 21
64.73929099999999
 31
0.0
  0
LINE
  5
861
  8
LAYER_1
 10
82.845662
 20
64.73929099999999
 30
0.0
 11
82.774378
 21
65.43020900000001
 31
0.0
  0
LINE
  5
862
  8
LAYER_1
 10
82.774378
 20
65.43020900000001
 30
0.0
 11
82.572226
 21
65.837841
 31
0.0
  0
LINE
  5
863
  8
LAYER_1
 10
82.572226
 20
65.837841
 30
0.0
 11
82.25675699999999
 21
65.94474200000001
 31
0.0
  0
LINE
  5
864
  8
LAYER_1
 10
82.25675699999999
 20
65.94474200000001
 30
0.0
 11
81.845523
 21
65.73346700000001
 31
0.0
  0
LINE
  5
865
  8
LAYER_1
 10
81.845523
 20
65.73346700000001
 30
0.0
 11
81.542196
 21
65.559721
 31
0.0
  0
LINE
  5
866
  8
LAYER_1
 10
81.542196
 20
65.559721
 30
0.0
 11
81.434551
 21
65.690152
 31
0.0
  0
LINE
  5
867
  8
LAYER_1
 10
81.434551
 20
65.690152
 30
0.0
 11
81.60034400000001
 21
65.954475
 31
0.0
  0
LINE
  5
868
  8
LAYER_1
 10
81.60034400000001
 20
65.954475
 30
0.0
 11
81.994049
 21
66.157544
 31
0.0
  0
LINE
  5
869
  8
LAYER_1
 10
81.994049
 20
66.157544
 30
0.0
 11
82.460151
 21
66.246534
 31
0.0
  0
LINE
  5
86A
  8
LAYER_1
 10
82.460151
 20
66.246534
 30
0.0
 11
82.843136
 21
66.16862
 31
0.0
  0
LINE
  5
86B
  8
LAYER_1
 10
82.843136
 20
66.16862
 30
0.0
 11
83.04423900000001
 21
65.739186
 31
0.0
  0
LINE
  5
86C
  8
LAYER_1
 10
83.04423900000001
 20
65.739186
 30
0.0
 11
83.127884
 21
64.953842
 31
0.0
  0
LINE
  5
86D
  8
LAYER_1
 10
83.127884
 20
64.953842
 30
0.0
 11
83.127884
 21
63.91505
 31
0.0
  0
LINE
  5
86E
  8
LAYER_1
 10
83.127884
 20
63.91505
 30
0.0
 11
83.841827
 21
64.685006
 31
0.0
  0
LINE
  5
86F
  8
LAYER_1
 10
83.841827
 20
64.685006
 30
0.0
 11
84.459418
 21
65.217586
 31
0.0
  0
LINE
  5
870
  8
LAYER_1
 10
84.459418
 20
65.217586
 30
0.0
 11
85.130276
 21
65.570916
 31
0.0
  0
LINE
  5
871
  8
LAYER_1
 10
85.130276
 20
65.570916
 30
0.0
 11
85.789654
 21
65.720516
 31
0.0
  0
LINE
  5
872
  8
LAYER_1
 10
85.789654
 20
65.720516
 30
0.0
 11
86.372807
 21
65.641909
 31
0.0
  0
LINE
  5
873
  8
LAYER_1
 10
86.372807
 20
65.641909
 30
0.0
 11
86.658367
 21
65.272773
 31
0.0
  0
LINE
  5
874
  8
LAYER_1
 10
86.658367
 20
65.272773
 30
0.0
 11
86.792328
 21
64.63715999999999
 31
0.0
  0
LINE
  5
875
  8
LAYER_1
 10
86.792328
 20
64.63715999999999
 30
0.0
 11
86.751964
 21
64.035487
 31
0.0
  0
LINE
  5
876
  8
LAYER_1
 10
86.751964
 20
64.035487
 30
0.0
 11
86.514551
 21
63.76817
 31
0.0
  0
LINE
  5
877
  8
LAYER_1
 10
86.514551
 20
63.76817
 30
0.0
 11
86.263857
 21
63.68378
 31
0.0
  0
LINE
  5
878
  8
LAYER_1
 10
86.263857
 20
63.68378
 30
0.0
 11
86.248819
 21
63.484332
 31
0.0
  0
LINE
  5
879
  8
LAYER_1
 10
86.248819
 20
63.484332
 30
0.0
 11
86.437203
 21
63.250415
 31
0.0
  0
LINE
  5
87A
  8
LAYER_1
 10
86.437203
 20
63.250415
 30
0.0
 11
86.796773
 21
63.062615
 31
0.0
  0
LINE
  5
87B
  8
LAYER_1
 10
86.796773
 20
63.062615
 30
0.0
 11
87.19541200000001
 21
62.848624
 31
0.0
  0
LINE
  5
87C
  8
LAYER_1
 10
87.19541200000001
 20
62.848624
 30
0.0
 11
87.361217
 21
62.585707
 31
0.0
  0
LINE
  5
87D
  8
LAYER_1
 10
87.361217
 20
62.585707
 30
0.0
 11
87.24955300000001
 21
62.459738
 31
0.0
  0
LINE
  5
87E
  8
LAYER_1
 10
87.24955300000001
 20
62.459738
 30
0.0
 11
86.940977
 21
62.636713
 31
0.0
  0
LINE
  5
87F
  8
LAYER_1
 10
86.940977
 20
62.636713
 30
0.0
 11
86.291313
 21
62.872394
 31
0.0
  0
LINE
  5
880
  8
LAYER_1
 10
86.291313
 20
62.872394
 30
0.0
 11
85.496115
 21
62.812517
 31
0.0
  0
LINE
  5
881
  8
LAYER_1
 10
85.496115
 20
62.812517
 30
0.0
 11
84.822853
 21
62.521071
 31
0.0
  0
LINE
  5
882
  8
LAYER_1
 10
84.822853
 20
62.521071
 30
0.0
 11
84.538995
 21
62.06205
 31
0.0
  0
LINE
  5
883
  8
LAYER_1
 10
84.538995
 20
62.06205
 30
0.0
 11
84.583376
 21
61.785751
 31
0.0
  0
LINE
  5
884
  8
LAYER_1
 10
84.583376
 20
61.785751
 30
0.0
 11
84.746714
 21
61.617241
 31
0.0
  0
LINE
  5
885
  8
LAYER_1
 10
84.746714
 20
61.617241
 30
0.0
 11
85.611439
 21
61.510393
 31
0.0
  0
LINE
  5
886
  8
LAYER_1
 10
85.611439
 20
61.510393
 30
0.0
 11
86.46833700000001
 21
61.609876
 31
0.0
  0
LINE
  5
887
  8
LAYER_1
 10
86.46833700000001
 20
61.609876
 30
0.0
 11
87.02255100000001
 21
61.849059
 31
0.0
  0
LINE
  5
888
  8
LAYER_1
 10
87.02255100000001
 20
61.849059
 30
0.0
 11
87.290661
 21
62.045145
 31
0.0
  0
LINE
  5
889
  8
LAYER_1
 10
87.290661
 20
62.045145
 30
0.0
 11
87.361217
 21
61.842004
 31
0.0
  0
LINE
  5
88A
  8
LAYER_1
 10
87.361217
 20
61.842004
 30
0.0
 11
87.114884
 21
61.548571
 31
0.0
  0
LINE
  5
88B
  8
LAYER_1
 10
87.114884
 20
61.548571
 30
0.0
 11
86.52263600000001
 21
61.328565
 31
0.0
  0
LINE
  5
88C
  8
LAYER_1
 10
86.52263600000001
 20
61.328565
 30
0.0
 11
85.88950199999999
 21
61.097239
 31
0.0
  0
LINE
  5
88D
  8
LAYER_1
 10
85.88950199999999
 20
61.097239
 30
0.0
 11
85.958192
 21
60.648619
 31
0.0
  0
LINE
  5
88E
  8
LAYER_1
 10
85.958192
 20
60.648619
 30
0.0
 11
86.20634
 21
59.820453
 31
0.0
  0
LINE
  5
88F
  8
LAYER_1
 10
86.20634
 20
59.820453
 30
0.0
 11
86.01175000000001
 21
59.275715
 31
0.0
  0
LINE
  5
890
  8
LAYER_1
 10
86.01175000000001
 20
59.275715
 30
0.0
 11
85.472307
 21
59.109246
 31
0.0
  0
LINE
  5
891
  8
LAYER_1
 10
85.472307
 20
59.109246
 30
0.0
 11
84.68589400000001
 21
59.415886
 31
0.0
  0
LINE
  5
892
  8
LAYER_1
 10
84.68589400000001
 20
59.415886
 30
0.0
 11
84.09538600000001
 21
59.685178
 31
0.0
  0
LINE
  5
893
  8
LAYER_1
 10
84.09538600000001
 20
59.685178
 30
0.0
 11
83.924572
 21
59.059925
 31
0.0
  0
LINE
  5
894
  8
LAYER_1
 10
83.924572
 20
59.059925
 30
0.0
 11
83.69424100000001
 21
58.407897
 31
0.0
  0
LINE
  5
895
  8
LAYER_1
 10
83.69424100000001
 20
58.407897
 30
0.0
 11
83.055722
 21
58.175381
 31
0.0
  0
LINE
  5
896
  8
LAYER_1
 10
83.055722
 20
58.175381
 30
0.0
 11
82.434145
 21
58.221479
 31
0.0
  0
LINE
  5
897
  8
LAYER_1
 10
82.434145
 20
58.221479
 30
0.0
 11
82.109409
 21
58.525286
 31
0.0
  0
LINE
  5
898
  8
LAYER_1
 10
82.109409
 20
58.525286
 30
0.0
 11
82.109409
 21
58.525286
 31
0.0
  0
LINE
  5
899
  8
LAYER_1
 10
83.692328
 20
58.988946
 30
0.0
 11
83.40361400000001
 21
60.092624
 31
0.0
  0
LINE
  5
89A
  8
LAYER_1
 10
83.40361400000001
 20
60.092624
 30
0.0
 11
83.1294
 21
60.5019
 31
0.0
  0
LINE
  5
89B
  8
LAYER_1
 10
83.1294
 20
60.5019
 30
0.0
 11
82.845662
 21
60.663726
 31
0.0
  0
LINE
  5
89C
  8
LAYER_1
 10
82.845662
 20
60.663726
 30
0.0
 11
82.493835
 21
60.483082
 31
0.0
  0
LINE
  5
89D
  8
LAYER_1
 10
82.493835
 20
60.483082
 30
0.0
 11
82.249236
 21
60.040899
 31
0.0
  0
LINE
  5
89E
  8
LAYER_1
 10
82.249236
 20
60.040899
 30
0.0
 11
82.161739
 21
59.486796
 31
0.0
  0
LINE
  5
89F
  8
LAYER_1
 10
82.161739
 20
59.486796
 30
0.0
 11
82.281217
 21
58.970393
 31
0.0
  0
LINE
  5
8A0
  8
LAYER_1
 10
82.281217
 20
58.970393
 30
0.0
 11
82.67402
 21
58.543233
 31
0.0
  0
LINE
  5
8A1
  8
LAYER_1
 10
82.67402
 20
58.543233
 30
0.0
 11
83.139943
 21
58.405251
 31
0.0
  0
LINE
  5
8A2
  8
LAYER_1
 10
83.139943
 20
58.405251
 30
0.0
 11
83.529281
 21
58.554478
 31
0.0
  0
LINE
  5
8A3
  8
LAYER_1
 10
83.529281
 20
58.554478
 30
0.0
 11
83.692328
 21
58.988946
 31
0.0
  0
LINE
  5
8A4
  8
LAYER_1
 10
83.692328
 20
58.988946
 30
0.0
 11
83.692328
 21
58.988946
 31
0.0
  0
LINE
  5
8A5
  8
LAYER_1
 10
81.75375200000001
 20
59.886153
 30
0.0
 11
81.8627
 21
60.278032
 31
0.0
  0
LINE
  5
8A6
  8
LAYER_1
 10
81.8627
 20
60.278032
 30
0.0
 11
81.771338
 21
60.612209
 31
0.0
  0
LINE
  5
8A7
  8
LAYER_1
 10
81.771338
 20
60.612209
 30
0.0
 11
81.50567
 21
60.847227
 31
0.0
  0
LINE
  5
8A8
  8
LAYER_1
 10
81.50567
 20
60.847227
 30
0.0
 11
81.091701
 21
60.941627
 31
0.0
  0
LINE
  5
8A9
  8
LAYER_1
 10
81.091701
 20
60.941627
 30
0.0
 11
80.819605
 21
60.759293
 31
0.0
  0
LINE
  5
8AA
  8
LAYER_1
 10
80.819605
 20
60.759293
 30
0.0
 11
80.564888
 21
60.319503
 31
0.0
  0
LINE
  5
8AB
  8
LAYER_1
 10
80.564888
 20
60.319503
 30
0.0
 11
80.404241
 21
59.799476
 31
0.0
  0
LINE
  5
8AC
  8
LAYER_1
 10
80.404241
 20
59.799476
 30
0.0
 11
80.414357
 21
59.376431
 31
0.0
  0
LINE
  5
8AD
  8
LAYER_1
 10
80.414357
 20
59.376431
 30
0.0
 11
80.650997
 21
59.137307
 31
0.0
  0
LINE
  5
8AE
  8
LAYER_1
 10
80.650997
 20
59.137307
 30
0.0
 11
81.01005000000001
 21
59.164221
 31
0.0
  0
LINE
  5
8AF
  8
LAYER_1
 10
81.01005000000001
 20
59.164221
 30
0.0
 11
81.406104
 21
59.424671
 31
0.0
  0
LINE
  5
8B0
  8
LAYER_1
 10
81.406104
 20
59.424671
 30
0.0
 11
81.75375200000001
 21
59.886153
 31
0.0
  0
LINE
  5
8B1
  8
LAYER_1
 10
81.75375200000001
 20
59.886153
 30
0.0
 11
81.75375200000001
 21
59.886153
 31
0.0
  0
LINE
  5
8B2
  8
LAYER_1
 10
85.95010600000001
 20
59.865393
 30
0.0
 11
85.79674300000001
 21
60.324262
 31
0.0
  0
LINE
  5
8B3
  8
LAYER_1
 10
85.79674300000001
 20
60.324262
 30
0.0
 11
85.40814
 21
60.765391
 31
0.0
  0
LINE
  5
8B4
  8
LAYER_1
 10
85.40814
 20
60.765391
 30
0.0
 11
84.89153
 21
61.097215
 31
0.0
  0
LINE
  5
8B5
  8
LAYER_1
 10
84.89153
 20
61.097215
 30
0.0
 11
84.354142
 21
61.22817
 31
0.0
  0
LINE
  5
8B6
  8
LAYER_1
 10
84.354142
 20
61.22817
 30
0.0
 11
83.890288
 21
61.182753
 31
0.0
  0
LINE
  5
8B7
  8
LAYER_1
 10
83.890288
 20
61.182753
 30
0.0
 11
83.72884999999999
 21
61.020378
 31
0.0
  0
LINE
  5
8B8
  8
LAYER_1
 10
83.72884999999999
 20
61.020378
 30
0.0
 11
84.305967
 21
60.188026
 31
0.0
  0
LINE
  5
8B9
  8
LAYER_1
 10
84.305967
 20
60.188026
 30
0.0
 11
84.835511
 21
59.768491
 31
0.0
  0
LINE
  5
8BA
  8
LAYER_1
 10
84.835511
 20
59.768491
 30
0.0
 11
85.37039
 21
59.558323
 31
0.0
  0
LINE
  5
8BB
  8
LAYER_1
 10
85.37039
 20
59.558323
 30
0.0
 11
85.784092
 21
59.582348
 31
0.0
  0
LINE
  5
8BC
  8
LAYER_1
 10
85.784092
 20
59.582348
 30
0.0
 11
85.95010600000001
 21
59.865393
 31
0.0
  0
LINE
  5
8BD
  8
LAYER_1
 10
85.95010600000001
 20
59.865393
 30
0.0
 11
85.95010600000001
 21
59.865393
 31
0.0
  0
LINE
  5
8BE
  8
LAYER_1
 10
80.610967
 20
61.22817
 30
0.0
 11
80.80210200000001
 21
61.351338
 31
0.0
  0
LINE
  5
8BF
  8
LAYER_1
 10
80.80210200000001
 20
61.351338
 30
0.0
 11
80.86327799999999
 21
61.638264
 31
0.0
  0
LINE
  5
8C0
  8
LAYER_1
 10
80.86327799999999
 20
61.638264
 30
0.0
 11
80.795773
 21
61.965083
 31
0.0
  0
LINE
  5
8C1
  8
LAYER_1
 10
80.795773
 20
61.965083
 30
0.0
 11
80.600863
 21
62.207927
 31
0.0
  0
LINE
  5
8C2
  8
LAYER_1
 10
80.600863
 20
62.207927
 30
0.0
 11
80.153533
 21
62.288695
 31
0.0
  0
LINE
  5
8C3
  8
LAYER_1
 10
80.153533
 20
62.288695
 30
0.0
 11
79.587068
 21
62.177788
 31
0.0
  0
LINE
  5
8C4
  8
LAYER_1
 10
79.587068
 20
62.177788
 30
0.0
 11
79.100922
 21
61.941077
 31
0.0
  0
LINE
  5
8C5
  8
LAYER_1
 10
79.100922
 20
61.941077
 30
0.0
 11
78.89455100000001
 21
61.644428
 31
0.0
  0
LINE
  5
8C6
  8
LAYER_1
 10
78.89455100000001
 20
61.644428
 30
0.0
 11
78.988356
 21
61.35428
 31
0.0
  0
LINE
  5
8C7
  8
LAYER_1
 10
78.988356
 20
61.35428
 30
0.0
 11
79.234818
 21
61.151102
 31
0.0
  0
LINE
  5
8C8
  8
LAYER_1
 10
79.234818
 20
61.151102
 30
0.0
 11
79.975967
 21
61.10942
 31
0.0
  0
LINE
  5
8C9
  8
LAYER_1
 10
79.975967
 20
61.10942
 30
0.0
 11
80.610967
 21
61.22817
 31
0.0
  0
LINE
  5
8CA
  8
LAYER_1
 10
80.610967
 20
61.22817
 30
0.0
 11
80.610967
 21
61.22817
 31
0.0
  0
LINE
  5
8CB
  8
LAYER_1
 10
83.347309
 20
61.385283
 30
0.0
 11
83.776211
 21
61.756869
 31
0.0
  0
LINE
  5
8CC
  8
LAYER_1
 10
83.776211
 20
61.756869
 30
0.0
 11
83.942848
 21
62.114901
 31
0.0
  0
LINE
  5
8CD
  8
LAYER_1
 10
83.942848
 20
62.114901
 30
0.0
 11
83.85175700000001
 21
62.504262
 31
0.0
  0
LINE
  5
8CE
  8
LAYER_1
 10
83.85175700000001
 20
62.504262
 30
0.0
 11
83.507476
 21
62.969837
 31
0.0
  0
LINE
  5
8CF
  8
LAYER_1
 10
83.507476
 20
62.969837
 30
0.0
 11
83.03744
 21
63.316427
 31
0.0
  0
LINE
  5
8D0
  8
LAYER_1
 10
83.03744
 20
63.316427
 30
0.0
 11
82.486178
 21
63.466679
 31
0.0
  0
LINE
  5
8D1
  8
LAYER_1
 10
82.486178
 20
63.466679
 30
0.0
 11
81.941444
 21
63.412871
 31
0.0
  0
LINE
  5
8D2
  8
LAYER_1
 10
81.941444
 20
63.412871
 30
0.0
 11
81.490995
 21
63.147281
 31
0.0
  0
LINE
  5
8D3
  8
LAYER_1
 10
81.490995
 20
63.147281
 30
0.0
 11
81.22497799999999
 21
62.686845
 31
0.0
  0
LINE
  5
8D4
  8
LAYER_1
 10
81.22497799999999
 20
62.686845
 30
0.0
 11
81.168852
 21
62.135709
 31
0.0
  0
LINE
  5
8D5
  8
LAYER_1
 10
81.168852
 20
62.135709
 30
0.0
 11
81.31260399999999
 21
61.616233
 31
0.0
  0
LINE
  5
8D6
  8
LAYER_1
 10
81.31260399999999
 20
61.616233
 30
0.0
 11
81.64621699999999
 21
61.250776
 31
0.0
  0
LINE
  5
8D7
  8
LAYER_1
 10
81.64621699999999
 20
61.250776
 30
0.0
 11
82.480242
 21
60.978565
 31
0.0
  0
LINE
  5
8D8
  8
LAYER_1
 10
82.480242
 20
60.978565
 30
0.0
 11
83.347309
 21
61.385283
 31
0.0
  0
LINE
  5
8D9
  8
LAYER_1
 10
83.347309
 20
61.385283
 30
0.0
 11
83.347309
 21
61.385283
 31
0.0
  0
LINE
  5
8DA
  8
LAYER_1
 10
80.874275
 20
64.385992
 30
0.0
 11
80.349966
 21
64.723985
 31
0.0
  0
LINE
  5
8DB
  8
LAYER_1
 10
80.349966
 20
64.723985
 30
0.0
 11
79.946465
 21
64.792964
 31
0.0
  0
LINE
  5
8DC
  8
LAYER_1
 10
79.946465
 20
64.792964
 30
0.0
 11
79.666673
 21
64.59348300000001
 31
0.0
  0
LINE
  5
8DD
  8
LAYER_1
 10
79.666673
 20
64.59348300000001
 30
0.0
 11
79.513492
 21
64.126093
 31
0.0
  0
LINE
  5
8DE
  8
LAYER_1
 10
79.513492
 20
64.126093
 30
0.0
 11
79.62199
 21
63.579591
 31
0.0
  0
LINE
  5
8DF
  8
LAYER_1
 10
79.62199
 20
63.579591
 30
0.0
 11
80.057557
 21
63.098705
 31
0.0
  0
LINE
  5
8E0
  8
LAYER_1
 10
80.057557
 20
63.098705
 30
0.0
 11
80.656375
 21
62.814496
 31
0.0
  0
LINE
  5
8E1
  8
LAYER_1
 10
80.656375
 20
62.814496
 30
0.0
 11
81.108285
 21
63.256662
 31
0.0
  0
LINE
  5
8E2
  8
LAYER_1
 10
81.108285
 20
63.256662
 30
0.0
 11
81.360253
 21
63.8454
 31
0.0
  0
LINE
  5
8E3
  8
LAYER_1
 10
81.360253
 20
63.8454
 30
0.0
 11
80.874275
 21
64.385992
 31
0.0
  0
LINE
  5
8E4
  8
LAYER_1
 10
80.874275
 20
64.385992
 30
0.0
 11
80.874275
 21
64.385992
 31
0.0
  0
LINE
  5
8E5
  8
LAYER_1
 10
85.616011
 20
63.494217
 30
0.0
 11
86.32024
 21
64.077743
 31
0.0
  0
LINE
  5
8E6
  8
LAYER_1
 10
86.32024
 20
64.077743
 30
0.0
 11
86.462678
 21
64.692606
 31
0.0
  0
LINE
  5
8E7
  8
LAYER_1
 10
86.462678
 20
64.692606
 30
0.0
 11
86.197941
 21
65.24480699999999
 31
0.0
  0
LINE
  5
8E8
  8
LAYER_1
 10
86.197941
 20
65.24480699999999
 30
0.0
 11
85.676017
 21
65.416285
 31
0.0
  0
LINE
  5
8E9
  8
LAYER_1
 10
85.676017
 20
65.416285
 30
0.0
 11
84.988305
 21
65.209694
 31
0.0
  0
LINE
  5
8EA
  8
LAYER_1
 10
84.988305
 20
65.209694
 30
0.0
 11
84.226202
 21
64.627687
 31
0.0
  0
LINE
  5
8EB
  8
LAYER_1
 10
84.226202
 20
64.627687
 30
0.0
 11
83.587602
 21
63.842256
 31
0.0
  0
LINE
  5
8EC
  8
LAYER_1
 10
83.587602
 20
63.842256
 30
0.0
 11
83.560574
 21
63.582611
 31
0.0
  0
LINE
  5
8ED
  8
LAYER_1
 10
83.560574
 20
63.582611
 30
0.0
 11
83.698156
 21
63.337815
 31
0.0
  0
LINE
  5
8EE
  8
LAYER_1
 10
83.698156
 20
63.337815
 30
0.0
 11
84.034187
 21
63.033468
 31
0.0
  0
LINE
  5
8EF
  8
LAYER_1
 10
84.034187
 20
63.033468
 30
0.0
 11
84.410225
 21
62.95355
 31
0.0
  0
LINE
  5
8F0
  8
LAYER_1
 10
84.410225
 20
62.95355
 30
0.0
 11
85.616011
 21
63.494217
 31
0.0
  0
LINE
  5
8F1
  8
LAYER_1
 10
85.616011
 20
63.494217
 30
0.0
 11
85.616011
 21
63.494217
 31
0.0
  0
LINE
  5
8F2
  8
LAYER_1
 10
17.370106
 20
71.492384
 30
0.0
 11
14.956368
 21
72.29405800000001
 31
0.0
  0
LINE
  5
8F3
  8
LAYER_1
 10
14.956368
 20
72.29405800000001
 30
0.0
 11
12.95269
 21
73.542089
 31
0.0
  0
LINE
  5
8F4
  8
LAYER_1
 10
12.95269
 20
73.542089
 30
0.0
 11
12.114546
 21
74.325371
 31
0.0
  0
LINE
  5
8F5
  8
LAYER_1
 10
12.114546
 20
74.325371
 30
0.0
 11
11.390825
 21
75.21050200000001
 31
0.0
  0
LINE
  5
8F6
  8
LAYER_1
 10
11.390825
 20
75.21050200000001
 30
0.0
 11
10.785496
 21
76.194236
 31
0.0
  0
LINE
  5
8F7
  8
LAYER_1
 10
10.785496
 20
76.194236
 30
0.0
 11
10.302528
 21
77.273325
 31
0.0
  0
LINE
  5
8F8
  8
LAYER_1
 10
10.302528
 20
77.273325
 30
0.0
 11
9.372678000000001
 21
78.99497
 31
0.0
  0
LINE
  5
8F9
  8
LAYER_1
 10
9.372678000000001
 20
78.99497
 30
0.0
 11
7.59281
 21
81.041596
 31
0.0
  0
LINE
  5
8FA
  8
LAYER_1
 10
7.59281
 20
81.041596
 30
0.0
 11
6.37432
 21
82.31712400000001
 31
0.0
  0
LINE
  5
8FB
  8
LAYER_1
 10
6.37432
 20
82.31712400000001
 30
0.0
 11
5.766704
 21
83.09760799999999
 31
0.0
  0
LINE
  5
8FC
  8
LAYER_1
 10
5.766704
 20
83.09760799999999
 30
0.0
 11
5.589628
 21
83.701103
 31
0.0
  0
LINE
  5
8FD
  8
LAYER_1
 10
5.589628
 20
83.701103
 30
0.0
 11
5.662763
 21
84.44566399999999
 31
0.0
  0
LINE
  5
8FE
  8
LAYER_1
 10
5.662763
 20
84.44566399999999
 30
0.0
 11
5.732792
 21
85.14872800000001
 31
0.0
  0
LINE
  5
8FF
  8
LAYER_1
 10
5.732792
 20
85.14872800000001
 30
0.0
 11
5.651668
 21
85.697918
 31
0.0
  0
LINE
  5
900
  8
LAYER_1
 10
5.651668
 20
85.697918
 30
0.0
 11
4.799273
 21
87.04797600000001
 31
0.0
  0
LINE
  5
901
  8
LAYER_1
 10
4.799273
 20
87.04797600000001
 30
0.0
 11
3.229175
 21
89.57057399999999
 31
0.0
  0
LINE
  5
902
  8
LAYER_1
 10
3.229175
 20
89.57057399999999
 30
0.0
 11
2.888124
 21
90.671395
 31
0.0
  0
LINE
  5
903
  8
LAYER_1
 10
2.888124
 20
90.671395
 30
0.0
 11
2.71894
 21
91.911779
 31
0.0
  0
LINE
  5
904
  8
LAYER_1
 10
2.71894
 20
91.911779
 30
0.0
 11
2.741774
 21
92.974572
 31
0.0
  0
LINE
  5
905
  8
LAYER_1
 10
2.741774
 20
92.974572
 30
0.0
 11
2.976781
 21
93.54262
 31
0.0
  0
LINE
  5
906
  8
LAYER_1
 10
2.976781
 20
93.54262
 30
0.0
 11
3.86005
 21
93.172653
 31
0.0
  0
LINE
  5
907
  8
LAYER_1
 10
3.86005
 20
93.172653
 30
0.0
 11
5.587336
 21
92.038218
 31
0.0
  0
LINE
  5
908
  8
LAYER_1
 10
5.587336
 20
92.038218
 30
0.0
 11
7.86778
 21
90.499202
 31
0.0
  0
LINE
  5
909
  8
LAYER_1
 10
7.86778
 20
90.499202
 30
0.0
 11
9.882521000000001
 21
89.443764
 31
0.0
  0
LINE
  5
90A
  8
LAYER_1
 10
9.882521000000001
 20
89.443764
 30
0.0
 11
12.05457
 21
88.68901099999999
 31
0.0
  0
LINE
  5
90B
  8
LAYER_1
 10
12.05457
 20
88.68901099999999
 30
0.0
 11
14.806941
 21
88.052049
 31
0.0
  0
LINE
  5
90C
  8
LAYER_1
 10
14.806941
 20
88.052049
 30
0.0
 11
17.086759
 21
87.31598200000001
 31
0.0
  0
LINE
  5
90D
  8
LAYER_1
 10
17.086759
 20
87.31598200000001
 30
0.0
 11
19.507489
 21
86.029358
 31
0.0
  0
LINE
  5
90E
  8
LAYER_1
 10
19.507489
 20
86.029358
 30
0.0
 11
21.947348
 21
84.26853300000001
 31
0.0
  0
LINE
  5
90F
  8
LAYER_1
 10
21.947348
 20
84.26853300000001
 30
0.0
 11
24.28455
 21
82.109863
 31
0.0
  0
LINE
  5
910
  8
LAYER_1
 10
24.28455
 20
82.109863
 30
0.0
 11
26.753995
 21
79.963735
 31
0.0
  0
LINE
  5
911
  8
LAYER_1
 10
26.753995
 20
79.963735
 30
0.0
 11
27.447115
 21
79.424761
 31
0.0
  0
LINE
  5
912
  8
LAYER_1
 10
27.447115
 20
79.424761
 30
0.0
 11
27.763747
 21
78.953131
 31
0.0
  0
LINE
  5
913
  8
LAYER_1
 10
27.763747
 20
78.953131
 30
0.0
 11
27.697389
 21
78.57101900000001
 31
0.0
  0
LINE
  5
914
  8
LAYER_1
 10
27.697389
 20
78.57101900000001
 30
0.0
 11
27.241542
 21
78.300603
 31
0.0
  0
LINE
  5
915
  8
LAYER_1
 10
27.241542
 20
78.300603
 30
0.0
 11
26.260704
 21
78.191858
 31
0.0
  0
LINE
  5
916
  8
LAYER_1
 10
26.260704
 20
78.191858
 30
0.0
 11
25.202519
 21
78.589219
 31
0.0
  0
LINE
  5
917
  8
LAYER_1
 10
25.202519
 20
78.589219
 30
0.0
 11
23.860153
 21
79.615332
 31
0.0
  0
LINE
  5
918
  8
LAYER_1
 10
23.860153
 20
79.615332
 30
0.0
 11
22.026772
 21
81.392844
 31
0.0
  0
LINE
  5
919
  8
LAYER_1
 10
22.026772
 20
81.392844
 30
0.0
 11
19.597419
 21
83.77951
 31
0.0
  0
LINE
  5
91A
  8
LAYER_1
 10
19.597419
 20
83.77951
 30
0.0
 11
17.663568
 21
85.22417400000001
 31
0.0
  0
LINE
  5
91B
  8
LAYER_1
 10
17.663568
 20
85.22417400000001
 30
0.0
 11
15.39497
 21
86.206278
 31
0.0
  0
LINE
  5
91C
  8
LAYER_1
 10
15.39497
 20
86.206278
 30
0.0
 11
11.961376
 21
87.20526099999999
 31
0.0
  0
LINE
  5
91D
  8
LAYER_1
 10
11.961376
 20
87.20526099999999
 30
0.0
 11
9.812628
 21
87.83971200000001
 31
0.0
  0
LINE
  5
91E
  8
LAYER_1
 10
9.812628
 20
87.83971200000001
 30
0.0
 11
8.21238
 21
88.460131
 31
0.0
  0
LINE
  5
91F
  8
LAYER_1
 10
8.21238
 20
88.460131
 30
0.0
 11
6.887633
 21
89.192807
 31
0.0
  0
LINE
  5
920
  8
LAYER_1
 10
6.887633
 20
89.192807
 30
0.0
 11
5.565388
 21
90.164028
 31
0.0
  0
LINE
  5
921
  8
LAYER_1
 10
5.565388
 20
90.164028
 30
0.0
 11
4.589168
 21
90.872991
 31
0.0
  0
LINE
  5
922
  8
LAYER_1
 10
4.589168
 20
90.872991
 30
0.0
 11
3.981317
 21
91.136445
 31
0.0
  0
LINE
  5
923
  8
LAYER_1
 10
3.981317
 20
91.136445
 30
0.0
 11
3.737859
 21
90.954769
 31
0.0
  0
LINE
  5
924
  8
LAYER_1
 10
3.737859
 20
90.954769
 30
0.0
 11
3.854822
 21
90.328346
 31
0.0
  0
LINE
  5
925
  8
LAYER_1
 10
3.854822
 20
90.328346
 30
0.0
 11
4.379591
 21
89.33328299999999
 31
0.0
  0
LINE
  5
926
  8
LAYER_1
 10
4.379591
 20
89.33328299999999
 30
0.0
 11
5.288065
 21
88.210099
 31
0.0
  0
LINE
  5
927
  8
LAYER_1
 10
5.288065
 20
88.210099
 30
0.0
 11
6.540005
 21
87.002211
 31
0.0
  0
LINE
  5
928
  8
LAYER_1
 10
6.540005
 20
87.002211
 30
0.0
 11
8.095174
 21
85.75303599999999
 31
0.0
  0
LINE
  5
929
  8
LAYER_1
 10
8.095174
 20
85.75303599999999
 30
0.0
 11
9.338487000000001
 21
84.757308
 31
0.0
  0
LINE
  5
92A
  8
LAYER_1
 10
9.338487000000001
 20
84.757308
 30
0.0
 11
9.748341
 21
84.238579
 31
0.0
  0
LINE
  5
92B
  8
LAYER_1
 10
9.748341
 20
84.238579
 30
0.0
 11
9.324996000000001
 21
84.207416
 31
0.0
  0
LINE
  5
92C
  8
LAYER_1
 10
9.324996000000001
 20
84.207416
 30
0.0
 11
8.068709999999999
 21
84.67438799999999
 31
0.0
  0
LINE
  5
92D
  8
LAYER_1
 10
8.068709999999999
 20
84.67438799999999
 30
0.0
 11
6.498748
 21
85.164219
 31
0.0
  0
LINE
  5
92E
  8
LAYER_1
 10
6.498748
 20
85.164219
 30
0.0
 11
6.6078
 21
84.501008
 31
0.0
  0
LINE
  5
92F
  8
LAYER_1
 10
6.6078
 20
84.501008
 30
0.0
 11
7.286265
 21
83.283091
 31
0.0
  0
LINE
  5
930
  8
LAYER_1
 10
7.286265
 20
83.283091
 30
0.0
 11
8.28708
 21
81.894015
 31
0.0
  0
LINE
  5
931
  8
LAYER_1
 10
8.28708
 20
81.894015
 30
0.0
 11
9.363185
 21
80.717331
 31
0.0
  0
LINE
  5
932
  8
LAYER_1
 10
9.363185
 20
80.717331
 30
0.0
 11
10.658332
 21
79.711119
 31
0.0
  0
LINE
  5
933
  8
LAYER_1
 10
10.658332
 20
79.711119
 30
0.0
 11
12.02658
 21
79.002562
 31
0.0
  0
LINE
  5
934
  8
LAYER_1
 10
12.02658
 20
79.002562
 30
0.0
 11
13.495583
 21
78.580641
 31
0.0
  0
LINE
  5
935
  8
LAYER_1
 10
13.495583
 20
78.580641
 30
0.0
 11
15.092996
 21
78.434336
 31
0.0
  0
LINE
  5
936
  8
LAYER_1
 10
15.092996
 20
78.434336
 30
0.0
 11
16.382328
 21
78.424947
 31
0.0
  0
LINE
  5
937
  8
LAYER_1
 10
16.382328
 20
78.424947
 30
0.0
 11
15.716063
 21
77.86989199999999
 31
0.0
  0
LINE
  5
938
  8
LAYER_1
 10
15.716063
 20
77.86989199999999
 30
0.0
 11
15.105743
 21
77.517113
 31
0.0
  0
LINE
  5
939
  8
LAYER_1
 10
15.105743
 20
77.517113
 30
0.0
 11
14.333738
 21
77.3513
 31
0.0
  0
LINE
  5
93A
  8
LAYER_1
 10
14.333738
 20
77.3513
 30
0.0
 11
13.379346
 21
77.37069700000001
 31
0.0
  0
LINE
  5
93B
  8
LAYER_1
 10
13.379346
 20
77.37069700000001
 30
0.0
 11
12.221867
 21
77.57354700000001
 31
0.0
  0
LINE
  5
93C
  8
LAYER_1
 10
12.221867
 20
77.57354700000001
 30
0.0
 11
11.165854
 21
77.818793
 31
0.0
  0
LINE
  5
93D
  8
LAYER_1
 10
11.165854
 20
77.818793
 30
0.0
 11
11.70318
 21
77.06419
 31
0.0
  0
LINE
  5
93E
  8
LAYER_1
 10
11.70318
 20
77.06419
 30
0.0
 11
12.647983
 21
75.960919
 31
0.0
  0
LINE
  5
93F
  8
LAYER_1
 10
12.647983
 20
75.960919
 30
0.0
 11
13.900476
 21
74.78182200000001
 31
0.0
  0
LINE
  5
940
  8
LAYER_1
 10
13.900476
 20
74.78182200000001
 30
0.0
 11
15.207746
 21
73.745767
 31
0.0
  0
LINE
  5
941
  8
LAYER_1
 10
15.207746
 20
73.745767
 30
0.0
 11
16.316878
 21
73.071617
 31
0.0
  0
LINE
  5
942
  8
LAYER_1
 10
16.316878
 20
73.071617
 30
0.0
 11
17.563804
 21
72.673517
 31
0.0
  0
LINE
  5
943
  8
LAYER_1
 10
17.563804
 20
72.673517
 30
0.0
 11
18.905809
 21
72.546708
 31
0.0
  0
LINE
  5
944
  8
LAYER_1
 10
18.905809
 20
72.546708
 30
0.0
 11
20.273119
 21
72.69074999999999
 31
0.0
  0
LINE
  5
945
  8
LAYER_1
 10
20.273119
 20
72.69074999999999
 30
0.0
 11
21.59596
 21
73.10519600000001
 31
0.0
  0
LINE
  5
946
  8
LAYER_1
 10
21.59596
 20
73.10519600000001
 30
0.0
 11
22.683402
 21
73.44242300000001
 31
0.0
  0
LINE
  5
947
  8
LAYER_1
 10
22.683402
 20
73.44242300000001
 30
0.0
 11
23.501749
 21
73.43094499999999
 31
0.0
  0
LINE
  5
948
  8
LAYER_1
 10
23.501749
 20
73.43094499999999
 30
0.0
 11
23.990714
 21
73.087146
 31
0.0
  0
LINE
  5
949
  8
LAYER_1
 10
23.990714
 20
73.087146
 30
0.0
 11
24.090009
 21
72.427409
 31
0.0
  0
LINE
  5
94A
  8
LAYER_1
 10
24.090009
 20
72.427409
 30
0.0
 11
23.980561
 21
72.10699200000001
 31
0.0
  0
LINE
  5
94B
  8
LAYER_1
 10
23.980561
 20
72.10699200000001
 30
0.0
 11
23.714733
 21
71.86852
 31
0.0
  0
LINE
  5
94C
  8
LAYER_1
 10
23.714733
 20
71.86852
 30
0.0
 11
22.450106
 21
71.485941
 31
0.0
  0
LINE
  5
94D
  8
LAYER_1
 10
22.450106
 20
71.485941
 30
0.0
 11
19.888843
 21
71.174953
 31
0.0
  0
LINE
  5
94E
  8
LAYER_1
 10
19.888843
 20
71.174953
 30
0.0
 11
17.370106
 21
71.492384
 31
0.0
  0
LINE
  5
94F
  8
LAYER_1
 10
17.370106
 20
71.492384
 30
0.0
 11
17.370106
 21
71.492384
 31
0.0
  0
LINE
  5
950
  8
LAYER_1
 10
32.398439
 20
83.71187500000001
 30
0.0
 11
32.120943
 21
84.023918
 31
0.0
  0
LINE
  5
951
  8
LAYER_1
 10
32.120943
 20
84.023918
 30
0.0
 11
32.057813
 21
84.52380599999999
 31
0.0
  0
LINE
  5
952
  8
LAYER_1
 10
32.057813
 20
84.52380599999999
 30
0.0
 11
32.195161
 21
85.02434700000001
 31
0.0
  0
LINE
  5
953
  8
LAYER_1
 10
32.195161
 20
85.02434700000001
 30
0.0
 11
32.519101
 21
85.338347
 31
0.0
  0
LINE
  5
954
  8
LAYER_1
 10
32.519101
 20
85.338347
 30
0.0
 11
33.029281
 21
85.353127
 31
0.0
  0
LINE
  5
955
  8
LAYER_1
 10
33.029281
 20
85.353127
 30
0.0
 11
33.448888
 21
85.081445
 31
0.0
  0
LINE
  5
956
  8
LAYER_1
 10
33.448888
 20
85.081445
 30
0.0
 11
33.66706
 21
84.646186
 31
0.0
  0
LINE
  5
957
  8
LAYER_1
 10
33.66706
 20
84.646186
 30
0.0
 11
33.572938
 21
84.17022900000001
 31
0.0
  0
LINE
  5
958
  8
LAYER_1
 10
33.572938
 20
84.17022900000001
 30
0.0
 11
33.050548
 21
83.66373900000001
 31
0.0
  0
LINE
  5
959
  8
LAYER_1
 10
33.050548
 20
83.66373900000001
 30
0.0
 11
32.398439
 21
83.71187500000001
 31
0.0
  0
LINE
  5
95A
  8
LAYER_1
 10
32.398439
 20
83.71187500000001
 30
0.0
 11
32.398439
 21
83.71187500000001
 31
0.0
  0
LINE
  5
95B
  8
LAYER_1
 10
101.388012
 20
85.39545200000001
 30
0.0
 11
101.190106
 21
86.251875
 31
0.0
  0
LINE
  5
95C
  8
LAYER_1
 10
101.190106
 20
86.251875
 30
0.0
 11
101.338266
 21
86.775689
 31
0.0
  0
LINE
  5
95D
  8
LAYER_1
 10
101.338266
 20
86.775689
 30
0.0
 11
101.914407
 21
86.910393
 31
0.0
  0
LINE
  5
95E
  8
LAYER_1
 10
101.914407
 20
86.910393
 30
0.0
 11
102.494407
 21
86.773168
 31
0.0
  0
LINE
  5
95F
  8
LAYER_1
 10
102.494407
 20
86.773168
 30
0.0
 11
102.549407
 21
86.13669400000001
 31
0.0
  0
LINE
  5
960
  8
LAYER_1
 10
102.549407
 20
86.13669400000001
 30
0.0
 11
102.390735
 21
85.650049
 31
0.0
  0
LINE
  5
961
  8
LAYER_1
 10
102.390735
 20
85.650049
 30
0.0
 11
102.093523
 21
85.33189900000001
 31
0.0
  0
LINE
  5
962
  8
LAYER_1
 10
102.093523
 20
85.33189900000001
 30
0.0
 11
101.733903
 21
85.230836
 31
0.0
  0
LINE
  5
963
  8
LAYER_1
 10
101.733903
 20
85.230836
 30
0.0
 11
101.388012
 21
85.39545200000001
 31
0.0
  0
LINE
  5
964
  8
LAYER_1
 10
101.388012
 20
85.39545200000001
 30
0.0
 11
101.388012
 21
85.39545200000001
 31
0.0
  0
LINE
  5
965
  8
LAYER_1
 10
23.360456
 20
86.629257
 30
0.0
 11
19.78054
 21
89.692909
 31
0.0
  0
LINE
  5
966
  8
LAYER_1
 10
19.78054
 20
89.692909
 30
0.0
 11
17.847127
 21
91.401432
 31
0.0
  0
LINE
  5
967
  8
LAYER_1
 10
17.847127
 20
91.401432
 30
0.0
 11
16.23318
 21
92.535725
 31
0.0
  0
LINE
  5
968
  8
LAYER_1
 10
16.23318
 20
92.535725
 30
0.0
 11
14.72869
 21
93.218132
 31
0.0
  0
LINE
  5
969
  8
LAYER_1
 10
14.72869
 20
93.218132
 30
0.0
 11
13.123649
 21
93.570995
 31
0.0
  0
LINE
  5
96A
  8
LAYER_1
 10
13.123649
 20
93.570995
 30
0.0
 11
11.718092
 21
93.935591
 31
0.0
  0
LINE
  5
96B
  8
LAYER_1
 10
11.718092
 20
93.935591
 30
0.0
 11
10.543097
 21
94.75357099999999
 31
0.0
  0
LINE
  5
96C
  8
LAYER_1
 10
10.543097
 20
94.75357099999999
 30
0.0
 11
9.729053
 21
95.404995
 31
0.0
  0
LINE
  5
96D
  8
LAYER_1
 10
9.729053
 20
95.404995
 30
0.0
 11
9.302707
 21
95.588178
 31
0.0
  0
LINE
  5
96E
  8
LAYER_1
 10
9.302707
 20
95.588178
 30
0.0
 11
9.436396
 21
94.954976
 31
0.0
  0
LINE
  5
96F
  8
LAYER_1
 10
9.436396
 20
94.954976
 30
0.0
 11
9.968821999999999
 21
93.64360000000001
 31
0.0
  0
LINE
  5
970
  8
LAYER_1
 10
9.968821999999999
 20
93.64360000000001
 30
0.0
 11
10.805525
 21
92.168819
 31
0.0
  0
LINE
  5
971
  8
LAYER_1
 10
10.805525
 20
92.168819
 30
0.0
 11
11.842796
 21
90.932683
 31
0.0
  0
LINE
  5
972
  8
LAYER_1
 10
11.842796
 20
90.932683
 30
0.0
 11
13.020242
 21
89.994484
 31
0.0
  0
LINE
  5
973
  8
LAYER_1
 10
13.020242
 20
89.994484
 30
0.0
 11
14.277472
 21
89.413512
 31
0.0
  0
LINE
  5
974
  8
LAYER_1
 10
14.277472
 20
89.413512
 30
0.0
 11
15.126002
 21
89.088712
 31
0.0
  0
LINE
  5
975
  8
LAYER_1
 10
15.126002
 20
89.088712
 30
0.0
 11
15.131109
 21
88.973165
 31
0.0
  0
LINE
  5
976
  8
LAYER_1
 10
15.131109
 20
88.973165
 30
0.0
 11
14.894619
 21
88.85458199999999
 31
0.0
  0
LINE
  5
977
  8
LAYER_1
 10
14.894619
 20
88.85458199999999
 30
0.0
 11
14.20194
 21
88.786293
 31
0.0
  0
LINE
  5
978
  8
LAYER_1
 10
14.20194
 20
88.786293
 30
0.0
 11
13.220102
 21
88.91031200000001
 31
0.0
  0
LINE
  5
979
  8
LAYER_1
 10
13.220102
 20
88.91031200000001
 30
0.0
 11
12.1524
 21
89.186902
 31
0.0
  0
LINE
  5
97A
  8
LAYER_1
 10
12.1524
 20
89.186902
 30
0.0
 11
11.202128
 21
89.576326
 31
0.0
  0
LINE
  5
97B
  8
LAYER_1
 10
11.202128
 20
89.576326
 30
0.0
 11
10.289656
 21
90.219634
 31
0.0
  0
LINE
  5
97C
  8
LAYER_1
 10
10.289656
 20
90.219634
 30
0.0
 11
9.332972
 21
91.152745
 31
0.0
  0
LINE
  5
97D
  8
LAYER_1
 10
9.332972
 20
91.152745
 30
0.0
 11
8.492694
 21
92.198758
 31
0.0
  0
LINE
  5
97E
  8
LAYER_1
 10
8.492694
 20
92.198758
 30
0.0
 11
7.929442
 21
93.18077200000001
 31
0.0
  0
LINE
  5
97F
  8
LAYER_1
 10
7.929442
 20
93.18077200000001
 30
0.0
 11
7.645553
 21
94.30359900000001
 31
0.0
  0
LINE
  5
980
  8
LAYER_1
 10
7.645553
 20
94.30359900000001
 30
0.0
 11
7.510913
 21
95.718205
 31
0.0
  0
LINE
  5
981
  8
LAYER_1
 10
7.510913
 20
95.718205
 30
0.0
 11
7.540312
 21
97.04006099999999
 31
0.0
  0
LINE
  5
982
  8
LAYER_1
 10
7.540312
 20
97.04006099999999
 30
0.0
 11
7.748538
 21
97.88463400000001
 31
0.0
  0
LINE
  5
983
  8
LAYER_1
 10
7.748538
 20
97.88463400000001
 30
0.0
 11
8.009864
 21
98.07939
 31
0.0
  0
LINE
  5
984
  8
LAYER_1
 10
8.009864
 20
98.07939
 30
0.0
 11
8.312583999999999
 21
97.684185
 31
0.0
  0
LINE
  5
985
  8
LAYER_1
 10
8.312583999999999
 20
97.684185
 30
0.0
 11
9.065669
 21
96.926681
 31
0.0
  0
LINE
  5
986
  8
LAYER_1
 10
9.065669
 20
96.926681
 30
0.0
 11
10.426078
 21
96.059494
 31
0.0
  0
LINE
  5
987
  8
LAYER_1
 10
10.426078
 20
96.059494
 30
0.0
 11
12.08092
 21
95.25599200000001
 31
0.0
  0
LINE
  5
988
  8
LAYER_1
 10
12.08092
 20
95.25599200000001
 30
0.0
 11
13.717306
 21
94.68954100000001
 31
0.0
  0
LINE
  5
989
  8
LAYER_1
 10
13.717306
 20
94.68954100000001
 30
0.0
 11
15.564945
 21
94.080902
 31
0.0
  0
LINE
  5
98A
  8
LAYER_1
 10
15.564945
 20
94.080902
 30
0.0
 11
17.356929
 21
93.19199
 31
0.0
  0
LINE
  5
98B
  8
LAYER_1
 10
17.356929
 20
93.19199
 30
0.0
 11
19.203038
 21
91.95877
 31
0.0
  0
LINE
  5
98C
  8
LAYER_1
 10
19.203038
 20
91.95877
 30
0.0
 11
21.213052
 21
90.317207
 31
0.0
  0
LINE
  5
98D
  8
LAYER_1
 10
21.213052
 20
90.317207
 30
0.0
 11
24.29912
 21
87.45794600000001
 31
0.0
  0
LINE
  5
98E
  8
LAYER_1
 10
24.29912
 20
87.45794600000001
 30
0.0
 11
24.83179
 21
86.760807
 31
0.0
  0
LINE
  5
98F
  8
LAYER_1
 10
24.83179
 20
86.760807
 30
0.0
 11
24.861906
 21
86.36684099999999
 31
0.0
  0
LINE
  5
990
  8
LAYER_1
 10
24.861906
 20
86.36684099999999
 30
0.0
 11
24.667982
 21
86.14077399999999
 31
0.0
  0
LINE
  5
991
  8
LAYER_1
 10
24.667982
 20
86.14077399999999
 30
0.0
 11
24.412989
 21
86.098687
 31
0.0
  0
LINE
  5
992
  8
LAYER_1
 10
24.412989
 20
86.098687
 30
0.0
 11
23.360456
 21
86.629257
 31
0.0
  0
LINE
  5
993
  8
LAYER_1
 10
23.360456
 20
86.629257
 30
0.0
 11
23.360456
 21
86.629257
 31
0.0
  0
LINE
  5
994
  8
LAYER_1
 10
109.938995
 20
87.088904
 30
0.0
 11
110.327437
 21
87.71990200000001
 31
0.0
  0
LINE
  5
995
  8
LAYER_1
 10
110.327437
 20
87.71990200000001
 30
0.0
 11
111.390954
 21
88.850149
 31
0.0
  0
LINE
  5
996
  8
LAYER_1
 10
111.390954
 20
88.850149
 30
0.0
 11
114.932364
 21
92.006776
 31
0.0
  0
LINE
  5
997
  8
LAYER_1
 10
114.932364
 20
92.006776
 30
0.0
 11
116.371415
 21
93.061876
 31
0.0
  0
LINE
  5
998
  8
LAYER_1
 10
116.371415
 20
93.061876
 30
0.0
 11
117.942465
 21
93.976927
 31
0.0
  0
LINE
  5
999
  8
LAYER_1
 10
117.942465
 20
93.976927
 30
0.0
 11
119.553634
 21
94.7045
 31
0.0
  0
LINE
  5
99A
  8
LAYER_1
 10
119.553634
 20
94.7045
 30
0.0
 11
121.113039
 21
95.19716800000001
 31
0.0
  0
LINE
  5
99B
  8
LAYER_1
 10
121.113039
 20
95.19716800000001
 30
0.0
 11
122.53439
 21
95.64025599999999
 31
0.0
  0
LINE
  5
99C
  8
LAYER_1
 10
122.53439
 20
95.64025599999999
 30
0.0
 11
123.899633
 21
96.255253
 31
0.0
  0
LINE
  5
99D
  8
LAYER_1
 10
123.899633
 20
96.255253
 30
0.0
 11
125.09807
 21
96.98413100000001
 31
0.0
  0
LINE
  5
99E
  8
LAYER_1
 10
125.09807
 20
96.98413100000001
 30
0.0
 11
126.019001
 21
97.76886
 31
0.0
  0
LINE
  5
99F
  8
LAYER_1
 10
126.019001
 20
97.76886
 30
0.0
 11
126.950484
 21
98.481505
 31
0.0
  0
LINE
  5
9A0
  8
LAYER_1
 10
126.950484
 20
98.481505
 30
0.0
 11
127.108383
 21
97.805049
 31
0.0
  0
LINE
  5
9A1
  8
LAYER_1
 10
127.108383
 20
97.805049
 30
0.0
 11
127.112957
 21
96.13215099999999
 31
0.0
  0
LINE
  5
9A2
  8
LAYER_1
 10
127.112957
 20
96.13215099999999
 30
0.0
 11
126.889934
 21
93.994443
 31
0.0
  0
LINE
  5
9A3
  8
LAYER_1
 10
126.889934
 20
93.994443
 30
0.0
 11
126.638058
 21
93.29636499999999
 31
0.0
  0
LINE
  5
9A4
  8
LAYER_1
 10
126.638058
 20
93.29636499999999
 30
0.0
 11
126.231887
 21
92.60220200000001
 31
0.0
  0
LINE
  5
9A5
  8
LAYER_1
 10
126.231887
 20
92.60220200000001
 30
0.0
 11
124.972395
 21
91.15892700000001
 31
0.0
  0
LINE
  5
9A6
  8
LAYER_1
 10
124.972395
 20
91.15892700000001
 30
0.0
 11
123.404785
 21
90.04092
 31
0.0
  0
LINE
  5
9A7
  8
LAYER_1
 10
123.404785
 20
90.04092
 30
0.0
 11
121.729764
 21
89.359555
 31
0.0
  0
LINE
  5
9A8
  8
LAYER_1
 10
121.729764
 20
89.359555
 30
0.0
 11
120.914696
 21
89.217418
 31
0.0
  0
LINE
  5
9A9
  8
LAYER_1
 10
120.914696
 20
89.217418
 30
0.0
 11
120.14804
 21
89.226207
 31
0.0
  0
LINE
  5
9AA
  8
LAYER_1
 10
120.14804
 20
89.226207
 30
0.0
 11
119.781445
 21
89.29394499999999
 31
0.0
  0
LINE
  5
9AB
  8
LAYER_1
 10
119.781445
 20
89.29394499999999
 30
0.0
 11
119.738973
 21
89.40607
 31
0.0
  0
LINE
  5
9AC
  8
LAYER_1
 10
119.738973
 20
89.40607
 30
0.0
 11
120.804551
 21
89.96356299999999
 31
0.0
  0
LINE
  5
9AD
  8
LAYER_1
 10
120.804551
 20
89.96356299999999
 30
0.0
 11
122.075744
 21
90.653026
 31
0.0
  0
LINE
  5
9AE
  8
LAYER_1
 10
122.075744
 20
90.653026
 30
0.0
 11
123.082318
 21
91.46812199999999
 31
0.0
  0
LINE
  5
9AF
  8
LAYER_1
 10
123.082318
 20
91.46812199999999
 30
0.0
 11
123.911314
 21
92.496258
 31
0.0
  0
LINE
  5
9B0
  8
LAYER_1
 10
123.911314
 20
92.496258
 30
0.0
 11
124.649775
 21
93.824837
 31
0.0
  0
LINE
  5
9B1
  8
LAYER_1
 10
124.649775
 20
93.824837
 30
0.0
 11
125.442228
 21
95.89070200000001
 31
0.0
  0
LINE
  5
9B2
  8
LAYER_1
 10
125.442228
 20
95.89070200000001
 30
0.0
 11
125.398135
 21
96.03686500000001
 31
0.0
  0
LINE
  5
9B3
  8
LAYER_1
 10
125.398135
 20
96.03686500000001
 30
0.0
 11
125.257228
 21
96.03836
 31
0.0
  0
LINE
  5
9B4
  8
LAYER_1
 10
125.257228
 20
96.03836
 30
0.0
 11
124.685106
 21
95.61425300000001
 31
0.0
  0
LINE
  5
9B5
  8
LAYER_1
 10
124.685106
 20
95.61425300000001
 30
0.0
 11
122.987161
 21
94.328732
 31
0.0
  0
LINE
  5
9B6
  8
LAYER_1
 10
122.987161
 20
94.328732
 30
0.0
 11
122.259441
 21
94.049475
 31
0.0
  0
LINE
  5
9B7
  8
LAYER_1
 10
122.259441
 20
94.049475
 30
0.0
 11
121.517864
 21
93.963191
 31
0.0
  0
LINE
  5
9B8
  8
LAYER_1
 10
121.517864
 20
93.963191
 30
0.0
 11
120.174065
 21
93.72993700000001
 31
0.0
  0
LINE
  5
9B9
  8
LAYER_1
 10
120.174065
 20
93.72993700000001
 30
0.0
 11
118.654291
 21
93.025589
 31
0.0
  0
LINE
  5
9BA
  8
LAYER_1
 10
118.654291
 20
93.025589
 30
0.0
 11
116.928783
 21
91.83275
 31
0.0
  0
LINE
  5
9BB
  8
LAYER_1
 10
116.928783
 20
91.83275
 30
0.0
 11
114.967783
 21
90.134022
 31
0.0
  0
LINE
  5
9BC
  8
LAYER_1
 10
114.967783
 20
90.134022
 30
0.0
 11
112.713202
 21
88.119275
 31
0.0
  0
LINE
  5
9BD
  8
LAYER_1
 10
112.713202
 20
88.119275
 30
0.0
 11
111.14776
 21
86.954837
 31
0.0
  0
LINE
  5
9BE
  8
LAYER_1
 10
111.14776
 20
86.954837
 30
0.0
 11
110.235132
 21
86.618712
 31
0.0
  0
LINE
  5
9BF
  8
LAYER_1
 10
110.235132
 20
86.618712
 30
0.0
 11
110.012273
 21
86.75439299999999
 31
0.0
  0
LINE
  5
9C0
  8
LAYER_1
 10
110.012273
 20
86.75439299999999
 30
0.0
 11
109.938995
 21
87.088904
 31
0.0
  0
LINE
  5
9C1
  8
LAYER_1
 10
109.938995
 20
87.088904
 30
0.0
 11
109.938995
 21
87.088904
 31
0.0
  0
LINE
  5
9C2
  8
LAYER_1
 10
33.073507
 20
99.84834100000001
 30
0.0
 11
32.523164
 21
100.238011
 31
0.0
  0
LINE
  5
9C3
  8
LAYER_1
 10
32.523164
 20
100.238011
 30
0.0
 11
31.788989
 21
100.098094
 31
0.0
  0
LINE
  5
9C4
  8
LAYER_1
 10
31.788989
 20
100.098094
 30
0.0
 11
30.970962
 21
99.899017
 31
0.0
  0
LINE
  5
9C5
  8
LAYER_1
 10
30.970962
 20
99.899017
 30
0.0
 11
30.424217
 21
100.022721
 31
0.0
  0
LINE
  5
9C6
  8
LAYER_1
 10
30.424217
 20
100.022721
 30
0.0
 11
30.147354
 21
100.470177
 31
0.0
  0
LINE
  5
9C7
  8
LAYER_1
 10
30.147354
 20
100.470177
 30
0.0
 11
30.138971
 21
101.242356
 31
0.0
  0
LINE
  5
9C8
  8
LAYER_1
 10
30.138971
 20
101.242356
 30
0.0
 11
30.280777
 21
102.299597
 31
0.0
  0
LINE
  5
9C9
  8
LAYER_1
 10
30.280777
 20
102.299597
 30
0.0
 11
29.154064
 21
102.192149
 31
0.0
  0
LINE
  5
9CA
  8
LAYER_1
 10
29.154064
 20
102.192149
 30
0.0
 11
28.27353
 21
102.207092
 31
0.0
  0
LINE
  5
9CB
  8
LAYER_1
 10
28.27353
 20
102.207092
 30
0.0
 11
27.813321
 21
102.431011
 31
0.0
  0
LINE
  5
9CC
  8
LAYER_1
 10
27.813321
 20
102.431011
 30
0.0
 11
27.683112
 21
102.895031
 31
0.0
  0
LINE
  5
9CD
  8
LAYER_1
 10
27.683112
 20
102.895031
 30
0.0
 11
27.785039
 21
103.398003
 31
0.0
  0
LINE
  5
9CE
  8
LAYER_1
 10
27.785039
 20
103.398003
 30
0.0
 11
28.084684
 21
103.85744
 31
0.0
  0
LINE
  5
9CF
  8
LAYER_1
 10
28.084684
 20
103.85744
 30
0.0
 11
28.54763
 21
104.190855
 31
0.0
  0
LINE
  5
9D0
  8
LAYER_1
 10
28.54763
 20
104.190855
 30
0.0
 11
29.204601
 21
104.490191
 31
0.0
  0
LINE
  5
9D1
  8
LAYER_1
 10
29.204601
 20
104.490191
 30
0.0
 11
28.508463
 21
105.317501
 31
0.0
  0
LINE
  5
9D2
  8
LAYER_1
 10
28.508463
 20
105.317501
 30
0.0
 11
27.925209
 21
106.327772
 31
0.0
  0
LINE
  5
9D3
  8
LAYER_1
 10
27.925209
 20
106.327772
 30
0.0
 11
27.930507
 21
107.149961
 31
0.0
  0
LINE
  5
9D4
  8
LAYER_1
 10
27.930507
 20
107.149961
 30
0.0
 11
28.137951
 21
107.451847
 31
0.0
  0
LINE
  5
9D5
  8
LAYER_1
 10
28.137951
 20
107.451847
 30
0.0
 11
28.473437
 21
107.660299
 31
0.0
  0
LINE
  5
9D6
  8
LAYER_1
 10
28.473437
 20
107.660299
 30
0.0
 11
29.503076
 21
107.735019
 31
0.0
  0
LINE
  5
9D7
  8
LAYER_1
 10
29.503076
 20
107.735019
 30
0.0
 11
30.217162
 21
107.756152
 31
0.0
  0
LINE
  5
9D8
  8
LAYER_1
 10
30.217162
 20
107.756152
 30
0.0
 11
30.352328
 21
108.401656
 31
0.0
  0
LINE
  5
9D9
  8
LAYER_1
 10
30.352328
 20
108.401656
 30
0.0
 11
30.536929
 21
109.053237
 31
0.0
  0
LINE
  5
9DA
  8
LAYER_1
 10
30.536929
 20
109.053237
 30
0.0
 11
30.996242
 21
109.61024
 31
0.0
  0
LINE
  5
9DB
  8
LAYER_1
 10
30.996242
 20
109.61024
 30
0.0
 11
31.588533
 21
109.951587
 31
0.0
  0
LINE
  5
9DC
  8
LAYER_1
 10
31.588533
 20
109.951587
 30
0.0
 11
32.172069
 21
109.956198
 31
0.0
  0
LINE
  5
9DD
  8
LAYER_1
 10
32.172069
 20
109.956198
 30
0.0
 11
32.573422
 21
109.468124
 31
0.0
  0
LINE
  5
9DE
  8
LAYER_1
 10
32.573422
 20
109.468124
 30
0.0
 11
32.958436
 21
108.517212
 31
0.0
  0
LINE
  5
9DF
  8
LAYER_1
 10
32.958436
 20
108.517212
 30
0.0
 11
33.331816
 21
107.236705
 31
0.0
  0
LINE
  5
9E0
  8
LAYER_1
 10
33.331816
 20
107.236705
 30
0.0
 11
33.834745
 21
108.170589
 31
0.0
  0
LINE
  5
9E1
  8
LAYER_1
 10
33.834745
 20
108.170589
 30
0.0
 11
34.660734
 21
109.229628
 31
0.0
  0
LINE
  5
9E2
  8
LAYER_1
 10
34.660734
 20
109.229628
 30
0.0
 11
35.668255
 21
109.855113
 31
0.0
  0
LINE
  5
9E3
  8
LAYER_1
 10
35.668255
 20
109.855113
 30
0.0
 11
36.676648
 21
109.979815
 31
0.0
  0
LINE
  5
9E4
  8
LAYER_1
 10
36.676648
 20
109.979815
 30
0.0
 11
37.124716
 21
109.833364
 31
0.0
  0
LINE
  5
9E5
  8
LAYER_1
 10
37.124716
 20
109.833364
 30
0.0
 11
37.505253
 21
109.536505
 31
0.0
  0
LINE
  5
9E6
  8
LAYER_1
 10
37.505253
 20
109.536505
 30
0.0
 11
37.83254
 21
109.07118
 31
0.0
  0
LINE
  5
9E7
  8
LAYER_1
 10
37.83254
 20
109.07118
 30
0.0
 11
37.949988
 21
108.61518
 31
0.0
  0
LINE
  5
9E8
  8
LAYER_1
 10
37.949988
 20
108.61518
 30
0.0
 11
37.858247
 21
108.144995
 31
0.0
  0
LINE
  5
9E9
  8
LAYER_1
 10
37.858247
 20
108.144995
 30
0.0
 11
37.55797
 21
107.637113
 31
0.0
  0
LINE
  5
9EA
  8
LAYER_1
 10
37.55797
 20
107.637113
 30
0.0
 11
37.235944
 21
107.150494
 31
0.0
  0
LINE
  5
9EB
  8
LAYER_1
 10
37.235944
 20
107.150494
 30
0.0
 11
37.181172
 21
106.853865
 31
0.0
  0
LINE
  5
9EC
  8
LAYER_1
 10
37.181172
 20
106.853865
 30
0.0
 11
37.40975
 21
106.706069
 31
0.0
  0
LINE
  5
9ED
  8
LAYER_1
 10
37.40975
 20
106.706069
 30
0.0
 11
37.937773
 21
106.66595
 31
0.0
  0
LINE
  5
9EE
  8
LAYER_1
 10
37.937773
 20
106.66595
 30
0.0
 11
38.940765
 21
106.433981
 31
0.0
  0
LINE
  5
9EF
  8
LAYER_1
 10
38.940765
 20
106.433981
 30
0.0
 11
39.201913
 21
106.177683
 31
0.0
  0
LINE
  5
9F0
  8
LAYER_1
 10
39.201913
 20
106.177683
 30
0.0
 11
39.301261
 21
105.857763
 31
0.0
  0
LINE
  5
9F1
  8
LAYER_1
 10
39.301261
 20
105.857763
 30
0.0
 11
39.009846
 21
105.116825
 31
0.0
  0
LINE
  5
9F2
  8
LAYER_1
 10
39.009846
 20
105.116825
 30
0.0
 11
38.057102
 21
104.3907
 31
0.0
  0
LINE
  5
9F3
  8
LAYER_1
 10
38.057102
 20
104.3907
 30
0.0
 11
37.19637
 21
103.949894
 31
0.0
  0
LINE
  5
9F4
  8
LAYER_1
 10
37.19637
 20
103.949894
 30
0.0
 11
37.746748
 21
103.194346
 31
0.0
  0
LINE
  5
9F5
  8
LAYER_1
 10
37.746748
 20
103.194346
 30
0.0
 11
38.158581
 21
102.452655
 31
0.0
  0
LINE
  5
9F6
  8
LAYER_1
 10
38.158581
 20
102.452655
 30
0.0
 11
38.186592
 21
101.904427
 31
0.0
  0
LINE
  5
9F7
  8
LAYER_1
 10
38.186592
 20
101.904427
 30
0.0
 11
37.837771
 21
101.568913
 31
0.0
  0
LINE
  5
9F8
  8
LAYER_1
 10
37.837771
 20
101.568913
 30
0.0
 11
37.119106
 21
101.465368
 31
0.0
  0
LINE
  5
9F9
  8
LAYER_1
 10
37.119106
 20
101.465368
 30
0.0
 11
35.689244
 21
101.689864
 31
0.0
  0
LINE
  5
9FA
  8
LAYER_1
 10
35.689244
 20
101.689864
 30
0.0
 11
35.462409
 21
101.746087
 31
0.0
  0
LINE
  5
9FB
  8
LAYER_1
 10
35.462409
 20
101.746087
 30
0.0
 11
35.329471
 21
101.628285
 31
0.0
  0
LINE
  5
9FC
  8
LAYER_1
 10
35.329471
 20
101.628285
 30
0.0
 11
35.26591
 21
100.681557
 31
0.0
  0
LINE
  5
9FD
  8
LAYER_1
 10
35.26591
 20
100.681557
 30
0.0
 11
35.163728
 21
99.63152599999999
 31
0.0
  0
LINE
  5
9FE
  8
LAYER_1
 10
35.163728
 20
99.63152599999999
 30
0.0
 11
34.909131
 21
99.459457
 31
0.0
  0
LINE
  5
9FF
  8
LAYER_1
 10
34.909131
 20
99.459457
 30
0.0
 11
34.430129
 21
99.38503400000001
 31
0.0
  0
LINE
  5
A00
  8
LAYER_1
 10
34.430129
 20
99.38503400000001
 30
0.0
 11
33.660497
 21
99.45885199999999
 31
0.0
  0
LINE
  5
A01
  8
LAYER_1
 10
33.660497
 20
99.45885199999999
 30
0.0
 11
33.073507
 21
99.84834100000001
 31
0.0
  0
LINE
  5
A02
  8
LAYER_1
 10
33.073507
 20
99.84834100000001
 30
0.0
 11
33.073507
 21
99.84834100000001
 31
0.0
  0
LINE
  5
A03
  8
LAYER_1
 10
35.05789
 20
100.059379
 30
0.0
 11
35.055664
 21
100.733621
 31
0.0
  0
LINE
  5
A04
  8
LAYER_1
 10
35.055664
 20
100.733621
 30
0.0
 11
34.751504
 21
101.525248
 31
0.0
  0
LINE
  5
A05
  8
LAYER_1
 10
34.751504
 20
101.525248
 30
0.0
 11
34.298243
 21
102.148724
 31
0.0
  0
LINE
  5
A06
  8
LAYER_1
 10
34.298243
 20
102.148724
 30
0.0
 11
33.848712
 21
102.318511
 31
0.0
  0
LINE
  5
A07
  8
LAYER_1
 10
33.848712
 20
102.318511
 30
0.0
 11
33.151468
 21
102.150394
 31
0.0
  0
LINE
  5
A08
  8
LAYER_1
 10
33.151468
 20
102.150394
 30
0.0
 11
32.931211
 21
101.889477
 31
0.0
  0
LINE
  5
A09
  8
LAYER_1
 10
32.931211
 20
101.889477
 30
0.0
 11
32.903746
 21
101.279906
 31
0.0
  0
LINE
  5
A0A
  8
LAYER_1
 10
32.903746
 20
101.279906
 30
0.0
 11
33.04623
 21
100.581452
 31
0.0
  0
LINE
  5
A0B
  8
LAYER_1
 10
33.04623
 20
100.581452
 30
0.0
 11
33.335821
 21
100.053887
 31
0.0
  0
LINE
  5
A0C
  8
LAYER_1
 10
33.335821
 20
100.053887
 30
0.0
 11
33.815397
 21
99.732343
 31
0.0
  0
LINE
  5
A0D
  8
LAYER_1
 10
33.815397
 20
99.732343
 30
0.0
 11
34.328802
 21
99.626289
 31
0.0
  0
LINE
  5
A0E
  8
LAYER_1
 10
34.328802
 20
99.626289
 30
0.0
 11
34.776233
 21
99.735407
 31
0.0
  0
LINE
  5
A0F
  8
LAYER_1
 10
34.776233
 20
99.735407
 30
0.0
 11
35.05789
 21
100.059379
 31
0.0
  0
LINE
  5
A10
  8
LAYER_1
 10
35.05789
 20
100.059379
 30
0.0
 11
35.05789
 21
100.059379
 31
0.0
  0
LINE
  5
A11
  8
LAYER_1
 10
32.035733
 20
100.72073
 30
0.0
 11
32.267542
 21
101.324936
 31
0.0
  0
LINE
  5
A12
  8
LAYER_1
 10
32.267542
 20
101.324936
 30
0.0
 11
32.307663
 21
101.869381
 31
0.0
  0
LINE
  5
A13
  8
LAYER_1
 10
32.307663
 20
101.869381
 30
0.0
 11
32.162002
 21
102.299518
 31
0.0
  0
LINE
  5
A14
  8
LAYER_1
 10
32.162002
 20
102.299518
 30
0.0
 11
31.836467
 21
102.560802
 31
0.0
  0
LINE
  5
A15
  8
LAYER_1
 10
31.836467
 20
102.560802
 30
0.0
 11
31.513348
 21
102.585347
 31
0.0
  0
LINE
  5
A16
  8
LAYER_1
 10
31.513348
 20
102.585347
 30
0.0
 11
31.189
 21
102.444232
 31
0.0
  0
LINE
  5
A17
  8
LAYER_1
 10
31.189
 20
102.444232
 30
0.0
 11
30.631142
 21
101.825332
 31
0.0
  0
LINE
  5
A18
  8
LAYER_1
 10
30.631142
 20
101.825332
 30
0.0
 11
30.35195
 21
101.024713
 31
0.0
  0
LINE
  5
A19
  8
LAYER_1
 10
30.35195
 20
101.024713
 30
0.0
 11
30.375932
 21
100.65645
 31
0.0
  0
LINE
  5
A1A
  8
LAYER_1
 10
30.375932
 20
100.65645
 30
0.0
 11
30.540477
 21
100.362988
 31
0.0
  0
LINE
  5
A1B
  8
LAYER_1
 10
30.540477
 20
100.362988
 30
0.0
 11
30.892281
 21
100.185578
 31
0.0
  0
LINE
  5
A1C
  8
LAYER_1
 10
30.892281
 20
100.185578
 30
0.0
 11
31.32179
 21
100.201145
 31
0.0
  0
LINE
  5
A1D
  8
LAYER_1
 10
31.32179
 20
100.201145
 30
0.0
 11
31.734456
 21
100.387069
 31
0.0
  0
LINE
  5
A1E
  8
LAYER_1
 10
31.734456
 20
100.387069
 30
0.0
 11
32.035733
 21
100.72073
 31
0.0
  0
LINE
  5
A1F
  8
LAYER_1
 10
32.035733
 20
100.72073
 30
0.0
 11
32.035733
 21
100.72073
 31
0.0
  0
LINE
  5
A20
  8
LAYER_1
 10
37.633648
 20
102.210081
 30
0.0
 11
37.600267
 21
102.576423
 31
0.0
  0
LINE
  5
A21
  8
LAYER_1
 10
37.600267
 20
102.576423
 30
0.0
 11
37.391509
 21
102.935302
 31
0.0
  0
LINE
  5
A22
  8
LAYER_1
 10
37.391509
 20
102.935302
 30
0.0
 11
36.63846
 21
103.530478
 31
0.0
  0
LINE
  5
A23
  8
LAYER_1
 10
36.63846
 20
103.530478
 30
0.0
 11
35.755693
 21
103.795222
 31
0.0
  0
LINE
  5
A24
  8
LAYER_1
 10
35.755693
 20
103.795222
 30
0.0
 11
35.384788
 21
103.741062
 31
0.0
  0
LINE
  5
A25
  8
LAYER_1
 10
35.384788
 20
103.741062
 30
0.0
 11
35.124401
 21
103.529149
 31
0.0
  0
LINE
  5
A26
  8
LAYER_1
 10
35.124401
 20
103.529149
 30
0.0
 11
34.955831
 21
103.130358
 31
0.0
  0
LINE
  5
A27
  8
LAYER_1
 10
34.955831
 20
103.130358
 30
0.0
 11
35.028704
 21
102.787131
 31
0.0
  0
LINE
  5
A28
  8
LAYER_1
 10
35.028704
 20
102.787131
 30
0.0
 11
35.371719
 21
102.452701
 31
0.0
  0
LINE
  5
A29
  8
LAYER_1
 10
35.371719
 20
102.452701
 30
0.0
 11
36.013579
 21
102.080302
 31
0.0
  0
LINE
  5
A2A
  8
LAYER_1
 10
36.013579
 20
102.080302
 30
0.0
 11
37.182415
 21
101.696407
 31
0.0
  0
LINE
  5
A2B
  8
LAYER_1
 10
37.182415
 20
101.696407
 30
0.0
 11
37.479765
 21
101.839609
 31
0.0
  0
LINE
  5
A2C
  8
LAYER_1
 10
37.479765
 20
101.839609
 30
0.0
 11
37.633648
 21
102.210081
 31
0.0
  0
LINE
  5
A2D
  8
LAYER_1
 10
37.633648
 20
102.210081
 30
0.0
 11
37.633648
 21
102.210081
 31
0.0
  0
LINE
  5
A2E
  8
LAYER_1
 10
30.247519
 20
102.795393
 30
0.0
 11
30.676993
 21
103.197783
 31
0.0
  0
LINE
  5
A2F
  8
LAYER_1
 10
30.676993
 20
103.197783
 30
0.0
 11
30.609393
 21
103.773172
 31
0.0
  0
LINE
  5
A30
  8
LAYER_1
 10
30.609393
 20
103.773172
 30
0.0
 11
30.385057
 21
104.202353
 31
0.0
  0
LINE
  5
A31
  8
LAYER_1
 10
30.385057
 20
104.202353
 30
0.0
 11
30.082231
 21
104.373125
 31
0.0
  0
LINE
  5
A32
  8
LAYER_1
 10
30.082231
 20
104.373125
 30
0.0
 11
29.622438
 21
104.295026
 31
0.0
  0
LINE
  5
A33
  8
LAYER_1
 10
29.622438
 20
104.295026
 30
0.0
 11
28.927202
 21
103.977591
 31
0.0
  0
LINE
  5
A34
  8
LAYER_1
 10
28.927202
 20
103.977591
 30
0.0
 11
28.434214
 21
103.64941
 31
0.0
  0
LINE
  5
A35
  8
LAYER_1
 10
28.434214
 20
103.64941
 30
0.0
 11
28.15468
 21
103.297483
 31
0.0
  0
LINE
  5
A36
  8
LAYER_1
 10
28.15468
 20
103.297483
 30
0.0
 11
28.100281
 21
102.946404
 31
0.0
  0
LINE
  5
A37
  8
LAYER_1
 10
28.100281
 20
102.946404
 30
0.0
 11
28.2827
 21
102.620766
 31
0.0
  0
LINE
  5
A38
  8
LAYER_1
 10
28.2827
 20
102.620766
 30
0.0
 11
28.62018
 21
102.471263
 31
0.0
  0
LINE
  5
A39
  8
LAYER_1
 10
28.62018
 20
102.471263
 30
0.0
 11
29.126589
 21
102.456439
 31
0.0
  0
LINE
  5
A3A
  8
LAYER_1
 10
29.126589
 20
102.456439
 30
0.0
 11
30.247519
 21
102.795393
 31
0.0
  0
LINE
  5
A3B
  8
LAYER_1
 10
30.247519
 20
102.795393
 30
0.0
 11
30.247519
 21
102.795393
 31
0.0
  0
LINE
  5
A3C
  8
LAYER_1
 10
34.325148
 20
103.257575
 30
0.0
 11
34.886595
 21
103.904802
 31
0.0
  0
LINE
  5
A3D
  8
LAYER_1
 10
34.886595
 20
103.904802
 30
0.0
 11
35.104783
 21
104.446751
 31
0.0
  0
LINE
  5
A3E
  8
LAYER_1
 10
35.104783
 20
104.446751
 30
0.0
 11
34.990191
 21
104.993523
 31
0.0
  0
LINE
  5
A3F
  8
LAYER_1
 10
34.990191
 20
104.993523
 30
0.0
 11
34.553294
 21
105.655219
 31
0.0
  0
LINE
  5
A40
  8
LAYER_1
 10
34.553294
 20
105.655219
 30
0.0
 11
34.002771
 21
106.132269
 31
0.0
  0
LINE
  5
A41
  8
LAYER_1
 10
34.002771
 20
106.132269
 30
0.0
 11
33.366289
 21
106.346247
 31
0.0
  0
LINE
  5
A42
  8
LAYER_1
 10
33.366289
 20
106.346247
 30
0.0
 11
32.705188
 21
106.329123
 31
0.0
  0
LINE
  5
A43
  8
LAYER_1
 10
32.705188
 20
106.329123
 30
0.0
 11
32.080812
 21
106.112865
 31
0.0
  0
LINE
  5
A44
  8
LAYER_1
 10
32.080812
 20
106.112865
 30
0.0
 11
31.554503
 21
105.729441
 31
0.0
  0
LINE
  5
A45
  8
LAYER_1
 10
31.554503
 20
105.729441
 30
0.0
 11
31.187603
 21
105.210821
 31
0.0
  0
LINE
  5
A46
  8
LAYER_1
 10
31.187603
 20
105.210821
 30
0.0
 11
31.041454
 21
104.588973
 31
0.0
  0
LINE
  5
A47
  8
LAYER_1
 10
31.041454
 20
104.588973
 30
0.0
 11
31.177399
 21
103.895865
 31
0.0
  0
LINE
  5
A48
  8
LAYER_1
 10
31.177399
 20
103.895865
 30
0.0
 11
31.508502
 21
103.340581
 31
0.0
  0
LINE
  5
A49
  8
LAYER_1
 10
31.508502
 20
103.340581
 30
0.0
 11
31.975744
 21
102.890958
 31
0.0
  0
LINE
  5
A4A
  8
LAYER_1
 10
31.975744
 20
102.890958
 30
0.0
 11
32.53089
 21
102.582752
 31
0.0
  0
LINE
  5
A4B
  8
LAYER_1
 10
32.53089
 20
102.582752
 30
0.0
 11
33.125704
 21
102.451717
 31
0.0
  0
LINE
  5
A4C
  8
LAYER_1
 10
33.125704
 20
102.451717
 30
0.0
 11
33.632517
 21
102.680559
 31
0.0
  0
LINE
  5
A4D
  8
LAYER_1
 10
33.632517
 20
102.680559
 30
0.0
 11
34.325148
 21
103.257575
 31
0.0
  0
LINE
  5
A4E
  8
LAYER_1
 10
34.325148
 20
103.257575
 30
0.0
 11
34.325148
 21
103.257575
 31
0.0
  0
LINE
  5
A4F
  8
LAYER_1
 10
38.061437
 20
104.732643
 30
0.0
 11
38.863712
 21
105.380301
 31
0.0
  0
LINE
  5
A50
  8
LAYER_1
 10
38.863712
 20
105.380301
 30
0.0
 11
38.927109
 21
105.699686
 31
0.0
  0
LINE
  5
A51
  8
LAYER_1
 10
38.927109
 20
105.699686
 30
0.0
 11
38.768294
 21
106.021484
 31
0.0
  0
LINE
  5
A52
  8
LAYER_1
 10
38.768294
 20
106.021484
 30
0.0
 11
38.360402
 21
106.285773
 31
0.0
  0
LINE
  5
A53
  8
LAYER_1
 10
38.360402
 20
106.285773
 30
0.0
 11
37.757786
 21
106.367071
 31
0.0
  0
LINE
  5
A54
  8
LAYER_1
 10
37.757786
 20
106.367071
 30
0.0
 11
37.005661
 21
106.266036
 31
0.0
  0
LINE
  5
A55
  8
LAYER_1
 10
37.005661
 20
106.266036
 30
0.0
 11
36.149243
 21
105.983328
 31
0.0
  0
LINE
  5
A56
  8
LAYER_1
 10
36.149243
 20
105.983328
 30
0.0
 11
35.416168
 21
105.545056
 31
0.0
  0
LINE
  5
A57
  8
LAYER_1
 10
35.416168
 20
105.545056
 30
0.0
 11
35.311998
 21
105.301784
 31
0.0
  0
LINE
  5
A58
  8
LAYER_1
 10
35.311998
 20
105.301784
 30
0.0
 11
35.344557
 21
104.99555
 31
0.0
  0
LINE
  5
A59
  8
LAYER_1
 10
35.344557
 20
104.99555
 30
0.0
 11
35.671597
 21
104.532436
 31
0.0
  0
LINE
  5
A5A
  8
LAYER_1
 10
35.671597
 20
104.532436
 30
0.0
 11
36.471575
 21
104.408172
 31
0.0
  0
LINE
  5
A5B
  8
LAYER_1
 10
36.471575
 20
104.408172
 30
0.0
 11
37.340131
 21
104.503486
 31
0.0
  0
LINE
  5
A5C
  8
LAYER_1
 10
37.340131
 20
104.503486
 30
0.0
 11
38.061437
 21
104.732643
 31
0.0
  0
LINE
  5
A5D
  8
LAYER_1
 10
38.061437
 20
104.732643
 30
0.0
 11
38.061437
 21
104.732643
 31
0.0
  0
LINE
  5
A5E
  8
LAYER_1
 10
30.894991
 20
105.460847
 30
0.0
 11
31.071318
 21
106.210604
 31
0.0
  0
LINE
  5
A5F
  8
LAYER_1
 10
31.071318
 20
106.210604
 30
0.0
 11
30.50122
 21
106.871958
 31
0.0
  0
LINE
  5
A60
  8
LAYER_1
 10
30.50122
 20
106.871958
 30
0.0
 11
29.864033
 21
107.277633
 31
0.0
  0
LINE
  5
A61
  8
LAYER_1
 10
29.864033
 20
107.277633
 30
0.0
 11
29.192679
 21
107.484909
 31
0.0
  0
LINE
  5
A62
  8
LAYER_1
 10
29.192679
 20
107.484909
 30
0.0
 11
28.608816
 21
107.474687
 31
0.0
  0
LINE
  5
A63
  8
LAYER_1
 10
28.608816
 20
107.474687
 30
0.0
 11
28.234101
 21
107.227868
 31
0.0
  0
LINE
  5
A64
  8
LAYER_1
 10
28.234101
 20
107.227868
 30
0.0
 11
28.141096
 21
106.775185
 31
0.0
  0
LINE
  5
A65
  8
LAYER_1
 10
28.141096
 20
106.775185
 30
0.0
 11
28.3172
 21
106.244197
 31
0.0
  0
LINE
  5
A66
  8
LAYER_1
 10
28.3172
 20
106.244197
 30
0.0
 11
28.723027
 21
105.707182
 31
0.0
  0
LINE
  5
A67
  8
LAYER_1
 10
28.723027
 20
105.707182
 30
0.0
 11
29.319195
 21
105.236421
 31
0.0
  0
LINE
  5
A68
  8
LAYER_1
 10
29.319195
 20
105.236421
 30
0.0
 11
29.987453
 21
104.849424
 31
0.0
  0
LINE
  5
A69
  8
LAYER_1
 10
29.987453
 20
104.849424
 30
0.0
 11
30.377823
 21
104.744298
 31
0.0
  0
LINE
  5
A6A
  8
LAYER_1
 10
30.377823
 20
104.744298
 30
0.0
 11
30.632828
 21
104.94134
 31
0.0
  0
LINE
  5
A6B
  8
LAYER_1
 10
30.632828
 20
104.94134
 30
0.0
 11
30.894991
 21
105.460847
 31
0.0
  0
LINE
  5
A6C
  8
LAYER_1
 10
30.894991
 20
105.460847
 30
0.0
 11
30.894991
 21
105.460847
 31
0.0
  0
LINE
  5
A6D
  8
LAYER_1
 10
36.410285
 20
106.977407
 30
0.0
 11
37.212308
 21
107.957709
 31
0.0
  0
LINE
  5
A6E
  8
LAYER_1
 10
37.212308
 20
107.957709
 30
0.0
 11
37.42591
 21
108.857366
 31
0.0
  0
LINE
  5
A6F
  8
LAYER_1
 10
37.42591
 20
108.857366
 30
0.0
 11
37.316774
 21
109.226612
 31
0.0
  0
LINE
  5
A70
  8
LAYER_1
 10
37.316774
 20
109.226612
 30
0.0
 11
37.0662
 21
109.515289
 31
0.0
  0
LINE
  5
A71
  8
LAYER_1
 10
37.0662
 20
109.515289
 30
0.0
 11
36.676075
 21
109.703262
 31
0.0
  0
LINE
  5
A72
  8
LAYER_1
 10
36.676075
 20
109.703262
 30
0.0
 11
36.148289
 21
109.770394
 31
0.0
  0
LINE
  5
A73
  8
LAYER_1
 10
36.148289
 20
109.770394
 30
0.0
 11
35.624249
 21
109.505284
 31
0.0
  0
LINE
  5
A74
  8
LAYER_1
 10
35.624249
 20
109.505284
 30
0.0
 11
34.91099
 21
108.869347
 31
0.0
  0
LINE
  5
A75
  8
LAYER_1
 10
34.91099
 20
108.869347
 30
0.0
 11
34.243682
 21
108.101676
 31
0.0
  0
LINE
  5
A76
  8
LAYER_1
 10
34.243682
 20
108.101676
 30
0.0
 11
33.857492
 21
107.441364
 31
0.0
  0
LINE
  5
A77
  8
LAYER_1
 10
33.857492
 20
107.441364
 30
0.0
 11
33.877718
 21
107.00631
 31
0.0
  0
LINE
  5
A78
  8
LAYER_1
 10
33.877718
 20
107.00631
 30
0.0
 11
34.14201
 21
106.578533
 31
0.0
  0
LINE
  5
A79
  8
LAYER_1
 10
34.14201
 20
106.578533
 30
0.0
 11
34.567103
 21
106.249451
 31
0.0
  0
LINE
  5
A7A
  8
LAYER_1
 10
34.567103
 20
106.249451
 30
0.0
 11
35.069729
 21
106.11048
 31
0.0
  0
LINE
  5
A7B
  8
LAYER_1
 10
35.069729
 20
106.11048
 30
0.0
 11
35.604989
 21
106.361438
 31
0.0
  0
LINE
  5
A7C
  8
LAYER_1
 10
35.604989
 20
106.361438
 30
0.0
 11
36.410285
 21
106.977407
 31
0.0
  0
LINE
  5
A7D
  8
LAYER_1
 10
36.410285
 20
106.977407
 30
0.0
 11
36.410285
 21
106.977407
 31
0.0
  0
LINE
  5
A7E
  8
LAYER_1
 10
32.655812
 20
107.83155
 30
0.0
 11
32.457921
 21
108.648992
 31
0.0
  0
LINE
  5
A7F
  8
LAYER_1
 10
32.457921
 20
108.648992
 30
0.0
 11
32.116113
 21
109.278791
 31
0.0
  0
LINE
  5
A80
  8
LAYER_1
 10
32.116113
 20
109.278791
 30
0.0
 11
31.660679
 21
109.630234
 31
0.0
  0
LINE
  5
A81
  8
LAYER_1
 10
31.660679
 20
109.630234
 30
0.0
 11
31.153187
 21
109.305605
 31
0.0
  0
LINE
  5
A82
  8
LAYER_1
 10
31.153187
 20
109.305605
 30
0.0
 11
30.790083
 21
108.879875
 31
0.0
  0
LINE
  5
A83
  8
LAYER_1
 10
30.790083
 20
108.879875
 30
0.0
 11
30.661727
 21
108.432569
 31
0.0
  0
LINE
  5
A84
  8
LAYER_1
 10
30.661727
 20
108.432569
 30
0.0
 11
30.766657
 21
107.902709
 31
0.0
  0
LINE
  5
A85
  8
LAYER_1
 10
30.766657
 20
107.902709
 30
0.0
 11
31.103412
 21
107.229319
 31
0.0
  0
LINE
  5
A86
  8
LAYER_1
 10
31.103412
 20
107.229319
 30
0.0
 11
31.59651
 21
106.639799
 31
0.0
  0
LINE
  5
A87
  8
LAYER_1
 10
31.59651
 20
106.639799
 30
0.0
 11
32.161745
 21
106.658042
 31
0.0
  0
LINE
  5
A88
  8
LAYER_1
 10
32.161745
 20
106.658042
 30
0.0
 11
32.612727
 21
107.027822
 31
0.0
  0
LINE
  5
A89
  8
LAYER_1
 10
32.612727
 20
107.027822
 30
0.0
 11
32.655812
 21
107.83155
 31
0.0
  0
LINE
  5
A8A
  8
LAYER_1
 10
32.655812
 20
107.83155
 30
0.0
 11
32.655812
 21
107.83155
 31
0.0
  0
LINE
  5
A8B
  8
LAYER_1
 10
102.969385
 20
104.44448
 30
0.0
 11
102.387629
 21
104.879552
 31
0.0
  0
LINE
  5
A8C
  8
LAYER_1
 10
102.387629
 20
104.879552
 30
0.0
 11
101.926585
 21
104.716057
 31
0.0
  0
LINE
  5
A8D
  8
LAYER_1
 10
101.926585
 20
104.716057
 30
0.0
 11
101.436614
 21
104.495103
 31
0.0
  0
LINE
  5
A8E
  8
LAYER_1
 10
101.436614
 20
104.495103
 30
0.0
 11
100.852862
 21
104.457064
 31
0.0
  0
LINE
  5
A8F
  8
LAYER_1
 10
100.852862
 20
104.457064
 30
0.0
 11
100.515783
 21
104.544845
 31
0.0
  0
LINE
  5
A90
  8
LAYER_1
 10
100.515783
 20
104.544845
 30
0.0
 11
100.321145
 21
104.733616
 31
0.0
  0
LINE
  5
A91
  8
LAYER_1
 10
100.321145
 20
104.733616
 30
0.0
 11
100.221663
 21
105.680746
 31
0.0
  0
LINE
  5
A92
  8
LAYER_1
 10
100.221663
 20
105.680746
 30
0.0
 11
100.240998
 21
106.812209
 31
0.0
  0
LINE
  5
A93
  8
LAYER_1
 10
100.240998
 20
106.812209
 30
0.0
 11
99.12973100000001
 21
106.706231
 31
0.0
  0
LINE
  5
A94
  8
LAYER_1
 10
99.12973100000001
 20
106.706231
 30
0.0
 11
98.261668
 21
106.722851
 31
0.0
  0
LINE
  5
A95
  8
LAYER_1
 10
98.261668
 20
106.722851
 30
0.0
 11
97.804433
 21
106.946566
 31
0.0
  0
LINE
  5
A96
  8
LAYER_1
 10
97.804433
 20
106.946566
 30
0.0
 11
97.68064200000001
 21
107.380836
 31
0.0
  0
LINE
  5
A97
  8
LAYER_1
 10
97.68064200000001
 20
107.380836
 30
0.0
 11
97.76043199999999
 21
107.877678
 31
0.0
  0
LINE
  5
A98
  8
LAYER_1
 10
97.76043199999999
 20
107.877678
 30
0.0
 11
98.018627
 21
108.363866
 31
0.0
  0
LINE
  5
A99
  8
LAYER_1
 10
98.018627
 20
108.363866
 30
0.0
 11
98.430049
 21
108.766171
 31
0.0
  0
LINE
  5
A9A
  8
LAYER_1
 10
98.430049
 20
108.766171
 30
0.0
 11
98.73842999999999
 21
109.004214
 31
0.0
  0
LINE
  5
A9B
  8
LAYER_1
 10
98.73842999999999
 20
109.004214
 30
0.0
 11
98.83363900000001
 21
109.215033
 31
0.0
  0
LINE
  5
A9C
  8
LAYER_1
 10
98.83363900000001
 20
109.215033
 30
0.0
 11
98.358582
 21
110.004839
 31
0.0
  0
LINE
  5
A9D
  8
LAYER_1
 10
98.358582
 20
110.004839
 30
0.0
 11
97.916145
 21
110.832959
 31
0.0
  0
LINE
  5
A9E
  8
LAYER_1
 10
97.916145
 20
110.832959
 30
0.0
 11
97.920776
 21
111.61059
 31
0.0
  0
LINE
  5
A9F
  8
LAYER_1
 10
97.920776
 20
111.61059
 30
0.0
 11
98.055108
 21
112.015567
 31
0.0
  0
LINE
  5
AA0
  8
LAYER_1
 10
98.055108
 20
112.015567
 30
0.0
 11
98.258551
 21
112.229539
 31
0.0
  0
LINE
  5
AA1
  8
LAYER_1
 10
98.258551
 20
112.229539
 30
0.0
 11
99.22706700000001
 21
112.26083
 31
0.0
  0
LINE
  5
AA2
  8
LAYER_1
 10
99.22706700000001
 20
112.26083
 30
0.0
 11
100.176571
 21
112.280866
 31
0.0
  0
LINE
  5
AA3
  8
LAYER_1
 10
100.176571
 20
112.280866
 30
0.0
 11
100.31575
 21
112.489493
 31
0.0
  0
LINE
  5
AA4
  8
LAYER_1
 10
100.31575
 20
112.489493
 30
0.0
 11
100.343439
 21
112.894196
 31
0.0
  0
LINE
  5
AA5
  8
LAYER_1
 10
100.343439
 20
112.894196
 30
0.0
 11
100.491391
 21
113.536851
 31
0.0
  0
LINE
  5
AA6
  8
LAYER_1
 10
100.491391
 20
113.536851
 30
0.0
 11
100.87146
 21
114.08705
 31
0.0
  0
LINE
  5
AA7
  8
LAYER_1
 10
100.87146
 20
114.08705
 30
0.0
 11
101.387963
 21
114.447599
 31
0.0
  0
LINE
  5
AA8
  8
LAYER_1
 10
101.387963
 20
114.447599
 30
0.0
 11
101.94522
 21
114.521303
 31
0.0
  0
LINE
  5
AA9
  8
LAYER_1
 10
101.94522
 20
114.521303
 30
0.0
 11
102.439066
 21
114.106238
 31
0.0
  0
LINE
  5
AAA
  8
LAYER_1
 10
102.439066
 20
114.106238
 30
0.0
 11
102.894968
 21
113.116398
 31
0.0
  0
LINE
  5
AAB
  8
LAYER_1
 10
102.894968
 20
113.116398
 30
0.0
 11
103.32983
 21
111.807833
 31
0.0
  0
LINE
  5
AAC
  8
LAYER_1
 10
103.32983
 20
111.807833
 30
0.0
 11
103.938493
 21
112.865407
 31
0.0
  0
LINE
  5
AAD
  8
LAYER_1
 10
103.938493
 20
112.865407
 30
0.0
 11
104.549257
 21
113.650817
 31
0.0
  0
LINE
  5
AAE
  8
LAYER_1
 10
104.549257
 20
113.650817
 30
0.0
 11
105.308416
 21
114.204285
 31
0.0
  0
LINE
  5
AAF
  8
LAYER_1
 10
105.308416
 20
114.204285
 30
0.0
 11
106.139462
 21
114.485645
 31
0.0
  0
LINE
  5
AB0
  8
LAYER_1
 10
106.139462
 20
114.485645
 30
0.0
 11
106.965885
 21
114.454733
 31
0.0
  0
LINE
  5
AB1
  8
LAYER_1
 10
106.965885
 20
114.454733
 30
0.0
 11
107.533268
 21
114.133344
 31
0.0
  0
LINE
  5
AB2
  8
LAYER_1
 10
107.533268
 20
114.133344
 30
0.0
 11
107.842614
 21
113.581319
 31
0.0
  0
LINE
  5
AB3
  8
LAYER_1
 10
107.842614
 20
113.581319
 30
0.0
 11
107.866719
 21
112.899337
 31
0.0
  0
LINE
  5
AB4
  8
LAYER_1
 10
107.866719
 20
112.899337
 30
0.0
 11
107.578375
 21
112.188079
 31
0.0
  0
LINE
  5
AB5
  8
LAYER_1
 10
107.578375
 20
112.188079
 30
0.0
 11
107.303605
 21
111.573844
 31
0.0
  0
LINE
  5
AB6
  8
LAYER_1
 10
107.303605
 20
111.573844
 30
0.0
 11
107.951095
 21
111.325329
 31
0.0
  0
LINE
  5
AB7
  8
LAYER_1
 10
107.951095
 20
111.325329
 30
0.0
 11
108.71613
 21
111.065799
 31
0.0
  0
LINE
  5
AB8
  8
LAYER_1
 10
108.71613
 20
111.065799
 30
0.0
 11
109.142801
 21
110.697593
 31
0.0
  0
LINE
  5
AB9
  8
LAYER_1
 10
109.142801
 20
110.697593
 30
0.0
 11
109.231102
 21
110.220716
 31
0.0
  0
LINE
  5
ABA
  8
LAYER_1
 10
109.231102
 20
110.220716
 30
0.0
 11
108.981031
 21
109.635176
 31
0.0
  0
LINE
  5
ABB
  8
LAYER_1
 10
108.981031
 20
109.635176
 30
0.0
 11
108.450385
 21
109.087451
 31
0.0
  0
LINE
  5
ABC
  8
LAYER_1
 10
108.450385
 20
109.087451
 30
0.0
 11
107.820937
 21
108.75705
 31
0.0
  0
LINE
  5
ABD
  8
LAYER_1
 10
107.820937
 20
108.75705
 30
0.0
 11
107.12113
 21
108.581409
 31
0.0
  0
LINE
  5
ABE
  8
LAYER_1
 10
107.12113
 20
108.581409
 30
0.0
 11
107.683396
 21
107.791779
 31
0.0
  0
LINE
  5
ABF
  8
LAYER_1
 10
107.683396
 20
107.791779
 30
0.0
 11
108.080496
 21
107.1034
 31
0.0
  0
LINE
  5
AC0
  8
LAYER_1
 10
108.080496
 20
107.1034
 30
0.0
 11
108.245662
 21
106.557204
 31
0.0
  0
LINE
  5
AC1
  8
LAYER_1
 10
108.245662
 20
106.557204
 30
0.0
 11
108.058407
 21
106.181774
 31
0.0
  0
LINE
  5
AC2
  8
LAYER_1
 10
108.058407
 20
106.181774
 30
0.0
 11
107.573358
 21
105.960651
 31
0.0
  0
LINE
  5
AC3
  8
LAYER_1
 10
107.573358
 20
105.960651
 30
0.0
 11
106.905586
 21
105.919966
 31
0.0
  0
LINE
  5
AC4
  8
LAYER_1
 10
106.905586
 20
105.919966
 30
0.0
 11
106.170163
 21
106.085853
 31
0.0
  0
LINE
  5
AC5
  8
LAYER_1
 10
106.170163
 20
106.085853
 30
0.0
 11
105.334511
 21
106.384092
 31
0.0
  0
LINE
  5
AC6
  8
LAYER_1
 10
105.334511
 20
106.384092
 30
0.0
 11
105.282328
 21
105.184647
 31
0.0
  0
LINE
  5
AC7
  8
LAYER_1
 10
105.282328
 20
105.184647
 30
0.0
 11
105.157187
 21
104.150118
 31
0.0
  0
LINE
  5
AC8
  8
LAYER_1
 10
105.157187
 20
104.150118
 30
0.0
 11
104.903419
 21
103.977338
 31
0.0
  0
LINE
  5
AC9
  8
LAYER_1
 10
104.903419
 20
103.977338
 30
0.0
 11
104.435662
 21
103.903262
 31
0.0
  0
LINE
  5
ACA
  8
LAYER_1
 10
104.435662
 20
103.903262
 30
0.0
 11
103.64465
 21
103.994341
 31
0.0
  0
LINE
  5
ACB
  8
LAYER_1
 10
103.64465
 20
103.994341
 30
0.0
 11
102.969385
 21
104.44448
 31
0.0
  0
LINE
  5
ACC
  8
LAYER_1
 10
102.969385
 20
104.44448
 30
0.0
 11
102.969385
 21
104.44448
 31
0.0
  0
LINE
  5
ACD
  8
LAYER_1
 10
105.049001
 20
104.574934
 30
0.0
 11
105.030336
 21
105.158488
 31
0.0
  0
LINE
  5
ACE
  8
LAYER_1
 10
105.030336
 20
105.158488
 30
0.0
 11
104.770014
 21
105.950651
 31
0.0
  0
LINE
  5
ACF
  8
LAYER_1
 10
104.770014
 20
105.950651
 30
0.0
 11
104.39693
 21
106.648265
 31
0.0
  0
LINE
  5
AD0
  8
LAYER_1
 10
104.39693
 20
106.648265
 30
0.0
 11
104.039978
 21
106.948172
 31
0.0
  0
LINE
  5
AD1
  8
LAYER_1
 10
104.039978
 20
106.948172
 30
0.0
 11
103.316241
 21
106.701478
 31
0.0
  0
LINE
  5
AD2
  8
LAYER_1
 10
103.316241
 20
106.701478
 30
0.0
 11
102.916977
 21
106.092093
 31
0.0
  0
LINE
  5
AD3
  8
LAYER_1
 10
102.916977
 20
106.092093
 30
0.0
 11
102.900952
 21
105.316066
 31
0.0
  0
LINE
  5
AD4
  8
LAYER_1
 10
102.900952
 20
105.316066
 30
0.0
 11
103.326932
 21
104.569442
 31
0.0
  0
LINE
  5
AD5
  8
LAYER_1
 10
103.326932
 20
104.569442
 30
0.0
 11
103.806508
 21
104.247898
 31
0.0
  0
LINE
  5
AD6
  8
LAYER_1
 10
103.806508
 20
104.247898
 30
0.0
 11
104.319913
 21
104.141845
 31
0.0
  0
LINE
  5
AD7
  8
LAYER_1
 10
104.319913
 20
104.141845
 30
0.0
 11
104.767344
 21
104.250963
 31
0.0
  0
LINE
  5
AD8
  8
LAYER_1
 10
104.767344
 20
104.250963
 30
0.0
 11
105.049001
 21
104.574934
 31
0.0
  0
LINE
  5
AD9
  8
LAYER_1
 10
105.049001
 20
104.574934
 30
0.0
 11
105.049001
 21
104.574934
 31
0.0
  0
LINE
  5
ADA
  8
LAYER_1
 10
101.802884
 20
105.157469
 30
0.0
 11
102.173009
 21
105.672225
 31
0.0
  0
LINE
  5
ADB
  8
LAYER_1
 10
102.173009
 20
105.672225
 30
0.0
 11
102.301564
 21
106.246271
 31
0.0
  0
LINE
  5
ADC
  8
LAYER_1
 10
102.301564
 20
106.246271
 30
0.0
 11
102.186952
 21
106.755639
 31
0.0
  0
LINE
  5
ADD
  8
LAYER_1
 10
102.186952
 20
106.755639
 30
0.0
 11
101.827578
 21
107.076357
 31
0.0
  0
LINE
  5
ADE
  8
LAYER_1
 10
101.827578
 20
107.076357
 30
0.0
 11
101.50446
 21
107.100902
 31
0.0
  0
LINE
  5
ADF
  8
LAYER_1
 10
101.50446
 20
107.100902
 30
0.0
 11
101.180111
 21
106.959788
 31
0.0
  0
LINE
  5
AE0
  8
LAYER_1
 10
101.180111
 20
106.959788
 30
0.0
 11
100.622253
 21
106.340887
 31
0.0
  0
LINE
  5
AE1
  8
LAYER_1
 10
100.622253
 20
106.340887
 30
0.0
 11
100.343061
 21
105.540268
 31
0.0
  0
LINE
  5
AE2
  8
LAYER_1
 10
100.343061
 20
105.540268
 30
0.0
 11
100.367044
 21
105.172006
 31
0.0
  0
LINE
  5
AE3
  8
LAYER_1
 10
100.367044
 20
105.172006
 30
0.0
 11
100.531589
 21
104.878543
 31
0.0
  0
LINE
  5
AE4
  8
LAYER_1
 10
100.531589
 20
104.878543
 30
0.0
 11
100.783124
 21
104.722488
 31
0.0
  0
LINE
  5
AE5
  8
LAYER_1
 10
100.783124
 20
104.722488
 30
0.0
 11
101.077312
 21
104.716619
 31
0.0
  0
LINE
  5
AE6
  8
LAYER_1
 10
101.077312
 20
104.716619
 30
0.0
 11
101.802884
 21
105.157469
 31
0.0
  0
LINE
  5
AE7
  8
LAYER_1
 10
101.802884
 20
105.157469
 30
0.0
 11
101.802884
 21
105.157469
 31
0.0
  0
LINE
  5
AE8
  8
LAYER_1
 10
107.640391
 20
106.80681
 30
0.0
 11
107.603904
 21
107.20454
 31
0.0
  0
LINE
  5
AE9
  8
LAYER_1
 10
107.603904
 20
107.20454
 30
0.0
 11
107.374575
 21
107.574555
 31
0.0
  0
LINE
  5
AEA
  8
LAYER_1
 10
107.374575
 20
107.574555
 30
0.0
 11
106.557422
 21
108.138427
 31
0.0
  0
LINE
  5
AEB
  8
LAYER_1
 10
106.557422
 20
108.138427
 30
0.0
 11
105.629002
 21
108.312409
 31
0.0
  0
LINE
  5
AEC
  8
LAYER_1
 10
105.629002
 20
108.312409
 30
0.0
 11
105.260588
 21
108.19506
 31
0.0
  0
LINE
  5
AED
  8
LAYER_1
 10
105.260588
 20
108.19506
 30
0.0
 11
105.029384
 21
107.910482
 31
0.0
  0
LINE
  5
AEE
  8
LAYER_1
 10
105.029384
 20
107.910482
 30
0.0
 11
104.949985
 21
107.49706
 31
0.0
  0
LINE
  5
AEF
  8
LAYER_1
 10
104.949985
 20
107.49706
 30
0.0
 11
105.08225
 21
107.149911
 31
0.0
  0
LINE
  5
AF0
  8
LAYER_1
 10
105.08225
 20
107.149911
 30
0.0
 11
106.09232
 21
106.508648
 31
0.0
  0
LINE
  5
AF1
  8
LAYER_1
 10
106.09232
 20
106.508648
 30
0.0
 11
106.762021
 21
106.264225
 31
0.0
  0
LINE
  5
AF2
  8
LAYER_1
 10
106.762021
 20
106.264225
 30
0.0
 11
107.213222
 21
106.226658
 31
0.0
  0
LINE
  5
AF3
  8
LAYER_1
 10
107.213222
 20
106.226658
 30
0.0
 11
107.49099
 21
106.404626
 31
0.0
  0
LINE
  5
AF4
  8
LAYER_1
 10
107.49099
 20
106.404626
 30
0.0
 11
107.640391
 21
106.80681
 31
0.0
  0
LINE
  5
AF5
  8
LAYER_1
 10
107.640391
 20
106.80681
 30
0.0
 11
107.640391
 21
106.80681
 31
0.0
  0
LINE
  5
AF6
  8
LAYER_1
 10
100.193102
 20
107.277542
 30
0.0
 11
100.723918
 21
107.661886
 31
0.0
  0
LINE
  5
AF7
  8
LAYER_1
 10
100.723918
 20
107.661886
 30
0.0
 11
100.735768
 21
108.194765
 31
0.0
  0
LINE
  5
AF8
  8
LAYER_1
 10
100.735768
 20
108.194765
 30
0.0
 11
100.413553
 21
108.881455
 31
0.0
  0
LINE
  5
AF9
  8
LAYER_1
 10
100.413553
 20
108.881455
 30
0.0
 11
99.721583
 21
108.828768
 31
0.0
  0
LINE
  5
AFA
  8
LAYER_1
 10
99.721583
 20
108.828768
 30
0.0
 11
99.009244
 21
108.56874
 31
0.0
  0
LINE
  5
AFB
  8
LAYER_1
 10
99.009244
 20
108.56874
 30
0.0
 11
98.47945900000001
 21
108.21483
 31
0.0
  0
LINE
  5
AFC
  8
LAYER_1
 10
98.47945900000001
 20
108.21483
 30
0.0
 11
98.18335500000001
 21
107.813776
 31
0.0
  0
LINE
  5
AFD
  8
LAYER_1
 10
98.18335500000001
 20
107.813776
 30
0.0
 11
98.172061
 21
107.412318
 31
0.0
  0
LINE
  5
AFE
  8
LAYER_1
 10
98.172061
 20
107.412318
 30
0.0
 11
98.433167
 21
107.096552
 31
0.0
  0
LINE
  5
AFF
  8
LAYER_1
 10
98.433167
 20
107.096552
 30
0.0
 11
98.880104
 21
106.967297
 31
0.0
  0
LINE
  5
B00
  8
LAYER_1
 10
98.880104
 20
106.967297
 30
0.0
 11
99.47828
 21
107.026858
 31
0.0
  0
LINE
  5
B01
  8
LAYER_1
 10
99.47828
 20
107.026858
 30
0.0
 11
100.193102
 21
107.277542
 31
0.0
  0
LINE
  5
B02
  8
LAYER_1
 10
100.193102
 20
107.277542
 30
0.0
 11
100.193102
 21
107.277542
 31
0.0
  0
LINE
  5
B03
  8
LAYER_1
 10
104.58358
 20
108.008707
 30
0.0
 11
104.979053
 21
108.592878
 31
0.0
  0
LINE
  5
B04
  8
LAYER_1
 10
104.979053
 20
108.592878
 30
0.0
 11
105.10569
 21
109.073877
 31
0.0
  0
LINE
  5
B05
  8
LAYER_1
 10
105.10569
 20
109.073877
 30
0.0
 11
104.961478
 21
109.562809
 31
0.0
  0
LINE
  5
B06
  8
LAYER_1
 10
104.961478
 20
109.562809
 30
0.0
 11
104.544405
 21
110.170774
 31
0.0
  0
LINE
  5
B07
  8
LAYER_1
 10
104.544405
 20
110.170774
 30
0.0
 11
103.823739
 21
110.735406
 31
0.0
  0
LINE
  5
B08
  8
LAYER_1
 10
103.823739
 20
110.735406
 30
0.0
 11
102.967388
 21
110.884539
 31
0.0
  0
LINE
  5
B09
  8
LAYER_1
 10
102.967388
 20
110.884539
 30
0.0
 11
102.104706
 21
110.626378
 31
0.0
  0
LINE
  5
B0A
  8
LAYER_1
 10
102.104706
 20
110.626378
 30
0.0
 11
101.365047
 21
109.969127
 31
0.0
  0
LINE
  5
B0B
  8
LAYER_1
 10
101.365047
 20
109.969127
 30
0.0
 11
100.934592
 21
109.184701
 31
0.0
  0
LINE
  5
B0C
  8
LAYER_1
 10
100.934592
 20
109.184701
 30
0.0
 11
101.204432
 21
108.420985
 31
0.0
  0
LINE
  5
B0D
  8
LAYER_1
 10
101.204432
 20
108.420985
 30
0.0
 11
101.95059
 21
107.529288
 31
0.0
  0
LINE
  5
B0E
  8
LAYER_1
 10
101.95059
 20
107.529288
 30
0.0
 11
102.832531
 21
107.154798
 31
0.0
  0
LINE
  5
B0F
  8
LAYER_1
 10
102.832531
 20
107.154798
 30
0.0
 11
103.74521
 21
107.310332
 31
0.0
  0
LINE
  5
B10
  8
LAYER_1
 10
103.74521
 20
107.310332
 30
0.0
 11
104.58358
 21
108.008707
 31
0.0
  0
LINE
  5
B11
  8
LAYER_1
 10
104.58358
 20
108.008707
 30
0.0
 11
104.58358
 21
108.008707
 31
0.0
  0
LINE
  5
B12
  8
LAYER_1
 10
108.052548
 20
109.248199
 30
0.0
 11
108.784266
 21
109.805423
 31
0.0
  0
LINE
  5
B13
  8
LAYER_1
 10
108.784266
 20
109.805423
 30
0.0
 11
108.970235
 21
110.339734
 31
0.0
  0
LINE
  5
B14
  8
LAYER_1
 10
108.970235
 20
110.339734
 30
0.0
 11
108.628754
 21
110.741049
 31
0.0
  0
LINE
  5
B15
  8
LAYER_1
 10
108.628754
 20
110.741049
 30
0.0
 11
107.778118
 21
110.899283
 31
0.0
  0
LINE
  5
B16
  8
LAYER_1
 10
107.778118
 20
110.899283
 30
0.0
 11
106.771887
 21
110.779731
 31
0.0
  0
LINE
  5
B17
  8
LAYER_1
 10
106.771887
 20
110.779731
 30
0.0
 11
105.956814
 21
110.463355
 31
0.0
  0
LINE
  5
B18
  8
LAYER_1
 10
105.956814
 20
110.463355
 30
0.0
 11
105.442909
 21
110.013578
 31
0.0
  0
LINE
  5
B19
  8
LAYER_1
 10
105.442909
 20
110.013578
 30
0.0
 11
105.340187
 21
109.493822
 31
0.0
  0
LINE
  5
B1A
  8
LAYER_1
 10
105.340187
 20
109.493822
 30
0.0
 11
105.666665
 21
109.046411
 31
0.0
  0
LINE
  5
B1B
  8
LAYER_1
 10
105.666665
 20
109.046411
 30
0.0
 11
106.462686
 21
108.923728
 31
0.0
  0
LINE
  5
B1C
  8
LAYER_1
 10
106.462686
 20
108.923728
 30
0.0
 11
107.331242
 21
109.019041
 31
0.0
  0
LINE
  5
B1D
  8
LAYER_1
 10
107.331242
 20
109.019041
 30
0.0
 11
108.052548
 21
109.248199
 31
0.0
  0
LINE
  5
B1E
  8
LAYER_1
 10
108.052548
 20
109.248199
 30
0.0
 11
108.052548
 21
109.248199
 31
0.0
  0
LINE
  5
B1F
  8
LAYER_1
 10
100.505771
 20
111.375951
 30
0.0
 11
99.820033
 21
111.809071
 31
0.0
  0
LINE
  5
B20
  8
LAYER_1
 10
99.820033
 20
111.809071
 30
0.0
 11
99.12092199999999
 21
112.004568
 31
0.0
  0
LINE
  5
B21
  8
LAYER_1
 10
99.12092199999999
 20
112.004568
 30
0.0
 11
98.536838
 21
111.948491
 31
0.0
  0
LINE
  5
B22
  8
LAYER_1
 10
98.536838
 20
111.948491
 30
0.0
 11
98.19618300000001
 21
111.626892
 31
0.0
  0
LINE
  5
B23
  8
LAYER_1
 10
98.19618300000001
 20
111.626892
 30
0.0
 11
98.173895
 21
111.10426
 31
0.0
  0
LINE
  5
B24
  8
LAYER_1
 10
98.173895
 20
111.10426
 30
0.0
 11
98.435891
 21
110.543643
 31
0.0
  0
LINE
  5
B25
  8
LAYER_1
 10
98.435891
 20
110.543643
 30
0.0
 11
98.92637499999999
 21
110.025063
 31
0.0
  0
LINE
  5
B26
  8
LAYER_1
 10
98.92637499999999
 20
110.025063
 30
0.0
 11
99.58955
 21
109.628544
 31
0.0
  0
LINE
  5
B27
  8
LAYER_1
 10
99.58955
 20
109.628544
 30
0.0
 11
100.411932
 21
109.41063
 31
0.0
  0
LINE
  5
B28
  8
LAYER_1
 10
100.411932
 20
109.41063
 30
0.0
 11
100.636912
 21
109.585267
 31
0.0
  0
LINE
  5
B29
  8
LAYER_1
 10
100.636912
 20
109.585267
 30
0.0
 11
100.874285
 21
109.987068
 31
0.0
  0
LINE
  5
B2A
  8
LAYER_1
 10
100.874285
 20
109.987068
 30
0.0
 11
101.067836
 21
110.407044
 31
0.0
  0
LINE
  5
B2B
  8
LAYER_1
 10
101.067836
 20
110.407044
 30
0.0
 11
101.088889
 21
110.710848
 31
0.0
  0
LINE
  5
B2C
  8
LAYER_1
 10
101.088889
 20
110.710848
 30
0.0
 11
100.505771
 21
111.375951
 31
0.0
  0
LINE
  5
B2D
  8
LAYER_1
 10
100.505771
 20
111.375951
 30
0.0
 11
100.505771
 21
111.375951
 31
0.0
  0
LINE
  5
B2E
  8
LAYER_1
 10
106.439439
 20
111.576617
 30
0.0
 11
107.122835
 21
112.440829
 31
0.0
  0
LINE
  5
B2F
  8
LAYER_1
 10
107.122835
 20
112.440829
 30
0.0
 11
107.403348
 21
113.214884
 31
0.0
  0
LINE
  5
B30
  8
LAYER_1
 10
107.403348
 20
113.214884
 30
0.0
 11
107.272052
 21
113.816498
 31
0.0
  0
LINE
  5
B31
  8
LAYER_1
 10
107.272052
 20
113.816498
 30
0.0
 11
106.720022
 21
114.163386
 31
0.0
  0
LINE
  5
B32
  8
LAYER_1
 10
106.720022
 20
114.163386
 30
0.0
 11
106.038397
 21
114.165423
 31
0.0
  0
LINE
  5
B33
  8
LAYER_1
 10
106.038397
 20
114.165423
 30
0.0
 11
105.348761
 21
113.860046
 31
0.0
  0
LINE
  5
B34
  8
LAYER_1
 10
105.348761
 20
113.860046
 30
0.0
 11
104.698205
 21
113.278423
 31
0.0
  0
LINE
  5
B35
  8
LAYER_1
 10
104.698205
 20
113.278423
 30
0.0
 11
104.133817
 21
112.451717
 31
0.0
  0
LINE
  5
B36
  8
LAYER_1
 10
104.133817
 20
112.451717
 30
0.0
 11
103.750043
 21
111.547937
 31
0.0
  0
LINE
  5
B37
  8
LAYER_1
 10
103.750043
 20
111.547937
 30
0.0
 11
103.85554
 21
111.311949
 31
0.0
  0
LINE
  5
B38
  8
LAYER_1
 10
103.85554
 20
111.311949
 30
0.0
 11
104.162708
 21
111.05474
 31
0.0
  0
LINE
  5
B39
  8
LAYER_1
 10
104.162708
 20
111.05474
 30
0.0
 11
104.718723
 21
110.723768
 31
0.0
  0
LINE
  5
B3A
  8
LAYER_1
 10
104.718723
 20
110.723768
 30
0.0
 11
105.214762
 21
110.684664
 31
0.0
  0
LINE
  5
B3B
  8
LAYER_1
 10
105.214762
 20
110.684664
 30
0.0
 11
105.753957
 21
110.961067
 31
0.0
  0
LINE
  5
B3C
  8
LAYER_1
 10
105.753957
 20
110.961067
 30
0.0
 11
106.439439
 21
111.576617
 31
0.0
  0
LINE
  5
B3D
  8
LAYER_1
 10
106.439439
 20
111.576617
 30
0.0
 11
106.439439
 21
111.576617
 31
0.0
  0
LINE
  5
B3E
  8
LAYER_1
 10
102.714106
 20
111.707723
 30
0.0
 11
102.643551
 21
112.679786
 31
0.0
  0
LINE
  5
B3F
  8
LAYER_1
 10
102.643551
 20
112.679786
 30
0.0
 11
102.502833
 21
113.343776
 31
0.0
  0
LINE
  5
B40
  8
LAYER_1
 10
102.502833
 20
113.343776
 30
0.0
 11
102.210933
 21
113.848783
 31
0.0
  0
LINE
  5
B41
  8
LAYER_1
 10
102.210933
 20
113.848783
 30
0.0
 11
101.822426
 21
114.131612
 31
0.0
  0
LINE
  5
B42
  8
LAYER_1
 10
101.822426
 20
114.131612
 30
0.0
 11
101.391892
 21
114.129068
 31
0.0
  0
LINE
  5
B43
  8
LAYER_1
 10
101.391892
 20
114.129068
 30
0.0
 11
100.950216
 21
113.778811
 31
0.0
  0
LINE
  5
B44
  8
LAYER_1
 10
100.950216
 20
113.778811
 30
0.0
 11
100.740821
 21
113.21254
 31
0.0
  0
LINE
  5
B45
  8
LAYER_1
 10
100.740821
 20
113.21254
 30
0.0
 11
100.776062
 21
112.519586
 31
0.0
  0
LINE
  5
B46
  8
LAYER_1
 10
100.776062
 20
112.519586
 30
0.0
 11
101.068293
 21
111.789279
 31
0.0
  0
LINE
  5
B47
  8
LAYER_1
 10
101.068293
 20
111.789279
 30
0.0
 11
101.58224
 21
111.162162
 31
0.0
  0
LINE
  5
B48
  8
LAYER_1
 10
101.58224
 20
111.162162
 30
0.0
 11
102.152856
 21
111.169215
 31
0.0
  0
LINE
  5
B49
  8
LAYER_1
 10
102.152856
 20
111.169215
 30
0.0
 11
102.56088
 21
111.417352
 31
0.0
  0
LINE
  5
B4A
  8
LAYER_1
 10
102.56088
 20
111.417352
 30
0.0
 11
102.714106
 21
111.707723
 31
0.0
  0
LINE
  5
B4B
  8
LAYER_1
 10
102.714106
 20
111.707723
 30
0.0
 11
102.714106
 21
111.707723
 31
0.0
  0
LINE
  5
B4C
  8
LAYER_1
 10
66.84493999999999
 20
113.757813
 30
0.0
 11
66.26318499999999
 21
114.192886
 31
0.0
  0
LINE
  5
B4D
  8
LAYER_1
 10
66.26318499999999
 20
114.192886
 30
0.0
 11
65.80213999999999
 21
114.02939
 31
0.0
  0
LINE
  5
B4E
  8
LAYER_1
 10
65.80213999999999
 20
114.02939
 30
0.0
 11
65.312169
 21
113.808436
 31
0.0
  0
LINE
  5
B4F
  8
LAYER_1
 10
65.312169
 20
113.808436
 30
0.0
 11
64.72841699999999
 21
113.770398
 31
0.0
  0
LINE
  5
B50
  8
LAYER_1
 10
64.72841699999999
 20
113.770398
 30
0.0
 11
64.39133800000001
 21
113.858178
 31
0.0
  0
LINE
  5
B51
  8
LAYER_1
 10
64.39133800000001
 20
113.858178
 30
0.0
 11
64.19670000000001
 21
114.046949
 31
0.0
  0
LINE
  5
B52
  8
LAYER_1
 10
64.19670000000001
 20
114.046949
 30
0.0
 11
64.097219
 21
114.994079
 31
0.0
  0
LINE
  5
B53
  8
LAYER_1
 10
64.097219
 20
114.994079
 30
0.0
 11
64.11655399999999
 21
116.125542
 31
0.0
  0
LINE
  5
B54
  8
LAYER_1
 10
64.11655399999999
 20
116.125542
 30
0.0
 11
63.005287
 21
116.019565
 31
0.0
  0
LINE
  5
B55
  8
LAYER_1
 10
63.005287
 20
116.019565
 30
0.0
 11
62.137224
 21
116.036185
 31
0.0
  0
LINE
  5
B56
  8
LAYER_1
 10
62.137224
 20
116.036185
 30
0.0
 11
61.679988
 21
116.2599
 31
0.0
  0
LINE
  5
B57
  8
LAYER_1
 10
61.679988
 20
116.2599
 30
0.0
 11
61.556197
 21
116.694169
 31
0.0
  0
LINE
  5
B58
  8
LAYER_1
 10
61.556197
 20
116.694169
 30
0.0
 11
61.635988
 21
117.191012
 31
0.0
  0
LINE
  5
B59
  8
LAYER_1
 10
61.635988
 20
117.191012
 30
0.0
 11
61.894183
 21
117.677199
 31
0.0
  0
LINE
  5
B5A
  8
LAYER_1
 10
61.894183
 20
117.677199
 30
0.0
 11
62.305605
 21
118.079505
 31
0.0
  0
LINE
  5
B5B
  8
LAYER_1
 10
62.305605
 20
118.079505
 30
0.0
 11
62.613986
 21
118.317547
 31
0.0
  0
LINE
  5
B5C
  8
LAYER_1
 10
62.613986
 20
118.317547
 30
0.0
 11
62.709195
 21
118.528367
 31
0.0
  0
LINE
  5
B5D
  8
LAYER_1
 10
62.709195
 20
118.528367
 30
0.0
 11
62.234137
 21
119.318172
 31
0.0
  0
LINE
  5
B5E
  8
LAYER_1
 10
62.234137
 20
119.318172
 30
0.0
 11
61.925275
 21
119.86877
 31
0.0
  0
LINE
  5
B5F
  8
LAYER_1
 10
61.925275
 20
119.86877
 30
0.0
 11
61.796042
 21
120.404245
 31
0.0
  0
LINE
  5
B60
  8
LAYER_1
 10
61.796042
 20
120.404245
 30
0.0
 11
61.826927
 21
120.894238
 31
0.0
  0
LINE
  5
B61
  8
LAYER_1
 10
61.826927
 20
120.894238
 30
0.0
 11
61.998417
 21
121.308386
 31
0.0
  0
LINE
  5
B62
  8
LAYER_1
 10
61.998417
 20
121.308386
 30
0.0
 11
62.291
 21
121.616328
 31
0.0
  0
LINE
  5
B63
  8
LAYER_1
 10
62.291
 20
121.616328
 30
0.0
 11
62.685162
 21
121.787703
 31
0.0
  0
LINE
  5
B64
  8
LAYER_1
 10
62.685162
 20
121.787703
 30
0.0
 11
63.161392
 21
121.79215
 31
0.0
  0
LINE
  5
B65
  8
LAYER_1
 10
63.161392
 20
121.79215
 30
0.0
 11
63.700177
 21
121.599307
 31
0.0
  0
LINE
  5
B66
  8
LAYER_1
 10
63.700177
 20
121.599307
 30
0.0
 11
64.12750800000001
 21
121.513946
 31
0.0
  0
LINE
  5
B67
  8
LAYER_1
 10
64.12750800000001
 20
121.513946
 30
0.0
 11
64.21899500000001
 21
122.134502
 31
0.0
  0
LINE
  5
B68
  8
LAYER_1
 10
64.21899500000001
 20
122.134502
 30
0.0
 11
64.36364399999999
 21
122.815552
 31
0.0
  0
LINE
  5
B69
  8
LAYER_1
 10
64.36364399999999
 20
122.815552
 30
0.0
 11
64.738208
 21
123.388954
 31
0.0
  0
LINE
  5
B6A
  8
LAYER_1
 10
64.738208
 20
123.388954
 30
0.0
 11
65.25361
 21
123.760165
 31
0.0
  0
LINE
  5
B6B
  8
LAYER_1
 10
65.25361
 20
123.760165
 30
0.0
 11
65.820775
 21
123.834637
 31
0.0
  0
LINE
  5
B6C
  8
LAYER_1
 10
65.820775
 20
123.834637
 30
0.0
 11
66.314621
 21
123.419572
 31
0.0
  0
LINE
  5
B6D
  8
LAYER_1
 10
66.314621
 20
123.419572
 30
0.0
 11
66.770524
 21
122.429732
 31
0.0
  0
LINE
  5
B6E
  8
LAYER_1
 10
66.770524
 20
122.429732
 30
0.0
 11
67.205386
 21
121.121166
 31
0.0
  0
LINE
  5
B6F
  8
LAYER_1
 10
67.205386
 20
121.121166
 30
0.0
 11
67.814049
 21
122.17874
 31
0.0
  0
LINE
  5
B70
  8
LAYER_1
 10
67.814049
 20
122.17874
 30
0.0
 11
68.424812
 21
122.96415
 31
0.0
  0
LINE
  5
B71
  8
LAYER_1
 10
68.424812
 20
122.96415
 30
0.0
 11
69.183971
 21
123.517618
 31
0.0
  0
LINE
  5
B72
  8
LAYER_1
 10
69.183971
 20
123.517618
 30
0.0
 11
70.015017
 21
123.798979
 31
0.0
  0
LINE
  5
B73
  8
LAYER_1
 10
70.015017
 20
123.798979
 30
0.0
 11
70.841441
 21
123.768066
 31
0.0
  0
LINE
  5
B74
  8
LAYER_1
 10
70.841441
 20
123.768066
 30
0.0
 11
71.408824
 21
123.446678
 31
0.0
  0
LINE
  5
B75
  8
LAYER_1
 10
71.408824
 20
123.446678
 30
0.0
 11
71.71817
 21
122.894652
 31
0.0
  0
LINE
  5
B76
  8
LAYER_1
 10
71.71817
 20
122.894652
 30
0.0
 11
71.742274
 21
122.212671
 31
0.0
  0
LINE
  5
B77
  8
LAYER_1
 10
71.742274
 20
122.212671
 30
0.0
 11
71.453931
 21
121.501413
 31
0.0
  0
LINE
  5
B78
  8
LAYER_1
 10
71.453931
 20
121.501413
 30
0.0
 11
71.17916
 21
120.887177
 31
0.0
  0
LINE
  5
B79
  8
LAYER_1
 10
71.17916
 20
120.887177
 30
0.0
 11
71.826651
 21
120.638662
 31
0.0
  0
LINE
  5
B7A
  8
LAYER_1
 10
71.826651
 20
120.638662
 30
0.0
 11
72.591686
 21
120.379132
 31
0.0
  0
LINE
  5
B7B
  8
LAYER_1
 10
72.591686
 20
120.379132
 30
0.0
 11
73.018356
 21
120.010926
 31
0.0
  0
LINE
  5
B7C
  8
LAYER_1
 10
73.018356
 20
120.010926
 30
0.0
 11
73.106658
 21
119.53405
 31
0.0
  0
LINE
  5
B7D
  8
LAYER_1
 10
73.106658
 20
119.53405
 30
0.0
 11
72.85658700000001
 21
118.948509
 31
0.0
  0
LINE
  5
B7E
  8
LAYER_1
 10
72.85658700000001
 20
118.948509
 30
0.0
 11
72.32594
 21
118.400784
 31
0.0
  0
LINE
  5
B7F
  8
LAYER_1
 10
72.32594
 20
118.400784
 30
0.0
 11
71.696493
 21
118.070383
 31
0.0
  0
LINE
  5
B80
  8
LAYER_1
 10
71.696493
 20
118.070383
 30
0.0
 11
70.996686
 21
117.894742
 31
0.0
  0
LINE
  5
B81
  8
LAYER_1
 10
70.996686
 20
117.894742
 30
0.0
 11
71.55895200000001
 21
117.105113
 31
0.0
  0
LINE
  5
B82
  8
LAYER_1
 10
71.55895200000001
 20
117.105113
 30
0.0
 11
71.956051
 21
116.416734
 31
0.0
  0
LINE
  5
B83
  8
LAYER_1
 10
71.956051
 20
116.416734
 30
0.0
 11
72.121217
 21
115.870537
 31
0.0
  0
LINE
  5
B84
  8
LAYER_1
 10
72.121217
 20
115.870537
 30
0.0
 11
71.93396300000001
 21
115.495108
 31
0.0
  0
LINE
  5
B85
  8
LAYER_1
 10
71.93396300000001
 20
115.495108
 30
0.0
 11
71.44891300000001
 21
115.273984
 31
0.0
  0
LINE
  5
B86
  8
LAYER_1
 10
71.44891300000001
 20
115.273984
 30
0.0
 11
70.78114100000001
 21
115.233299
 31
0.0
  0
LINE
  5
B87
  8
LAYER_1
 10
70.78114100000001
 20
115.233299
 30
0.0
 11
70.04571799999999
 21
115.399187
 31
0.0
  0
LINE
  5
B88
  8
LAYER_1
 10
70.04571799999999
 20
115.399187
 30
0.0
 11
69.18570800000001
 21
115.697061
 31
0.0
  0
LINE
  5
B89
  8
LAYER_1
 10
69.18570800000001
 20
115.697061
 30
0.0
 11
69.13352500000001
 21
114.497617
 31
0.0
  0
LINE
  5
B8A
  8
LAYER_1
 10
69.13352500000001
 20
114.497617
 30
0.0
 11
69.03084800000001
 21
113.461209
 31
0.0
  0
LINE
  5
B8B
  8
LAYER_1
 10
69.03084800000001
 20
113.461209
 30
0.0
 11
68.780269
 21
113.289962
 31
0.0
  0
LINE
  5
B8C
  8
LAYER_1
 10
68.780269
 20
113.289962
 30
0.0
 11
68.311217
 21
113.216596
 31
0.0
  0
LINE
  5
B8D
  8
LAYER_1
 10
68.311217
 20
113.216596
 30
0.0
 11
67.520206
 21
113.307674
 31
0.0
  0
LINE
  5
B8E
  8
LAYER_1
 10
67.520206
 20
113.307674
 30
0.0
 11
66.84493999999999
 21
113.757813
 31
0.0
  0
LINE
  5
B8F
  8
LAYER_1
 10
66.84493999999999
 20
113.757813
 30
0.0
 11
66.84493999999999
 21
113.757813
 31
0.0
  0
LINE
  5
B90
  8
LAYER_1
 10
68.92455699999999
 20
113.888268
 30
0.0
 11
68.905891
 21
114.471821
 31
0.0
  0
LINE
  5
B91
  8
LAYER_1
 10
68.905891
 20
114.471821
 30
0.0
 11
68.645569
 21
115.263984
 31
0.0
  0
LINE
  5
B92
  8
LAYER_1
 10
68.645569
 20
115.263984
 30
0.0
 11
68.272485
 21
115.961599
 31
0.0
  0
LINE
  5
B93
  8
LAYER_1
 10
68.272485
 20
115.961599
 30
0.0
 11
67.915533
 21
116.261505
 31
0.0
  0
LINE
  5
B94
  8
LAYER_1
 10
67.915533
 20
116.261505
 30
0.0
 11
67.19179699999999
 21
116.014811
 31
0.0
  0
LINE
  5
B95
  8
LAYER_1
 10
67.19179699999999
 20
116.014811
 30
0.0
 11
66.79253300000001
 21
115.405427
 31
0.0
  0
LINE
  5
B96
  8
LAYER_1
 10
66.79253300000001
 20
115.405427
 30
0.0
 11
66.776507
 21
114.629399
 31
0.0
  0
LINE
  5
B97
  8
LAYER_1
 10
66.776507
 20
114.629399
 30
0.0
 11
67.20248700000001
 21
113.882776
 31
0.0
  0
LINE
  5
B98
  8
LAYER_1
 10
67.20248700000001
 20
113.882776
 30
0.0
 11
67.682064
 21
113.561232
 31
0.0
  0
LINE
  5
B99
  8
LAYER_1
 10
67.682064
 20
113.561232
 30
0.0
 11
68.195469
 21
113.455178
 31
0.0
  0
LINE
  5
B9A
  8
LAYER_1
 10
68.195469
 20
113.455178
 30
0.0
 11
68.6429
 21
113.564296
 31
0.0
  0
LINE
  5
B9B
  8
LAYER_1
 10
68.6429
 20
113.564296
 30
0.0
 11
68.92455699999999
 21
113.888268
 31
0.0
  0
LINE
  5
B9C
  8
LAYER_1
 10
68.92455699999999
 20
113.888268
 30
0.0
 11
68.92455699999999
 21
113.888268
 31
0.0
  0
LINE
  5
B9D
  8
LAYER_1
 10
65.678439
 20
114.470803
 30
0.0
 11
66.048565
 21
114.985558
 31
0.0
  0
LINE
  5
B9E
  8
LAYER_1
 10
66.048565
 20
114.985558
 30
0.0
 11
66.17711900000001
 21
115.559605
 31
0.0
  0
LINE
  5
B9F
  8
LAYER_1
 10
66.17711900000001
 20
115.559605
 30
0.0
 11
66.06250799999999
 21
116.068972
 31
0.0
  0
LINE
  5
BA0
  8
LAYER_1
 10
66.06250799999999
 20
116.068972
 30
0.0
 11
65.70313400000001
 21
116.389691
 31
0.0
  0
LINE
  5
BA1
  8
LAYER_1
 10
65.70313400000001
 20
116.389691
 30
0.0
 11
65.380015
 21
116.414236
 31
0.0
  0
LINE
  5
BA2
  8
LAYER_1
 10
65.380015
 20
116.414236
 30
0.0
 11
65.055667
 21
116.273121
 31
0.0
  0
LINE
  5
BA3
  8
LAYER_1
 10
65.055667
 20
116.273121
 30
0.0
 11
64.497809
 21
115.654221
 31
0.0
  0
LINE
  5
BA4
  8
LAYER_1
 10
64.497809
 20
115.654221
 30
0.0
 11
64.218616
 21
114.853602
 31
0.0
  0
LINE
  5
BA5
  8
LAYER_1
 10
64.218616
 20
114.853602
 30
0.0
 11
64.242599
 21
114.485339
 31
0.0
  0
LINE
  5
BA6
  8
LAYER_1
 10
64.242599
 20
114.485339
 30
0.0
 11
64.407144
 21
114.191877
 31
0.0
  0
LINE
  5
BA7
  8
LAYER_1
 10
64.407144
 20
114.191877
 30
0.0
 11
64.65867900000001
 21
114.035822
 31
0.0
  0
LINE
  5
BA8
  8
LAYER_1
 10
64.65867900000001
 20
114.035822
 30
0.0
 11
64.952867
 21
114.029953
 31
0.0
  0
LINE
  5
BA9
  8
LAYER_1
 10
64.952867
 20
114.029953
 30
0.0
 11
65.678439
 21
114.470803
 31
0.0
  0
LINE
  5
BAA
  8
LAYER_1
 10
65.678439
 20
114.470803
 30
0.0
 11
65.678439
 21
114.470803
 31
0.0
  0
LINE
  5
BAB
  8
LAYER_1
 10
71.50196800000001
 20
116.047558
 30
0.0
 11
71.467018
 21
116.452592
 31
0.0
  0
LINE
  5
BAC
  8
LAYER_1
 10
71.467018
 20
116.452592
 30
0.0
 11
71.239959
 21
116.833436
 31
0.0
  0
LINE
  5
BAD
  8
LAYER_1
 10
71.239959
 20
116.833436
 30
0.0
 11
70.428198
 21
117.423504
 31
0.0
  0
LINE
  5
BAE
  8
LAYER_1
 10
70.428198
 20
117.423504
 30
0.0
 11
69.504066
 21
117.619664
 31
0.0
  0
LINE
  5
BAF
  8
LAYER_1
 10
69.504066
 20
117.619664
 30
0.0
 11
69.13654
 21
117.508122
 31
0.0
  0
LINE
  5
BB0
  8
LAYER_1
 10
69.13654
 20
117.508122
 30
0.0
 11
68.904939
 21
117.223815
 31
0.0
  0
LINE
  5
BB1
  8
LAYER_1
 10
68.904939
 20
117.223815
 30
0.0
 11
68.82554
 21
116.810393
 31
0.0
  0
LINE
  5
BB2
  8
LAYER_1
 10
68.82554
 20
116.810393
 30
0.0
 11
68.95780600000001
 21
116.463244
 31
0.0
  0
LINE
  5
BB3
  8
LAYER_1
 10
68.95780600000001
 20
116.463244
 30
0.0
 11
69.967876
 21
115.821981
 31
0.0
  0
LINE
  5
BB4
  8
LAYER_1
 10
69.967876
 20
115.821981
 30
0.0
 11
71.076252
 21
115.535821
 31
0.0
  0
LINE
  5
BB5
  8
LAYER_1
 10
71.076252
 20
115.535821
 30
0.0
 11
71.356628
 21
115.689333
 31
0.0
  0
LINE
  5
BB6
  8
LAYER_1
 10
71.356628
 20
115.689333
 30
0.0
 11
71.50196800000001
 21
116.047558
 31
0.0
  0
LINE
  5
BB7
  8
LAYER_1
 10
71.50196800000001
 20
116.047558
 30
0.0
 11
71.50196800000001
 21
116.047558
 31
0.0
  0
LINE
  5
BB8
  8
LAYER_1
 10
63.903894
 20
116.574555
 30
0.0
 11
64.594469
 21
116.943345
 31
0.0
  0
LINE
  5
BB9
  8
LAYER_1
 10
64.594469
 20
116.943345
 30
0.0
 11
64.616502
 21
117.491777
 31
0.0
  0
LINE
  5
BBA
  8
LAYER_1
 10
64.616502
 20
117.491777
 30
0.0
 11
64.455904
 21
117.965368
 31
0.0
  0
LINE
  5
BBB
  8
LAYER_1
 10
64.455904
 20
117.965368
 30
0.0
 11
64.27787600000001
 21
118.18658
 31
0.0
  0
LINE
  5
BBC
  8
LAYER_1
 10
64.27787600000001
 20
118.18658
 30
0.0
 11
63.412009
 21
118.104665
 31
0.0
  0
LINE
  5
BBD
  8
LAYER_1
 10
63.412009
 20
118.104665
 30
0.0
 11
62.745301
 21
117.873832
 31
0.0
  0
LINE
  5
BBE
  8
LAYER_1
 10
62.745301
 20
117.873832
 30
0.0
 11
62.274866
 21
117.536533
 31
0.0
  0
LINE
  5
BBF
  8
LAYER_1
 10
62.274866
 20
117.536533
 30
0.0
 11
62.035474
 21
117.129242
 31
0.0
  0
LINE
  5
BC0
  8
LAYER_1
 10
62.035474
 20
117.129242
 30
0.0
 11
62.061897
 21
116.688431
 31
0.0
  0
LINE
  5
BC1
  8
LAYER_1
 10
62.061897
 20
116.688431
 30
0.0
 11
62.261996
 21
116.397015
 31
0.0
  0
LINE
  5
BC2
  8
LAYER_1
 10
62.261996
 20
116.397015
 30
0.0
 11
62.602752
 21
116.282933
 31
0.0
  0
LINE
  5
BC3
  8
LAYER_1
 10
62.602752
 20
116.282933
 30
0.0
 11
63.903894
 21
116.574555
 31
0.0
  0
LINE
  5
BC4
  8
LAYER_1
 10
63.903894
 20
116.574555
 30
0.0
 11
63.903894
 21
116.574555
 31
0.0
  0
LINE
  5
BC5
  8
LAYER_1
 10
68.459136
 20
117.32204
 30
0.0
 11
68.854608
 21
117.906211
 31
0.0
  0
LINE
  5
BC6
  8
LAYER_1
 10
68.854608
 20
117.906211
 30
0.0
 11
68.981245
 21
118.387211
 31
0.0
  0
LINE
  5
BC7
  8
LAYER_1
 10
68.981245
 20
118.387211
 30
0.0
 11
68.837034
 21
118.876142
 31
0.0
  0
LINE
  5
BC8
  8
LAYER_1
 10
68.837034
 20
118.876142
 30
0.0
 11
68.41996
 21
119.484108
 31
0.0
  0
LINE
  5
BC9
  8
LAYER_1
 10
68.41996
 20
119.484108
 30
0.0
 11
67.699294
 21
120.048739
 31
0.0
  0
LINE
  5
BCA
  8
LAYER_1
 10
67.699294
 20
120.048739
 30
0.0
 11
66.84294300000001
 21
120.197873
 31
0.0
  0
LINE
  5
BCB
  8
LAYER_1
 10
66.84294300000001
 20
120.197873
 30
0.0
 11
65.980262
 21
119.939712
 31
0.0
  0
LINE
  5
BCC
  8
LAYER_1
 10
65.980262
 20
119.939712
 30
0.0
 11
65.24060299999999
 21
119.28246
 31
0.0
  0
LINE
  5
BCD
  8
LAYER_1
 10
65.24060299999999
 20
119.28246
 30
0.0
 11
64.810148
 21
118.498035
 31
0.0
  0
LINE
  5
BCE
  8
LAYER_1
 10
64.810148
 20
118.498035
 30
0.0
 11
65.079987
 21
117.734319
 31
0.0
  0
LINE
  5
BCF
  8
LAYER_1
 10
65.079987
 20
117.734319
 30
0.0
 11
65.826145
 21
116.842621
 31
0.0
  0
LINE
  5
BD0
  8
LAYER_1
 10
65.826145
 20
116.842621
 30
0.0
 11
66.70808700000001
 21
116.468132
 31
0.0
  0
LINE
  5
BD1
  8
LAYER_1
 10
66.70808700000001
 20
116.468132
 30
0.0
 11
67.620766
 21
116.623666
 31
0.0
  0
LINE
  5
BD2
  8
LAYER_1
 10
67.620766
 20
116.623666
 30
0.0
 11
68.459136
 21
117.32204
 31
0.0
  0
LINE
  5
BD3
  8
LAYER_1
 10
68.459136
 20
117.32204
 30
0.0
 11
68.459136
 21
117.32204
 31
0.0
  0
LINE
  5
BD4
  8
LAYER_1
 10
72.211427
 20
118.811888
 30
0.0
 11
72.707994
 21
119.350109
 31
0.0
  0
LINE
  5
BD5
  8
LAYER_1
 10
72.707994
 20
119.350109
 30
0.0
 11
72.767355
 21
119.796125
 31
0.0
  0
LINE
  5
BD6
  8
LAYER_1
 10
72.767355
 20
119.796125
 30
0.0
 11
72.409314
 21
120.100205
 31
0.0
  0
LINE
  5
BD7
  8
LAYER_1
 10
72.409314
 20
120.100205
 30
0.0
 11
71.653674
 21
120.212617
 31
0.0
  0
LINE
  5
BD8
  8
LAYER_1
 10
71.653674
 20
120.212617
 30
0.0
 11
70.647443
 21
120.093064
 31
0.0
  0
LINE
  5
BD9
  8
LAYER_1
 10
70.647443
 20
120.093064
 30
0.0
 11
69.832369
 21
119.776689
 31
0.0
  0
LINE
  5
BDA
  8
LAYER_1
 10
69.832369
 20
119.776689
 30
0.0
 11
69.318465
 21
119.326912
 31
0.0
  0
LINE
  5
BDB
  8
LAYER_1
 10
69.318465
 20
119.326912
 30
0.0
 11
69.21574200000001
 21
118.807155
 31
0.0
  0
LINE
  5
BDC
  8
LAYER_1
 10
69.21574200000001
 20
118.807155
 30
0.0
 11
69.62970300000001
 21
118.365735
 31
0.0
  0
LINE
  5
BDD
  8
LAYER_1
 10
69.62970300000001
 20
118.365735
 30
0.0
 11
70.415199
 21
118.219618
 31
0.0
  0
LINE
  5
BDE
  8
LAYER_1
 10
70.415199
 20
118.219618
 30
0.0
 11
71.34988800000001
 21
118.368452
 31
0.0
  0
LINE
  5
BDF
  8
LAYER_1
 10
71.34988800000001
 20
118.368452
 30
0.0
 11
72.211427
 21
118.811888
 31
0.0
  0
LINE
  5
BE0
  8
LAYER_1
 10
72.211427
 20
118.811888
 30
0.0
 11
72.211427
 21
118.811888
 31
0.0
  0
LINE
  5
BE1
  8
LAYER_1
 10
64.381326
 20
120.689284
 30
0.0
 11
63.695588
 21
121.122404
 31
0.0
  0
LINE
  5
BE2
  8
LAYER_1
 10
63.695588
 20
121.122404
 30
0.0
 11
62.996477
 21
121.317901
 31
0.0
  0
LINE
  5
BE3
  8
LAYER_1
 10
62.996477
 20
121.317901
 30
0.0
 11
62.412393
 21
121.261825
 31
0.0
  0
LINE
  5
BE4
  8
LAYER_1
 10
62.412393
 20
121.261825
 30
0.0
 11
62.071738
 21
120.940225
 31
0.0
  0
LINE
  5
BE5
  8
LAYER_1
 10
62.071738
 20
120.940225
 30
0.0
 11
62.049451
 21
120.417593
 31
0.0
  0
LINE
  5
BE6
  8
LAYER_1
 10
62.049451
 20
120.417593
 30
0.0
 11
62.311447
 21
119.856976
 31
0.0
  0
LINE
  5
BE7
  8
LAYER_1
 10
62.311447
 20
119.856976
 30
0.0
 11
62.80193
 21
119.338397
 31
0.0
  0
LINE
  5
BE8
  8
LAYER_1
 10
62.80193
 20
119.338397
 30
0.0
 11
63.465106
 21
118.941877
 31
0.0
  0
LINE
  5
BE9
  8
LAYER_1
 10
63.465106
 20
118.941877
 30
0.0
 11
64.287487
 21
118.723963
 31
0.0
  0
LINE
  5
BEA
  8
LAYER_1
 10
64.287487
 20
118.723963
 30
0.0
 11
64.512467
 21
118.8986
 31
0.0
  0
LINE
  5
BEB
  8
LAYER_1
 10
64.512467
 20
118.8986
 30
0.0
 11
64.749841
 21
119.300401
 31
0.0
  0
LINE
  5
BEC
  8
LAYER_1
 10
64.749841
 20
119.300401
 30
0.0
 11
64.943392
 21
119.720377
 31
0.0
  0
LINE
  5
BED
  8
LAYER_1
 10
64.943392
 20
119.720377
 30
0.0
 11
64.964444
 21
120.024182
 31
0.0
  0
LINE
  5
BEE
  8
LAYER_1
 10
64.964444
 20
120.024182
 30
0.0
 11
64.381326
 21
120.689284
 31
0.0
  0
LINE
  5
BEF
  8
LAYER_1
 10
64.381326
 20
120.689284
 30
0.0
 11
64.381326
 21
120.689284
 31
0.0
  0
LINE
  5
BF0
  8
LAYER_1
 10
70.314995
 20
120.88995
 30
0.0
 11
71.004504
 21
121.76071
 31
0.0
  0
LINE
  5
BF1
  8
LAYER_1
 10
71.004504
 20
121.76071
 30
0.0
 11
71.281333
 21
122.534791
 31
0.0
  0
LINE
  5
BF2
  8
LAYER_1
 10
71.281333
 20
122.534791
 30
0.0
 11
71.137978
 21
123.134941
 31
0.0
  0
LINE
  5
BF3
  8
LAYER_1
 10
71.137978
 20
123.134941
 30
0.0
 11
70.56693799999999
 21
123.483905
 31
0.0
  0
LINE
  5
BF4
  8
LAYER_1
 10
70.56693799999999
 20
123.483905
 30
0.0
 11
69.882245
 21
123.501758
 31
0.0
  0
LINE
  5
BF5
  8
LAYER_1
 10
69.882245
 20
123.501758
 30
0.0
 11
69.217781
 21
123.218933
 31
0.0
  0
LINE
  5
BF6
  8
LAYER_1
 10
69.217781
 20
123.218933
 30
0.0
 11
68.593902
 21
122.648906
 31
0.0
  0
LINE
  5
BF7
  8
LAYER_1
 10
68.593902
 20
122.648906
 30
0.0
 11
68.030968
 21
121.805154
 31
0.0
  0
LINE
  5
BF8
  8
LAYER_1
 10
68.030968
 20
121.805154
 30
0.0
 11
67.624527
 21
120.864432
 31
0.0
  0
LINE
  5
BF9
  8
LAYER_1
 10
67.624527
 20
120.864432
 30
0.0
 11
67.72854
 21
120.626333
 31
0.0
  0
LINE
  5
BFA
  8
LAYER_1
 10
67.72854
 20
120.626333
 30
0.0
 11
68.038263
 21
120.368073
 31
0.0
  0
LINE
  5
BFB
  8
LAYER_1
 10
68.038263
 20
120.368073
 30
0.0
 11
68.594278
 21
120.037101
 31
0.0
  0
LINE
  5
BFC
  8
LAYER_1
 10
68.594278
 20
120.037101
 30
0.0
 11
69.090318
 21
119.997997
 31
0.0
  0
LINE
  5
BFD
  8
LAYER_1
 10
69.090318
 20
119.997997
 30
0.0
 11
69.629513
 21
120.2744
 31
0.0
  0
LINE
  5
BFE
  8
LAYER_1
 10
69.629513
 20
120.2744
 30
0.0
 11
70.314995
 21
120.88995
 31
0.0
  0
LINE
  5
BFF
  8
LAYER_1
 10
70.314995
 20
120.88995
 30
0.0
 11
70.314995
 21
120.88995
 31
0.0
  0
LINE
  5
C00
  8
LAYER_1
 10
66.54732799999999
 20
120.847617
 30
0.0
 11
66.47677299999999
 21
121.852009
 31
0.0
  0
LINE
  5
C01
  8
LAYER_1
 10
66.47677299999999
 20
121.852009
 30
0.0
 11
66.375596
 21
122.58157
 31
0.0
  0
LINE
  5
C02
  8
LAYER_1
 10
66.375596
 20
122.58157
 30
0.0
 11
66.106191
 21
123.1347
 31
0.0
  0
LINE
  5
C03
  8
LAYER_1
 10
66.106191
 20
123.1347
 30
0.0
 11
65.719746
 21
123.444083
 31
0.0
  0
LINE
  5
C04
  8
LAYER_1
 10
65.719746
 20
123.444083
 30
0.0
 11
65.267448
 21
123.442402
 31
0.0
  0
LINE
  5
C05
  8
LAYER_1
 10
65.267448
 20
123.442402
 30
0.0
 11
64.88618099999999
 21
123.172735
 31
0.0
  0
LINE
  5
C06
  8
LAYER_1
 10
64.88618099999999
 20
123.172735
 30
0.0
 11
64.669225
 21
122.761536
 31
0.0
  0
LINE
  5
C07
  8
LAYER_1
 10
64.669225
 20
122.761536
 30
0.0
 11
64.669867
 21
121.744964
 31
0.0
  0
LINE
  5
C08
  8
LAYER_1
 10
64.669867
 20
121.744964
 30
0.0
 11
65.152618
 21
120.853535
 31
0.0
  0
LINE
  5
C09
  8
LAYER_1
 10
65.152618
 20
120.853535
 30
0.0
 11
65.538297
 21
120.598766
 31
0.0
  0
LINE
  5
C0A
  8
LAYER_1
 10
65.538297
 20
120.598766
 30
0.0
 11
66.00072
 21
120.548103
 31
0.0
  0
LINE
  5
C0B
  8
LAYER_1
 10
66.00072
 20
120.548103
 30
0.0
 11
66.41586599999999
 21
120.672322
 31
0.0
  0
LINE
  5
C0C
  8
LAYER_1
 10
66.41586599999999
 20
120.672322
 30
0.0
 11
66.54732799999999
 21
120.847617
 31
0.0
  0
LINE
  5
C0D
  8
LAYER_1
 10
66.54732799999999
 20
120.847617
 30
0.0
 11
66.54732799999999
 21
120.847617
 31
0.0
  0
ENDSEC
  0
EOF
