0
SECTION
2
HEADER
9
$EXTMIN
10
-1.932784
20
9.366585
9
$EXTMAX
10
58.392937
20
46.381210
0
ENDSEC
0
SECTION
2
TABLES
0
TABLE
2
LTYPE
70
1
0
LTYPE
2
0
70
0
3
Solid Line
72
65
73
0
40
0.0
0
ENDTAB
0
TABLE
2
LAYER
70
1
0
LAYER
2
1
70
0
62
7
6
0
0
ENDTAB
0
ENDSEC
0
SECTION
2
BLOCKS
0
ENDSEC
0
SECTION
2
ENTITIES
0
POLYLINE
8
1
66
1
70
1
0
VERTEX
8
1
10
7.252174
20
28.104422
0
VERTEX
8
1
10
6.985230
20
28.154980
42
0.082141
0
VERTEX
8
1
10
4.140715
20
26.021790
0
VERTEX
8
1
10
4.612741
20
25.341103
42
-0.109226
0
SEQEND
0
POLYLINE
8
1
66
1
70
1
0
VERTEX
8
1
10
7.923905
20
28.512825
0
VERTEX
8
1
10
7.855466
20
29.338310
42
-0.082143
0
VERTEX
8
1
10
11.385483
20
29.763449
0
VERTEX
8
1
10
11.591536
20
29.586061
42
0.109253
0
SEQEND
0
POLYLINE
8
1
66
1
70
1
0
VERTEX
8
1
10
16.090225
20
28.699570
0
VERTEX
8
1
10
16.000443
20
28.956299
42
0.082140
0
VERTEX
8
1
10
12.730790
20
30.353128
0
VERTEX
8
1
10
12.377360
20
29.604103
42
-0.109242
0
SEQEND
0
POLYLINE
8
1
66
1
70
1
0
VERTEX
8
1
10
3.330986
20
20.938774
0
VERTEX
8
1
10
2.581910
20
21.292229
42
-0.082141
0
VERTEX
8
1
10
3.978739
20
24.561882
0
VERTEX
8
1
10
4.235190
20
24.651567
42
0.109226
0
SEQEND
0
POLYLINE
8
1
66
1
70
1
0
VERTEX
8
1
10
39.623039
20
18.452875
42
-0.219167
0
VERTEX
8
1
10
39.378899
20
18.478331
42
-0.306727
0
VERTEX
8
1
10
39.056107
20
18.409298
42
-0.144913
0
VERTEX
8
1
10
38.902016
20
18.349476
42
-0.045442
0
VERTEX
8
1
10
38.935268
20
18.313128
42
-0.329420
0
VERTEX
8
1
10
39.284328
20
18.296228
42
-0.215780
0
VERTEX
8
1
10
39.525993
20
18.279602
42
-0.014984
0
SEQEND
0
POLYLINE
8
1
66
1
70
1
0
VERTEX
8
1
10
42.205681
20
20.439417
42
0.145838
0
VERTEX
8
1
10
40.095699
20
19.106800
42
0.149486
0
VERTEX
8
1
10
39.940155
20
19.034895
42
0.281761
0
VERTEX
8
1
10
39.634644
20
19.006973
42
0.302484
0
VERTEX
8
1
10
39.316380
20
18.936235
42
0.306734
0
VERTEX
8
1
10
38.986897
20
18.916210
42
0.111671
0
VERTEX
8
1
10
38.861233
20
18.937180
0
VERTEX
8
1
10
34.420540
20
21.369518
42
-0.000143
0
VERTEX
8
1
10
41.890278
20
21.368729
42
-0.394356
0
VERTEX
8
1
10
42.205681
20
21.031012
0
SEQEND
0
POLYLINE
8
1
66
1
70
1
0
VERTEX
8
1
10
45.024006
20
23.618927
0
VERTEX
8
1
10
39.661133
20
23.618927
42
0.248925
0
VERTEX
8
1
10
40.194626
20
27.485813
42
0.212548
0
VERTEX
8
1
10
42.205502
20
26.476797
0
VERTEX
8
1
10
42.205502
20
25.884413
42
0.414209
0
VERTEX
8
1
10
42.324398
20
25.765520
0
VERTEX
8
1
10
42.537209
20
25.765520
42
0.414214
0
VERTEX
8
1
10
42.656101
20
25.884413
0
VERTEX
8
1
10
42.656101
20
26.492565
42
0.198813
0
VERTEX
8
1
10
44.504395
20
27.523493
42
0.251458
0
SEQEND
0
POLYLINE
8
1
66
1
70
1
0
VERTEX
8
1
10
37.587303
20
23.881121
0
VERTEX
8
1
10
37.587303
20
24.736208
0
VERTEX
8
1
10
35.609543
20
24.736208
0
VERTEX
8
1
10
35.609543
20
23.881121
42
0.414218
0
VERTEX
8
1
10
35.871735
20
23.618927
0
VERTEX
8
1
10
37.325108
20
23.618927
42
0.414222
0
SEQEND
0
POLYLINE
8
1
66
1
70
1
0
VERTEX
8
1
10
34.958630
20
23.881121
0
VERTEX
8
1
10
34.958630
20
24.736208
0
VERTEX
8
1
10
32.930798
20
24.736208
0
VERTEX
8
1
10
32.930798
20
23.881121
42
0.414222
0
VERTEX
8
1
10
33.192993
20
23.618927
0
VERTEX
8
1
10
34.696438
20
23.618927
42
0.414218
0
SEQEND
0
POLYLINE
8
1
66
1
70
1
0
VERTEX
8
1
10
30.241680
20
23.243189
0
VERTEX
8
1
10
29.861393
20
21.821016
0
VERTEX
8
1
10
29.592587
20
21.821016
0
VERTEX
8
1
10
29.309193
20
22.867069
0
VERTEX
8
1
10
29.051846
20
21.821016
0
VERTEX
8
1
10
28.788246
20
21.821016
0
VERTEX
8
1
10
28.399626
20
23.243189
0
VERTEX
8
1
10
28.671555
20
23.243189
0
VERTEX
8
1
10
28.946617
20
22.206512
0
VERTEX
8
1
10
29.202919
20
23.243189
0
VERTEX
8
1
10
29.462349
20
23.243189
0
VERTEX
8
1
10
29.745743
20
22.206512
0
VERTEX
8
1
10
30.015591
20
23.243189
0
SEQEND
0
POLYLINE
8
1
66
1
70
1
0
VERTEX
8
1
10
32.362854
20
21.821016
0
VERTEX
8
1
10
32.087795
20
21.821016
0
VERTEX
8
1
10
32.087795
20
23.023352
0
VERTEX
8
1
10
31.709591
20
23.023352
0
VERTEX
8
1
10
31.709591
20
23.243189
0
VERTEX
8
1
10
32.741062
20
23.243189
0
VERTEX
8
1
10
32.741062
20
23.023352
0
VERTEX
8
1
10
32.362854
20
23.023352
0
SEQEND
0
POLYLINE
8
1
66
1
70
1
0
VERTEX
8
1
10
32.958076
20
23.243189
0
VERTEX
8
1
10
32.842587
20
23.243189
0
VERTEX
8
1
10
32.842587
20
21.821016
0
VERTEX
8
1
10
33.766739
20
21.821016
0
VERTEX
8
1
10
33.766739
20
22.041895
0
VERTEX
8
1
10
33.098892
20
22.041895
0
VERTEX
8
1
10
33.098892
20
22.439896
0
VERTEX
8
1
10
33.628170
20
22.439896
0
VERTEX
8
1
10
33.628170
20
22.646189
0
VERTEX
8
1
10
33.098892
20
22.646189
0
VERTEX
8
1
10
33.098892
20
23.031687
0
VERTEX
8
1
10
33.757362
20
23.031687
0
VERTEX
8
1
10
33.757362
20
23.243189
0
SEQEND
0
POLYLINE
8
1
66
1
70
1
0
VERTEX
8
1
10
34.124580
20
22.405514
0
VERTEX
8
1
10
34.124580
20
22.610765
0
VERTEX
8
1
10
34.124580
20
23.038980
0
VERTEX
8
1
10
34.464237
20
23.038980
0
VERTEX
8
1
10
34.487663
20
23.038403
0
VERTEX
8
1
10
34.510036
20
23.036667
0
VERTEX
8
1
10
34.531342
20
23.033777
0
VERTEX
8
1
10
34.551586
20
23.029728
42
-0.423351
0
VERTEX
8
1
10
34.714706
20
22.790470
42
-0.325355
0
VERTEX
8
1
10
34.554733
20
22.622820
42
-0.062213
0
VERTEX
8
1
10
34.443398
20
22.610765
0
VERTEX
8
1
10
34.268551
20
22.610765
0
VERTEX
8
1
10
34.268551
20
22.405514
0
VERTEX
8
1
10
34.485073
20
22.405514
0
VERTEX
8
1
10
34.705952
20
21.821016
0
VERTEX
8
1
10
34.976837
20
21.821016
0
VERTEX
8
1
10
34.727833
20
22.449272
0
VERTEX
8
1
10
34.757095
20
22.461998
42
0.297807
0
VERTEX
8
1
10
34.983250
20
22.794788
0
VERTEX
8
1
10
34.984135
20
22.826435
0
VERTEX
8
1
10
34.983421
20
22.854403
42
0.357991
0
VERTEX
8
1
10
34.669109
20
23.224602
42
0.056103
0
VERTEX
8
1
10
34.485073
20
23.243189
0
VERTEX
8
1
10
33.868271
20
23.243189
0
VERTEX
8
1
10
33.868271
20
21.821016
0
VERTEX
8
1
10
34.124580
20
21.821016
0
SEQEND
0
POLYLINE
8
1
66
1
70
1
0
VERTEX
8
1
10
35.960850
20
21.821016
0
VERTEX
8
1
10
35.085667
20
21.821016
0
VERTEX
8
1
10
35.085667
20
23.243189
0
VERTEX
8
1
10
35.355515
20
23.243189
0
VERTEX
8
1
10
35.355515
20
22.053356
0
VERTEX
8
1
10
35.960850
20
22.053356
0
SEQEND
0
POLYLINE
8
1
66
1
70
1
0
VERTEX
8
1
10
36.571903
20
23.044889
0
VERTEX
8
1
10
36.571903
20
23.257324
42
0.219228
0
VERTEX
8
1
10
36.192978
20
23.005611
42
0.159475
0
VERTEX
8
1
10
36.062931
20
22.500364
42
0.167083
0
VERTEX
8
1
10
36.239231
20
21.987411
42
0.196564
0
VERTEX
8
1
10
36.571903
20
21.804983
0
VERTEX
8
1
10
36.571903
20
22.018824
42
-0.225932
0
VERTEX
8
1
10
36.393204
20
22.196386
42
-0.098723
0
VERTEX
8
1
10
36.339520
20
22.528458
42
-0.103446
0
VERTEX
8
1
10
36.399994
20
22.885611
42
-0.221365
0
SEQEND
0
POLYLINE
8
1
66
1
70
1
0
VERTEX
8
1
10
36.732975
20
22.013336
0
VERTEX
8
1
10
36.732975
20
21.802862
42
0.244953
0
VERTEX
8
1
10
37.158604
20
22.077248
42
0.139527
0
VERTEX
8
1
10
37.272011
20
22.533667
42
0.168320
0
VERTEX
8
1
10
37.111042
20
23.056171
42
0.219432
0
VERTEX
8
1
10
36.732975
20
23.262424
0
VERTEX
8
1
10
36.732975
20
23.052809
42
-0.250671
0
VERTEX
8
1
10
36.925552
20
22.899273
42
-0.109122
0
VERTEX
8
1
10
36.993420
20
22.570189
42
-0.085595
0
VERTEX
8
1
10
36.951221
20
22.217163
42
-0.252102
0
SEQEND
0
POLYLINE
8
1
66
1
70
1
0
VERTEX
8
1
10
37.892704
20
21.803844
0
VERTEX
8
1
10
37.892704
20
22.016096
42
-0.225271
0
VERTEX
8
1
10
37.713680
20
22.175907
42
-0.105821
0
VERTEX
8
1
10
37.651058
20
22.494696
42
-0.090467
0
VERTEX
8
1
10
37.698463
20
22.855547
0
VERTEX
8
1
10
37.711155
20
22.885611
42
-0.234312
0
VERTEX
8
1
10
37.892704
20
23.047981
0
VERTEX
8
1
10
37.892704
20
23.258842
42
0.224846
0
VERTEX
8
1
10
37.504139
20
23.005611
42
0.159475
0
VERTEX
8
1
10
37.374092
20
22.500364
0
VERTEX
8
1
10
37.375729
20
22.464630
42
0.183915
0
VERTEX
8
1
10
37.591011
20
21.943285
42
0.170136
0
SEQEND
0
POLYLINE
8
1
66
1
70
1
0
VERTEX
8
1
10
38.102100
20
23.254519
0
VERTEX
8
1
10
38.102100
20
23.035070
42
-0.197861
0
VERTEX
8
1
10
38.246811
20
22.877787
42
-0.102363
0
VERTEX
8
1
10
38.304989
20
22.535749
42
-0.094851
0
VERTEX
8
1
10
38.253445
20
22.194422
42
-0.176744
0
VERTEX
8
1
10
38.102100
20
22.033859
0
VERTEX
8
1
10
38.102100
20
21.811562
42
0.215966
0
VERTEX
8
1
10
38.469765
20
22.077248
42
0.139519
0
VERTEX
8
1
10
38.583176
20
22.533667
42
0.168312
0
VERTEX
8
1
10
38.422203
20
23.056171
42
0.191730
0
SEQEND
0
POLYLINE
8
1
66
1
70
1
0
VERTEX
8
1
10
39.648403
20
21.821016
0
VERTEX
8
1
10
39.648403
20
23.243189
0
VERTEX
8
1
10
39.409935
20
23.243189
0
VERTEX
8
1
10
39.409935
20
21.821016
0
SEQEND
0
POLYLINE
8
1
66
1
70
1
0
VERTEX
8
1
10
39.809479
20
23.243189
0
VERTEX
8
1
10
39.809479
20
23.040022
0
VERTEX
8
1
10
39.960049
20
23.040022
42
-0.229266
0
VERTEX
8
1
10
40.141457
20
22.961199
42
-0.433293
0
VERTEX
8
1
10
40.065842
20
22.666819
42
-0.112808
0
VERTEX
8
1
10
39.965260
20
22.646189
0
VERTEX
8
1
10
39.809479
20
22.646189
0
VERTEX
8
1
10
39.809479
20
22.443022
0
VERTEX
8
1
10
39.985054
20
22.443022
0
VERTEX
8
1
10
40.005074
20
22.442448
0
VERTEX
8
1
10
40.024292
20
22.440729
42
-0.473778
0
VERTEX
8
1
10
40.205662
20
22.186020
42
-0.336459
0
VERTEX
8
1
10
40.024334
20
22.036812
0
VERTEX
8
1
10
40.004616
20
22.035152
0
VERTEX
8
1
10
39.984013
20
22.034601
0
VERTEX
8
1
10
39.809479
20
22.034601
0
VERTEX
8
1
10
39.809479
20
21.821016
0
VERTEX
8
1
10
40.031937
20
21.821016
42
0.144802
0
VERTEX
8
1
10
40.312237
20
21.890160
0
VERTEX
8
1
10
40.330605
20
21.903305
42
0.381022
0
VERTEX
8
1
10
40.407898
20
22.419050
42
0.209001
0
VERTEX
8
1
10
40.167385
20
22.558672
42
0.393459
0
VERTEX
8
1
10
40.425213
20
22.896828
42
0.303763
0
VERTEX
8
1
10
40.197601
20
23.214018
42
0.076091
0
VERTEX
8
1
10
39.964218
20
23.243189
0
SEQEND
0
POLYLINE
8
1
66
1
70
1
0
VERTEX
8
1
10
41.098064
20
21.803165
0
VERTEX
8
1
10
41.098064
20
22.014589
42
-0.231352
0
VERTEX
8
1
10
40.913284
20
22.175907
42
-0.105867
0
VERTEX
8
1
10
40.850662
20
22.494696
42
-0.090478
0
VERTEX
8
1
10
40.898064
20
22.855547
0
VERTEX
8
1
10
40.910759
20
22.885611
42
-0.241163
0
VERTEX
8
1
10
41.098064
20
23.049234
0
VERTEX
8
1
10
41.098064
20
23.259525
42
0.227825
0
VERTEX
8
1
10
40.703743
20
23.005611
42
0.159468
0
VERTEX
8
1
10
40.573692
20
22.500364
0
VERTEX
8
1
10
40.575329
20
22.464630
42
0.183909
0
VERTEX
8
1
10
40.790615
20
21.943285
42
0.172613
0
SEQEND
0
POLYLINE
8
1
66
1
70
1
0
VERTEX
8
1
10
42.640717
20
21.821016
0
VERTEX
8
1
10
42.368786
20
21.821016
0
VERTEX
8
1
10
42.368786
20
22.421143
0
VERTEX
8
1
10
41.884312
20
23.243189
0
VERTEX
8
1
10
42.194794
20
23.243189
0
VERTEX
8
1
10
42.532368
20
22.656609
0
VERTEX
8
1
10
42.855347
20
23.243189
0
VERTEX
8
1
10
43.101231
20
23.243189
0
VERTEX
8
1
10
42.640717
20
22.421143
0
SEQEND
0
POLYLINE
8
1
66
1
70
1
0
VERTEX
8
1
10
42.576935
20
16.939064
42
-0.030533
0
VERTEX
8
1
10
42.664249
20
17.027967
0
VERTEX
8
1
10
41.430008
20
19.165737
42
0.100517
0
VERTEX
8
1
10
40.441578
20
18.171913
0
SEQEND
0
POLYLINE
8
1
66
1
70
1
0
VERTEX
8
1
10
42.330719
20
16.437914
42
-0.032084
0
VERTEX
8
1
10
42.361877
20
16.558512
0
VERTEX
8
1
10
40.224037
20
17.792793
42
0.100486
0
VERTEX
8
1
10
39.864857
20
16.437914
0
SEQEND
0
POLYLINE
8
1
66
1
70
1
0
VERTEX
8
1
10
42.367809
20
15.880702
42
-0.029182
0
VERTEX
8
1
10
42.334465
20
16.000816
0
VERTEX
8
1
10
39.865940
20
16.000816
42
0.100348
0
VERTEX
8
1
10
40.232433
20
14.647843
0
SEQEND
0
POLYLINE
8
1
66
1
70
1
0
VERTEX
8
1
10
42.678780
20
15.416931
42
-0.031970
0
VERTEX
8
1
10
42.589912
20
15.504219
0
VERTEX
8
1
10
40.452068
20
14.269935
42
0.100514
0
VERTEX
8
1
10
41.445892
20
13.281504
0
SEQEND
0
POLYLINE
8
1
66
1
70
1
0
VERTEX
8
1
10
43.179893
20
15.170561
42
-0.030976
0
VERTEX
8
1
10
43.059250
20
15.201727
0
VERTEX
8
1
10
41.825012
20
13.063968
42
0.100486
0
VERTEX
8
1
10
43.179893
20
12.704787
0
SEQEND
0
POLYLINE
8
1
66
1
70
1
0
VERTEX
8
1
10
43.737045
20
15.207840
42
-0.031235
0
VERTEX
8
1
10
43.616989
20
15.174509
0
VERTEX
8
1
10
43.616989
20
12.705869
42
0.100347
0
VERTEX
8
1
10
44.969963
20
13.072364
0
SEQEND
0
POLYLINE
8
1
66
1
70
1
0
VERTEX
8
1
10
44.200882
20
15.518708
42
-0.031851
0
VERTEX
8
1
10
44.113594
20
15.429833
0
VERTEX
8
1
10
45.347870
20
13.291998
42
0.100520
0
VERTEX
8
1
10
46.336300
20
14.285822
0
SEQEND
0
POLYLINE
8
1
66
1
70
1
0
VERTEX
8
1
10
44.447319
20
16.019823
42
-0.029626
0
VERTEX
8
1
10
44.416145
20
15.899140
0
VERTEX
8
1
10
46.553841
20
14.664943
42
0.100486
0
VERTEX
8
1
10
46.913021
20
16.019823
0
SEQEND
0
POLYLINE
8
1
66
1
70
1
0
VERTEX
8
1
10
44.409901
20
16.576937
42
-0.032087
0
VERTEX
8
1
10
44.443222
20
16.456919
0
VERTEX
8
1
10
46.911938
20
16.456919
42
0.100347
0
VERTEX
8
1
10
46.545444
20
17.809891
0
SEQEND
0
POLYLINE
8
1
66
1
70
1
0
VERTEX
8
1
10
44.099148
20
17.040890
42
-0.030216
0
VERTEX
8
1
10
44.188057
20
16.953568
0
VERTEX
8
1
10
46.325809
20
18.187799
42
0.100518
0
VERTEX
8
1
10
45.331985
20
19.176231
0
SEQEND
0
POLYLINE
8
1
66
1
70
1
0
VERTEX
8
1
10
43.597984
20
17.287104
42
-0.031697
0
VERTEX
8
1
10
43.718594
20
17.255949
0
VERTEX
8
1
10
44.952862
20
19.393768
42
0.100489
0
VERTEX
8
1
10
43.597984
20
19.752947
0
SEQEND
0
POLYLINE
8
1
66
1
70
1
0
VERTEX
8
1
10
43.040855
20
17.249861
42
-0.031529
0
VERTEX
8
1
10
43.160889
20
17.283182
0
VERTEX
8
1
10
43.160889
20
19.751865
42
0.100348
0
VERTEX
8
1
10
41.807919
20
19.385374
0
SEQEND
0
CIRCLE
8
1
10
43.388939
20
16.228825
40
0.479465
0
POLYLINE
8
1
66
1
70
1
0
VERTEX
8
1
10
37.361675
20
29.363882
0
VERTEX
8
1
10
35.208981
20
28.121027
0
VERTEX
8
1
10
33.125923
20
29.323681
42
-0.498118
0
SEQEND
0
POLYLINE
8
1
66
1
70
1
0
VERTEX
8
1
10
32.805824
20
28.756878
0
VERTEX
8
1
10
34.958630
20
27.513958
0
VERTEX
8
1
10
34.958630
20
25.108690
42
-0.498151
0
SEQEND
0
POLYLINE
8
1
66
1
70
1
0
VERTEX
8
1
10
35.609543
20
25.114882
0
VERTEX
8
1
10
35.609543
20
27.600681
0
VERTEX
8
1
10
37.692493
20
28.803276
42
-0.498180
0
SEQEND
0
POLYLINE
8
1
66
1
70
1
0
VERTEX
8
1
10
31.457188
20
23.618927
0
VERTEX
8
1
10
32.279888
20
23.618927
0
VERTEX
8
1
10
32.279888
20
24.736208
0
VERTEX
8
1
10
32.131210
20
24.736208
42
-0.220698
0
SEQEND
0
POLYLINE
8
1
66
1
70
1
0
VERTEX
8
1
10
33.560944
20
21.369518
0
VERTEX
8
1
10
38.184563
20
18.836983
42
0.179232
0
VERTEX
8
1
10
37.986347
20
18.787657
42
0.291296
0
VERTEX
8
1
10
37.679729
20
18.712776
42
0.306730
0
VERTEX
8
1
10
37.350254
20
18.692751
42
0.195458
0
VERTEX
8
1
10
37.129719
20
18.692688
42
0.158507
0
VERTEX
8
1
10
36.949623
20
18.671831
42
0.270432
0
VERTEX
8
1
10
36.660900
20
18.739313
42
0.291302
0
VERTEX
8
1
10
36.345852
20
18.758392
42
0.306730
0
VERTEX
8
1
10
36.025169
20
18.836634
42
0.324635
0
VERTEX
8
1
10
35.675156
20
18.854843
42
0.347795
0
VERTEX
8
1
10
35.320049
20
18.942034
42
0.275783
0
VERTEX
8
1
10
35.026154
20
19.007757
42
0.296413
0
VERTEX
8
1
10
34.706390
20
19.030233
42
0.306724
0
VERTEX
8
1
10
34.385708
20
19.108475
42
0.324635
0
VERTEX
8
1
10
34.035694
20
19.126684
42
0.347796
0
VERTEX
8
1
10
33.680584
20
19.213873
42
0.270419
0
VERTEX
8
1
10
33.391865
20
19.281357
42
0.291282
0
VERTEX
8
1
10
33.076813
20
19.300436
42
0.306724
0
VERTEX
8
1
10
32.756130
20
19.378677
42
0.324635
0
VERTEX
8
1
10
32.406116
20
19.396887
42
0.347798
0
VERTEX
8
1
10
32.051006
20
19.484077
42
0.270430
0
VERTEX
8
1
10
31.762283
20
19.551559
42
0.291302
0
VERTEX
8
1
10
31.447235
20
19.570639
42
0.306729
0
VERTEX
8
1
10
31.126553
20
19.648878
42
0.324649
0
VERTEX
8
1
10
30.776539
20
19.667088
42
0.347809
0
VERTEX
8
1
10
30.421429
20
19.754278
42
0.069245
0
VERTEX
8
1
10
30.359386
20
19.799145
0
VERTEX
8
1
10
30.460827
20
20.198381
0
VERTEX
8
1
10
30.460827
20
21.209345
42
-0.414224
0
VERTEX
8
1
10
30.621002
20
21.369518
0
SEQEND
0
POLYLINE
8
1
66
1
70
1
0
VERTEX
8
1
10
30.700420
20
19.236652
42
-0.769874
0
VERTEX
8
1
10
30.713696
20
19.232241
42
0.318831
0
VERTEX
8
1
10
31.042862
20
19.144156
42
0.306702
0
VERTEX
8
1
10
31.371635
20
19.114708
42
0.289912
0
VERTEX
8
1
10
31.676483
20
19.030699
42
0.264703
0
VERTEX
8
1
10
31.972198
20
19.000614
42
0.347777
0
VERTEX
8
1
10
32.336609
20
18.970617
42
0.329418
0
VERTEX
8
1
10
32.672440
20
18.873953
42
0.306707
0
VERTEX
8
1
10
33.001213
20
18.844505
42
0.289917
0
VERTEX
8
1
10
33.306068
20
18.760496
42
0.264730
0
VERTEX
8
1
10
33.601776
20
18.730413
42
0.347788
0
VERTEX
8
1
10
33.966187
20
18.700415
42
0.329415
0
VERTEX
8
1
10
34.302021
20
18.603750
42
0.306706
0
VERTEX
8
1
10
34.630791
20
18.574303
42
0.296439
0
VERTEX
8
1
10
34.940697
20
18.492373
42
0.271309
0
VERTEX
8
1
10
35.241234
20
18.458570
42
0.134856
0
VERTEX
8
1
10
35.378521
20
18.386372
0
VERTEX
8
1
10
35.375145
20
18.382275
42
0.349466
0
VERTEX
8
1
10
35.008831
20
18.361595
42
0.275784
0
VERTEX
8
1
10
34.708641
20
18.337530
42
0.296424
0
VERTEX
8
1
10
34.396523
20
18.264502
42
0.306733
0
VERTEX
8
1
10
34.067039
20
18.244474
42
0.324644
0
VERTEX
8
1
10
33.727280
20
18.158432
42
0.347790
0
VERTEX
8
1
10
33.362263
20
18.136780
42
0.270425
0
VERTEX
8
1
10
33.066494
20
18.115923
42
0.291291
0
VERTEX
8
1
10
32.759876
20
18.041040
42
0.306721
0
VERTEX
8
1
10
32.430397
20
18.021015
42
0.324641
0
VERTEX
8
1
10
32.090633
20
17.934971
42
0.347799
0
VERTEX
8
1
10
31.725616
20
17.913319
42
0.270443
0
VERTEX
8
1
10
31.429852
20
17.892462
42
0.291292
0
VERTEX
8
1
10
31.123234
20
17.817581
42
0.306730
0
VERTEX
8
1
10
30.793755
20
17.797554
42
0.049501
0
VERTEX
8
1
10
30.744186
20
17.812641
42
0.281952
0
SEQEND
0
POLYLINE
8
1
66
1
70
1
0
VERTEX
8
1
10
20.103092
20
30.413946
42
2.594362
0
VERTEX
8
1
10
20.531565
20
28.957165
0
VERTEX
8
1
10
20.972143
20
28.957165
42
0.414222
0
VERTEX
8
1
10
21.234337
20
29.219358
0
VERTEX
8
1
10
21.234337
20
30.572266
42
0.414222
0
VERTEX
8
1
10
20.972143
20
30.834459
0
VERTEX
8
1
10
20.103092
20
30.834459
0
SEQEND
0
POLYLINE
8
1
66
1
70
1
0
VERTEX
8
1
10
22.480223
20
30.834459
0
VERTEX
8
1
10
31.817413
20
30.834459
42
-0.414224
0
VERTEX
8
1
10
32.079609
20
30.572266
0
VERTEX
8
1
10
32.079609
20
27.481627
0
VERTEX
8
1
10
32.079609
20
25.335276
42
1.426445
0
VERTEX
8
1
10
29.719673
20
23.618927
0
VERTEX
8
1
10
28.801670
20
23.618927
0
VERTEX
8
1
10
28.801670
20
24.284723
0
VERTEX
8
1
10
28.000549
20
24.284723
0
VERTEX
8
1
10
28.000549
20
23.618927
0
VERTEX
8
1
10
27.067400
20
23.618927
42
0.960221
0
VERTEX
8
1
10
22.218029
20
29.092085
0
VERTEX
8
1
10
22.218029
20
30.572266
42
-0.414222
0
SEQEND
0
POLYLINE
8
1
66
1
70
1
0
VERTEX
8
1
10
20.825768
20
24.906059
42
-0.070715
0
VERTEX
8
1
10
21.211321
20
21.866970
0
VERTEX
8
1
10
20.987574
20
21.752903
42
0.097515
0
VERTEX
8
1
10
19.951477
20
25.011143
0
VERTEX
8
1
10
20.604649
20
25.065294
42
-23.032557
0
SEQEND
0
POLYLINE
8
1
66
1
70
1
0
VERTEX
8
1
10
4.178863
20
21.326555
0
VERTEX
8
1
10
9.835884
20
20.708183
0
VERTEX
8
1
10
4.203210
20
19.898325
42
-0.044762
0
SEQEND
0
POLYLINE
8
1
66
1
70
1
0
VERTEX
8
1
10
4.287163
20
19.314112
0
VERTEX
8
1
10
10.242849
20
20.170414
0
VERTEX
8
1
10
10.254436
20
20.132215
0
VERTEX
8
1
10
10.259423
20
20.117296
0
VERTEX
8
1
10
4.874146
20
17.433588
42
-0.061718
0
SEQEND
0
POLYLINE
8
1
66
1
70
1
0
VERTEX
8
1
10
5.137457
20
16.905363
0
VERTEX
8
1
10
10.230635
20
19.443508
0
VERTEX
8
1
10
5.929882
20
15.716886
42
-0.044738
0
SEQEND
0
POLYLINE
8
1
66
1
70
1
0
VERTEX
8
1
10
6.316477
20
15.270905
0
VERTEX
8
1
10
10.863773
20
19.211159
0
VERTEX
8
1
10
10.878299
20
19.198542
0
VERTEX
8
1
10
10.906427
20
19.175457
0
VERTEX
8
1
10
7.826958
20
14.006261
42
-0.061734
0
SEQEND
0
POLYLINE
8
1
66
1
70
1
0
VERTEX
8
1
10
8.333951
20
13.704081
0
VERTEX
8
1
10
11.246459
20
18.593019
0
VERTEX
8
1
10
9.643243
20
13.132964
42
-0.044708
0
SEQEND
0
POLYLINE
8
1
66
1
70
1
0
VERTEX
8
1
10
10.209528
20
12.966605
0
VERTEX
8
1
10
11.904664
20
18.739714
0
VERTEX
8
1
10
11.959720
20
18.732727
0
VERTEX
8
1
10
11.959897
20
18.732712
0
VERTEX
8
1
10
12.163955
20
12.719415
42
-0.061716
0
SEQEND
0
POLYLINE
8
1
66
1
70
1
0
VERTEX
8
1
10
12.753828
20
12.739463
0
VERTEX
8
1
10
12.560834
20
18.426733
0
VERTEX
8
1
10
14.164074
20
12.966607
42
-0.044781
0
SEQEND
0
POLYLINE
8
1
66
1
70
1
0
VERTEX
8
1
10
14.730358
20
13.132965
0
VERTEX
8
1
10
13.035194
20
18.906157
0
VERTEX
8
1
10
13.066776
20
18.920824
0
VERTEX
8
1
10
13.085392
20
18.930113
0
VERTEX
8
1
10
16.508230
20
13.981525
42
-0.061724
0
SEQEND
0
POLYLINE
8
1
66
1
70
1
0
VERTEX
8
1
10
16.993677
20
14.317225
0
VERTEX
8
1
10
13.756458
20
18.997454
0
VERTEX
8
1
10
18.057123
20
15.270907
42
-0.044726
0
SEQEND
0
POLYLINE
8
1
66
1
70
1
0
VERTEX
8
1
10
18.443716
20
15.716887
0
VERTEX
8
1
10
13.896368
20
19.657185
0
VERTEX
8
1
10
13.904076
20
19.669081
0
VERTEX
8
1
10
13.925644
20
19.704498
0
VERTEX
8
1
10
19.480419
20
17.392054
42
-0.061701
0
SEQEND
0
POLYLINE
8
1
66
1
70
1
0
VERTEX
8
1
10
19.707258
20
17.936937
0
VERTEX
8
1
10
14.453724
20
20.123974
0
VERTEX
8
1
10
20.086435
20
19.314116
42
-0.044805
0
SEQEND
0
POLYLINE
8
1
66
1
70
1
0
VERTEX
8
1
10
20.170389
20
19.898329
0
VERTEX
8
1
10
14.214849
20
20.754604
0
VERTEX
8
1
10
14.214142
20
20.804998
0
VERTEX
8
1
10
14.213921
20
20.810274
0
VERTEX
8
1
10
20.137138
20
21.868065
42
-0.061700
0
SEQEND
0
POLYLINE
8
1
66
1
70
1
0
VERTEX
8
1
10
20.033327
20
22.449080
0
VERTEX
8
1
10
14.431265
20
21.448639
0
VERTEX
8
1
10
19.607685
20
23.812634
42
-0.044734
0
SEQEND
0
POLYLINE
8
1
66
1
70
1
0
VERTEX
8
1
10
19.362608
20
24.349560
0
VERTEX
8
1
10
13.889284
20
21.849976
0
VERTEX
8
1
10
13.873137
20
21.874893
0
VERTEX
8
1
10
13.858412
20
21.896275
0
VERTEX
8
1
10
18.269434
20
25.988459
42
-0.061687
0
SEQEND
0
POLYLINE
8
1
66
1
70
1
0
VERTEX
8
1
10
17.868046
20
26.421171
0
VERTEX
8
1
10
13.696194
20
22.550869
0
VERTEX
8
1
10
16.772789
20
27.338152
42
-0.044812
0
SEQEND
0
POLYLINE
8
1
66
1
70
1
0
VERTEX
8
1
10
16.276262
20
27.657232
0
VERTEX
8
1
10
13.023338
20
22.595581
0
VERTEX
8
1
10
13.015182
20
22.599371
0
VERTEX
8
1
10
12.972300
20
22.617842
0
VERTEX
8
1
10
14.470705
20
28.445271
42
-0.061681
0
SEQEND
0
POLYLINE
8
1
66
1
70
1
0
VERTEX
8
1
10
13.899054
20
28.592131
0
VERTEX
8
1
10
12.481907
20
23.080723
0
VERTEX
8
1
10
12.481907
20
28.771481
42
-0.044724
0
SEQEND
0
POLYLINE
8
1
66
1
70
1
0
VERTEX
8
1
10
11.891692
20
28.771481
0
VERTEX
8
1
10
11.891692
20
22.754541
0
VERTEX
8
1
10
11.847073
20
22.747604
0
VERTEX
8
1
10
11.836720
20
22.745695
0
VERTEX
8
1
10
9.946771
20
28.457973
42
-0.061715
0
SEQEND
0
POLYLINE
8
1
66
1
70
1
0
VERTEX
8
1
10
9.386409
20
28.272636
0
VERTEX
8
1
10
11.173923
20
22.869967
0
VERTEX
8
1
10
8.097333
20
27.657232
42
-0.044796
0
SEQEND
0
POLYLINE
8
1
66
1
70
1
0
VERTEX
8
1
10
7.600806
20
27.338150
0
VERTEX
8
1
10
10.853792
20
22.276402
0
VERTEX
8
1
10
10.835354
20
22.260386
0
VERTEX
8
1
10
10.812360
20
22.239250
0
VERTEX
8
1
10
6.133992
20
26.023058
42
-0.061707
0
SEQEND
0
POLYLINE
8
1
66
1
70
1
0
VERTEX
8
1
10
5.762910
20
25.564093
0
VERTEX
8
1
10
10.187522
20
21.985516
0
VERTEX
8
1
10
5.010989
20
24.349560
42
-0.044695
0
SEQEND
0
POLYLINE
8
1
66
1
70
1
0
VERTEX
8
1
10
4.765911
20
23.812634
0
VERTEX
8
1
10
10.239007
20
21.313154
0
VERTEX
8
1
10
10.237923
20
21.309578
0
VERTEX
8
1
10
10.224242
20
21.259460
0
VERTEX
8
1
10
4.243090
20
21.913263
42
-0.061730
0
SEQEND
0
CIRCLE
8
1
10
12.186798
20
20.748150
40
0.939108
0
POLYLINE
8
1
66
1
70
1
0
VERTEX
8
1
10
19.542936
20
25.682613
0
VERTEX
8
1
10
19.593542
20
25.949806
42
0.082141
0
VERTEX
8
1
10
17.460352
20
28.794323
0
VERTEX
8
1
10
16.779863
20
28.322433
42
-0.109217
0
SEQEND
0
POLYLINE
8
1
66
1
70
1
0
VERTEX
8
1
10
22.464394
20
24.403906
42
-0.036908
0
VERTEX
8
1
10
22.186663
20
24.302490
42
1.648186
0
VERTEX
8
1
10
22.185602
20
28.210794
42
-0.036945
0
VERTEX
8
1
10
22.463402
20
28.109549
42
-1.476000
0
SEQEND
0
POLYLINE
8
1
66
1
70
1
0
VERTEX
8
1
10
25.936974
20
31.134880
0
VERTEX
8
1
10
26.765682
20
31.134880
42
-0.167151
0
VERTEX
8
1
10
27.000605
20
31.391132
42
-0.302995
0
VERTEX
8
1
10
27.327423
20
31.341314
42
-0.106207
0
VERTEX
8
1
10
27.483927
20
31.134880
0
VERTEX
8
1
10
31.817413
20
31.134880
42
0.414224
0
VERTEX
8
1
10
32.079609
20
31.397074
0
VERTEX
8
1
10
32.079609
20
32.264072
42
-0.414222
0
VERTEX
8
1
10
32.341805
20
32.526268
0
VERTEX
8
1
10
34.683247
20
32.526268
0
VERTEX
8
1
10
34.683247
20
32.926830
0
VERTEX
8
1
10
35.584503
20
32.926830
0
VERTEX
8
1
10
35.584503
20
32.526268
0
VERTEX
8
1
10
38.176300
20
32.526268
42
-0.414218
0
VERTEX
8
1
10
38.438492
20
32.264072
0
VERTEX
8
1
10
38.438492
20
27.481627
0
VERTEX
8
1
10
38.438492
20
24.736208
0
VERTEX
8
1
10
38.238213
20
24.736208
0
VERTEX
8
1
10
38.238213
20
23.881121
42
0.414222
0
VERTEX
8
1
10
38.500408
20
23.618927
0
VERTEX
8
1
10
39.122936
20
23.618927
0
VERTEX
8
1
10
39.274906
20
23.618927
42
0.327626
0
VERTEX
8
1
10
39.232952
20
28.550911
42
-0.751068
0
VERTEX
8
1
10
39.583855
20
28.931675
42
-1.109911
0
VERTEX
8
1
10
45.089493
20
28.976463
42
-0.840176
0
VERTEX
8
1
10
45.505096
20
28.533493
42
0.326488
0
VERTEX
8
1
10
45.474609
20
23.618927
0
VERTEX
8
1
10
45.676853
20
23.618927
42
-0.414222
0
VERTEX
8
1
10
45.939049
20
23.356731
0
VERTEX
8
1
10
45.939049
20
21.631712
42
-0.414222
0
VERTEX
8
1
10
45.676853
20
21.369518
0
VERTEX
8
1
10
44.910702
20
21.369518
42
0.414222
0
VERTEX
8
1
10
44.572197
20
21.031012
0
VERTEX
8
1
10
44.572197
20
20.439365
42
-2.557004
0
VERTEX
8
1
10
39.285851
20
17.743170
42
-0.085534
0
VERTEX
8
1
10
39.200638
20
17.791506
42
-0.324642
0
VERTEX
8
1
10
38.863476
20
17.887236
42
-0.347789
0
VERTEX
8
1
10
38.499229
20
17.919321
42
-0.270421
0
VERTEX
8
1
10
38.204182
20
17.948635
42
-0.291291
0
VERTEX
8
1
10
37.899830
20
18.032261
42
-0.306738
0
VERTEX
8
1
10
37.571064
20
18.061707
42
-0.324636
0
VERTEX
8
1
10
37.233898
20
18.157438
42
-0.208786
0
VERTEX
8
1
10
37.001499
20
18.117590
42
-0.263854
0
VERTEX
8
1
10
36.711609
20
18.100658
42
-0.270429
0
VERTEX
8
1
10
36.421078
20
18.041466
42
-0.291280
0
VERTEX
8
1
10
36.105606
20
18.031408
42
-0.306726
0
VERTEX
8
1
10
35.782822
20
17.962378
42
-0.324648
0
VERTEX
8
1
10
35.432426
20
17.954191
42
-0.347799
0
VERTEX
8
1
10
35.074966
20
17.877197
42
-0.275781
0
VERTEX
8
1
10
34.779312
20
17.819910
42
-0.296415
0
VERTEX
8
1
10
34.459042
20
17.806595
42
-0.306739
0
VERTEX
8
1
10
34.136250
20
17.737564
42
-0.324645
0
VERTEX
8
1
10
33.785858
20
17.729378
42
-0.347801
0
VERTEX
8
1
10
33.428398
20
17.652384
42
-0.270425
0
VERTEX
8
1
10
33.137863
20
17.593191
42
-0.291279
0
VERTEX
8
1
10
32.822395
20
17.583134
42
-0.306729
0
VERTEX
8
1
10
32.499607
20
17.514103
42
-0.324645
0
VERTEX
8
1
10
32.149216
20
17.505917
42
-0.347788
0
VERTEX
8
1
10
31.791752
20
17.428923
42
-0.270426
0
VERTEX
8
1
10
31.501221
20
17.369730
42
-0.291284
0
VERTEX
8
1
10
31.185753
20
17.359674
42
-0.306721
0
VERTEX
8
1
10
30.862965
20
17.290644
42
-0.324645
0
VERTEX
8
1
10
30.512573
20
17.282457
42
-0.347792
0
VERTEX
8
1
10
30.155109
20
17.205463
42
-0.291732
0
VERTEX
8
1
10
29.843159
20
17.154570
42
-0.827124
0
VERTEX
8
1
10
28.804125
20
19.624502
0
VERTEX
8
1
10
28.658310
20
20.198381
0
VERTEX
8
1
10
28.658310
20
21.209345
42
0.414224
0
VERTEX
8
1
10
28.498135
20
21.369518
0
VERTEX
8
1
10
21.975756
20
21.369518
0
VERTEX
8
1
10
21.022825
20
21.369518
42
-0.023601
0
VERTEX
8
1
10
21.042614
20
20.557703
0
VERTEX
8
1
10
21.791687
20
20.204248
42
-0.082142
0
VERTEX
8
1
10
20.394859
20
16.934593
0
VERTEX
8
1
10
20.138491
20
16.844938
42
-0.022637
0
VERTEX
8
1
10
19.760902
20
16.155306
0
VERTEX
8
1
10
20.232882
20
15.474683
42
-0.082141
0
VERTEX
8
1
10
17.388365
20
13.341496
0
VERTEX
8
1
10
17.121586
20
13.392021
42
-0.022596
0
VERTEX
8
1
10
16.449705
20
12.983518
0
VERTEX
8
1
10
16.518133
20
12.158165
42
-0.082142
0
VERTEX
8
1
10
12.988117
20
11.733028
0
VERTEX
8
1
10
12.782215
20
11.910284
42
-0.022625
0
VERTEX
8
1
10
11.996172
20
11.892231
0
VERTEX
8
1
10
11.642809
20
11.143349
42
-0.082141
0
VERTEX
8
1
10
8.373155
20
12.540178
0
VERTEX
8
1
10
8.283433
20
12.796736
42
-0.022606
0
VERTEX
8
1
10
7.593629
20
13.173969
0
VERTEX
8
1
10
6.913245
20
12.702155
42
-0.082141
0
VERTEX
8
1
10
4.780056
20
15.546672
0
VERTEX
8
1
10
4.830641
20
15.813757
42
-0.022792
0
VERTEX
8
1
10
4.422046
20
16.485329
0
VERTEX
8
1
10
3.596726
20
16.416904
42
-0.061492
0
VERTEX
8
1
10
3.169227
20
19.049120
0
VERTEX
8
1
10
1.072566
20
18.541866
42
-0.827995
0
VERTEX
8
1
10
0.927665
20
18.814692
42
-0.183373
0
VERTEX
8
1
10
2.943008
20
26.221571
0
VERTEX
8
1
10
1.340576
20
26.519735
42
-0.251941
0
VERTEX
8
1
10
-0.084178
20
27.721071
42
-0.630294
0
VERTEX
8
1
10
0.433130
20
28.185390
0
VERTEX
8
1
10
2.416358
20
27.404119
0
VERTEX
8
1
10
3.670371
20
27.117815
42
-0.102156
0
VERTEX
8
1
10
7.197230
20
29.701584
0
VERTEX
8
1
10
6.513353
20
30.392681
42
0.426739
0
VERTEX
8
1
10
6.368378
20
30.390354
0
VERTEX
8
1
10
6.228189
20
30.239275
42
-0.430002
0
VERTEX
8
1
10
6.082444
20
30.237726
0
VERTEX
8
1
10
6.013998
20
30.308428
0
VERTEX
8
1
10
4.893256
20
29.105795
42
-0.765412
0
VERTEX
8
1
10
4.592278
20
29.390068
0
VERTEX
8
1
10
7.728412
20
32.755352
42
-0.788349
0
VERTEX
8
1
10
8.029388
20
32.471077
0
VERTEX
8
1
10
6.857237
20
31.213282
0
VERTEX
8
1
10
6.931350
20
31.140375
42
-0.405711
0
VERTEX
8
1
10
6.934541
20
31.000494
0
VERTEX
8
1
10
6.806814
20
30.862850
42
0.401789
0
VERTEX
8
1
10
6.809045
20
30.723923
0
VERTEX
8
1
10
7.634380
20
29.889872
42
-0.026444
0
VERTEX
8
1
10
8.703546
20
30.258991
0
VERTEX
8
1
10
8.703546
20
32.397652
42
-0.927478
0
VERTEX
8
1
10
9.371343
20
32.397652
0
VERTEX
8
1
10
9.371343
20
30.428328
42
-0.027064
0
VERTEX
8
1
10
10.512108
20
30.615938
0
VERTEX
8
1
10
10.512108
20
38.856934
0
VERTEX
8
1
10
10.118631
20
38.856934
42
-0.703237
0
VERTEX
8
1
10
12.479489
20
38.856934
0
VERTEX
8
1
10
12.086013
20
38.856934
0
VERTEX
8
1
10
12.086013
20
30.673729
42
-0.030598
0
VERTEX
8
1
10
13.389345
20
30.547281
0
VERTEX
8
1
10
13.956308
20
30.925259
42
-1.387757
0
VERTEX
8
1
10
15.576578
20
31.367207
0
VERTEX
8
1
10
16.512621
20
31.367207
0
VERTEX
8
1
10
16.512621
20
31.503914
42
-0.414216
0
VERTEX
8
1
10
16.720205
20
31.711496
0
VERTEX
8
1
10
18.616713
20
31.711496
42
-0.414224
0
VERTEX
8
1
10
18.824295
20
31.503914
0
VERTEX
8
1
10
18.824295
20
31.367207
0
VERTEX
8
1
10
19.895510
20
31.367207
42
-0.445053
0
VERTEX
8
1
10
20.103092
20
31.134880
0
VERTEX
8
1
10
25.218731
20
31.134880
42
-0.167159
0
VERTEX
8
1
10
25.453653
20
31.391132
42
-0.302997
0
VERTEX
8
1
10
25.780470
20
31.341314
42
-0.106219
0
SEQEND
0
POLYLINE
8
1
66
1
70
1
0
VERTEX
8
1
10
41.291351
20
21.809566
42
0.222278
0
VERTEX
8
1
10
41.669365
20
22.077248
42
0.139512
0
VERTEX
8
1
10
41.782780
20
22.533667
42
0.168312
0
VERTEX
8
1
10
41.621807
20
23.056171
42
0.196986
0
VERTEX
8
1
10
41.291351
20
23.256277
0
VERTEX
8
1
10
41.291351
20
23.039421
42
-0.213784
0
VERTEX
8
1
10
41.446419
20
22.877787
42
-0.102330
0
VERTEX
8
1
10
41.504593
20
22.535749
42
-0.094895
0
VERTEX
8
1
10
41.453041
20
22.194422
42
-0.187317
0
VERTEX
8
1
10
41.291351
20
22.029287
0
SEQEND
0
POLYLINE
8
1
66
1
70
1
0
VERTEX
8
1
10
30.918224
20
22.159628
0
VERTEX
8
1
10
30.673489
20
22.159628
0
VERTEX
8
1
10
30.562008
20
21.821016
0
VERTEX
8
1
10
30.343208
20
21.821016
0
VERTEX
8
1
10
30.815186
20
23.243189
0
VERTEX
8
1
10
31.130875
20
23.243189
0
VERTEX
8
1
10
31.608063
20
21.821016
0
VERTEX
8
1
10
31.334045
20
21.821016
42
-0.002975
0
VERTEX
8
1
10
30.944378
20
22.999388
0
VERTEX
8
1
10
30.737041
20
22.364880
0
VERTEX
8
1
10
30.918224
20
22.364880
0
SEQEND
0
ENDSEC
0
EOF
