  0
SECTION
  2
HEADER
  9
$ACADVER
  1
AC1014
  9
$ACADMAINTVER
 70
     9
  9
$DWGCODEPAGE
  3
ANSI_1252
  9
$INSBASE
 10
0.0
 20
0.0
 30
0.0
  9
$EXTMIN
 10
0.0
 20
0.0
 30
0.0
  9
$EXTMAX
 10
25.0
 20
35.0
 30
0.0
  9
$LIMMIN
 10
0.0
 20
0.0
  9
$LIMMAX
 10
12.0
 20
9.0
  9
$ORTHOMODE
 70
     0
  9
$REGENMODE
 70
     1
  9
$FILLMODE
 70
     1
  9
$QTEXTMODE
 70
     0
  9
$MIRRTEXT
 70
     1
  9
$DRAGMODE
 70
     2
  9
$LTSCALE
 40
1.0
  9
$OSMODE
 70
    37
  9
$ATTMODE
 70
     1
  9
$TEXTSIZE
 40
0.2
  9
$TRACEWID
 40
0.05
  9
$TEXTSTYLE
  7
STANDARD
  9
$CLAYER
  8
0
  9
$CELTYPE
  6
BYLAYER
  9
$CECOLOR
 62
   256
  9
$CELTSCALE
 40
1.0
  9
$DELOBJ
 70
     1
  9
$DISPSILH
 70
     0
  9
$DIMSCALE
 40
1.0
  9
$DIMASZ
 40
0.18
  9
$DIMEXO
 40
0.0625
  9
$DIMDLI
 40
0.38
  9
$DIMRND
 40
0.0
  9
$DIMDLE
 40
0.0
  9
$DIMEXE
 40
0.18
  9
$DIMTP
 40
0.0
  9
$DIMTM
 40
0.0
  9
$DIMTXT
 40
0.18
  9
$DIMCEN
 40
0.09
  9
$DIMTSZ
 40
0.0
  9
$DIMTOL
 70
     0
  9
$DIMLIM
 70
     0
  9
$DIMTIH
 70
     1
  9
$DIMTOH
 70
     1
  9
$DIMSE1
 70
     0
  9
$DIMSE2
 70
     0
  9
$DIMTAD
 70
     0
  9
$DIMZIN
 70
     0
  9
$DIMBLK
  1

  9
$DIMASO
 70
     1
  9
$DIMSHO
 70
     1
  9
$DIMPOST
  1

  9
$DIMAPOST
  1

  9
$DIMALT
 70
     0
  9
$DIMALTD
 70
     2
  9
$DIMALTF
 40
25.4
  9
$DIMLFAC
 40
1.0
  9
$DIMTOFL
 70
     0
  9
$DIMTVP
 40
0.0
  9
$DIMTIX
 70
     0
  9
$DIMSOXD
 70
     0
  9
$DIMSAH
 70
     0
  9
$DIMBLK1
  1

  9
$DIMBLK2
  1

  9
$DIMSTYLE
  2
STANDARD
  9
$DIMCLRD
 70
     0
  9
$DIMCLRE
 70
     0
  9
$DIMCLRT
 70
     0
  9
$DIMTFAC
 40
1.0
  9
$DIMGAP
 40
0.09
  9
$DIMJUST
 70
     0
  9
$DIMSD1
 70
     0
  9
$DIMSD2
 70
     0
  9
$DIMTOLJ
 70
     1
  9
$DIMTZIN
 70
     0
  9
$DIMALTZ
 70
     0
  9
$DIMALTTZ
 70
     0
  9
$DIMFIT
 70
     3
  9
$DIMUPT
 70
     0
  9
$DIMUNIT
 70
     2
  9
$DIMDEC
 70
     4
  9
$DIMTDEC
 70
     4
  9
$DIMALTU
 70
     2
  9
$DIMALTTD
 70
     2
  9
$DIMTXSTY
  7
STANDARD
  9
$DIMAUNIT
 70
     0
  9
$LUNITS
 70
     2
  9
$LUPREC
 70
     4
  9
$SKETCHINC
 40
0.1
  9
$FILLETRAD
 40
0.5
  9
$AUNITS
 70
     0
  9
$AUPREC
 70
     0
  9
$MENU
  1
.
  9
$ELEVATION
 40
0.0
  9
$PELEVATION
 40
0.0
  9
$THICKNESS
 40
0.0
  9
$LIMCHECK
 70
     0
  9
$CHAMFERA
 40
0.5
  9
$CHAMFERB
 40
0.5
  9
$CHAMFERC
 40
1.0
  9
$CHAMFERD
 40
0.0
  9
$SKPOLY
 70
     0
  9
$TDCREATE
 40
2451930.291666667
  9
$TDUPDATE
 40
2451930.520833333
  9
$TDINDWG
 40
0.0000000116
  9
$TDUSRTIMER
 40
0.0000000116
  9
$USRTIMER
 70
     1
  9
$ANGBASE
 50
0.0
  9
$ANGDIR
 70
     0
  9
$PDMODE
 70
     0
  9
$PDSIZE
 40
0.0
  9
$PLINEWID
 40
0.0
  9
$COORDS
 70
     1
  9
$SPLFRAME
 70
     0
  9
$SPLINETYPE
 70
     6
  9
$SPLINESEGS
 70
     8
  9
$ATTDIA
 70
     0
  9
$ATTREQ
 70
     1
  9
$HANDLING
 70
     1
  9
$HANDSEED
  5
248
  9
$SURFTAB1
 70
     6
  9
$SURFTAB2
 70
     6
  9
$SURFTYPE
 70
     6
  9
$SURFU
 70
     6
  9
$SURFV
 70
     6
  9
$UCSNAME
  2

  9
$UCSORG
 10
0.0
 20
0.0
 30
0.0
  9
$UCSXDIR
 10
1.0
 20
0.0
 30
0.0
  9
$UCSYDIR
 10
0.0
 20
1.0
 30
0.0
  9
$PUCSNAME
  2

  9
$PUCSORG
 10
0.0
 20
0.0
 30
0.0
  9
$PUCSXDIR
 10
1.0
 20
0.0
 30
0.0
  9
$PUCSYDIR
 10
0.0
 20
1.0
 30
0.0
  9
$USERI1
 70
     0
  9
$USERI2
 70
     0
  9
$USERI3
 70
     0
  9
$USERI4
 70
     0
  9
$USERI5
 70
     0
  9
$USERR1
 40
0.0
  9
$USERR2
 40
0.0
  9
$USERR3
 40
0.0
  9
$USERR4
 40
0.0
  9
$USERR5
 40
0.0
  9
$WORLDVIEW
 70
     1
  9
$SHADEDGE
 70
     3
  9
$SHADEDIF
 70
    70
  9
$TILEMODE
 70
     1
  9
$MAXACTVP
 70
    64
  9
$PINSBASE
 10
0.0
 20
0.0
 30
0.0
  9
$PLIMCHECK
 70
     0
  9
$PEXTMIN
 10
1.000000000000000E+20
 20
1.000000000000000E+20
 30
1.000000000000000E+20
  9
$PEXTMAX
 10
-1.000000000000000E+20
 20
-1.000000000000000E+20
 30
-1.000000000000000E+20
  9
$PLIMMIN
 10
0.0
 20
0.0
  9
$PLIMMAX
 10
12.0
 20
9.0
  9
$UNITMODE
 70
     0
  9
$VISRETAIN
 70
     1
  9
$PLINEGEN
 70
     0
  9
$PSLTSCALE
 70
     1
  9
$TREEDEPTH
 70
  3020
  9
$PICKSTYLE
 70
     1
  9
$CMLSTYLE
  2
STANDARD
  9
$CMLJUST
 70
     0
  9
$CMLSCALE
 40
1.0
  9
$PROXYGRAPHICS
 70
     1
  9
$MEASUREMENT
 70
     0
  0
ENDSEC
  0
SECTION
  2
CLASSES
  0
CLASS
  1
ACDBDICTIONARYWDFLT
  2
AcDbDictionaryWithDefault
  3
ObjectDBX Classes
 90
        0
280
     0
281
     0
  0
CLASS
  1
VISUALSTYLE
  2
AcDbVisualStyle
  3
ObjectDBX Classes
 90
     4095
280
     0
281
     0
  0
CLASS
  1
SCALE
  2
AcDbScale
  3
ObjectDBX Classes
 90
     1153
280
     0
281
     0
  0
CLASS
  1
DICTIONARYVAR
  2
AcDbDictionaryVar
  3
ObjectDBX Classes
 90
        0
280
     0
281
     0
  0
CLASS
  1
XRECORD
  2
AcDbXrecord
  3
AutoCAD 2000
 90
        0
280
     0
281
     0
  0
CLASS
  1
LWPOLYLINE
  2
AcDbPolyline
  3
AutoCAD 2000
 90
        0
280
     0
281
     1
  0
CLASS
  1
HATCH
  2
AcDbHatch
  3
AutoCAD 2000
 90
        0
280
     0
281
     1
  0
CLASS
  1
ACDBPLACEHOLDER
  2
AcDbPlaceHolder
  3
ObjectDBX Classes
 90
        0
280
     0
281
     0
  0
CLASS
  1
LAYOUT
  2
AcDbLayout
  3
ObjectDBX Classes
 90
        0
280
     0
281
     0
  0
ENDSEC
  0
SECTION
  2
TABLES
  0
TABLE
  2
VPORT
  5
8
330
0
100
AcDbSymbolTable
 70
     1
  0
VPORT
  5
29
330
8
100
AcDbSymbolTableRecord
100
AcDbViewportTableRecord
  2
*ACTIVE
 70
     0
 10
0.0
 20
0.0
 11
1.0
 21
1.0
 12
11.26
 22
4.5
 13
0.0
 23
0.0
 14
0.5
 24
0.5
 15
0.5
 25
0.5
 16
0.0
 26
0.0
 36
1.0
 17
0.0
 27
0.0
 37
0.0
 40
9.0
 41
2.503333333333333
 42
50.0
 43
0.0
 44
0.0
 50
0.0
 51
0.0
 71
     0
 72
   100
 73
     1
 74
     3
 75
     0
 76
     0
 77
     0
 78
     0
  0
ENDTAB
  0
TABLE
  2
LTYPE
  5
5
330
0
100
AcDbSymbolTable
 70
     2
  0
LTYPE
  5
14
330
5
100
AcDbSymbolTableRecord
100
AcDbLinetypeTableRecord
  2
BYBLOCK
 70
     0
  3

 72
    65
 73
     0
 40
0.0
  0
LTYPE
  5
15
330
5
100
AcDbSymbolTableRecord
100
AcDbLinetypeTableRecord
  2
BYLAYER
 70
     0
  3

 72
    65
 73
     0
 40
0.0
  0
LTYPE
  5
16
330
5
100
AcDbSymbolTableRecord
100
AcDbLinetypeTableRecord
  2
CONTINUOUS
 70
     0
  3
Solid line
 72
    65
 73
     0
 40
0.0
  0
LTYPE
  5
5E
330
5
100
AcDbSymbolTableRecord
100
AcDbLinetypeTableRecord
  2
CONTINUOUS2
 70
     0
  3
Solid line
 72
    65
 73
     0
 40
0.0
  0
ENDTAB
  0
TABLE
  2
LAYER
  5
2
330
0
100
AcDbSymbolTable
 70
     2
  0
LAYER
  5
10
330
2
100
AcDbSymbolTableRecord
100
AcDbLayerTableRecord
  2
0
 70
     0
 62
     7
  6
CONTINUOUS
  0
LAYER
  5
60
330
2
100
AcDbSymbolTableRecord
100
AcDbLayerTableRecord
  2
CAD
 70
     0
 62
     7
  6
CONTINUOUS
  0
ENDTAB
  0
TABLE
  2
STYLE
  5
3
330
0
100
AcDbSymbolTable
 70
     1
  0
STYLE
  5
11
330
3
100
AcDbSymbolTableRecord
100
AcDbTextStyleTableRecord
  2
STANDARD
 70
     0
 40
0.0
 41
1.0
 50
0.0
 71
     0
 42
0.2
  3
txt
  4

  0
ENDTAB
  0
TABLE
  2
VIEW
  5
6
330
0
100
AcDbSymbolTable
 70
     0
  0
ENDTAB
  0
TABLE
  2
UCS
  5
7
330
0
100
AcDbSymbolTable
 70
     0
  0
ENDTAB
  0
TABLE
  2
APPID
  5
9
330
0
100
AcDbSymbolTable
 70
     1
  0
APPID
  5
12
330
9
100
AcDbSymbolTableRecord
100
AcDbRegAppTableRecord
  2
ACAD
 70
     0
  0
ENDTAB
  0
TABLE
  2
DIMSTYLE
  5
A
330
0
100
AcDbSymbolTable
 70
     2
  0
DIMSTYLE
105
27
330
A
100
AcDbSymbolTableRecord
100
AcDbDimStyleTableRecord
  2
STANDARD
 70
     0
  3

  4

  5

  6

  7

 40
1.0
 41
0.18
 42
0.0625
 43
0.38
 44
0.18
 45
0.0
 46
0.0
 47
0.0
 48
0.0
140
0.18
141
0.09
142
0.0
143
25.4
144
1.0
145
0.0
146
1.0
147
0.09
 71
     0
 72
     0
 73
     1
 74
     1
 75
     0
 76
     0
 77
     0
 78
     0
170
     0
171
     2
172
     0
173
     0
174
     0
175
     0
176
     0
177
     0
178
     0
270
     2
271
     4
272
     4
273
     2
274
     2
340
11
275
     0
280
     0
281
     0
282
     0
283
     1
284
     0
285
     0
286
     0
287
     3
288
     0
  0
DIMSTYLE
105
5F
330
A
100
AcDbSymbolTableRecord
100
AcDbDimStyleTableRecord
  2
ODADIMSTYLE
 70
     0
  3

  4

  5

  6

  7

 40
1.0
 41
0.18
 42
0.0625
 43
0.38
 44
0.18
 45
0.0
 46
0.0
 47
0.0
 48
0.0
140
0.18
141
0.09
142
0.0
143
25.4
144
1.0
145
0.0
146
1.0
147
0.09
 71
     0
 72
     0
 73
     1
 74
     1
 75
     0
 76
     0
 77
     0
 78
     0
170
     0
171
     2
172
     0
173
     0
174
     0
175
     0
176
     0
177
     0
178
     0
270
     2
271
     4
272
     4
273
     2
274
     2
340
0
275
     0
280
     0
281
     0
282
     0
283
     1
284
     0
285
     0
286
     0
287
     3
288
     0
  0
ENDTAB
  0
TABLE
  2
BLOCK_RECORD
  5
1
330
0
100
AcDbSymbolTable
 70
     1
  0
BLOCK_RECORD
  5
1F
330
1
100
AcDbSymbolTableRecord
100
AcDbBlockTableRecord
  2
*MODEL_SPACE
  0
BLOCK_RECORD
  5
1B
330
1
100
AcDbSymbolTableRecord
100
AcDbBlockTableRecord
  2
*PAPER_SPACE
  0
ENDTAB
  0
ENDSEC
  0
SECTION
  2
BLOCKS
  0
BLOCK
  5
20
330
1F
100
AcDbEntity
  8
0
100
AcDbBlockBegin
  2
*MODEL_SPACE
 70
     0
 10
0.0
 20
0.0
 30
0.0
  3
*MODEL_SPACE
  1

  0
ENDBLK
  5
21
330
1F
100
AcDbEntity
  8
0
100
AcDbBlockEnd
  0
BLOCK
  5
1C
330
1B
100
AcDbEntity
 67
     1
  8
0
100
AcDbBlockBegin
  2
*PAPER_SPACE
 70
     0
 10
0.0
 20
0.0
 30
0.0
  3
*PAPER_SPACE
  1

  0
ENDBLK
  5
1D
330
1B
100
AcDbEntity
 67
     1
  8
0
100
AcDbBlockEnd
  0
ENDSEC
  0
SECTION
  2
ENTITIES
  0
LINE
  5
61
330
1F
100
AcDbEntity
  8
CAD
  6
CONTINUOUS
 62
     5
100
AcDbLine
 10
-3.599170457465355
 20
-2.652278544070342
 30
0.0
 11
-3.601670037811116
 21
-2.68212092033114
 31
0.0
  0
LINE
  5
62
330
1F
100
AcDbEntity
  8
CAD
  6
CONTINUOUS
 62
     5
100
AcDbLine
 10
-3.601670037811116
 20
-2.68212092033114
 30
0.0
 11
-3.599170457465355
 21
-2.713203073184645
 31
0.0
  0
LINE
  5
63
330
1F
100
AcDbEntity
  8
CAD
  6
CONTINUOUS
 62
     5
100
AcDbLine
 10
-3.599170457465355
 20
-2.713203073184645
 30
0.0
 11
-3.594313394244844
 21
-2.743045449445442
 31
0.0
  0
LINE
  5
64
330
1F
100
AcDbEntity
  8
CAD
  6
CONTINUOUS
 62
     5
100
AcDbLine
 10
-3.594313394244844
 20
-2.743045449445442
 30
0.0
 11
-3.584320794907613
 21
-2.771497368573801
 31
0.0
  0
LINE
  5
65
330
1F
100
AcDbEntity
  8
CAD
  6
CONTINUOUS
 62
     5
100
AcDbLine
 10
-3.584320794907613
 20
-2.771497368573801
 30
0.0
 11
-3.570719492011298
 21
-2.798844932860347
 31
0.0
  0
LINE
  5
66
330
1F
100
AcDbEntity
  8
CAD
  6
CONTINUOUS
 62
     5
100
AcDbLine
 10
-3.570719492011298
 20
-2.798844932860347
 30
0.0
 11
-3.553232920008295
 21
-2.823678611686602
 31
0.0
  0
LINE
  5
67
330
1F
100
AcDbEntity
  8
CAD
  6
CONTINUOUS
 62
     5
100
AcDbLine
 10
-3.553232920008295
 20
-2.823678611686602
 30
0.0
 11
-3.532136690771906
 21
-2.846019385887209
 31
0.0
  0
LINE
  5
68
330
1F
100
AcDbEntity
  8
CAD
  6
CONTINUOUS
 62
     5
100
AcDbLine
 10
-3.532136690771906
 20
-2.846019385887209
 30
0.0
 11
-3.509790194525486
 21
-2.866016028653296
 31
0.0
  0
LINE
  5
69
330
1F
100
AcDbEntity
  8
CAD
  6
CONTINUOUS
 62
     5
100
AcDbLine
 10
-3.509790194525486
 20
-2.866016028653296
 30
0.0
 11
-3.483697665620481
 21
-2.882108328826653
 31
0.0
  0
LINE
  5
6A
330
1F
100
AcDbEntity
  8
CAD
  6
CONTINUOUS
 62
     5
100
AcDbLine
 10
-3.483697665620481
 20
-2.882108328826653
 30
0.0
 11
-3.436507953804786
 21
-2.904466269164699
 31
0.0
  0
LINE
  5
6B
330
1F
100
AcDbEntity
  8
CAD
  6
CONTINUOUS
 62
     5
100
AcDbLine
 10
-3.436507953804786
 20
-2.904466269164699
 30
0.0
 11
-3.388070836001965
 21
-2.920558569338056
 31
0.0
  0
LINE
  5
6C
330
1F
100
AcDbEntity
  8
CAD
  6
CONTINUOUS
 62
     5
100
AcDbLine
 10
-3.388070836001965
 20
-2.920558569338056
 30
0.0
 11
-3.337134137853383
 21
-2.93305170269535
 31
0.0
  0
LINE
  5
6D
330
1F
100
AcDbEntity
  8
CAD
  6
CONTINUOUS
 62
     5
100
AcDbLine
 10
-3.337134137853383
 20
-2.93305170269535
 30
0.0
 11
-3.286199347053405
 21
-2.939162847623101
 31
0.0
  0
LINE
  5
6E
330
1F
100
AcDbEntity
  8
CAD
  6
CONTINUOUS
 62
     5
100
AcDbLine
 10
-3.286199347053405
 20
-2.939162847623101
 30
0.0
 11
-3.234152572017198
 21
-2.939162847623101
 31
0.0
  0
LINE
  5
6F
330
1F
100
AcDbEntity
  8
CAD
  6
CONTINUOUS
 62
     5
100
AcDbLine
 10
-3.234152572017198
 20
-2.939162847623101
 30
0.0
 11
-3.225408332341395
 21
-2.936786291262309
 31
0.0
  0
LINE
  5
70
330
1F
100
AcDbEntity
  8
CAD
  6
CONTINUOUS
 62
     5
100
AcDbLine
 10
-3.225408332341395
 20
-2.936786291262309
 30
0.0
 11
-3.21791340600132
 21
-2.929299947990953
 31
0.0
  0
LINE
  5
71
330
1F
100
AcDbEntity
  8
CAD
  6
CONTINUOUS
 62
     5
100
AcDbLine
 10
-3.21791340600132
 20
-2.929299947990953
 30
0.0
 11
-3.215415733004164
 21
-2.920558569338056
 31
0.0
  0
LINE
  5
72
330
1F
100
AcDbEntity
  8
CAD
  6
CONTINUOUS
 62
     5
100
AcDbLine
 10
-3.215415733004164
 20
-2.920558569338056
 30
0.0
 11
-3.042897005431561
 21
-2.037564884479174
 31
0.0
  0
LINE
  5
73
330
1F
100
AcDbEntity
  8
CAD
  6
CONTINUOUS
 62
     5
100
AcDbLine
 10
-3.042897005431561
 20
-2.037564884479174
 30
0.0
 11
-2.965866824703673
 21
-2.479756955474834
 31
0.0
  0
LINE
  5
74
330
1F
100
AcDbEntity
  8
CAD
  6
CONTINUOUS
 62
     5
100
AcDbLine
 10
-2.965866824703673
 20
-2.479756955474834
 30
0.0
 11
-2.95087506467492
 21
-2.550544384221283
 31
0.0
  0
LINE
  5
75
330
1F
100
AcDbEntity
  8
CAD
  6
CONTINUOUS
 62
     5
100
AcDbLine
 10
-2.95087506467492
 20
-2.550544384221283
 30
0.0
 11
-2.932279369458594
 21
-2.6213165541789
 31
0.0
  0
LINE
  5
76
330
1F
100
AcDbEntity
  8
CAD
  6
CONTINUOUS
 62
     5
100
AcDbLine
 10
-2.932279369458594
 20
-2.6213165541789
 30
0.0
 11
-2.908683559876444
 21
-2.690864206332641
 31
0.0
  0
LINE
  5
77
330
1F
100
AcDbEntity
  8
CAD
  6
CONTINUOUS
 62
     5
100
AcDbLine
 10
-2.908683559876444
 20
-2.690864206332641
 30
0.0
 11
-2.893833897318702
 21
-2.720706582593438
 31
0.0
  0
LINE
  5
78
330
1F
100
AcDbEntity
  8
CAD
  6
CONTINUOUS
 62
     5
100
AcDbLine
 10
-2.893833897318702
 20
-2.720706582593438
 30
0.0
 11
-2.873985074069438
 21
-2.747901558991651
 31
0.0
  0
LINE
  5
79
330
1F
100
AcDbEntity
  8
CAD
  6
CONTINUOUS
 62
     5
100
AcDbLine
 10
-2.873985074069438
 20
-2.747901558991651
 30
0.0
 11
-2.850392125510194
 21
-2.771497368573801
 31
0.0
  0
LINE
  5
7A
330
1F
100
AcDbEntity
  8
CAD
  6
CONTINUOUS
 62
     5
100
AcDbLine
 10
-2.850392125510194
 20
-2.771497368573801
 30
0.0
 11
-2.823050283269461
 21
-2.79147684520245
 31
0.0
  0
LINE
  5
7B
330
1F
100
AcDbEntity
  8
CAD
  6
CONTINUOUS
 62
     5
100
AcDbLine
 10
-2.823050283269461
 20
-2.79147684520245
 30
0.0
 11
-2.793207907008664
 21
-2.805091499538994
 31
0.0
  0
LINE
  5
7C
330
1F
100
AcDbEntity
  8
CAD
  6
CONTINUOUS
 62
     5
100
AcDbLine
 10
-2.793207907008664
 20
-2.805091499538994
 30
0.0
 11
-2.724924826979485
 21
-2.842420219071146
 31
0.0
  0
LINE
  5
7D
330
1F
100
AcDbEntity
  8
CAD
  6
CONTINUOUS
 62
     5
100
AcDbLine
 10
-2.724924826979485
 20
-2.842420219071146
 30
0.0
 11
-2.659136558924557
 21
-2.882108328826653
 31
0.0
  0
LINE
  5
7E
330
1F
100
AcDbEntity
  8
CAD
  6
CONTINUOUS
 62
     5
100
AcDbLine
 10
-2.659136558924557
 20
-2.882108328826653
 30
0.0
 11
-2.639149452901491
 21
-2.8883548955053
 31
0.0
  0
LINE
  5
7F
330
1F
100
AcDbEntity
  8
CAD
  6
CONTINUOUS
 62
     5
100
AcDbLine
 10
-2.639149452901491
 20
-2.8883548955053
 30
0.0
 11
-2.619303490675133
 21
-2.890716193077259
 31
0.0
  0
LINE
  5
80
330
1F
100
AcDbEntity
  8
CAD
  6
CONTINUOUS
 62
     5
100
AcDbLine
 10
-2.619303490675133
 20
-2.890716193077259
 30
0.0
 11
-2.598207261438744
 21
-2.889611838235446
 31
0.0
  0
LINE
  5
81
330
1F
100
AcDbEntity
  8
CAD
  6
CONTINUOUS
 62
     5
100
AcDbLine
 10
-2.598207261438744
 20
-2.889611838235446
 30
0.0
 11
-2.578361299212387
 21
-2.884605048149508
 31
0.0
  0
LINE
  5
82
330
1F
100
AcDbEntity
  8
CAD
  6
CONTINUOUS
 62
     5
100
AcDbLine
 10
-2.578361299212387
 20
-2.884605048149508
 30
0.0
 11
-2.559761789298852
 21
-2.875861762148006
 31
0.0
  0
LINE
  5
83
330
1F
100
AcDbEntity
  8
CAD
  6
CONTINUOUS
 62
     5
100
AcDbLine
 10
-2.559761789298852
 20
-2.875861762148006
 30
0.0
 11
-2.543525484305881
 21
-2.863521216679046
 31
0.0
  0
LINE
  5
84
330
1F
100
AcDbEntity
  8
CAD
  6
CONTINUOUS
 62
     5
100
AcDbLine
 10
-2.543525484305881
 20
-2.863521216679046
 30
0.0
 11
-2.517570284500376
 21
-2.565398815150536
 31
0.0
  0
LINE
  5
85
330
1F
100
AcDbEntity
  8
CAD
  6
CONTINUOUS
 62
     5
100
AcDbLine
 10
-2.517570284500376
 20
-2.565398815150536
 30
0.0
 11
-2.486479548578152
 21
-2.268516190214734
 31
0.0
  0
LINE
  5
86
330
1F
100
AcDbEntity
  8
CAD
  6
CONTINUOUS
 62
     5
100
AcDbLine
 10
-2.486479548578152
 20
-2.268516190214734
 30
0.0
 11
-2.460386065998845
 21
-2.089765201078016
 31
0.0
  0
LINE
  5
87
330
1F
100
AcDbEntity
  8
CAD
  6
CONTINUOUS
 62
     5
100
AcDbLine
 10
-2.460386065998845
 20
-2.089765201078016
 30
0.0
 11
-2.430545597086653
 21
-1.910861624052964
 31
0.0
  0
LINE
  5
88
330
1F
100
AcDbEntity
  8
CAD
  6
CONTINUOUS
 62
     5
100
AcDbLine
 10
-2.430545597086653
 20
-1.910861624052964
 30
0.0
 11
-2.393350391956792
 21
-1.734588280753058
 31
0.0
  0
LINE
  5
89
330
1F
100
AcDbEntity
  8
CAD
  6
CONTINUOUS
 62
     5
100
AcDbLine
 10
-2.393350391956792
 20
-1.734588280753058
 30
0.0
 11
-2.352269917720244
 21
-1.558196681839694
 31
0.0
  0
LINE
  5
8A
330
1F
100
AcDbEntity
  8
CAD
  6
CONTINUOUS
 62
     5
100
AcDbLine
 10
-2.352269917720244
 20
-1.558196681839694
 30
0.0
 11
-2.286481649665315
 21
-1.318486831313799
 31
0.0
  0
LINE
  5
8B
330
1F
100
AcDbEntity
  8
CAD
  6
CONTINUOUS
 62
     5
100
AcDbLine
 10
-2.286481649665315
 20
-1.318486831313799
 30
0.0
 11
-2.216946395277501
 21
-1.078811313062778
 31
0.0
  0
LINE
  5
8C
330
1F
100
AcDbEntity
  8
CAD
  6
CONTINUOUS
 62
     5
100
AcDbLine
 10
-2.216946395277501
 20
-1.078811313062778
 30
0.0
 11
-2.214448722280344
 21
-1.062701846751984
 31
0.0
  0
LINE
  5
8D
330
1F
100
AcDbEntity
  8
CAD
  6
CONTINUOUS
 62
     5
100
AcDbLine
 10
-2.214448722280344
 20
-1.062701846751984
 30
0.0
 11
-2.216946395277501
 21
-1.046609546578626
 31
0.0
  0
LINE
  5
8E
330
1F
100
AcDbEntity
  8
CAD
  6
CONTINUOUS
 62
     5
100
AcDbLine
 10
-2.216946395277501
 20
-1.046609546578626
 30
0.0
 11
-2.224440367943273
 21
-1.031619693898478
 31
0.0
  0
LINE
  5
8F
330
1F
100
AcDbEntity
  8
CAD
  6
CONTINUOUS
 62
     5
100
AcDbLine
 10
-2.224440367943273
 20
-1.031619693898478
 30
0.0
 11
-2.236794264852463
 21
-1.021756794266331
 31
0.0
  0
LINE
  5
90
330
1F
100
AcDbEntity
  8
CAD
  6
CONTINUOUS
 62
     5
100
AcDbLine
 10
-2.236794264852463
 20
-1.021756794266331
 30
0.0
 11
-2.312575132244622
 21
-0.9894196060312832
 31
0.0
  0
LINE
  5
91
330
1F
100
AcDbEntity
  8
CAD
  6
CONTINUOUS
 62
     5
100
AcDbLine
 10
-2.312575132244622
 20
-0.9894196060312832
 30
0.0
 11
-2.389602451949604
 21
-0.9633289844748829
 31
0.0
  0
LINE
  5
92
330
1F
100
AcDbEntity
  8
CAD
  6
CONTINUOUS
 62
     5
100
AcDbLine
 10
-2.389602451949604
 20
-0.9633289844748829
 30
0.0
 11
-2.411948948196025
 21
-0.9620892078821743
 31
0.0
  0
LINE
  5
93
330
1F
100
AcDbEntity
  8
CAD
  6
CONTINUOUS
 62
     5
100
AcDbLine
 10
-2.411948948196025
 20
-0.9620892078821743
 30
0.0
 11
-2.434294490768143
 21
-0.9645840198564247
 31
0.0
  0
LINE
  5
94
330
1F
100
AcDbEntity
  8
CAD
  6
CONTINUOUS
 62
     5
100
AcDbLine
 10
-2.434294490768143
 20
-0.9645840198564247
 30
0.0
 11
-2.454143314017407
 21
-0.9720703631277803
 31
0.0
  0
LINE
  5
95
330
1F
100
AcDbEntity
  8
CAD
  6
CONTINUOUS
 62
     5
100
AcDbLine
 10
-2.454143314017407
 20
-0.9720703631277803
 30
0.0
 11
-2.472741870256639
 21
-0.9844280747341783
 31
0.0
  0
LINE
  5
96
330
1F
100
AcDbEntity
  8
CAD
  6
CONTINUOUS
 62
     5
100
AcDbLine
 10
-2.472741870256639
 20
-0.9844280747341783
 30
0.0
 11
-2.487731722936787
 21
-1.000520374907535
 31
0.0
  0
LINE
  5
97
330
1F
100
AcDbEntity
  8
CAD
  6
CONTINUOUS
 62
     5
100
AcDbLine
 10
-2.487731722936787
 20
-1.000520374907535
 30
0.0
 11
-2.498835352835946
 21
-1.01926198229208
 31
0.0
  0
LINE
  5
98
330
1F
100
AcDbEntity
  8
CAD
  6
CONTINUOUS
 62
     5
100
AcDbLine
 10
-2.498835352835946
 20
-1.01926198229208
 30
0.0
 11
-2.505081919514593
 21
-1.04036297989998
 31
0.0
  0
LINE
  5
99
330
1F
100
AcDbEntity
  8
CAD
  6
CONTINUOUS
 62
     5
100
AcDbLine
 10
-2.505081919514593
 20
-1.04036297989998
 30
0.0
 11
-2.548522737648798
 21
-1.185672425959838
 31
0.0
  0
LINE
  5
9A
330
1F
100
AcDbEntity
  8
CAD
  6
CONTINUOUS
 62
     5
100
AcDbLine
 10
-2.548522737648798
 20
-1.185672425959838
 30
0.0
 11
-2.587107446236795
 21
-1.333493850131385
 31
0.0
  0
LINE
  5
9B
330
1F
100
AcDbEntity
  8
CAD
  6
CONTINUOUS
 62
     5
100
AcDbLine
 10
-2.587107446236795
 20
-1.333493850131385
 30
0.0
 11
-2.620555665033769
 21
-1.481162686414598
 31
0.0
  0
LINE
  5
9C
330
1F
100
AcDbEntity
  8
CAD
  6
CONTINUOUS
 62
     5
100
AcDbLine
 10
-2.620555665033769
 20
-1.481162686414598
 30
0.0
 11
-2.754765295891678
 21
-2.191634782677971
 31
0.0
  0
LINE
  5
9D
330
1F
100
AcDbEntity
  8
CAD
  6
CONTINUOUS
 62
     5
100
AcDbLine
 10
-2.754765295891678
 20
-2.191634782677971
 30
0.0
 11
-2.79695966171306
 21
-1.951942098289513
 31
0.0
  0
LINE
  5
9E
330
1F
100
AcDbEntity
  8
CAD
  6
CONTINUOUS
 62
     5
100
AcDbLine
 10
-2.79695966171306
 20
-1.951942098289513
 30
0.0
 11
-2.831657193845764
 21
-1.712249413901054
 31
0.0
  0
LINE
  5
9F
330
1F
100
AcDbEntity
  8
CAD
  6
CONTINUOUS
 62
     5
100
AcDbLine
 10
-2.831657193845764
 20
-1.712249413901054
 30
0.0
 11
-2.888838551324389
 21
-1.289901397783148
 31
0.0
  0
LINE
  5
A0
330
1F
100
AcDbEntity
  8
CAD
  6
CONTINUOUS
 62
     5
100
AcDbLine
 10
-2.888838551324389
 20
-1.289901397783148
 30
0.0
 11
-2.892586491331577
 21
-1.281293533532542
 31
0.0
  0
LINE
  5
A1
330
1F
100
AcDbEntity
  8
CAD
  6
CONTINUOUS
 62
     5
100
AcDbLine
 10
-2.892586491331577
 20
-1.281293533532542
 30
0.0
 11
-2.89883115066162
 21
-1.273809097609791
 31
0.0
  0
LINE
  5
A2
330
1F
100
AcDbEntity
  8
CAD
  6
CONTINUOUS
 62
     5
100
AcDbLine
 10
-2.89883115066162
 20
-1.273809097609791
 30
0.0
 11
-2.908685467225048
 21
-1.270057342905395
 31
0.0
  0
LINE
  5
A3
330
1F
100
AcDbEntity
  8
CAD
  6
CONTINUOUS
 62
     5
100
AcDbLine
 10
-2.908685467225048
 20
-1.270057342905395
 30
0.0
 11
-2.990710040272948
 21
-1.257697723950392
 31
0.0
  0
LINE
  5
A4
330
1F
100
AcDbEntity
  8
CAD
  6
CONTINUOUS
 62
     5
100
AcDbLine
 10
-2.990710040272948
 20
-1.257697723950392
 30
0.0
 11
-3.073845643882775
 21
-1.251451157271745
 31
0.0
  0
LINE
  5
A5
330
1F
100
AcDbEntity
  8
CAD
  6
CONTINUOUS
 62
     5
100
AcDbLine
 10
-3.073845643882775
 20
-1.251451157271745
 30
0.0
 11
-3.157120483940706
 21
-1.251451157271745
 31
0.0
  0
LINE
  5
A6
330
1F
100
AcDbEntity
  8
CAD
  6
CONTINUOUS
 62
     5
100
AcDbLine
 10
-3.157120483940706
 20
-1.251451157271745
 30
0.0
 11
-3.166971939481229
 21
-1.255202911976142
 31
0.0
  0
LINE
  5
A7
330
1F
100
AcDbEntity
  8
CAD
  6
CONTINUOUS
 62
     5
100
AcDbLine
 10
-3.166971939481229
 20
-1.255202911976142
 30
0.0
 11
-3.173219459834177
 21
-1.261449478654789
 31
0.0
  0
LINE
  5
A8
330
1F
100
AcDbEntity
  8
CAD
  6
CONTINUOUS
 62
     5
100
AcDbLine
 10
-3.173219459834177
 20
-1.261449478654789
 30
0.0
 11
-3.176966446167063
 21
-1.270057342905395
 31
0.0
  0
LINE
  5
A9
330
1F
100
AcDbEntity
  8
CAD
  6
CONTINUOUS
 62
     5
100
AcDbLine
 10
-3.176966446167063
 20
-1.270057342905395
 30
0.0
 11
-3.219160811988446
 21
-1.433971067250298
 31
0.0
  0
LINE
  5
AA
330
1F
100
AcDbEntity
  8
CAD
  6
CONTINUOUS
 62
     5
100
AcDbLine
 10
-3.219160811988446
 20
-1.433971067250298
 30
0.0
 11
-3.257743613227838
 21
-1.59912456818791
 31
0.0
  0
LINE
  5
AB
330
1F
100
AcDbEntity
  8
CAD
  6
CONTINUOUS
 62
     5
100
AcDbLine
 10
-3.257743613227838
 20
-1.59912456818791
 30
0.0
 11
-3.292444006383448
 21
-1.765687599744001
 31
0.0
  0
LINE
  5
AC
330
1F
100
AcDbEntity
  8
CAD
  6
CONTINUOUS
 62
     5
100
AcDbLine
 10
-3.292444006383448
 20
-1.765687599744001
 30
0.0
 11
-3.322284475295641
 21
-1.932080877274322
 31
0.0
  0
LINE
  5
AD
330
1F
100
AcDbEntity
  8
CAD
  6
CONTINUOUS
 62
     5
100
AcDbLine
 10
-3.322284475295641
 20
-1.932080877274322
 30
0.0
 11
-3.347127690864916
 21
-2.099746356323622
 31
0.0
  0
LINE
  5
AE
330
1F
100
AcDbEntity
  8
CAD
  6
CONTINUOUS
 62
     5
100
AcDbLine
 10
-3.347127690864916
 20
-2.099746356323622
 30
0.0
 11
-3.368222012752701
 21
-2.268516190214734
 31
0.0
  0
LINE
  5
AF
330
1F
100
AcDbEntity
  8
CAD
  6
CONTINUOUS
 62
     5
100
AcDbLine
 10
-3.368222012752701
 20
-2.268516190214734
 30
0.0
 11
-3.445252193480589
 21
-1.328485152696842
 31
0.0
  0
LINE
  5
B0
330
1F
100
AcDbEntity
  8
CAD
  6
CONTINUOUS
 62
     5
100
AcDbLine
 10
-3.445252193480589
 20
-1.328485152696842
 30
0.0
 11
-3.442754520483433
 21
-1.270057342905395
 31
0.0
  0
LINE
  5
B1
330
1F
100
AcDbEntity
  8
CAD
  6
CONTINUOUS
 62
     5
100
AcDbLine
 10
-3.442754520483433
 20
-1.270057342905395
 30
0.0
 11
-3.445252193480589
 21
-1.213019990246385
 31
0.0
  0
LINE
  5
B2
330
1F
100
AcDbEntity
  8
CAD
  6
CONTINUOUS
 62
     5
100
AcDbLine
 10
-3.445252193480589
 20
-1.213019990246385
 30
0.0
 11
-3.44775177382635
 21
-1.199269914158945
 31
0.0
  0
LINE
  5
B3
330
1F
100
AcDbEntity
  8
CAD
  6
CONTINUOUS
 62
     5
100
AcDbLine
 10
-3.44775177382635
 20
-1.199269914158945
 30
0.0
 11
-3.455108417392622
 21
-1.185672425959838
 31
0.0
  0
LINE
  5
B4
330
1F
100
AcDbEntity
  8
CAD
  6
CONTINUOUS
 62
     5
100
AcDbLine
 10
-3.455108417392622
 20
-1.185672425959838
 30
0.0
 11
-3.465102924078457
 21
-1.174434327984086
 31
0.0
  0
LINE
  5
B5
330
1F
100
AcDbEntity
  8
CAD
  6
CONTINUOUS
 62
     5
100
AcDbLine
 10
-3.465102924078457
 20
-1.174434327984086
 30
0.0
 11
-3.496190798977775
 21
-1.157085085080583
 31
0.0
  0
LINE
  5
B6
330
1F
100
AcDbEntity
  8
CAD
  6
CONTINUOUS
 62
     5
100
AcDbLine
 10
-3.496190798977775
 20
-1.157085085080583
 30
0.0
 11
-3.52963901777475
 21
-1.143352175130581
 31
0.0
  0
LINE
  5
B7
330
1F
100
AcDbEntity
  8
CAD
  6
CONTINUOUS
 62
     5
100
AcDbLine
 10
-3.52963901777475
 20
-1.143352175130581
 30
0.0
 11
-3.56447674002986
 21
-1.135984087472684
 31
0.0
  0
LINE
  5
B8
330
1F
100
AcDbEntity
  8
CAD
  6
CONTINUOUS
 62
     5
100
AcDbLine
 10
-3.56447674002986
 20
-1.135984087472684
 30
0.0
 11
-3.601670037811116
 21
-1.133489275498433
 31
0.0
  0
LINE
  5
B9
330
1F
100
AcDbEntity
  8
CAD
  6
CONTINUOUS
 62
     5
100
AcDbLine
 10
-3.601670037811116
 20
-1.133489275498433
 30
0.0
 11
-3.637755166053352
 21
-1.135984087472684
 31
0.0
  0
LINE
  5
BA
330
1F
100
AcDbEntity
  8
CAD
  6
CONTINUOUS
 62
     5
100
AcDbLine
 10
-3.637755166053352
 20
-1.135984087472684
 30
0.0
 11
-3.657603989302616
 21
-1.140975618769789
 31
0.0
  0
LINE
  5
BB
330
1F
100
AcDbEntity
  8
CAD
  6
CONTINUOUS
 62
     5
100
AcDbLine
 10
-3.657603989302616
 20
-1.140975618769789
 30
0.0
 11
-3.676202545541848
 21
-1.148343706427686
 31
0.0
  0
LINE
  5
BC
330
1F
100
AcDbEntity
  8
CAD
  6
CONTINUOUS
 62
     5
100
AcDbLine
 10
-3.676202545541848
 20
-1.148343706427686
 30
0.0
 11
-3.693548927422445
 21
-1.159579897054834
 31
0.0
  0
LINE
  5
BD
330
1F
100
AcDbEntity
  8
CAD
  6
CONTINUOUS
 62
     5
100
AcDbLine
 10
-3.693548927422445
 20
-1.159579897054834
 30
0.0
 11
-3.708540687451197
 21
-1.174434327984086
 31
0.0
  0
LINE
  5
BE
330
1F
100
AcDbEntity
  8
CAD
  6
CONTINUOUS
 62
     5
100
AcDbLine
 10
-3.708540687451197
 20
-1.174434327984086
 30
0.0
 11
-3.719642410001752
 21
-1.191783570887589
 31
0.0
  0
LINE
  5
BF
330
1F
100
AcDbEntity
  8
CAD
  6
CONTINUOUS
 62
     5
100
AcDbLine
 10
-3.719642410001752
 20
-1.191783570887589
 30
0.0
 11
-3.728386649677555
 21
-1.21052327092353
 31
0.0
  0
LINE
  5
C0
330
1F
100
AcDbEntity
  8
CAD
  6
CONTINUOUS
 62
     5
100
AcDbLine
 10
-3.728386649677555
 20
-1.21052327092353
 30
0.0
 11
-3.732134589684743
 21
-1.230367325801283
 31
0.0
  0
LINE
  5
C1
330
1F
100
AcDbEntity
  8
CAD
  6
CONTINUOUS
 62
     5
100
AcDbLine
 10
-3.732134589684743
 20
-1.230367325801283
 30
0.0
 11
-3.733381995671868
 21
-1.251468323409183
 31
0.0
  0
LINE
  5
C2
330
1F
100
AcDbEntity
  8
CAD
  6
CONTINUOUS
 62
     5
100
AcDbLine
 10
-3.733381995671868
 20
-1.251468323409183
 30
0.0
 11
-3.59917236481396
 21
-2.652278544070342
 31
0.0
  0
LINE
  5
C3
330
1F
100
AcDbEntity
  8
CAD
  6
CONTINUOUS
 62
     5
100
AcDbLine
 10
-0.8499184774422646
 20
-2.874305365687006
 30
0.0
 11
-0.8137723140446959
 21
-2.877185462079298
 31
0.0
  0
LINE
  5
C4
330
1F
100
AcDbEntity
  8
CAD
  6
CONTINUOUS
 62
     5
100
AcDbLine
 10
-0.8137723140446959
 20
-2.877185462079298
 30
0.0
 11
-0.7767678437752519
 21
-2.877185462079298
 31
0.0
  0
LINE
  5
C5
330
1F
100
AcDbEntity
  8
CAD
  6
CONTINUOUS
 62
     5
100
AcDbLine
 10
-0.7767678437752519
 20
-2.877185462079298
 30
0.0
 11
-0.740745658036954
 21
-2.874305365687006
 31
0.0
  0
LINE
  5
C6
330
1F
100
AcDbEntity
  8
CAD
  6
CONTINUOUS
 62
     5
100
AcDbLine
 10
-0.740745658036954
 20
-2.874305365687006
 30
0.0
 11
-0.7245694345250137
 21
-2.869590399937505
 31
0.0
  0
LINE
  5
C7
330
1F
100
AcDbEntity
  8
CAD
  6
CONTINUOUS
 62
     5
100
AcDbLine
 10
-0.7245694345250137
 20
-2.869590399937505
 30
0.0
 11
-0.7093774028928236
 21
-2.861995337795712
 31
0.0
  0
LINE
  5
C8
330
1F
100
AcDbEntity
  8
CAD
  6
CONTINUOUS
 62
     5
100
AcDbLine
 10
-0.7093774028928236
 20
-2.861995337795712
 30
0.0
 11
-0.6961461256257171
 21
-2.851516364564419
 31
0.0
  0
LINE
  5
C9
330
1F
100
AcDbEntity
  8
CAD
  6
CONTINUOUS
 62
     5
100
AcDbLine
 10
-0.6961461256257171
 20
-2.851516364564419
 30
0.0
 11
-0.6856061172390903
 21
-2.837302802766166
 31
0.0
  0
LINE
  5
CA
330
1F
100
AcDbEntity
  8
CAD
  6
CONTINUOUS
 62
     5
100
AcDbLine
 10
-0.6856061172390903
 20
-2.837302802766166
 30
0.0
 11
-0.9049321332322533
 21
-1.108859682972825
 31
0.0
  0
LINE
  5
CB
330
1F
100
AcDbEntity
  8
CAD
  6
CONTINUOUS
 62
     5
100
AcDbLine
 10
-0.9049321332322533
 20
-1.108859682972825
 30
0.0
 11
-0.9619065433873257
 21
-1.080375338918195
 31
0.0
  0
LINE
  5
CC
330
1F
100
AcDbEntity
  8
CAD
  6
CONTINUOUS
 62
     5
100
AcDbLine
 10
-0.9619065433873257
 20
-1.080375338918195
 30
0.0
 11
-1.020721544945419
 21
-1.055686618585857
 31
0.0
  0
LINE
  5
CD
330
1F
100
AcDbEntity
  8
CAD
  6
CONTINUOUS
 62
     5
100
AcDbLine
 10
-1.020721544945419
 20
-1.055686618585857
 30
0.0
 11
-1.081493486171388
 21
-1.03479733667302
 31
0.0
  0
LINE
  5
CE
330
1F
100
AcDbEntity
  8
CAD
  6
CONTINUOUS
 62
     5
100
AcDbLine
 10
-1.081493486171388
 20
-1.03479733667302
 30
0.0
 11
-1.142267334745961
 21
-1.018684055665017
 31
0.0
  0
LINE
  5
CF
330
1F
100
AcDbEntity
  8
CAD
  6
CONTINUOUS
 62
     5
100
AcDbLine
 10
-1.142267334745961
 20
-1.018684055665017
 30
0.0
 11
-1.204879867374951
 21
-1.007289555103724
 31
0.0
  0
LINE
  5
D0
330
1F
100
AcDbEntity
  8
CAD
  6
CONTINUOUS
 62
     5
100
AcDbLine
 10
-1.204879867374951
 20
-1.007289555103724
 30
0.0
 11
-1.268470810233235
 21
-0.998771336237514
 31
0.0
  0
LINE
  5
D1
330
1F
100
AcDbEntity
  8
CAD
  6
CONTINUOUS
 62
     5
100
AcDbLine
 10
-1.268470810233235
 20
-0.998771336237514
 30
0.0
 11
-1.282682464682883
 21
-1.015864994428059
 31
0.0
  0
LINE
  5
D2
330
1F
100
AcDbEntity
  8
CAD
  6
CONTINUOUS
 62
     5
100
AcDbLine
 10
-1.282682464682883
 20
-1.015864994428059
 30
0.0
 11
-1.295059249775323
 21
-1.033874179948604
 31
0.0
  0
LINE
  5
D3
330
1F
100
AcDbEntity
  8
CAD
  6
CONTINUOUS
 62
     5
100
AcDbLine
 10
-1.295059249775323
 20
-1.033874179948604
 30
0.0
 11
-1.305475280502679
 21
-1.053783084678898
 31
0.0
  0
LINE
  5
D4
330
1F
100
AcDbEntity
  8
CAD
  6
CONTINUOUS
 62
     5
100
AcDbLine
 10
-1.305475280502679
 20
-1.053783084678898
 30
0.0
 11
-1.74204258046465
 21
-2.527858379923321
 31
0.0
  0
LINE
  5
D5
330
1F
100
AcDbEntity
  8
CAD
  6
CONTINUOUS
 62
     5
100
AcDbLine
 10
-1.74204258046465
 20
-2.527858379923321
 30
0.0
 11
-1.764833488935842
 21
-2.604743602157293
 31
0.0
  0
LINE
  5
D6
330
1F
100
AcDbEntity
  8
CAD
  6
CONTINUOUS
 62
     5
100
AcDbLine
 10
-1.764833488935842
 20
-2.604743602157293
 30
0.0
 11
-1.784805336170075
 21
-2.681628824391264
 31
0.0
  0
LINE
  5
D7
330
1F
100
AcDbEntity
  8
CAD
  6
CONTINUOUS
 62
     5
100
AcDbLine
 10
-1.784805336170075
 20
-2.681628824391264
 30
0.0
 11
-1.800979652333411
 21
-2.759498238504986
 31
0.0
  0
LINE
  5
D8
330
1F
100
AcDbEntity
  8
CAD
  6
CONTINUOUS
 62
     5
100
AcDbLine
 10
-1.800979652333411
 20
-2.759498238504986
 30
0.0
 11
-1.815191306783059
 21
-2.837302802766166
 31
0.0
  0
LINE
  5
D9
330
1F
100
AcDbEntity
  8
CAD
  6
CONTINUOUS
 62
     5
100
AcDbLine
 10
-1.815191306783059
 20
-2.837302802766166
 30
0.0
 11
-1.815191306783059
 21
-2.855311988286711
 31
0.0
  0
LINE
  5
DA
330
1F
100
AcDbEntity
  8
CAD
  6
CONTINUOUS
 62
     5
100
AcDbLine
 10
-1.815191306783059
 20
-2.855311988286711
 30
0.0
 11
-1.811393775712163
 21
-2.871490119147256
 31
0.0
  0
LINE
  5
DB
330
1F
100
AcDbEntity
  8
CAD
  6
CONTINUOUS
 62
     5
100
AcDbLine
 10
-1.811393775712163
 20
-2.871490119147256
 30
0.0
 11
-1.803798713570369
 21
-2.886680243430841
 31
0.0
  0
LINE
  5
DC
330
1F
100
AcDbEntity
  8
CAD
  6
CONTINUOUS
 62
     5
100
AcDbLine
 10
-1.803798713570369
 20
-2.886680243430841
 30
0.0
 11
-1.792402305660472
 21
-2.899974463201886
 31
0.0
  0
LINE
  5
DD
330
1F
100
AcDbEntity
  8
CAD
  6
CONTINUOUS
 62
     5
100
AcDbLine
 10
-1.792402305660472
 20
-2.899974463201886
 30
0.0
 11
-1.778190651210823
 21
-2.910388586580637
 31
0.0
  0
LINE
  5
DE
330
1F
100
AcDbEntity
  8
CAD
  6
CONTINUOUS
 62
     5
100
AcDbLine
 10
-1.778190651210823
 20
-2.910388586580637
 30
0.0
 11
-1.75441936555709
 21
-2.923682806351681
 31
0.0
  0
LINE
  5
DF
330
1F
100
AcDbEntity
  8
CAD
  6
CONTINUOUS
 62
     5
100
AcDbLine
 10
-1.75441936555709
 20
-2.923682806351681
 30
0.0
 11
-1.728811303197544
 21
-2.933177587703224
 31
0.0
  0
LINE
  5
E0
330
1F
100
AcDbEntity
  8
CAD
  6
CONTINUOUS
 62
     5
100
AcDbLine
 10
-1.728811303197544
 20
-2.933177587703224
 30
0.0
 11
-1.703205148186602
 21
-2.938876745332476
 31
0.0
  0
LINE
  5
E1
330
1F
100
AcDbEntity
  8
CAD
  6
CONTINUOUS
 62
     5
100
AcDbLine
 10
-1.703205148186602
 20
-2.938876745332476
 30
0.0
 11
-1.675636331461972
 21
-2.941695806569435
 31
0.0
  0
LINE
  5
E2
330
1F
100
AcDbEntity
  8
CAD
  6
CONTINUOUS
 62
     5
100
AcDbLine
 10
-1.675636331461972
 20
-2.941695806569435
 30
0.0
 11
-1.64904598457128
 21
-2.940776464542226
 31
0.0
  0
LINE
  5
E3
330
1F
100
AcDbEntity
  8
CAD
  6
CONTINUOUS
 62
     5
100
AcDbLine
 10
-1.64904598457128
 20
-2.940776464542226
 30
0.0
 11
-1.622457545029192
 21
-2.936977026122725
 31
0.0
  0
LINE
  5
E4
330
1F
100
AcDbEntity
  8
CAD
  6
CONTINUOUS
 62
     5
100
AcDbLine
 10
-1.622457545029192
 20
-2.936977026122725
 30
0.0
 11
-1.5958671981385
 21
-2.92840158679839
 31
0.0
  0
LINE
  5
E5
330
1F
100
AcDbEntity
  8
CAD
  6
CONTINUOUS
 62
     5
100
AcDbLine
 10
-1.5958671981385
 20
-2.92840158679839
 30
0.0
 11
-1.587413829124832
 21
-2.917987463419639
 31
0.0
  0
LINE
  5
E6
330
1F
100
AcDbEntity
  8
CAD
  6
CONTINUOUS
 62
     5
100
AcDbLine
 10
-1.587413829124832
 20
-2.917987463419639
 30
0.0
 11
-1.580673259157706
 21
-2.905608770978595
 31
0.0
  0
LINE
  5
E7
330
1F
100
AcDbEntity
  8
CAD
  6
CONTINUOUS
 62
     5
100
AcDbLine
 10
-1.580673259157706
 20
-2.905608770978595
 30
0.0
 11
-1.577856105269351
 21
-2.892379401060093
 31
0.0
  0
LINE
  5
E8
330
1F
100
AcDbEntity
  8
CAD
  6
CONTINUOUS
 62
     5
100
AcDbLine
 10
-1.577856105269351
 20
-2.892379401060093
 30
0.0
 11
-1.523819011964696
 21
-2.801215767175327
 31
0.0
  0
LINE
  5
E9
330
1F
100
AcDbEntity
  8
CAD
  6
CONTINUOUS
 62
     5
100
AcDbLine
 10
-1.523819011964696
 20
-2.801215767175327
 30
0.0
 11
-1.414646192559385
 21
-2.418681745820802
 31
0.0
  0
LINE
  5
EA
330
1F
100
AcDbEntity
  8
CAD
  6
CONTINUOUS
 62
     5
100
AcDbLine
 10
-1.414646192559385
 20
-2.418681745820802
 30
0.0
 11
-1.032116045506713
 21
-2.364585524709418
 31
0.0
  0
LINE
  5
EB
330
1F
100
AcDbEntity
  8
CAD
  6
CONTINUOUS
 62
     5
100
AcDbLine
 10
-1.032116045506713
 20
-2.364585524709418
 30
0.0
 11
-0.9960919524198107
 21
-2.61901438441367
 31
0.0
  0
LINE
  5
EC
330
1F
100
AcDbEntity
  8
CAD
  6
CONTINUOUS
 62
     5
100
AcDbLine
 10
-0.9960919524198107
 20
-2.61901438441367
 30
0.0
 11
-0.987516513095476
 21
-2.675014139432013
 31
0.0
  0
LINE
  5
ED
330
1F
100
AcDbEntity
  8
CAD
  6
CONTINUOUS
 62
     5
100
AcDbLine
 10
-0.987516513095476
 20
-2.675014139432013
 30
0.0
 11
-0.9751397280030363
 21
-2.729110360543398
 31
0.0
  0
LINE
  5
EE
330
1F
100
AcDbEntity
  8
CAD
  6
CONTINUOUS
 62
     5
100
AcDbLine
 10
-0.9751397280030363
 20
-2.729110360543398
 30
0.0
 11
-0.9589654118397002
 21
-2.783202766957574
 31
0.0
  0
LINE
  5
EF
330
1F
100
AcDbEntity
  8
CAD
  6
CONTINUOUS
 62
     5
100
AcDbLine
 10
-0.9589654118397002
 20
-2.783202766957574
 30
0.0
 11
-0.9505120428260321
 21
-2.802196144357869
 31
0.0
  0
LINE
  5
F0
330
1F
100
AcDbEntity
  8
CAD
  6
CONTINUOUS
 62
     5
100
AcDbLine
 10
-0.9505120428260321
 20
-2.802196144357869
 30
0.0
 11
-0.9391156349161343
 21
-2.820205329878414
 31
0.0
  0
LINE
  5
F1
330
1F
100
AcDbEntity
  8
CAD
  6
CONTINUOUS
 62
     5
100
AcDbLine
 10
-0.9391156349161343
 20
-2.820205329878414
 30
0.0
 11
-0.9249039804664859
 21
-2.836318610886416
 31
0.0
  0
LINE
  5
F2
330
1F
100
AcDbEntity
  8
CAD
  6
CONTINUOUS
 62
     5
100
AcDbLine
 10
-0.9249039804664859
 20
-2.836318610886416
 30
0.0
 11
-0.9087296643031498
 21
-2.84961283065746
 31
0.0
  0
LINE
  5
F3
330
1F
100
AcDbEntity
  8
CAD
  6
CONTINUOUS
 62
     5
100
AcDbLine
 10
-0.9087296643031498
 20
-2.84961283065746
 30
0.0
 11
-0.8897401016000632
 21
-2.861007331218754
 31
0.0
  0
LINE
  5
F4
330
1F
100
AcDbEntity
  8
CAD
  6
CONTINUOUS
 62
     5
100
AcDbLine
 10
-0.8897401016000632
 20
-2.861007331218754
 30
0.0
 11
-0.8707486315483723
 21
-2.868602393360547
 31
0.0
  0
LINE
  5
F5
330
1F
100
AcDbEntity
  8
CAD
  6
CONTINUOUS
 62
     5
100
AcDbLine
 10
-0.8707486315483723
 20
-2.868602393360547
 30
0.0
 11
-0.8499184774422646
 21
-2.874301550989798
 31
0.0
  0
LINE
  5
F6
330
1F
100
AcDbEntity
  8
CAD
  6
CONTINUOUS
 62
     5
100
AcDbLine
 10
-1.068140138593615
 20
-2.109294543436082
 30
0.0
 11
-1.323488280720432
 21
-2.091220508062995
 31
0.0
  0
LINE
  5
F7
330
1F
100
AcDbEntity
  8
CAD
  6
CONTINUOUS
 62
     5
100
AcDbLine
 10
-1.323488280720432
 20
-2.091220508062995
 30
0.0
 11
-1.159301865129777
 21
-1.508479733123477
 31
0.0
  0
LINE
  5
F8
330
1F
100
AcDbEntity
  8
CAD
  6
CONTINUOUS
 62
     5
100
AcDbLine
 10
-1.159301865129777
 20
-1.508479733123477
 30
0.0
 11
-1.068140138593615
 21
-2.109294543436082
 31
0.0
  0
LINE
  5
F9
330
1F
100
AcDbEntity
  8
CAD
  6
CONTINUOUS
 62
     5
100
AcDbLine
 10
-1.815227069569387
 20
-2.943099615142101
 30
0.0
 11
-2.21522715892942
 21
-2.943099615142101
 31
0.0
  0
LINE
  5
FA
330
1F
100
AcDbEntity
  8
CAD
  6
CONTINUOUS
 62
     5
100
AcDbLine
 10
0.0393558977538861
 20
-2.116737017689541
 30
0.0
 11
0.0355564593343854
 21
-2.202140458789723
 31
0.0
  0
LINE
  5
FB
330
1F
100
AcDbEntity
  8
CAD
  6
CONTINUOUS
 62
     5
100
AcDbLine
 10
0.0355564593343854
 20
-2.202140458789723
 30
0.0
 11
0.0355564593343854
 21
-2.287604935045238
 31
0.0
  0
LINE
  5
FC
330
1F
100
AcDbEntity
  8
CAD
  6
CONTINUOUS
 62
     5
100
AcDbLine
 10
0.0355564593343854
 20
-2.287604935045238
 30
0.0
 11
0.0393558977538861
 21
-2.373008376145419
 31
0.0
  0
LINE
  5
FD
330
1F
100
AcDbEntity
  8
CAD
  6
CONTINUOUS
 62
     5
100
AcDbLine
 10
0.0393558977538861
 20
-2.373008376145419
 30
0.0
 11
0.0469509598956791
 21
-2.458408002548392
 31
0.0
  0
LINE
  5
FE
330
1F
100
AcDbEntity
  8
CAD
  6
CONTINUOUS
 62
     5
100
AcDbLine
 10
0.0469509598956791
 20
-2.458408002548392
 30
0.0
 11
0.0583454604569727
 21
-2.542895916318574
 31
0.0
  0
LINE
  5
FF
330
1F
100
AcDbEntity
  8
CAD
  6
CONTINUOUS
 62
     5
100
AcDbLine
 10
0.0583454604569727
 20
-2.542895916318574
 30
0.0
 11
0.0659424299473699
 21
-2.585593822171456
 31
0.0
  0
LINE
  5
100
330
1F
100
AcDbEntity
  8
CAD
  6
CONTINUOUS
 62
     5
100
AcDbLine
 10
0.0659424299473699
 20
-2.585593822171456
 30
0.0
 11
0.0781952373805387
 21
-2.627376200694338
 31
0.0
  0
LINE
  5
101
330
1F
100
AcDbEntity
  8
CAD
  6
CONTINUOUS
 62
     5
100
AcDbLine
 10
0.0781952373805387
 20
-2.627376200694338
 30
0.0
 11
0.0933910837099371
 21
-2.668178202034678
 31
0.0
  0
LINE
  5
102
330
1F
100
AcDbEntity
  8
CAD
  6
CONTINUOUS
 62
     5
100
AcDbLine
 10
0.0933910837099371
 20
-2.668178202034678
 30
0.0
 11
0.1123806464130238
 21
-2.70714533401781
 31
0.0
  0
LINE
  5
103
330
1F
100
AcDbEntity
  8
CAD
  6
CONTINUOUS
 62
     5
100
AcDbLine
 10
0.1123806464130238
 20
-2.70714533401781
 30
0.0
 11
0.1229168401024423
 21
-2.721358895816063
 31
0.0
  0
LINE
  5
104
330
1F
100
AcDbEntity
  8
CAD
  6
CONTINUOUS
 62
     5
100
AcDbLine
 10
0.1229168401024423
 20
-2.721358895816063
 30
0.0
 11
0.136151932066757
 21
-2.733668923707357
 31
0.0
  0
LINE
  5
105
330
1F
100
AcDbEntity
  8
CAD
  6
CONTINUOUS
 62
     5
100
AcDbLine
 10
0.136151932066757
 20
-2.733668923707357
 30
0.0
 11
0.1513439636989472
 21
-2.741267800546358
 31
0.0
  0
LINE
  5
106
330
1F
100
AcDbEntity
  8
CAD
  6
CONTINUOUS
 62
     5
100
AcDbLine
 10
0.1513439636989472
 20
-2.741267800546358
 30
0.0
 11
0.1683765867341585
 21
-2.746043801451192
 31
0.0
  0
LINE
  5
107
330
1F
100
AcDbEntity
  8
CAD
  6
CONTINUOUS
 62
     5
100
AcDbLine
 10
0.1683765867341585
 20
-2.746043801451192
 30
0.0
 11
0.18650784256537
 21
-2.746963143478401
 31
0.0
  0
LINE
  5
108
330
1F
100
AcDbEntity
  8
CAD
  6
CONTINUOUS
 62
     5
100
AcDbLine
 10
0.18650784256537
 20
-2.746963143478401
 30
0.0
 11
0.2035404656005813
 21
-2.7431637050589
 31
0.0
  0
LINE
  5
109
330
1F
100
AcDbEntity
  8
CAD
  6
CONTINUOUS
 62
     5
100
AcDbLine
 10
0.2035404656005813
 20
-2.7431637050589
 30
0.0
 11
0.2301308124912733
 21
-2.730853677167606
 31
0.0
  0
LINE
  5
10A
330
1F
100
AcDbEntity
  8
CAD
  6
CONTINUOUS
 62
     5
100
AcDbLine
 10
0.2301308124912733
 20
-2.730853677167606
 30
0.0
 11
0.2547584976682776
 21
-2.713760018977061
 31
0.0
  0
LINE
  5
10B
330
1F
100
AcDbEntity
  8
CAD
  6
CONTINUOUS
 62
     5
100
AcDbLine
 10
0.2547584976682776
 20
-2.713760018977061
 30
0.0
 11
0.2766910992675939
 21
-2.693851114246766
 31
0.0
  0
LINE
  5
10C
330
1F
100
AcDbEntity
  8
CAD
  6
CONTINUOUS
 62
     5
100
AcDbLine
 10
0.2766910992675939
 20
-2.693851114246766
 30
0.0
 11
0.2947022219390648
 21
-2.671058298426971
 31
0.0
  0
LINE
  5
10D
330
1F
100
AcDbEntity
  8
CAD
  6
CONTINUOUS
 62
     5
100
AcDbLine
 10
0.2947022219390648
 20
-2.671058298426971
 30
0.0
 11
0.3221489683530279
 21
-2.625480296181796
 31
0.0
  0
LINE
  5
10E
330
1F
100
AcDbEntity
  8
CAD
  6
CONTINUOUS
 62
     5
100
AcDbLine
 10
0.3221489683530279
 20
-2.625480296181796
 30
0.0
 11
0.3478791010232407
 21
-2.578979137212205
 31
0.0
  0
LINE
  5
10F
330
1F
100
AcDbEntity
  8
CAD
  6
CONTINUOUS
 62
     5
100
AcDbLine
 10
0.3478791010232407
 20
-2.578979137212205
 30
0.0
 11
0.3687092551293485
 21
-2.529601696547529
 31
0.0
  0
LINE
  5
110
330
1F
100
AcDbEntity
  8
CAD
  6
CONTINUOUS
 62
     5
100
AcDbLine
 10
0.3687092551293485
 20
-2.529601696547529
 30
0.0
 11
0.3876988178324351
 21
-2.480285291038188
 31
0.0
  0
LINE
  5
111
330
1F
100
AcDbEntity
  8
CAD
  6
CONTINUOUS
 62
     5
100
AcDbLine
 10
0.3876988178324351
 20
-2.480285291038188
 30
0.0
 11
0.4028908494646253
 21
-2.429008131163762
 31
0.0
  0
LINE
  5
112
330
1F
100
AcDbEntity
  8
CAD
  6
CONTINUOUS
 62
     5
100
AcDbLine
 10
0.4028908494646253
 20
-2.429008131163762
 30
0.0
 11
0.4142853500259189
 21
-2.37772334189492
 31
0.0
  0
LINE
  5
113
330
1F
100
AcDbEntity
  8
CAD
  6
CONTINUOUS
 62
     5
100
AcDbLine
 10
0.4142853500259189
 20
-2.37772334189492
 30
0.0
 11
0.4218823195163161
 21
-2.324611312663286
 31
0.0
  0
LINE
  5
114
330
1F
100
AcDbEntity
  8
CAD
  6
CONTINUOUS
 62
     5
100
AcDbLine
 10
0.4218823195163161
 20
-2.324611312663286
 30
0.0
 11
0.4275185346416295
 21
-2.304637558080449
 31
0.0
  0
LINE
  5
115
330
1F
100
AcDbEntity
  8
CAD
  6
CONTINUOUS
 62
     5
100
AcDbLine
 10
0.4275185346416295
 20
-2.304637558080449
 30
0.0
 11
0.4351155041320267
 21
-2.285709030532696
 31
0.0
  0
LINE
  5
116
330
1F
100
AcDbEntity
  8
CAD
  6
CONTINUOUS
 62
     5
100
AcDbLine
 10
0.4351155041320267
 20
-2.285709030532696
 30
0.0
 11
0.4455334422079869
 21
-2.267634995159609
 31
0.0
  0
LINE
  5
117
330
1F
100
AcDbEntity
  8
CAD
  6
CONTINUOUS
 62
     5
100
AcDbLine
 10
0.4455334422079869
 20
-2.267634995159609
 30
0.0
 11
0.45888678978576
 21
-2.252441056178815
 31
0.0
  0
LINE
  5
118
330
1F
100
AcDbEntity
  8
CAD
  6
CONTINUOUS
 62
     5
100
AcDbLine
 10
0.45888678978576
 20
-2.252441056178815
 30
0.0
 11
0.4768997900035131
 21
-2.229652055056228
 31
0.0
  0
LINE
  5
119
330
1F
100
AcDbEntity
  8
CAD
  6
CONTINUOUS
 62
     5
100
AcDbLine
 10
0.4768997900035131
 20
-2.229652055056228
 30
0.0
 11
0.4987065065949544
 21
-2.209739335628724
 31
0.0
  0
LINE
  5
11A
330
1F
100
AcDbEntity
  8
CAD
  6
CONTINUOUS
 62
     5
100
AcDbLine
 10
0.4987065065949544
 20
-2.209739335628724
 30
0.0
 11
0.5234581694312295
 21
-2.192649492135388
 31
0.0
  0
LINE
  5
11B
330
1F
100
AcDbEntity
  8
CAD
  6
CONTINUOUS
 62
     5
100
AcDbLine
 10
0.5234581694312295
 20
-2.192649492135388
 30
0.0
 11
0.5490643244421715
 21
-2.179355272364344
 31
0.0
  0
LINE
  5
11C
330
1F
100
AcDbEntity
  8
CAD
  6
CONTINUOUS
 62
     5
100
AcDbLine
 10
0.5490643244421715
 20
-2.179355272364344
 30
0.0
 11
0.5670792320085287
 21
-2.174636491917635
 31
0.0
  0
LINE
  5
11D
330
1F
100
AcDbEntity
  8
CAD
  6
CONTINUOUS
 62
     5
100
AcDbLine
 10
0.5670792320085287
 20
-2.174636491917635
 30
0.0
 11
0.5860687947116153
 21
-2.174636491917635
 31
0.0
  0
LINE
  5
11E
330
1F
100
AcDbEntity
  8
CAD
  6
CONTINUOUS
 62
     5
100
AcDbLine
 10
0.5860687947116153
 20
-2.174636491917635
 30
0.0
 11
0.6040798875807644
 21
-2.179355272364344
 31
0.0
  0
LINE
  5
11F
330
1F
100
AcDbEntity
  8
CAD
  6
CONTINUOUS
 62
     5
100
AcDbLine
 10
0.6040798875807644
 20
-2.179355272364344
 30
0.0
 11
0.6268707960519558
 21
-2.191730150108179
 31
0.0
  0
LINE
  5
120
330
1F
100
AcDbEntity
  8
CAD
  6
CONTINUOUS
 62
     5
100
AcDbLine
 10
0.6268707960519558
 20
-2.191730150108179
 30
0.0
 11
0.6476990428094594
 21
-2.206924089088973
 31
0.0
  0
LINE
  5
121
330
1F
100
AcDbEntity
  8
CAD
  6
CONTINUOUS
 62
     5
100
AcDbLine
 10
0.6476990428094594
 20
-2.206924089088973
 30
0.0
 11
0.6666924202097544
 21
-2.224933274609518
 31
0.0
  0
LINE
  5
122
330
1F
100
AcDbEntity
  8
CAD
  6
CONTINUOUS
 62
     5
100
AcDbLine
 10
0.6666924202097544
 20
-2.224933274609518
 30
0.0
 11
0.6828667363730905
 21
-2.244845994037022
 31
0.0
  0
LINE
  5
123
330
1F
100
AcDbEntity
  8
CAD
  6
CONTINUOUS
 62
     5
100
AcDbLine
 10
0.6828667363730905
 20
-2.244845994037022
 30
0.0
 11
0.695241614116926
 21
-2.267634995159609
 31
0.0
  0
LINE
  5
124
330
1F
100
AcDbEntity
  8
CAD
  6
CONTINUOUS
 62
     5
100
AcDbLine
 10
0.695241614116926
 20
-2.267634995159609
 30
0.0
 11
0.7046772676617401
 21
-2.292323715491947
 31
0.0
  0
LINE
  5
125
330
1F
100
AcDbEntity
  8
CAD
  6
CONTINUOUS
 62
     5
100
AcDbLine
 10
0.7046772676617401
 20
-2.292323715491947
 30
0.0
 11
0.7112957673181997
 21
-2.317016250521493
 31
0.0
  0
LINE
  5
126
330
1F
100
AcDbEntity
  8
CAD
  6
CONTINUOUS
 62
     5
100
AcDbLine
 10
0.7112957673181997
 20
-2.317016250521493
 30
0.0
 11
0.7132565216832832
 21
-2.342624312881039
 31
0.0
  0
LINE
  5
127
330
1F
100
AcDbEntity
  8
CAD
  6
CONTINUOUS
 62
     5
100
AcDbLine
 10
0.6107022019344321
 20
-1.758899346061771
 30
0.0
 11
0.6268746107491642
 21
-1.742728844595643
 31
0.0
  0
LINE
  5
128
330
1F
100
AcDbEntity
  8
CAD
  6
CONTINUOUS
 62
     5
100
AcDbLine
 10
0.6268746107491642
 20
-1.742728844595643
 30
0.0
 11
0.6401097027134789
 21
-1.723792687653473
 31
0.0
  0
LINE
  5
129
330
1F
100
AcDbEntity
  8
CAD
  6
CONTINUOUS
 62
     5
100
AcDbLine
 10
0.6401097027134789
 20
-1.723792687653473
 30
0.0
 11
0.6553017343456691
 21
-1.697208062808593
 31
0.0
  0
LINE
  5
12A
330
1F
100
AcDbEntity
  8
CAD
  6
CONTINUOUS
 62
     5
100
AcDbLine
 10
0.6553017343456691
 20
-1.697208062808593
 30
0.0
 11
0.6658398353836917
 21
-1.668723718753964
 31
0.0
  0
LINE
  5
12B
330
1F
100
AcDbEntity
  8
CAD
  6
CONTINUOUS
 62
     5
100
AcDbLine
 10
0.6658398353836917
 20
-1.668723718753964
 30
0.0
 11
0.6734348975254847
 21
-1.639316217974917
 31
0.0
  0
LINE
  5
12C
330
1F
100
AcDbEntity
  8
CAD
  6
CONTINUOUS
 62
     5
100
AcDbLine
 10
0.6734348975254847
 20
-1.639316217974917
 30
0.0
 11
0.6772324285963812
 21
-1.608928340013328
 31
0.0
  0
LINE
  5
12D
330
1F
100
AcDbEntity
  8
CAD
  6
CONTINUOUS
 62
     5
100
AcDbLine
 10
0.6772324285963812
 20
-1.608928340013328
 30
0.0
 11
0.6772324285963812
 21
-1.50545086354006
 31
0.0
  0
LINE
  5
12E
330
1F
100
AcDbEntity
  8
CAD
  6
CONTINUOUS
 62
     5
100
AcDbLine
 10
0.6772324285963812
 20
-1.50545086354006
 30
0.0
 11
0.6762539587624435
 21
-1.46464886219972
 31
0.0
  0
LINE
  5
12F
330
1F
100
AcDbEntity
  8
CAD
  6
CONTINUOUS
 62
     5
100
AcDbLine
 10
0.6762539587624435
 20
-1.46464886219972
 30
0.0
 11
0.672456427691547
 21
-1.423843046162171
 31
0.0
  0
LINE
  5
130
330
1F
100
AcDbEntity
  8
CAD
  6
CONTINUOUS
 62
     5
100
AcDbLine
 10
0.672456427691547
 20
-1.423843046162171
 30
0.0
 11
0.6658398353836917
 21
-1.383964201546247
 31
0.0
  0
LINE
  5
131
330
1F
100
AcDbEntity
  8
CAD
  6
CONTINUOUS
 62
     5
100
AcDbLine
 10
0.6658398353836917
 20
-1.383964201546247
 30
0.0
 11
0.6544434274737939
 21
-1.344081542233116
 31
0.0
  0
LINE
  5
132
330
1F
100
AcDbEntity
  8
CAD
  6
CONTINUOUS
 62
     5
100
AcDbLine
 10
0.6544434274737939
 20
-1.344081542233116
 30
0.0
 11
0.6401097027134789
 21
-1.306159637285067
 31
0.0
  0
LINE
  5
133
330
1F
100
AcDbEntity
  8
CAD
  6
CONTINUOUS
 62
     5
100
AcDbLine
 10
0.6401097027134789
 20
-1.306159637285067
 30
0.0
 11
0.6220967024957258
 21
-1.269096039208894
 31
0.0
  0
LINE
  5
134
330
1F
100
AcDbEntity
  8
CAD
  6
CONTINUOUS
 62
     5
100
AcDbLine
 10
0.6220967024957258
 20
-1.269096039208894
 30
0.0
 11
0.6040856096265769
 21
-1.233993195497805
 31
0.0
  0
LINE
  5
135
330
1F
100
AcDbEntity
  8
CAD
  6
CONTINUOUS
 62
     5
100
AcDbLine
 10
0.6040856096265769
 20
-1.233993195497805
 30
0.0
 11
0.5832554555204691
 21
-1.200782441602049
 31
0.0
  0
LINE
  5
136
330
1F
100
AcDbEntity
  8
CAD
  6
CONTINUOUS
 62
     5
100
AcDbLine
 10
0.5832554555204691
 20
-1.200782441602049
 30
0.0
 11
0.5585057000327981
 21
-1.16947903631046
 31
0.0
  0
LINE
  5
137
330
1F
100
AcDbEntity
  8
CAD
  6
CONTINUOUS
 62
     5
100
AcDbLine
 10
0.5585057000327981
 20
-1.16947903631046
 30
0.0
 11
0.531058953618835
 21
-1.141910219585831
 31
0.0
  0
LINE
  5
138
330
1F
100
AcDbEntity
  8
CAD
  6
CONTINUOUS
 62
     5
100
AcDbLine
 10
0.531058953618835
 20
-1.141910219585831
 30
0.0
 11
0.4864575138589939
 21
-1.112506533503992
 31
0.0
  0
LINE
  5
139
330
1F
100
AcDbEntity
  8
CAD
  6
CONTINUOUS
 62
     5
100
AcDbLine
 10
0.4864575138589939
 20
-1.112506533503992
 30
0.0
 11
0.4398972270826734
 21
-1.086898471144446
 31
0.0
  0
LINE
  5
13A
330
1F
100
AcDbEntity
  8
CAD
  6
CONTINUOUS
 62
     5
100
AcDbLine
 10
0.4398972270826734
 20
-1.086898471144446
 30
0.0
 11
0.3990952257423329
 21
-1.067908908441359
 31
0.0
  0
LINE
  5
13B
330
1F
100
AcDbEntity
  8
CAD
  6
CONTINUOUS
 62
     5
100
AcDbLine
 10
0.3990952257423329
 20
-1.067908908441359
 30
0.0
 11
0.356334377385513
 21
-1.051726962883607
 31
0.0
  0
LINE
  5
13C
330
1F
100
AcDbEntity
  8
CAD
  6
CONTINUOUS
 62
     5
100
AcDbLine
 10
0.356334377385513
 20
-1.051726962883607
 30
0.0
 11
0.3127133148082138
 21
-1.041312839504855
 31
0.0
  0
LINE
  5
13D
330
1F
100
AcDbEntity
  8
CAD
  6
CONTINUOUS
 62
     5
100
AcDbLine
 10
0.3127133148082138
 20
-1.041312839504855
 30
0.0
 11
0.2671333754121131
 21
-1.034698154545604
 31
0.0
  0
LINE
  5
13E
330
1F
100
AcDbEntity
  8
CAD
  6
CONTINUOUS
 62
     5
100
AcDbLine
 10
0.2671333754121131
 20
-1.034698154545604
 30
0.0
 11
0.2215534658183344
 21
-1.032802250033062
 31
0.0
  0
LINE
  5
13F
330
1F
100
AcDbEntity
  8
CAD
  6
CONTINUOUS
 62
     5
100
AcDbLine
 10
0.2215534658183344
 20
-1.032802250033062
 30
0.0
 11
0.1949631189276423
 21
-1.032802250033062
 31
0.0
  0
LINE
  5
140
330
1F
100
AcDbEntity
  8
CAD
  6
CONTINUOUS
 62
     5
100
AcDbLine
 10
0.1949631189276423
 20
-1.032802250033062
 30
0.0
 11
0.1683746793855543
 21
-1.036597873755354
 31
0.0
  0
LINE
  5
141
330
1F
100
AcDbEntity
  8
CAD
  6
CONTINUOUS
 62
     5
100
AcDbLine
 10
0.1683746793855543
 20
-1.036597873755354
 30
0.0
 11
0.14374699420855
 21
-1.044192935897147
 31
0.0
  0
LINE
  5
142
330
1F
100
AcDbEntity
  8
CAD
  6
CONTINUOUS
 62
     5
100
AcDbLine
 10
0.14374699420855
 20
-1.044192935897147
 30
0.0
 11
0.1191174016829416
 21
-1.054607059275899
 31
0.0
  0
LINE
  5
143
330
1F
100
AcDbEntity
  8
CAD
  6
CONTINUOUS
 62
     5
100
AcDbLine
 10
0.1191174016829416
 20
-1.054607059275899
 30
0.0
 11
0.0963284005603543
 21
-1.068824435771359
 31
0.0
  0
LINE
  5
144
330
1F
100
AcDbEntity
  8
CAD
  6
CONTINUOUS
 62
     5
100
AcDbLine
 10
0.0963284005603543
 20
-1.068824435771359
 30
0.0
 11
0.0763546459775175
 21
-1.085918093961904
 31
0.0
  0
LINE
  5
145
330
1F
100
AcDbEntity
  8
CAD
  6
CONTINUOUS
 62
     5
100
AcDbLine
 10
0.0763546459775175
 20
-1.085918093961904
 30
0.0
 11
0.0583435531083686
 21
-1.104900027270574
 31
0.0
  0
LINE
  5
146
330
1F
100
AcDbEntity
  8
CAD
  6
CONTINUOUS
 62
     5
100
AcDbLine
 10
0.0583435531083686
 20
-1.104900027270574
 30
0.0
 11
0.0137421133485275
 21
-1.167575502403502
 31
0.0
  0
LINE
  5
147
330
1F
100
AcDbEntity
  8
CAD
  6
CONTINUOUS
 62
     5
100
AcDbLine
 10
0.0137421133485275
 20
-1.167575502403502
 30
0.0
 11
-0.0270598879918129
 21
-1.232085846893638
 31
0.0
  0
LINE
  5
148
330
1F
100
AcDbEntity
  8
CAD
  6
CONTINUOUS
 62
     5
100
AcDbLine
 10
-0.0270598879918129
 20
-1.232085846893638
 30
0.0
 11
-0.0650447354437987
 21
-1.297580383263524
 31
0.0
  0
LINE
  5
149
330
1F
100
AcDbEntity
  8
CAD
  6
CONTINUOUS
 62
     5
100
AcDbLine
 10
-0.0650447354437987
 20
-1.297580383263524
 30
0.0
 11
-0.1002105142082451
 21
-1.365955016025703
 31
0.0
  0
LINE
  5
14A
330
1F
100
AcDbEntity
  8
CAD
  6
CONTINUOUS
 62
     5
100
AcDbLine
 10
-0.1002105142082451
 20
-1.365955016025703
 30
0.0
 11
-0.1324351688756465
 21
-1.435241361420673
 31
0.0
  0
LINE
  5
14B
330
1F
100
AcDbEntity
  8
CAD
  6
CONTINUOUS
 62
     5
100
AcDbLine
 10
-0.1324351688756465
 20
-1.435241361420673
 30
0.0
 11
-0.160982455434214
 21
-1.50545086354006
 31
0.0
  0
LINE
  5
14C
330
1F
100
AcDbEntity
  8
CAD
  6
CONTINUOUS
 62
     5
100
AcDbLine
 10
-0.160982455434214
 20
-1.50545086354006
 30
0.0
 11
-0.1875728023249061
 21
-1.583316462956574
 31
0.0
  0
LINE
  5
14D
330
1F
100
AcDbEntity
  8
CAD
  6
CONTINUOUS
 62
     5
100
AcDbLine
 10
-0.1875728023249061
 20
-1.583316462956574
 30
0.0
 11
-0.2122004880257793
 21
-1.661121027217754
 31
0.0
  0
LINE
  5
14E
330
1F
100
AcDbEntity
  8
CAD
  6
CONTINUOUS
 62
     5
100
AcDbLine
 10
-0.2122004880257793
 20
-1.661121027217754
 30
0.0
 11
-0.2321742420847472
 21
-1.740882531146809
 31
0.0
  0
LINE
  5
14F
330
1F
100
AcDbEntity
  8
CAD
  6
CONTINUOUS
 62
     5
100
AcDbLine
 10
-0.2321742420847472
 20
-1.740882531146809
 30
0.0
 11
-0.250183427605292
 21
-1.820590629314948
 31
0.0
  0
LINE
  5
150
330
1F
100
AcDbEntity
  8
CAD
  6
CONTINUOUS
 62
     5
100
AcDbLine
 10
-0.250183427605292
 20
-1.820590629314948
 30
0.0
 11
-0.2634185195696068
 21
-1.901275289968421
 31
0.0
  0
LINE
  5
151
330
1F
100
AcDbEntity
  8
CAD
  6
CONTINUOUS
 62
     5
100
AcDbLine
 10
-0.2634185195696068
 20
-1.901275289968421
 30
0.0
 11
-0.2738326429483586
 21
-1.982875477951893
 31
0.0
  0
LINE
  5
152
330
1F
100
AcDbEntity
  8
CAD
  6
CONTINUOUS
 62
     5
100
AcDbLine
 10
-0.2738326429483586
 20
-1.982875477951893
 30
0.0
 11
-0.2814277050901516
 21
-2.064540515787907
 31
0.0
  0
LINE
  5
153
330
1F
100
AcDbEntity
  8
CAD
  6
CONTINUOUS
 62
     5
100
AcDbLine
 10
-0.2814277050901516
 20
-2.064540515787907
 30
0.0
 11
-0.2852271435096522
 21
-2.146144518468588
 31
0.0
  0
LINE
  5
154
330
1F
100
AcDbEntity
  8
CAD
  6
CONTINUOUS
 62
     5
100
AcDbLine
 10
-0.2852271435096522
 20
-2.146144518468588
 30
0.0
 11
-0.2852271435096522
 21
-2.228728898331811
 31
0.0
  0
LINE
  5
155
330
1F
100
AcDbEntity
  8
CAD
  6
CONTINUOUS
 62
     5
100
AcDbLine
 10
-0.2852271435096522
 20
-2.228728898331811
 30
0.0
 11
-0.2814277050901516
 21
-2.310329086315283
 31
0.0
  0
LINE
  5
156
330
1F
100
AcDbEntity
  8
CAD
  6
CONTINUOUS
 62
     5
100
AcDbLine
 10
-0.2814277050901516
 20
-2.310329086315283
 30
0.0
 11
-0.2748111127822963
 21
-2.391997938848506
 31
0.0
  0
LINE
  5
157
330
1F
100
AcDbEntity
  8
CAD
  6
CONTINUOUS
 62
     5
100
AcDbLine
 10
-0.2748111127822963
 20
-2.391997938848506
 30
0.0
 11
-0.2643969894035444
 21
-2.473598126831978
 31
0.0
  0
LINE
  5
158
330
1F
100
AcDbEntity
  8
CAD
  6
CONTINUOUS
 62
     5
100
AcDbLine
 10
-0.2643969894035444
 20
-2.473598126831978
 30
0.0
 11
-0.250183427605292
 21
-2.55428278748545
 31
0.0
  0
LINE
  5
159
330
1F
100
AcDbEntity
  8
CAD
  6
CONTINUOUS
 62
     5
100
AcDbLine
 10
-0.250183427605292
 20
-2.55428278748545
 30
0.0
 11
-0.233028734259414
 21
-2.634051920808923
 31
0.0
  0
LINE
  5
15A
330
1F
100
AcDbEntity
  8
CAD
  6
CONTINUOUS
 62
     5
100
AcDbLine
 10
-0.233028734259414
 20
-2.634051920808923
 30
0.0
 11
-0.2245753661770684
 21
-2.670070291850012
 31
0.0
  0
LINE
  5
15B
330
1F
100
AcDbEntity
  8
CAD
  6
CONTINUOUS
 62
     5
100
AcDbLine
 10
-0.2245753661770684
 20
-2.670070291850012
 30
0.0
 11
-0.2112201108559704
 21
-2.704257608231102
 31
0.0
  0
LINE
  5
15C
330
1F
100
AcDbEntity
  8
CAD
  6
CONTINUOUS
 62
     5
100
AcDbLine
 10
-0.2112201108559704
 20
-2.704257608231102
 30
0.0
 11
-0.1951678644666991
 21
-2.737460732732441
 31
0.0
  0
LINE
  5
15D
330
1F
100
AcDbEntity
  8
CAD
  6
CONTINUOUS
 62
     5
100
AcDbLine
 10
-0.1951678644666991
 20
-2.737460732732441
 30
0.0
 11
-0.1751960172324665
 21
-2.769752144600988
 31
0.0
  0
LINE
  5
15E
330
1F
100
AcDbEntity
  8
CAD
  6
CONTINUOUS
 62
     5
100
AcDbLine
 10
-0.1751960172324665
 20
-2.769752144600988
 30
0.0
 11
-0.1533854859438168
 21
-2.798240303352826
 31
0.0
  0
LINE
  5
15F
330
1F
100
AcDbEntity
  8
CAD
  6
CONTINUOUS
 62
     5
100
AcDbLine
 10
-0.1533854859438168
 20
-2.798240303352826
 30
0.0
 11
-0.1277774235842707
 21
-2.825744270224914
 31
0.0
  0
LINE
  5
160
330
1F
100
AcDbEntity
  8
CAD
  6
CONTINUOUS
 62
     5
100
AcDbLine
 10
-0.1277774235842707
 20
-2.825744270224914
 30
0.0
 11
-0.0992301370257033
 21
-2.84945261337471
 31
0.0
  0
LINE
  5
161
330
1F
100
AcDbEntity
  8
CAD
  6
CONTINUOUS
 62
     5
100
AcDbLine
 10
-0.0992301370257033
 20
-2.84945261337471
 30
0.0
 11
-0.0698245510458412
 21
-2.871329901864506
 31
0.0
  0
LINE
  5
162
330
1F
100
AcDbEntity
  8
CAD
  6
CONTINUOUS
 62
     5
100
AcDbLine
 10
-0.0698245510458412
 20
-2.871329901864506
 30
0.0
 11
-0.0242427341034583
 21
-2.893134711107343
 31
0.0
  0
LINE
  5
163
330
1F
100
AcDbEntity
  8
CAD
  6
CONTINUOUS
 62
     5
100
AcDbLine
 10
-0.0242427341034583
 20
-2.893134711107343
 30
0.0
 11
0.0213352681417163
 21
-2.91310846569018
 31
0.0
  0
LINE
  5
164
330
1F
100
AcDbEntity
  8
CAD
  6
CONTINUOUS
 62
     5
100
AcDbLine
 10
0.0213352681417163
 20
-2.91310846569018
 30
0.0
 11
0.069736146321058
 21
-2.928241369515641
 31
0.0
  0
LINE
  5
165
330
1F
100
AcDbEntity
  8
CAD
  6
CONTINUOUS
 62
     5
100
AcDbLine
 10
0.069736146321058
 20
-2.928241369515641
 30
0.0
 11
0.1181351171517956
 21
-2.940620061956684
 31
0.0
  0
LINE
  5
166
330
1F
100
AcDbEntity
  8
CAD
  6
CONTINUOUS
 62
     5
100
AcDbLine
 10
0.1181351171517956
 20
-2.940620061956684
 30
0.0
 11
0.167514465165075
 21
-2.949134466125686
 31
0.0
  0
LINE
  5
167
330
1F
100
AcDbEntity
  8
CAD
  6
CONTINUOUS
 62
     5
100
AcDbLine
 10
0.167514465165075
 20
-2.949134466125686
 30
0.0
 11
0.2177483053530212
 21
-2.952930089847978
 31
0.0
  0
LINE
  5
168
330
1F
100
AcDbEntity
  8
CAD
  6
CONTINUOUS
 62
     5
100
AcDbLine
 10
0.2177483053530212
 20
-2.952930089847978
 30
0.0
 11
0.2681061232002383
 21
-2.953914281727728
 31
0.0
  0
LINE
  5
169
330
1F
100
AcDbEntity
  8
CAD
  6
CONTINUOUS
 62
     5
100
AcDbLine
 10
0.2681061232002383
 20
-2.953914281727728
 30
0.0
 11
0.3174874083644438
 21
-2.951034185335436
 31
0.0
  0
LINE
  5
16A
330
1F
100
AcDbEntity
  8
CAD
  6
CONTINUOUS
 62
     5
100
AcDbLine
 10
0.3174874083644438
 20
-2.951034185335436
 30
0.0
 11
0.36772124855239
 21
-2.943435308496435
 31
0.0
  0
LINE
  5
16B
330
1F
100
AcDbEntity
  8
CAD
  6
CONTINUOUS
 62
     5
100
AcDbLine
 10
0.36772124855239
 20
-2.943435308496435
 30
0.0
 11
0.3952900652770198
 21
-2.936816808839975
 31
0.0
  0
LINE
  5
16C
330
1F
100
AcDbEntity
  8
CAD
  6
CONTINUOUS
 62
     5
100
AcDbLine
 10
0.3952900652770198
 20
-2.936816808839975
 30
0.0
 11
0.4227368116909829
 21
-2.927322027488432
 31
0.0
  0
LINE
  5
16D
330
1F
100
AcDbEntity
  8
CAD
  6
CONTINUOUS
 62
     5
100
AcDbLine
 10
0.4227368116909829
 20
-2.927322027488432
 30
0.0
 11
0.4484650370125915
 21
-2.914027807717388
 31
0.0
  0
LINE
  5
16E
330
1F
100
AcDbEntity
  8
CAD
  6
CONTINUOUS
 62
     5
100
AcDbLine
 10
0.4484650370125915
 20
-2.914027807717388
 30
0.0
 11
0.4730946295382
 21
-2.897918341406593
 31
0.0
  0
LINE
  5
16F
330
1F
100
AcDbEntity
  8
CAD
  6
CONTINUOUS
 62
     5
100
AcDbLine
 10
0.4730946295382
 20
-2.897918341406593
 30
0.0
 11
0.4949051608268495
 21
-2.878928778703507
 31
0.0
  0
LINE
  5
170
330
1F
100
AcDbEntity
  8
CAD
  6
CONTINUOUS
 62
     5
100
AcDbLine
 10
0.4949051608268495
 20
-2.878928778703507
 30
0.0
 11
0.5138966308785403
 21
-2.858035682093461
 31
0.0
  0
LINE
  5
171
330
1F
100
AcDbEntity
  8
CAD
  6
CONTINUOUS
 62
     5
100
AcDbLine
 10
0.5138966308785403
 20
-2.858035682093461
 30
0.0
 11
0.5310513242244184
 21
-2.834327338943666
 31
0.0
  0
LINE
  5
172
330
1F
100
AcDbEntity
  8
CAD
  6
CONTINUOUS
 62
     5
100
AcDbLine
 10
0.5310513242244184
 20
-2.834327338943666
 30
0.0
 11
0.5698906638510709
 21
-2.771655678507947
 31
0.0
  0
LINE
  5
173
330
1F
100
AcDbEntity
  8
CAD
  6
CONTINUOUS
 62
     5
100
AcDbLine
 10
0.5698906638510709
 20
-2.771655678507947
 30
0.0
 11
0.6050564500660979
 21
-2.708064676045019
 31
0.0
  0
LINE
  5
174
330
1F
100
AcDbEntity
  8
CAD
  6
CONTINUOUS
 62
     5
100
AcDbLine
 10
0.6050564500660979
 20
-2.708064676045019
 30
0.0
 11
0.6382633892646453
 21
-2.642573954372341
 31
0.0
  0
LINE
  5
175
330
1F
100
AcDbEntity
  8
CAD
  6
CONTINUOUS
 62
     5
100
AcDbLine
 10
0.6382633892646453
 20
-2.642573954372341
 30
0.0
 11
0.6676689826950879
 21
-2.575183513489912
 31
0.0
  0
LINE
  5
176
330
1F
100
AcDbEntity
  8
CAD
  6
CONTINUOUS
 62
     5
100
AcDbLine
 10
0.6676689826950879
 20
-2.575183513489912
 30
0.0
 11
0.6952377994197176
 21
-2.506812695424942
 31
0.0
  0
LINE
  5
177
330
1F
100
AcDbEntity
  8
CAD
  6
CONTINUOUS
 62
     5
100
AcDbLine
 10
0.6952377994197176
 20
-2.506812695424942
 30
0.0
 11
0.7056538301470736
 21
-2.466991071267144
 31
0.0
  0
LINE
  5
178
330
1F
100
AcDbEntity
  8
CAD
  6
CONTINUOUS
 62
     5
100
AcDbLine
 10
0.7056538301470736
 20
-2.466991071267144
 30
0.0
 11
0.7122704224549289
 21
-2.426189069926803
 31
0.0
  0
LINE
  5
179
330
1F
100
AcDbEntity
  8
CAD
  6
CONTINUOUS
 62
     5
100
AcDbLine
 10
0.7122704224549289
 20
-2.426189069926803
 30
0.0
 11
0.7150856689946794
 21
-2.384410506101129
 31
0.0
  0
LINE
  5
17A
330
1F
100
AcDbEntity
  8
CAD
  6
CONTINUOUS
 62
     5
100
AcDbLine
 10
0.7150856689946794
 20
-2.384410506101129
 30
0.0
 11
0.7132488922888666
 21
-2.342624312881039
 31
0.0
  0
LINE
  5
17B
330
1F
100
AcDbEntity
  8
CAD
  6
CONTINUOUS
 62
     5
100
AcDbLine
 10
0.6106945725400155
 20
-1.758906975456187
 30
0.0
 11
0.5917011951397205
 21
-1.772201195227232
 31
0.0
  0
LINE
  5
17C
330
1F
100
AcDbEntity
  8
CAD
  6
CONTINUOUS
 62
     5
100
AcDbLine
 10
0.5917011951397205
 20
-1.772201195227232
 30
0.0
 11
0.5708729483822169
 21
-1.782615318605983
 31
0.0
  0
LINE
  5
17D
330
1F
100
AcDbEntity
  8
CAD
  6
CONTINUOUS
 62
     5
100
AcDbLine
 10
0.5708729483822169
 20
-1.782615318605983
 30
0.0
 11
0.5490643244421715
 21
-1.789287224023359
 31
0.0
  0
LINE
  5
17E
330
1F
100
AcDbEntity
  8
CAD
  6
CONTINUOUS
 62
     5
100
AcDbLine
 10
0.5490643244421715
 20
-1.789287224023359
 30
0.0
 11
0.5262715086223758
 21
-1.792106285260318
 31
0.0
  0
LINE
  5
17F
330
1F
100
AcDbEntity
  8
CAD
  6
CONTINUOUS
 62
     5
100
AcDbLine
 10
0.5262715086223758
 20
-1.792106285260318
 30
0.0
 11
0.5025002229686425
 21
-1.791194572627526
 31
0.0
  0
LINE
  5
180
330
1F
100
AcDbEntity
  8
CAD
  6
CONTINUOUS
 62
     5
100
AcDbLine
 10
0.5025002229686425
 20
-1.791194572627526
 30
0.0
 11
0.4797112218460552
 21
-1.787391319510818
 31
0.0
  0
LINE
  5
181
330
1F
100
AcDbEntity
  8
CAD
  6
CONTINUOUS
 62
     5
100
AcDbLine
 10
0.4797112218460552
 20
-1.787391319510818
 30
0.0
 11
0.4588810677399475
 21
-1.778815880186483
 31
0.0
  0
LINE
  5
182
330
1F
100
AcDbEntity
  8
CAD
  6
CONTINUOUS
 62
     5
100
AcDbLine
 10
0.4588810677399475
 20
-1.778815880186483
 30
0.0
 11
0.4341294049036724
 21
-1.764606133085439
 31
0.0
  0
LINE
  5
183
330
1F
100
AcDbEntity
  8
CAD
  6
CONTINUOUS
 62
     5
100
AcDbLine
 10
0.4341294049036724
 20
-1.764606133085439
 30
0.0
 11
0.4123207809636269
 21
-1.747512474894894
 31
0.0
  0
LINE
  5
184
330
1F
100
AcDbEntity
  8
CAD
  6
CONTINUOUS
 62
     5
100
AcDbLine
 10
0.4123207809636269
 20
-1.747512474894894
 30
0.0
 11
0.392471004040061
 21
-1.726623192982057
 31
0.0
  0
LINE
  5
185
330
1F
100
AcDbEntity
  8
CAD
  6
CONTINUOUS
 62
     5
100
AcDbLine
 10
0.392471004040061
 20
-1.726623192982057
 30
0.0
 11
0.3762966878767248
 21
-1.703830377162261
 31
0.0
  0
LINE
  5
186
330
1F
100
AcDbEntity
  8
CAD
  6
CONTINUOUS
 62
     5
100
AcDbLine
 10
0.3762966878767248
 20
-1.703830377162261
 30
0.0
 11
0.3639199027842852
 21
-1.679137842132715
 31
0.0
  0
LINE
  5
187
330
1F
100
AcDbEntity
  8
CAD
  6
CONTINUOUS
 62
     5
100
AcDbLine
 10
0.3639199027842852
 20
-1.679137842132715
 30
0.0
 11
0.3553425561113462
 21
-1.652610437745961
 31
0.0
  0
LINE
  5
188
330
1F
100
AcDbEntity
  8
CAD
  6
CONTINUOUS
 62
     5
100
AcDbLine
 10
0.3553425561113462
 20
-1.652610437745961
 30
0.0
 11
0.3497044336374285
 21
-1.625041621021331
 31
0.0
  0
LINE
  5
189
330
1F
100
AcDbEntity
  8
CAD
  6
CONTINUOUS
 62
     5
100
AcDbLine
 10
0.3497044336374285
 20
-1.625041621021331
 30
0.0
 11
0.348727871152095
 21
-1.596618312122034
 31
0.0
  0
LINE
  5
18A
330
1F
100
AcDbEntity
  8
CAD
  6
CONTINUOUS
 62
     5
100
AcDbLine
 10
0.348727871152095
 20
-1.596618312122034
 30
0.0
 11
0.3497044336374285
 21
-1.555755275626361
 31
0.0
  0
LINE
  5
18B
330
1F
100
AcDbEntity
  8
CAD
  6
CONTINUOUS
 62
     5
100
AcDbLine
 10
0.3497044336374285
 20
-1.555755275626361
 30
0.0
 11
0.3468891870976781
 21
-1.514949459588812
 31
0.0
  0
LINE
  5
18C
330
1F
100
AcDbEntity
  8
CAD
  6
CONTINUOUS
 62
     5
100
AcDbLine
 10
0.3468891870976781
 20
-1.514949459588812
 30
0.0
 11
0.3392903102586767
 21
-1.474147458248471
 31
0.0
  0
LINE
  5
18D
330
1F
100
AcDbEntity
  8
CAD
  6
CONTINUOUS
 62
     5
100
AcDbLine
 10
0.3392903102586767
 20
-1.474147458248471
 30
0.0
 11
0.3278977170459872
 21
-1.434268613632548
 31
0.0
  0
LINE
  5
18E
330
1F
100
AcDbEntity
  8
CAD
  6
CONTINUOUS
 62
     5
100
AcDbLine
 10
0.3278977170459872
 20
-1.434268613632548
 30
0.0
 11
0.3127037780651929
 21
-1.396281858831958
 31
0.0
  0
LINE
  5
18F
330
1F
100
AcDbEntity
  8
CAD
  6
CONTINUOUS
 62
     5
100
AcDbLine
 10
0.3127037780651929
 20
-1.396281858831958
 30
0.0
 11
0.3069454926292128
 21
-1.388747831845498
 31
0.0
  0
LINE
  5
190
330
1F
100
AcDbEntity
  8
CAD
  6
CONTINUOUS
 62
     5
100
AcDbLine
 10
0.3069454926292128
 20
-1.388747831845498
 30
0.0
 11
0.2993466157902115
 21
-1.383048674216247
 31
0.0
  0
LINE
  5
191
330
1F
100
AcDbEntity
  8
CAD
  6
CONTINUOUS
 62
     5
100
AcDbLine
 10
0.2993466157902115
 20
-1.383048674216247
 30
0.0
 11
0.2899128695940015
 21
-1.380168577823955
 31
0.0
  0
LINE
  5
192
330
1F
100
AcDbEntity
  8
CAD
  6
CONTINUOUS
 62
     5
100
AcDbLine
 10
0.2899128695940015
 20
-1.380168577823955
 30
0.0
 11
0.2804771862468654
 21
-1.380168577823955
 31
0.0
  0
LINE
  5
193
330
1F
100
AcDbEntity
  8
CAD
  6
CONTINUOUS
 62
     5
100
AcDbLine
 10
0.2804771862468654
 20
-1.380168577823955
 30
0.0
 11
0.2719017469225306
 21
-1.383048674216247
 31
0.0
  0
LINE
  5
194
330
1F
100
AcDbEntity
  8
CAD
  6
CONTINUOUS
 62
     5
100
AcDbLine
 10
0.2719017469225306
 20
-1.383048674216247
 30
0.0
 11
0.2643047774321334
 21
-1.388747831845498
 31
0.0
  0
LINE
  5
195
330
1F
100
AcDbEntity
  8
CAD
  6
CONTINUOUS
 62
     5
100
AcDbLine
 10
0.2643047774321334
 20
-1.388747831845498
 30
0.0
 11
0.2585445846475491
 21
-1.396281858831958
 31
0.0
  0
LINE
  5
196
330
1F
100
AcDbEntity
  8
CAD
  6
CONTINUOUS
 62
     5
100
AcDbLine
 10
0.2585445846475491
 20
-1.396281858831958
 30
0.0
 11
0.223502776091793
 21
-1.457053800057927
 31
0.0
  0
LINE
  5
197
330
1F
100
AcDbEntity
  8
CAD
  6
CONTINUOUS
 62
     5
100
AcDbLine
 10
0.223502776091793
 20
-1.457053800057927
 30
0.0
 11
0.1911541437651208
 21
-1.518745083311104
 31
0.0
  0
LINE
  5
198
330
1F
100
AcDbEntity
  8
CAD
  6
CONTINUOUS
 62
     5
100
AcDbLine
 10
0.1911541437651208
 20
-1.518745083311104
 30
0.0
 11
0.1627308348658242
 21
-1.581416743746823
 31
0.0
  0
LINE
  5
199
330
1F
100
AcDbEntity
  8
CAD
  6
CONTINUOUS
 62
     5
100
AcDbLine
 10
0.1627308348658242
 20
-1.581416743746823
 30
0.0
 11
0.1371227725062781
 21
-1.645930902934168
 31
0.0
  0
LINE
  5
19A
330
1F
100
AcDbEntity
  8
CAD
  6
CONTINUOUS
 62
     5
100
AcDbLine
 10
0.1371227725062781
 20
-1.645930902934168
 30
0.0
 11
0.1143318640350866
 21
-1.712405816486596
 31
0.0
  0
LINE
  5
19B
330
1F
100
AcDbEntity
  8
CAD
  6
CONTINUOUS
 62
     5
100
AcDbLine
 10
0.1143318640350866
 20
-1.712405816486596
 30
0.0
 11
0.0943581094522498
 21
-1.778815880186483
 31
0.0
  0
LINE
  5
19C
330
1F
100
AcDbEntity
  8
CAD
  6
CONTINUOUS
 62
     5
100
AcDbLine
 10
0.0943581094522498
 20
-1.778815880186483
 30
0.0
 11
0.075366639400559
 21
-1.862376822535039
 31
0.0
  0
LINE
  5
19D
330
1F
100
AcDbEntity
  8
CAD
  6
CONTINUOUS
 62
     5
100
AcDbLine
 10
0.075366639400559
 20
-1.862376822535039
 30
0.0
 11
0.0593163008964937
 21
-1.94588054442547
 31
0.0
  0
LINE
  5
19E
330
1F
100
AcDbEntity
  8
CAD
  6
CONTINUOUS
 62
     5
100
AcDbLine
 10
0.0593163008964937
 20
-1.94588054442547
 30
0.0
 11
0.0479198929865959
 21
-2.031280170828443
 31
0.0
  0
LINE
  5
19F
330
1F
100
AcDbEntity
  8
CAD
  6
CONTINUOUS
 62
     5
100
AcDbLine
 10
0.0479198929865959
 20
-2.031280170828443
 30
0.0
 11
0.0393444536622611
 21
-2.116744647083958
 31
0.0
  0
LINE
  5
1A0
330
1F
100
AcDbEntity
  8
CAD
  6
CONTINUOUS
 62
     5
100
AcDbLine
 10
-0.2852271435096522
 20
-2.943099615142101
 30
0.0
 11
-0.6852272403202656
 21
-2.943099615142101
 31
0.0
  0
LINE
  5
1A1
330
1F
100
AcDbEntity
  8
CAD
  6
CONTINUOUS
 62
     5
100
AcDbLine
 10
1.136750258265856
 20
-2.846850989878627
 30
0.0
 11
1.144347227756253
 21
-2.858249305137128
 31
0.0
  0
LINE
  5
1A2
330
1F
100
AcDbEntity
  8
CAD
  6
CONTINUOUS
 62
     5
100
AcDbLine
 10
1.144347227756253
 20
-2.858249305137128
 30
0.0
 11
1.154761351135004
 21
-2.865844367278921
 31
0.0
  0
LINE
  5
1A3
330
1F
100
AcDbEntity
  8
CAD
  6
CONTINUOUS
 62
     5
100
AcDbLine
 10
1.154761351135004
 20
-2.865844367278921
 30
0.0
 11
1.1775541669548
 21
-2.885753272009216
 31
0.0
  0
LINE
  5
1A4
330
1F
100
AcDbEntity
  8
CAD
  6
CONTINUOUS
 62
     5
100
AcDbLine
 10
1.1775541669548
 20
-2.885753272009216
 30
0.0
 11
1.201325452608533
 21
-2.904746649409511
 31
0.0
  0
LINE
  5
1A5
330
1F
100
AcDbEntity
  8
CAD
  6
CONTINUOUS
 62
     5
100
AcDbLine
 10
1.201325452608533
 20
-2.904746649409511
 30
0.0
 11
1.227913892150621
 21
-2.919936773693097
 31
0.0
  0
LINE
  5
1A6
330
1F
100
AcDbEntity
  8
CAD
  6
CONTINUOUS
 62
     5
100
AcDbLine
 10
1.227913892150621
 20
-2.919936773693097
 30
0.0
 11
1.262097393834502
 21
-2.9360500547011
 31
0.0
  0
LINE
  5
1A7
330
1F
100
AcDbEntity
  8
CAD
  6
CONTINUOUS
 62
     5
100
AcDbLine
 10
1.262097393834502
 20
-2.9360500547011
 30
0.0
 11
1.298121486921404
 21
-2.947444555262394
 31
0.0
  0
LINE
  5
1A8
330
1F
100
AcDbEntity
  8
CAD
  6
CONTINUOUS
 62
     5
100
AcDbLine
 10
1.298121486921404
 20
-2.947444555262394
 30
0.0
 11
1.335125957190848
 21
-2.954120275376978
 31
0.0
  0
LINE
  5
1A9
330
1F
100
AcDbEntity
  8
CAD
  6
CONTINUOUS
 62
     5
100
AcDbLine
 10
1.335125957190848
 20
-2.954120275376978
 30
0.0
 11
1.37310889729423
 21
-2.956019994586728
 31
0.0
  0
LINE
  5
1AA
330
1F
100
AcDbEntity
  8
CAD
  6
CONTINUOUS
 62
     5
100
AcDbLine
 10
1.37310889729423
 20
-2.956019994586728
 30
0.0
 11
1.381684336618564
 21
-2.953139898194436
 31
0.0
  0
LINE
  5
1AB
330
1F
100
AcDbEntity
  8
CAD
  6
CONTINUOUS
 62
     5
100
AcDbLine
 10
1.381684336618564
 20
-2.953139898194436
 30
0.0
 11
1.388302836275024
 21
-2.946525213235185
 31
0.0
  0
LINE
  5
1AC
330
1F
100
AcDbEntity
  8
CAD
  6
CONTINUOUS
 62
     5
100
AcDbLine
 10
1.388302836275024
 20
-2.946525213235185
 30
0.0
 11
1.391121897511983
 21
-2.937949773910851
 31
0.0
  0
LINE
  5
1AD
330
1F
100
AcDbEntity
  8
CAD
  6
CONTINUOUS
 62
     5
100
AcDbLine
 10
1.391121897511983
 20
-2.937949773910851
 30
0.0
 11
1.40067771401886
 21
-2.901927588172553
 31
0.0
  0
LINE
  5
1AE
330
1F
100
AcDbEntity
  8
CAD
  6
CONTINUOUS
 62
     5
100
AcDbLine
 10
1.40067771401886
 20
-2.901927588172553
 30
0.0
 11
1.406315836492777
 21
-2.865844367278921
 31
0.0
  0
LINE
  5
1AF
330
1F
100
AcDbEntity
  8
CAD
  6
CONTINUOUS
 62
     5
100
AcDbLine
 10
1.406315836492777
 20
-2.865844367278921
 30
0.0
 11
1.410113367563674
 21
-2.828837989660873
 31
0.0
  0
LINE
  5
1B0
330
1F
100
AcDbEntity
  8
CAD
  6
CONTINUOUS
 62
     5
100
AcDbLine
 10
1.410113367563674
 20
-2.828837989660873
 30
0.0
 11
1.410113367563674
 21
-2.155852922863798
 31
0.0
  0
LINE
  5
1B1
330
1F
100
AcDbEntity
  8
CAD
  6
CONTINUOUS
 62
     5
100
AcDbLine
 10
1.410113367563674
 20
-2.155852922863798
 30
0.0
 11
1.755642918648755
 21
-2.646575571743883
 31
0.0
  0
LINE
  5
1B2
330
1F
100
AcDbEntity
  8
CAD
  6
CONTINUOUS
 62
     5
100
AcDbLine
 10
1.755642918648755
 20
-2.646575571743883
 30
0.0
 11
1.787867573316156
 21
-2.687381387781432
 31
0.0
  0
LINE
  5
1B3
330
1F
100
AcDbEntity
  8
CAD
  6
CONTINUOUS
 62
     5
100
AcDbLine
 10
1.787867573316156
 20
-2.687381387781432
 30
0.0
 11
1.823033478740471
 21
-2.725364327884813
 31
0.0
  0
LINE
  5
1B4
330
1F
100
AcDbEntity
  8
CAD
  6
CONTINUOUS
 62
     5
100
AcDbLine
 10
1.823033478740471
 20
-2.725364327884813
 30
0.0
 11
1.861016418843852
 21
-2.760467171595903
 31
0.0
  0
LINE
  5
1B5
330
1F
100
AcDbEntity
  8
CAD
  6
CONTINUOUS
 62
     5
100
AcDbLine
 10
1.861016418843852
 20
-2.760467171595903
 30
0.0
 11
1.900836135653047
 21
-2.792754768767242
 31
0.0
  0
LINE
  5
1B6
330
1F
100
AcDbEntity
  8
CAD
  6
CONTINUOUS
 62
     5
100
AcDbLine
 10
1.900836135653047
 20
-2.792754768767242
 30
0.0
 11
2.029002332458652
 21
-2.883853552799466
 31
0.0
  0
LINE
  5
1B7
330
1F
100
AcDbEntity
  8
CAD
  6
CONTINUOUS
 62
     5
100
AcDbLine
 10
2.029002332458652
 20
-2.883853552799466
 30
0.0
 11
2.03745570147232
 21
-2.888633368401508
 31
0.0
  0
LINE
  5
1B8
330
1F
100
AcDbEntity
  8
CAD
  6
CONTINUOUS
 62
     5
100
AcDbLine
 10
2.03745570147232
 20
-2.888633368401508
 30
0.0
 11
2.047011517979197
 21
-2.890533087611259
 31
0.0
  0
LINE
  5
1B9
330
1F
100
AcDbEntity
  8
CAD
  6
CONTINUOUS
 62
     5
100
AcDbLine
 10
2.047011517979197
 20
-2.890533087611259
 30
0.0
 11
2.056449078872615
 21
-2.888633368401508
 31
0.0
  0
LINE
  5
1BA
330
1F
100
AcDbEntity
  8
CAD
  6
CONTINUOUS
 62
     5
100
AcDbLine
 10
2.056449078872615
 20
-2.888633368401508
 30
0.0
 11
2.06502451819695
 21
-2.883853552799466
 31
0.0
  0
LINE
  5
1BB
330
1F
100
AcDbEntity
  8
CAD
  6
CONTINUOUS
 62
     5
100
AcDbLine
 10
2.06502451819695
 20
-2.883853552799466
 30
0.0
 11
2.138173244515359
 21
-2.792754768767242
 31
0.0
  0
LINE
  5
1BC
330
1F
100
AcDbEntity
  8
CAD
  6
CONTINUOUS
 62
     5
100
AcDbLine
 10
2.138173244515359
 20
-2.792754768767242
 30
0.0
 11
2.149567745076652
 21
-2.780379891023407
 31
0.0
  0
LINE
  5
1BD
330
1F
100
AcDbEntity
  8
CAD
  6
CONTINUOUS
 62
     5
100
AcDbLine
 10
2.149567745076652
 20
-2.780379891023407
 30
0.0
 11
2.15802111409032
 21
-2.766166329225154
 31
0.0
  0
LINE
  5
1BE
330
1F
100
AcDbEntity
  8
CAD
  6
CONTINUOUS
 62
     5
100
AcDbLine
 10
2.15802111409032
 20
-2.766166329225154
 30
0.0
 11
2.162800929692363
 21
-2.750053048217151
 31
0.0
  0
LINE
  5
1BF
330
1F
100
AcDbEntity
  8
CAD
  6
CONTINUOUS
 62
     5
100
AcDbLine
 10
2.162800929692363
 20
-2.750053048217151
 30
0.0
 11
2.16463961374678
 21
-2.733878732053815
 31
0.0
  0
LINE
  5
1C0
330
1F
100
AcDbEntity
  8
CAD
  6
CONTINUOUS
 62
     5
100
AcDbLine
 10
2.16463961374678
 20
-2.733878732053815
 30
0.0
 11
2.161818645161217
 21
-2.71678507386327
 31
0.0
  0
LINE
  5
1C1
330
1F
100
AcDbEntity
  8
CAD
  6
CONTINUOUS
 62
     5
100
AcDbLine
 10
2.161818645161217
 20
-2.71678507386327
 30
0.0
 11
2.156184337384508
 21
-2.701655984735018
 31
0.0
  0
LINE
  5
1C2
330
1F
100
AcDbEntity
  8
CAD
  6
CONTINUOUS
 62
     5
100
AcDbLine
 10
2.156184337384508
 20
-2.701655984735018
 30
0.0
 11
1.682488470284534
 21
-2.027690540755401
 31
0.0
  0
LINE
  5
1C3
330
1F
100
AcDbEntity
  8
CAD
  6
CONTINUOUS
 62
     5
100
AcDbLine
 10
1.682488470284534
 20
-2.027690540755401
 30
0.0
 11
2.138171337166754
 21
-1.245593689708349
 31
0.0
  0
LINE
  5
1C4
330
1F
100
AcDbEntity
  8
CAD
  6
CONTINUOUS
 62
     5
100
AcDbLine
 10
2.138171337166754
 20
-1.245593689708349
 30
0.0
 11
2.156184337384508
 21
-1.190513276717214
 31
0.0
  0
LINE
  5
1C5
330
1F
100
AcDbEntity
  8
CAD
  6
CONTINUOUS
 62
     5
100
AcDbLine
 10
2.156184337384508
 20
-1.190513276717214
 30
0.0
 11
2.159001491272862
 21
-1.17820324882592
 31
0.0
  0
LINE
  5
1C6
330
1F
100
AcDbEntity
  8
CAD
  6
CONTINUOUS
 62
     5
100
AcDbLine
 10
2.159001491272862
 20
-1.17820324882592
 30
0.0
 11
2.159001491272862
 21
-1.165893220934626
 31
0.0
  0
LINE
  5
1C7
330
1F
100
AcDbEntity
  8
CAD
  6
CONTINUOUS
 62
     5
100
AcDbLine
 10
2.159001491272862
 20
-1.165893220934626
 30
0.0
 11
2.154223583019424
 21
-1.154494905676124
 31
0.0
  0
LINE
  5
1C8
330
1F
100
AcDbEntity
  8
CAD
  6
CONTINUOUS
 62
     5
100
AcDbLine
 10
2.154223583019424
 20
-1.154494905676124
 30
0.0
 11
2.147606990711568
 21
-1.144019747142039
 31
0.0
  0
LINE
  5
1C9
330
1F
100
AcDbEntity
  8
CAD
  6
CONTINUOUS
 62
     5
100
AcDbLine
 10
2.147606990711568
 20
-1.144019747142039
 30
0.0
 11
2.138171337166754
 21
-1.136424685000246
 31
0.0
  0
LINE
  5
1CA
330
1F
100
AcDbEntity
  8
CAD
  6
CONTINUOUS
 62
     5
100
AcDbLine
 10
2.138171337166754
 20
-1.136424685000246
 30
0.0
 11
2.010987424892295
 21
-1.045318271573605
 31
0.0
  0
LINE
  5
1CB
330
1F
100
AcDbEntity
  8
CAD
  6
CONTINUOUS
 62
     5
100
AcDbLine
 10
2.010987424892295
 20
-1.045318271573605
 30
0.0
 11
1.994813108728959
 21
-1.038707401311563
 31
0.0
  0
LINE
  5
1CC
330
1F
100
AcDbEntity
  8
CAD
  6
CONTINUOUS
 62
     5
100
AcDbLine
 10
1.994813108728959
 20
-1.038707401311563
 30
0.0
 11
1.978640699914227
 21
-1.036807682101812
 31
0.0
  0
LINE
  5
1CD
330
1F
100
AcDbEntity
  8
CAD
  6
CONTINUOUS
 62
     5
100
AcDbLine
 10
1.978640699914227
 20
-1.036807682101812
 30
0.0
 11
1.961608076879015
 21
-1.037723209431813
 31
0.0
  0
LINE
  5
1CE
330
1F
100
AcDbEntity
  8
CAD
  6
CONTINUOUS
 62
     5
100
AcDbLine
 10
1.961608076879015
 20
-1.037723209431813
 30
0.0
 11
1.945433760715679
 21
-1.043422367061063
 31
0.0
  0
LINE
  5
1CF
330
1F
100
AcDbEntity
  8
CAD
  6
CONTINUOUS
 62
     5
100
AcDbLine
 10
1.945433760715679
 20
-1.043422367061063
 30
0.0
 11
1.931218291568823
 21
-1.051940585927273
 31
0.0
  0
LINE
  5
1D0
330
1F
100
AcDbEntity
  8
CAD
  6
CONTINUOUS
 62
     5
100
AcDbLine
 10
1.931218291568823
 20
-1.051940585927273
 30
0.0
 11
1.919825698356133
 21
-1.06332745709415
 31
0.0
  0
LINE
  5
1D1
330
1F
100
AcDbEntity
  8
CAD
  6
CONTINUOUS
 62
     5
100
AcDbLine
 10
1.919825698356133
 20
-1.06332745709415
 30
0.0
 11
1.898873473939359
 21
-1.086124087611154
 31
0.0
  0
LINE
  5
1D2
330
1F
100
AcDbEntity
  8
CAD
  6
CONTINUOUS
 62
     5
100
AcDbLine
 10
1.898873473939359
 20
-1.086124087611154
 30
0.0
 11
1.880860473721606
 21
-1.110812807943492
 31
0.0
  0
LINE
  5
1D3
330
1F
100
AcDbEntity
  8
CAD
  6
CONTINUOUS
 62
     5
100
AcDbLine
 10
1.880860473721606
 20
-1.110812807943492
 30
0.0
 11
1.86481013521754
 21
-1.136424685000246
 31
0.0
  0
LINE
  5
1D4
330
1F
100
AcDbEntity
  8
CAD
  6
CONTINUOUS
 62
     5
100
AcDbLine
 10
1.86481013521754
 20
-1.136424685000246
 30
0.0
 11
1.42811873838701
 21
-1.900504721132337
 31
0.0
  0
LINE
  5
1D5
330
1F
100
AcDbEntity
  8
CAD
  6
CONTINUOUS
 62
     5
100
AcDbLine
 10
1.42811873838701
 20
-1.900504721132337
 30
0.0
 11
1.42811873838701
 21
-1.172504091196669
 31
0.0
  0
LINE
  5
1D6
330
1F
100
AcDbEntity
  8
CAD
  6
CONTINUOUS
 62
     5
100
AcDbLine
 10
1.42811873838701
 20
-1.172504091196669
 30
0.0
 11
1.4186849921908
 21
-1.171588563866669
 31
0.0
  0
LINE
  5
1D7
330
1F
100
AcDbEntity
  8
CAD
  6
CONTINUOUS
 62
     5
100
AcDbLine
 10
1.4186849921908
 20
-1.171588563866669
 30
0.0
 11
1.410109552866465
 21
-1.172504091196669
 31
0.0
  0
LINE
  5
1D8
330
1F
100
AcDbEntity
  8
CAD
  6
CONTINUOUS
 62
     5
100
AcDbLine
 10
1.410109552866465
 20
-1.172504091196669
 30
0.0
 11
1.392096552648712
 21
-1.15070309665104
 31
0.0
  0
LINE
  5
1D9
330
1F
100
AcDbEntity
  8
CAD
  6
CONTINUOUS
 62
     5
100
AcDbLine
 10
1.392096552648712
 20
-1.15070309665104
 30
0.0
 11
1.372126612763084
 21
-1.130729342068204
 31
0.0
  0
LINE
  5
1DA
330
1F
100
AcDbEntity
  8
CAD
  6
CONTINUOUS
 62
     5
100
AcDbLine
 10
1.372126612763084
 20
-1.130729342068204
 30
0.0
 11
1.35031417412583
 21
-1.113631869180451
 31
0.0
  0
LINE
  5
1DB
330
1F
100
AcDbEntity
  8
CAD
  6
CONTINUOUS
 62
     5
100
AcDbLine
 10
1.35031417412583
 20
-1.113631869180451
 30
0.0
 11
1.325686488948826
 21
-1.10039868456474
 31
0.0
  0
LINE
  5
1DC
330
1F
100
AcDbEntity
  8
CAD
  6
CONTINUOUS
 62
     5
100
AcDbLine
 10
1.325686488948826
 20
-1.10039868456474
 30
0.0
 11
1.299956356278613
 21
-1.089923526030655
 31
0.0
  0
LINE
  5
1DD
330
1F
100
AcDbEntity
  8
CAD
  6
CONTINUOUS
 62
     5
100
AcDbLine
 10
1.299956356278613
 20
-1.089923526030655
 30
0.0
 11
1.273366009387921
 21
-1.082328463888862
 31
0.0
  0
LINE
  5
1DE
330
1F
100
AcDbEntity
  8
CAD
  6
CONTINUOUS
 62
     5
100
AcDbLine
 10
1.273366009387921
 20
-1.082328463888862
 30
0.0
 11
1.24494079314002
 21
-1.078529025469361
 31
0.0
  0
LINE
  5
1DF
330
1F
100
AcDbEntity
  8
CAD
  6
CONTINUOUS
 62
     5
100
AcDbLine
 10
1.24494079314002
 20
-1.078529025469361
 30
0.0
 11
1.21737197641539
 21
-1.078529025469361
 31
0.0
  0
LINE
  5
1E0
330
1F
100
AcDbEntity
  8
CAD
  6
CONTINUOUS
 62
     5
100
AcDbLine
 10
1.21737197641539
 20
-1.078529025469361
 30
0.0
 11
1.189925230001427
 21
-1.082328463888862
 31
0.0
  0
LINE
  5
1E1
330
1F
100
AcDbEntity
  8
CAD
  6
CONTINUOUS
 62
     5
100
AcDbLine
 10
1.189925230001427
 20
-1.082328463888862
 30
0.0
 11
1.162356413276797
 21
-1.089000369306238
 31
0.0
  0
LINE
  5
1E2
330
1F
100
AcDbEntity
  8
CAD
  6
CONTINUOUS
 62
     5
100
AcDbLine
 10
1.162356413276797
 20
-1.089000369306238
 30
0.0
 11
1.136750258265856
 21
-1.09941449268499
 31
0.0
  0
LINE
  5
1E3
330
1F
100
AcDbEntity
  8
CAD
  6
CONTINUOUS
 62
     5
100
AcDbLine
 10
1.136750258265856
 20
-1.09941449268499
 30
0.0
 11
1.118737258048102
 21
-2.610492350850252
 31
0.0
  0
LINE
  5
1E4
330
1F
100
AcDbEntity
  8
CAD
  6
CONTINUOUS
 62
     5
100
AcDbLine
 10
1.118737258048102
 20
-2.610492350850252
 30
0.0
 11
1.136750258265856
 21
-2.846850989878627
 31
0.0
  0
LINE
  5
1E5
330
1F
100
AcDbEntity
  8
CAD
  6
CONTINUOUS
 62
     5
100
AcDbLine
 10
1.114772833974341
 20
-2.943099615142101
 30
0.0
 11
0.7147727446143083
 21
-2.943099615142101
 31
0.0
  0
LINE
  5
1E6
330
1F
100
AcDbEntity
  8
CAD
  6
CONTINUOUS
 62
     5
100
AcDbLine
 10
2.89642680749887
 20
-2.756677269919423
 30
0.0
 11
2.897677074508902
 21
-2.782785057613261
 31
0.0
  0
LINE
  5
1E7
330
1F
100
AcDbEntity
  8
CAD
  6
CONTINUOUS
 62
     5
100
AcDbLine
 10
2.897677074508902
 20
-2.782785057613261
 30
0.0
 11
2.905171047174674
 21
-2.808875679169661
 31
0.0
  0
LINE
  5
1E8
330
1F
100
AcDbEntity
  8
CAD
  6
CONTINUOUS
 62
     5
100
AcDbLine
 10
2.905171047174674
 20
-2.808875679169661
 30
0.0
 11
2.917523036735259
 21
-2.832471488751811
 31
0.0
  0
LINE
  5
1E9
330
1F
100
AcDbEntity
  8
CAD
  6
CONTINUOUS
 62
     5
100
AcDbLine
 10
2.917523036735259
 20
-2.832471488751811
 30
0.0
 11
2.933762202751137
 21
-2.853555320222273
 31
0.0
  0
LINE
  5
1EA
330
1F
100
AcDbEntity
  8
CAD
  6
CONTINUOUS
 62
     5
100
AcDbLine
 10
2.933762202751137
 20
-2.853555320222273
 30
0.0
 11
2.953609118651797
 21
-2.872159598507318
 31
0.0
  0
LINE
  5
1EB
330
1F
100
AcDbEntity
  8
CAD
  6
CONTINUOUS
 62
     5
100
AcDbLine
 10
2.953609118651797
 20
-2.872159598507318
 30
0.0
 11
2.990804323781658
 21
-2.894500372707926
 31
0.0
  0
LINE
  5
1EC
330
1F
100
AcDbEntity
  8
CAD
  6
CONTINUOUS
 62
     5
100
AcDbLine
 10
2.990804323781658
 20
-2.894500372707926
 30
0.0
 11
3.029389032369654
 21
-2.913104650992971
 31
0.0
  0
LINE
  5
1ED
330
1F
100
AcDbEntity
  8
CAD
  6
CONTINUOUS
 62
     5
100
AcDbLine
 10
3.029389032369654
 20
-2.913104650992971
 30
0.0
 11
3.070331223832401
 21
-2.926837560942973
 31
0.0
  0
LINE
  5
1EE
330
1F
100
AcDbEntity
  8
CAD
  6
CONTINUOUS
 62
     5
100
AcDbLine
 10
3.070331223832401
 20
-2.926837560942973
 30
0.0
 11
3.112523682305179
 21
-2.935443517844975
 31
0.0
  0
LINE
  5
1EF
330
1F
100
AcDbEntity
  8
CAD
  6
CONTINUOUS
 62
     5
100
AcDbLine
 10
3.112523682305179
 20
-2.935443517844975
 30
0.0
 11
3.155966407787988
 21
-2.939195272549371
 31
0.0
  0
LINE
  5
1F0
330
1F
100
AcDbEntity
  8
CAD
  6
CONTINUOUS
 62
     5
100
AcDbLine
 10
3.155966407787988
 20
-2.939195272549371
 30
0.0
 11
3.199546462370298
 21
-2.936700460575121
 31
0.0
  0
LINE
  5
1F1
330
1F
100
AcDbEntity
  8
CAD
  6
CONTINUOUS
 62
     5
100
AcDbLine
 10
3.199546462370298
 20
-2.936700460575121
 30
0.0
 11
3.24174082819168
 21
-2.929332372917224
 31
0.0
  0
LINE
  5
1F2
330
1F
100
AcDbEntity
  8
CAD
  6
CONTINUOUS
 62
     5
100
AcDbLine
 10
3.24174082819168
 20
-2.929332372917224
 30
0.0
 11
3.244238501188837
 21
-2.919351217671618
 31
0.0
  0
LINE
  5
1F3
330
1F
100
AcDbEntity
  8
CAD
  6
CONTINUOUS
 62
     5
100
AcDbLine
 10
3.244238501188837
 20
-2.919351217671618
 30
0.0
 11
3.24174082819168
 21
-2.909352896288575
 31
0.0
  0
LINE
  5
1F4
330
1F
100
AcDbEntity
  8
CAD
  6
CONTINUOUS
 62
     5
100
AcDbLine
 10
3.24174082819168
 20
-2.909352896288575
 30
0.0
 11
3.28018534665727
 21
-2.238723405017646
 31
0.0
  0
LINE
  5
1F5
330
1F
100
AcDbEntity
  8
CAD
  6
CONTINUOUS
 62
     5
100
AcDbLine
 10
3.28018534665727
 20
-2.238723405017646
 30
0.0
 11
3.286432867010219
 21
-2.175422319542551
 31
0.0
  0
LINE
  5
1F6
330
1F
100
AcDbEntity
  8
CAD
  6
CONTINUOUS
 62
     5
100
AcDbLine
 10
3.286432867010219
 20
-2.175422319542551
 30
0.0
 11
3.297536496909377
 21
-2.11213649285629
 31
0.0
  0
LINE
  5
1F7
330
1F
100
AcDbEntity
  8
CAD
  6
CONTINUOUS
 62
     5
100
AcDbLine
 10
3.297536496909377
 20
-2.11213649285629
 30
0.0
 11
3.313775662925255
 21
-2.051211963741988
 31
0.0
  0
LINE
  5
1F8
330
1F
100
AcDbEntity
  8
CAD
  6
CONTINUOUS
 62
     5
100
AcDbLine
 10
3.313775662925255
 20
-2.051211963741988
 30
0.0
 11
3.333622578825915
 21
-1.990422856378582
 31
0.0
  0
LINE
  5
1F9
330
1F
100
AcDbEntity
  8
CAD
  6
CONTINUOUS
 62
     5
100
AcDbLine
 10
3.333622578825915
 20
-1.990422856378582
 30
0.0
 11
3.357215527385159
 21
-1.931995046587134
 31
0.0
  0
LINE
  5
1FA
330
1F
100
AcDbEntity
  8
CAD
  6
CONTINUOUS
 62
     5
100
AcDbLine
 10
3.357215527385159
 20
-1.931995046587134
 30
0.0
 11
3.702527640729365
 21
-1.126035357153349
 31
0.0
  0
LINE
  5
1FB
330
1F
100
AcDbEntity
  8
CAD
  6
CONTINUOUS
 62
     5
100
AcDbLine
 10
3.702527640729365
 20
-1.126035357153349
 30
0.0
 11
3.708634017285605
 21
-1.098689700215406
 31
0.0
  0
LINE
  5
1FC
330
1F
100
AcDbEntity
  8
CAD
  6
CONTINUOUS
 62
     5
100
AcDbLine
 10
3.708634017285605
 20
-1.098689700215406
 30
0.0
 11
3.709882376947032
 21
-1.070102359336151
 31
0.0
  0
LINE
  5
1FD
330
1F
100
AcDbEntity
  8
CAD
  6
CONTINUOUS
 62
     5
100
AcDbLine
 10
3.709882376947032
 20
-1.070102359336151
 30
0.0
 11
3.706136344288448
 21
-1.042754795049605
 31
0.0
  0
LINE
  5
1FE
330
1F
100
AcDbEntity
  8
CAD
  6
CONTINUOUS
 62
     5
100
AcDbLine
 10
3.706136344288448
 20
-1.042754795049605
 30
0.0
 11
3.696282981399321
 21
-1.015542652513954
 31
0.0
  0
LINE
  5
1FF
330
1F
100
AcDbEntity
  8
CAD
  6
CONTINUOUS
 62
     5
100
AcDbLine
 10
3.696282981399321
 20
-1.015542652513954
 30
0.0
 11
3.682543395729205
 21
-0.991964009069242
 31
0.0
  0
LINE
  5
200
330
1F
100
AcDbEntity
  8
CAD
  6
CONTINUOUS
 62
     5
100
AcDbLine
 10
3.682543395729205
 20
-0.991964009069242
 30
0.0
 11
3.665194152825701
 21
-0.9646164447826956
 31
0.0
  0
LINE
  5
201
330
1F
100
AcDbEntity
  8
CAD
  6
CONTINUOUS
 62
     5
100
AcDbLine
 10
3.665194152825701
 20
-0.9646164447826956
 30
0.0
 11
3.642848610253583
 21
-0.9397655998190038
 31
0.0
  0
LINE
  5
202
330
1F
100
AcDbEntity
  8
CAD
  6
CONTINUOUS
 62
     5
100
AcDbLine
 10
3.642848610253583
 20
-0.9397655998190038
 30
0.0
 11
3.61800634835861
 21
-0.9186817683485418
 31
0.0
  0
LINE
  5
203
330
1F
100
AcDbEntity
  8
CAD
  6
CONTINUOUS
 62
     5
100
AcDbLine
 10
3.61800634835861
 20
-0.9186817683485418
 30
0.0
 11
3.590663552443574
 21
-0.8999401609639969
 31
0.0
  0
LINE
  5
204
330
1F
100
AcDbEntity
  8
CAD
  6
CONTINUOUS
 62
     5
100
AcDbLine
 10
3.590663552443574
 20
-0.8999401609639969
 30
0.0
 11
3.560823083531381
 21
-0.8863426727648903
 31
0.0
  0
LINE
  5
205
330
1F
100
AcDbEntity
  8
CAD
  6
CONTINUOUS
 62
     5
100
AcDbLine
 10
3.560823083531381
 20
-0.8863426727648903
 30
0.0
 11
3.529872537731563
 21
-0.876344351381847
 31
0.0
  0
LINE
  5
206
330
1F
100
AcDbEntity
  8
CAD
  6
CONTINUOUS
 62
     5
100
AcDbLine
 10
3.529872537731563
 20
-0.876344351381847
 30
0.0
 11
3.517383219071478
 21
-0.871490149184242
 31
0.0
  0
LINE
  5
207
330
1F
100
AcDbEntity
  8
CAD
  6
CONTINUOUS
 62
     5
100
AcDbLine
 10
3.517383219071478
 20
-0.871490149184242
 30
0.0
 11
3.503781916175163
 21
-0.871490149184242
 31
0.0
  0
LINE
  5
208
330
1F
100
AcDbEntity
  8
CAD
  6
CONTINUOUS
 62
     5
100
AcDbLine
 10
3.503781916175163
 20
-0.871490149184242
 30
0.0
 11
3.491291643840776
 21
-0.876344351381847
 31
0.0
  0
LINE
  5
209
330
1F
100
AcDbEntity
  8
CAD
  6
CONTINUOUS
 62
     5
100
AcDbLine
 10
3.491291643840776
 20
-0.876344351381847
 30
0.0
 11
3.480188013941617
 21
-0.8950859587663919
 31
0.0
  0
LINE
  5
20A
330
1F
100
AcDbEntity
  8
CAD
  6
CONTINUOUS
 62
     5
100
AcDbLine
 10
3.480188013941617
 20
-0.8950859587663919
 30
0.0
 11
3.471443774265814
 21
-0.9149300136441453
 31
0.0
  0
LINE
  5
20B
330
1F
100
AcDbEntity
  8
CAD
  6
CONTINUOUS
 62
     5
100
AcDbLine
 10
3.471443774265814
 20
-0.9149300136441453
 30
0.0
 11
3.087689049804622
 21
-1.77807773627667
 31
0.0
  0
LINE
  5
20C
330
1F
100
AcDbEntity
  8
CAD
  6
CONTINUOUS
 62
     5
100
AcDbLine
 10
3.087689049804622
 20
-1.77807773627667
 30
0.0
 11
2.876586567318325
 21
-1.317281386995965
 31
0.0
  0
LINE
  5
20D
330
1F
100
AcDbEntity
  8
CAD
  6
CONTINUOUS
 62
     5
100
AcDbLine
 10
2.876586567318325
 20
-1.317281386995965
 30
0.0
 11
2.849245678751894
 21
-1.257611893263205
 31
0.0
  0
LINE
  5
20E
330
1F
100
AcDbEntity
  8
CAD
  6
CONTINUOUS
 62
     5
100
AcDbLine
 10
2.849245678751894
 20
-1.257611893263205
 30
0.0
 11
2.816907536842544
 21
-1.200557374466757
 31
0.0
  0
LINE
  5
20F
330
1F
100
AcDbEntity
  8
CAD
  6
CONTINUOUS
 62
     5
100
AcDbLine
 10
2.816907536842544
 20
-1.200557374466757
 30
0.0
 11
2.780962598722715
 21
-1.14462437664956
 31
0.0
  0
LINE
  5
210
330
1F
100
AcDbEntity
  8
CAD
  6
CONTINUOUS
 62
     5
100
AcDbLine
 10
2.780962598722715
 20
-1.14462437664956
 30
0.0
 11
2.759866369486326
 21
-1.123540545179098
 31
0.0
  0
LINE
  5
211
330
1F
100
AcDbEntity
  8
CAD
  6
CONTINUOUS
 62
     5
100
AcDbLine
 10
2.759866369486326
 20
-1.123540545179098
 30
0.0
 11
2.735023153917051
 21
-1.106191302275595
 31
0.0
  0
LINE
  5
212
330
1F
100
AcDbEntity
  8
CAD
  6
CONTINUOUS
 62
     5
100
AcDbLine
 10
2.735023153917051
 20
-1.106191302275595
 30
0.0
 11
2.707681311676317
 21
-1.092441226188155
 31
0.0
  0
LINE
  5
213
330
1F
100
AcDbEntity
  8
CAD
  6
CONTINUOUS
 62
     5
100
AcDbLine
 10
2.707681311676317
 20
-1.092441226188155
 30
0.0
 11
2.679091109774156
 21
-1.083835269286154
 31
0.0
  0
LINE
  5
214
330
1F
100
AcDbEntity
  8
CAD
  6
CONTINUOUS
 62
     5
100
AcDbLine
 10
2.679091109774156
 20
-1.083835269286154
 30
0.0
 11
2.649250640861963
 21
-1.080100680719195
 31
0.0
  0
LINE
  5
215
330
1F
100
AcDbEntity
  8
CAD
  6
CONTINUOUS
 62
     5
100
AcDbLine
 10
2.649250640861963
 20
-1.080100680719195
 30
0.0
 11
2.61954750104927
 21
-1.081340457311903
 31
0.0
  0
LINE
  5
216
330
1F
100
AcDbEntity
  8
CAD
  6
CONTINUOUS
 62
     5
100
AcDbLine
 10
2.61954750104927
 20
-1.081340457311903
 30
0.0
 11
2.589707032137078
 21
-1.08758702399055
 31
0.0
  0
LINE
  5
217
330
1F
100
AcDbEntity
  8
CAD
  6
CONTINUOUS
 62
     5
100
AcDbLine
 10
2.589707032137078
 20
-1.08758702399055
 30
0.0
 11
2.578465119464117
 21
-1.092441226188155
 31
0.0
  0
LINE
  5
218
330
1F
100
AcDbEntity
  8
CAD
  6
CONTINUOUS
 62
     5
100
AcDbLine
 10
2.578465119464117
 20
-1.092441226188155
 30
0.0
 11
2.571108475897845
 21
-1.102439547571199
 31
0.0
  0
LINE
  5
219
330
1F
100
AcDbEntity
  8
CAD
  6
CONTINUOUS
 62
     5
100
AcDbLine
 10
2.571108475897845
 20
-1.102439547571199
 30
0.0
 11
2.568608895552084
 21
-1.113542223796055
 31
0.0
  0
LINE
  5
21A
330
1F
100
AcDbEntity
  8
CAD
  6
CONTINUOUS
 62
     5
100
AcDbLine
 10
2.568608895552084
 20
-1.113542223796055
 30
0.0
 11
2.569858208887814
 21
-1.126035357153349
 31
0.0
  0
LINE
  5
21B
330
1F
100
AcDbEntity
  8
CAD
  6
CONTINUOUS
 62
     5
100
AcDbLine
 10
2.569858208887814
 20
-1.126035357153349
 30
0.0
 11
2.857988011079093
 21
-2.027616154159838
 31
0.0
  0
LINE
  5
21C
330
1F
100
AcDbEntity
  8
CAD
  6
CONTINUOUS
 62
     5
100
AcDbLine
 10
2.857988011079093
 20
-2.027616154159838
 30
0.0
 11
2.875335346633991
 21
-2.076064716054284
 31
0.0
  0
LINE
  5
21D
330
1F
100
AcDbEntity
  8
CAD
  6
CONTINUOUS
 62
     5
100
AcDbLine
 10
2.875335346633991
 20
-2.076064716054284
 30
0.0
 11
2.896431575870381
 21
-2.123256335218584
 31
0.0
  0
LINE
  5
21E
330
1F
100
AcDbEntity
  8
CAD
  6
CONTINUOUS
 62
     5
100
AcDbLine
 10
2.896431575870381
 20
-2.123256335218584
 30
0.0
 11
2.915030132109613
 21
-2.372930174852648
 31
0.0
  0
LINE
  5
21F
330
1F
100
AcDbEntity
  8
CAD
  6
CONTINUOUS
 62
     5
100
AcDbLine
 10
2.915030132109613
 20
-2.372930174852648
 30
0.0
 11
2.896431575870381
 21
-2.756692528708256
 31
0.0
  0
LINE
  5
220
330
1F
100
AcDbEntity
  8
CAD
  6
CONTINUOUS
 62
     5
100
AcDbLine
 10
-3.581475385530727
 20
-2.905548275925043
 30
0.0
 11
-3.562699565737266
 21
-2.905548275925043
 31
0.0
  0
LINE
  5
221
330
1F
100
AcDbEntity
  8
CAD
  6
CONTINUOUS
 62
     5
100
AcDbLine
 10
-3.562699565737266
 20
-2.905548275925043
 30
0.0
 11
-3.581475385530727
 21
-2.905548275925043
 31
0.0
  0
LINE
  5
222
330
1F
100
AcDbEntity
  8
CAD
  6
CONTINUOUS
 62
     5
100
AcDbLine
 10
-3.234152572017198
 20
-2.939162847623101
 30
0.0
 11
-4.069644897941529
 21
-2.939162847623101
 31
0.0
  0
LINE
  5
223
330
1F
100
AcDbEntity
  8
CAD
  6
CONTINUOUS
 62
     5
100
AcDbLine
 10
-4.069644897941529
 20
-2.939162847623101
 30
0.0
 11
3.900663120540108
 21
-2.939162847623101
 31
0.0
  0
VIEWPORT
  5
5D
330
1B
100
AcDbEntity
 67
     1
  8
0
100
AcDbViewport
 10
5.375
 20
4.125
 30
0.0
 40
14.63
 41
9.0
 68
     1
 69
     1
1001
ACAD
1000
MVIEW
1002
{
1070
    16
1010
0.0
1020
0.0
1030
0.0
1010
0.0
1020
0.0
1030
1.0
1040
0.0
1040
9.0
1040
5.375
1040
4.125
1040
50.0
1040
0.0
1040
0.0
1070
     0
1070
   100
1070
     0
1070
     3
1070
     0
1070
     0
1070
     0
1070
     0
1040
0.0
1040
0.0
1040
0.0
1040
0.5
1040
0.5
1040
0.0
1040
0.5
1070
     0
1002
{
1002
}
1002
}
  0
ENDSEC
  0
SECTION
  2
OBJECTS
  0
DICTIONARY
  5
C
330
0
100
AcDbDictionary
  3
ACAD_GROUP
350
D
  3
ACAD_LAYOUT
350
1A
  3
ACAD_MLEADERSTYLE
350
247
  3
ACAD_MLINESTYLE
350
17
  3
ACAD_PLOTSETTINGS
350
19
  3
ACAD_SCALELIST
350
3B
  3
ACAD_TABLESTYLE
350
246
  3
ACAD_VISUALSTYLE
350
2A
  3
ACDBHEADERROUNDTRIPXREC
350
224
  3
ACDBVARIABLEDICTIONARY
350
244
  0
DICTIONARY
  5
D
102
{ACAD_REACTORS
330
C
102
}
330
C
100
AcDbDictionary
  0
DICTIONARY
  5
1A
102
{ACAD_REACTORS
330
C
102
}
330
C
100
AcDbDictionary
  0
DICTIONARY
  5
247
102
{ACAD_REACTORS
330
C
102
}
330
C
100
AcDbDictionary
  0
DICTIONARY
  5
17
102
{ACAD_REACTORS
330
C
102
}
330
C
100
AcDbDictionary
  3
STANDARD
350
18
  0
DICTIONARY
  5
19
102
{ACAD_REACTORS
330
C
102
}
330
C
100
AcDbDictionary
  0
DICTIONARY
  5
3B
102
{ACAD_REACTORS
330
C
102
}
330
C
100
AcDbDictionary
  3
A0
350
3C
  3
A1
350
3D
  3
A2
350
3E
  3
A3
350
3F
  3
A4
350
40
  3
A5
350
41
  3
A6
350
42
  3
A7
350
43
  3
A8
350
44
  3
A9
350
45
  3
B0
350
46
  3
B1
350
47
  3
B2
350
48
  3
B3
350
49
  3
B4
350
4A
  3
B5
350
4B
  3
B6
350
4C
  3
B7
350
4D
  3
B8
350
4E
  3
B9
350
4F
  3
C0
350
50
  3
C1
350
51
  3
C2
350
52
  3
C3
350
53
  3
C4
350
54
  3
C5
350
55
  3
C6
350
56
  3
C7
350
57
  3
C8
350
58
  3
C9
350
59
  3
D0
350
5A
  3
D1
350
5B
  3
D2
350
5C
  0
DICTIONARY
  5
246
102
{ACAD_REACTORS
330
C
102
}
330
C
100
AcDbDictionary
  0
DICTIONARY
  5
2A
102
{ACAD_REACTORS
330
C
102
}
330
C
100
AcDbDictionary
  3
2DWIREFRAME
350
2F
  3
3D_HIDDEN
350
31
  3
3DWIREFRAME
350
30
  3
BASIC
350
32
  3
BRIGHTEN
350
36
  3
COLORCHANGE
350
3A
  3
CONCEPTUAL
350
34
  3
DIM
350
35
  3
FACEPATTERN
350
39
  3
FLAT
350
2B
  3
FLATWITHEDGES
350
2C
  3
GOURAUD
350
2D
  3
GOURAUDWITHEDGES
350
2E
  3
LINEPATTERN
350
38
  3
REALISTIC
350
33
  3
THICKEN
350
37
  0
DICTIONARY
  5
224
102
{ACAD_REACTORS
330
C
102
}
330
C
100
AcDbDictionary
  3
CEPSNTYPE
350
22D
  3
DIMSTYLEDATA
350
243
  3
FINGERPRINTGUID
350
22E
  3
HYPERLINKBASE
350
227
  3
INSUNITS
350
22C
  3
LAYOUTDICT
350
229
  3
LWETCUNION
350
22B
  3
PLOTSETDICT
350
22A
  3
PSVPSCALE
350
230
  3
PUCSBASE
350
233
  3
PUCSORGBACK
350
239
  3
PUCSORGBOTTOM
350
235
  3
PUCSORGFRONT
350
238
  3
PUCSORGLEFT
350
236
  3
PUCSORGRIGHT
350
237
  3
PUCSORGTOP
350
234
  3
PUCSORTHOREF
350
231
  3
PUCSORTHOVIEW
350
232
  3
STYLESHEET
350
228
  3
TSTACKALIGN
350
225
  3
TSTACKSIZE
350
226
  3
UCSBASE
350
23C
  3
UCSORGBACK
350
242
  3
UCSORGBOTTOM
350
23E
  3
UCSORGFRONT
350
241
  3
UCSORGLEFT
350
23F
  3
UCSORGRIGHT
350
240
  3
UCSORGTOP
350
23D
  3
UCSORTHOREF
350
23A
  3
UCSORTHOVIEW
350
23B
  3
VERSIONGUID
350
22F
  0
DICTIONARY
  5
244
102
{ACAD_REACTORS
330
C
102
}
330
C
100
AcDbDictionary
  3
CANNOSCALE
350
245
  0
MLINESTYLE
  5
18
102
{ACAD_REACTORS
330
17
102
}
330
17
100
AcDbMlineStyle
  2
Standard
 70
     0
  3

 62
   256
 51
90.0
 52
90.0
 71
     2
 49
0.5
 62
   256
  6
BYLAYER
 49
-0.5
 62
   256
  6
BYLAYER
  0
SCALE
  5
3C
102
{ACAD_REACTORS
330
3B
102
}
330
3B
100
AcDbScale
 70
     0
300
1:1
140
1.0
141
1.0
290
     1
  0
SCALE
  5
3D
102
{ACAD_REACTORS
330
3B
102
}
330
3B
100
AcDbScale
 70
     0
300
1:2
140
1.0
141
2.0
290
     0
  0
SCALE
  5
3E
102
{ACAD_REACTORS
330
3B
102
}
330
3B
100
AcDbScale
 70
     0
300
1:4
140
1.0
141
4.0
290
     0
  0
SCALE
  5
3F
102
{ACAD_REACTORS
330
3B
102
}
330
3B
100
AcDbScale
 70
     0
300
1:5
140
1.0
141
5.0
290
     0
  0
SCALE
  5
40
102
{ACAD_REACTORS
330
3B
102
}
330
3B
100
AcDbScale
 70
     0
300
1:8
140
1.0
141
8.0
290
     0
  0
SCALE
  5
41
102
{ACAD_REACTORS
330
3B
102
}
330
3B
100
AcDbScale
 70
     0
300
1:10
140
1.0
141
10.0
290
     0
  0
SCALE
  5
42
102
{ACAD_REACTORS
330
3B
102
}
330
3B
100
AcDbScale
 70
     0
300
1:16
140
1.0
141
16.0
290
     0
  0
SCALE
  5
43
102
{ACAD_REACTORS
330
3B
102
}
330
3B
100
AcDbScale
 70
     0
300
1:20
140
1.0
141
20.0
290
     0
  0
SCALE
  5
44
102
{ACAD_REACTORS
330
3B
102
}
330
3B
100
AcDbScale
 70
     0
300
1:30
140
1.0
141
30.0
290
     0
  0
SCALE
  5
45
102
{ACAD_REACTORS
330
3B
102
}
330
3B
100
AcDbScale
 70
     0
300
1:40
140
1.0
141
40.0
290
     0
  0
SCALE
  5
46
102
{ACAD_REACTORS
330
3B
102
}
330
3B
100
AcDbScale
 70
     0
300
1:50
140
1.0
141
50.0
290
     0
  0
SCALE
  5
47
102
{ACAD_REACTORS
330
3B
102
}
330
3B
100
AcDbScale
 70
     0
300
1:100
140
1.0
141
100.0
290
     0
  0
SCALE
  5
48
102
{ACAD_REACTORS
330
3B
102
}
330
3B
100
AcDbScale
 70
     0
300
2:1
140
2.0
141
1.0
290
     0
  0
SCALE
  5
49
102
{ACAD_REACTORS
330
3B
102
}
330
3B
100
AcDbScale
 70
     0
300
4:1
140
4.0
141
1.0
290
     0
  0
SCALE
  5
4A
102
{ACAD_REACTORS
330
3B
102
}
330
3B
100
AcDbScale
 70
     0
300
8:1
140
8.0
141
1.0
290
     0
  0
SCALE
  5
4B
102
{ACAD_REACTORS
330
3B
102
}
330
3B
100
AcDbScale
 70
     0
300
10:1
140
10.0
141
1.0
290
     0
  0
SCALE
  5
4C
102
{ACAD_REACTORS
330
3B
102
}
330
3B
100
AcDbScale
 70
     0
300
100:1
140
100.0
141
1.0
290
     0
  0
SCALE
  5
4D
102
{ACAD_REACTORS
330
3B
102
}
330
3B
100
AcDbScale
 70
     0
300
1/128" = 1'-0"
140
0.0078125
141
12.0
290
     0
  0
SCALE
  5
4E
102
{ACAD_REACTORS
330
3B
102
}
330
3B
100
AcDbScale
 70
     0
300
1/64" = 1'-0"
140
0.015625
141
12.0
290
     0
  0
SCALE
  5
4F
102
{ACAD_REACTORS
330
3B
102
}
330
3B
100
AcDbScale
 70
     0
300
1/32" = 1'-0"
140
0.03125
141
12.0
290
     0
  0
SCALE
  5
50
102
{ACAD_REACTORS
330
3B
102
}
330
3B
100
AcDbScale
 70
     0
300
1/16" = 1'-0"
140
0.0625
141
12.0
290
     0
  0
SCALE
  5
51
102
{ACAD_REACTORS
330
3B
102
}
330
3B
100
AcDbScale
 70
     0
300
3/32" = 1'-0"
140
0.09375
141
12.0
290
     0
  0
SCALE
  5
52
102
{ACAD_REACTORS
330
3B
102
}
330
3B
100
AcDbScale
 70
     0
300
1/8" = 1'-0"
140
0.125
141
12.0
290
     0
  0
SCALE
  5
53
102
{ACAD_REACTORS
330
3B
102
}
330
3B
100
AcDbScale
 70
     0
300
3/16" = 1'-0"
140
0.1875
141
12.0
290
     0
  0
SCALE
  5
54
102
{ACAD_REACTORS
330
3B
102
}
330
3B
100
AcDbScale
 70
     0
300
1/4" = 1'-0"
140
0.25
141
12.0
290
     0
  0
SCALE
  5
55
102
{ACAD_REACTORS
330
3B
102
}
330
3B
100
AcDbScale
 70
     0
300
3/8" = 1'-0"
140
0.375
141
12.0
290
     0
  0
SCALE
  5
56
102
{ACAD_REACTORS
330
3B
102
}
330
3B
100
AcDbScale
 70
     0
300
1/2" = 1'-0"
140
0.5
141
12.0
290
     0
  0
SCALE
  5
57
102
{ACAD_REACTORS
330
3B
102
}
330
3B
100
AcDbScale
 70
     0
300
3/4" = 1'-0"
140
0.75
141
12.0
290
     0
  0
SCALE
  5
58
102
{ACAD_REACTORS
330
3B
102
}
330
3B
100
AcDbScale
 70
     0
300
1" = 1'-0"
140
1.0
141
12.0
290
     0
  0
SCALE
  5
59
102
{ACAD_REACTORS
330
3B
102
}
330
3B
100
AcDbScale
 70
     0
300
1-1/2" = 1'-0"
140
1.5
141
12.0
290
     0
  0
SCALE
  5
5A
102
{ACAD_REACTORS
330
3B
102
}
330
3B
100
AcDbScale
 70
     0
300
3" = 1'-0"
140
3.0
141
12.0
290
     0
  0
SCALE
  5
5B
102
{ACAD_REACTORS
330
3B
102
}
330
3B
100
AcDbScale
 70
     0
300
6" = 1'-0"
140
6.0
141
12.0
290
     0
  0
SCALE
  5
5C
102
{ACAD_REACTORS
330
3B
102
}
330
3B
100
AcDbScale
 70
     0
300
1'-0" = 1'-0"
140
12.0
141
12.0
290
     0
  0
VISUALSTYLE
  5
2F
102
{ACAD_REACTORS
330
2A
102
}
330
2A
100
AcDbVisualStyle
  2
2dWireframe
 70
     4
 71
     0
 72
     2
 73
     0
 90
        0
 40
-0.6
 41
-30.0
 62
     5
 63
     7
 74
     1
 91
        4
 64
     7
 65
   257
 75
     1
175
     1
 42
1.0
 92
        0
 66
   257
 43
1.0
 76
     1
 77
     6
 78
     2
 67
     7
 79
     5
170
     0
171
     0
290
     0
174
     0
 93
        1
 44
0.0
173
     0
291
     0
 45
0.0
1001
ACAD
1000
AcDbSavedByObjectVersion
1070
     0
  0
VISUALSTYLE
  5
31
102
{ACAD_REACTORS
330
2A
102
}
330
2A
100
AcDbVisualStyle
  2
3D Hidden
 70
     6
 71
     1
 72
     2
 73
     2
 90
        0
 40
-0.6
 41
-30.0
 62
     5
 63
     7
 74
     2
 91
        2
 64
     7
 65
   257
 75
     2
175
     1
 42
40.0
 92
        0
 66
   257
 43
1.0
 76
     1
 77
     6
 78
     2
 67
     7
 79
     3
170
     0
171
     0
290
     0
174
     0
 93
        1
 44
0.0
173
     0
291
     0
 45
0.0
1001
ACAD
1000
AcDbSavedByObjectVersion
1070
     0
  0
VISUALSTYLE
  5
30
102
{ACAD_REACTORS
330
2A
102
}
330
2A
100
AcDbVisualStyle
  2
3dWireframe
 70
     5
 71
     0
 72
     2
 73
     0
 90
        0
 40
-0.6
 41
-30.0
 62
     5
 63
     7
 74
     1
 91
        4
 64
     7
 65
   257
 75
     1
175
     1
 42
1.0
 92
        0
 66
   257
 43
1.0
 76
     1
 77
     6
 78
     2
 67
     7
 79
     5
170
     0
171
     0
290
     0
174
     0
 93
        1
 44
0.0
173
     0
291
     0
 45
0.0
1001
ACAD
1000
AcDbSavedByObjectVersion
1070
     0
  0
VISUALSTYLE
  5
32
102
{ACAD_REACTORS
330
2A
102
}
330
2A
100
AcDbVisualStyle
  2
Basic
 70
     7
 71
     1
 72
     0
 73
     1
 90
        0
 40
-0.6
 41
-30.0
 62
     5
 63
     7
 74
     0
 91
        4
 64
     7
 65
   257
 75
     1
175
     1
 42
1.0
 92
        8
 66
     7
 43
1.0
 76
     1
 77
     6
 78
     2
 67
     7
 79
     5
170
     0
171
     0
290
     0
174
     0
 93
        1
 44
0.0
173
     0
291
     1
 45
0.0
1001
ACAD
1000
AcDbSavedByObjectVersion
1070
     0
  0
VISUALSTYLE
  5
36
102
{ACAD_REACTORS
330
2A
102
}
330
2A
100
AcDbVisualStyle
  2
Brighten
 70
    12
 71
     2
 72
     2
 73
     0
 90
        0
 40
-0.6
 41
-30.0
 62
     5
 63
     7
 74
     1
 91
        4
 64
     7
 65
   257
 75
     1
175
     1
 42
1.0
 92
        8
 66
     7
 43
1.0
 76
     1
 77
     6
 78
     2
 67
     7
 79
     5
170
     0
171
     0
290
     0
174
     0
 93
        1
 44
50.0
173
     0
291
     1
 45
0.0
1001
ACAD
1000
AcDbSavedByObjectVersion
1070
     0
  0
VISUALSTYLE
  5
3A
102
{ACAD_REACTORS
330
2A
102
}
330
2A
100
AcDbVisualStyle
  2
ColorChange
 70
    16
 71
     2
 72
     2
 73
     3
 90
        0
 40
-0.6
 41
-30.0
 62
     5
 63
     8
 74
     1
 91
        4
 64
     7
 65
   257
 75
     1
175
     1
 42
1.0
 92
        8
 66
     8
 43
1.0
 76
     1
 77
     6
 78
     2
 67
     7
 79
     5
170
     0
171
     0
290
     0
174
     0
 93
        1
 44
0.0
173
     0
291
     1
 45
0.0
1001
ACAD
1000
AcDbSavedByObjectVersion
1070
     0
  0
VISUALSTYLE
  5
34
102
{ACAD_REACTORS
330
2A
102
}
330
2A
100
AcDbVisualStyle
  2
Conceptual
 70
     9
 71
     3
 72
     2
 73
     0
 90
        0
 40
-0.6
 41
-30.0
 62
     5
 63
     7
 74
     2
 91
        2
 64
     7
 65
   257
 75
     1
175
     1
 42
40.0
 92
        8
 66
     7
 43
1.0
 76
     1
 77
     6
 78
     2
 67
     7
 79
     3
170
     0
171
     0
290
     0
174
     0
 93
        1
 44
0.0
173
     0
291
     0
 45
0.0
1001
ACAD
1000
AcDbSavedByObjectVersion
1070
     0
  0
VISUALSTYLE
  5
35
102
{ACAD_REACTORS
330
2A
102
}
330
2A
100
AcDbVisualStyle
  2
Dim
 70
    11
 71
     2
 72
     2
 73
     0
 90
        0
 40
-0.6
 41
-30.0
 62
     5
 63
     7
 74
     1
 91
        4
 64
     7
 65
   257
 75
     1
175
     1
 42
1.0
 92
        8
 66
     7
 43
1.0
 76
     1
 77
     6
 78
     2
 67
     7
 79
     5
170
     0
171
     0
290
     0
174
     0
 93
        1
 44
-50.0
173
     0
291
     1
 45
0.0
1001
ACAD
1000
AcDbSavedByObjectVersion
1070
     0
  0
VISUALSTYLE
  5
39
102
{ACAD_REACTORS
330
2A
102
}
330
2A
100
AcDbVisualStyle
  2
Facepattern
 70
    15
 71
     2
 72
     2
 73
     0
 90
        0
 40
-0.6
 41
-30.0
 62
     5
 63
     7
 74
     1
 91
        4
 64
     7
 65
   257
 75
     1
175
     1
 42
1.0
 92
        8
 66
     7
 43
1.0
 76
     1
 77
     6
 78
     2
 67
     7
 79
     5
170
     0
171
     0
290
     0
174
     0
 93
        1
 44
0.0
173
     0
291
     1
 45
0.0
1001
ACAD
1000
AcDbSavedByObjectVersion
1070
     0
  0
VISUALSTYLE
  5
2B
102
{ACAD_REACTORS
330
2A
102
}
330
2A
100
AcDbVisualStyle
  2
Flat
 70
     0
 71
     2
 72
     1
 73
     1
 90
        2
 40
-0.6
 41
30.0
 62
     5
 63
     7
 74
     0
 91
        4
 64
     7
 65
   257
 75
     1
175
     1
 42
1.0
 92
        8
 66
     7
 43
1.0
 76
     1
 77
     6
 78
     2
 67
     7
 79
     5
170
     0
171
     0
290
     0
174
     0
 93
       13
 44
0.0
173
     0
291
     1
 45
0.0
1001
ACAD
1000
AcDbSavedByObjectVersion
1070
     0
  0
VISUALSTYLE
  5
2C
102
{ACAD_REACTORS
330
2A
102
}
330
2A
100
AcDbVisualStyle
  2
FlatWithEdges
 70
     1
 71
     2
 72
     1
 73
     1
 90
        2
 40
-0.6
 41
30.0
 62
     5
 63
     7
 74
     1
 91
        4
 64
     7
 65
   257
 75
     1
175
     1
 42
1.0
 92
        0
 66
   257
 43
1.0
 76
     1
 77
     6
 78
     2
 67
     7
 79
     5
170
     0
171
     0
290
     0
174
     0
 93
       13
 44
0.0
173
     0
291
     1
 45
0.0
1001
ACAD
1000
AcDbSavedByObjectVersion
1070
     0
  0
VISUALSTYLE
  5
2D
102
{ACAD_REACTORS
330
2A
102
}
330
2A
100
AcDbVisualStyle
  2
Gouraud
 70
     2
 71
     2
 72
     2
 73
     1
 90
        2
 40
-0.6
 41
30.0
 62
     5
 63
     7
 74
     0
 91
        4
 64
     7
 65
   257
 75
     1
175
     1
 42
1.0
 92
        0
 66
     7
 43
1.0
 76
     1
 77
     6
 78
     2
 67
     7
 79
     5
170
     0
171
     0
290
     0
174
     0
 93
       13
 44
0.0
173
     0
291
     1
 45
0.0
1001
ACAD
1000
AcDbSavedByObjectVersion
1070
     0
  0
VISUALSTYLE
  5
2E
102
{ACAD_REACTORS
330
2A
102
}
330
2A
100
AcDbVisualStyle
  2
GouraudWithEdges
 70
     3
 71
     2
 72
     2
 73
     1
 90
        2
 40
-0.6
 41
30.0
 62
     5
 63
     7
 74
     1
 91
        4
 64
     7
 65
   257
 75
     1
175
     1
 42
1.0
 92
        0
 66
   257
 43
1.0
 76
     1
 77
     6
 78
     2
 67
     7
 79
     5
170
     0
171
     0
290
     0
174
     0
 93
       13
 44
0.0
173
     0
291
     1
 45
0.0
1001
ACAD
1000
AcDbSavedByObjectVersion
1070
     0
  0
VISUALSTYLE
  5
38
102
{ACAD_REACTORS
330
2A
102
}
330
2A
100
AcDbVisualStyle
  2
Linepattern
 70
    14
 71
     2
 72
     2
 73
     0
 90
        0
 40
-0.6
 41
-30.0
 62
     5
 63
     7
 74
     1
 91
        4
 64
     7
 65
   257
 75
     7
175
     7
 42
1.0
 92
        8
 66
     7
 43
1.0
 76
     1
 77
     6
 78
     2
 67
     7
 79
     5
170
     0
171
     0
290
     0
174
     0
 93
        1
 44
0.0
173
     0
291
     1
 45
0.0
1001
ACAD
1000
AcDbSavedByObjectVersion
1070
     0
  0
VISUALSTYLE
  5
33
102
{ACAD_REACTORS
330
2A
102
}
330
2A
100
AcDbVisualStyle
  2
Realistic
 70
     8
 71
     2
 72
     2
 73
     0
 90
        0
 40
-0.6
 41
-30.0
 62
     5
 63
     7
 74
     1
 91
        0
 64
     7
 65
   257
 75
     1
175
     1
 42
1.0
 92
        8
 66
     8
 43
1.0
 76
     1
 77
     6
 78
     2
 67
     7
 79
     5
170
     0
171
     0
290
     0
174
     0
 93
       13
 44
0.0
173
     0
291
     0
 45
0.0
1001
ACAD
1000
AcDbSavedByObjectVersion
1070
     0
  0
VISUALSTYLE
  5
37
102
{ACAD_REACTORS
330
2A
102
}
330
2A
100
AcDbVisualStyle
  2
Thicken
 70
    13
 71
     2
 72
     2
 73
     0
 90
        0
 40
-0.6
 41
-30.0
 62
     5
 63
     7
 74
     1
 91
        4
 64
     7
 65
   257
 75
     1
175
     1
 42
1.0
 92
       12
 66
     7
 43
1.0
 76
     1
 77
     6
 78
     2
 67
     7
 79
     5
170
     0
171
     0
290
     0
174
     0
 93
        1
 44
0.0
173
     0
291
     1
 45
0.0
1001
ACAD
1000
AcDbSavedByObjectVersion
1070
     0
  0
XRECORD
  5
22D
102
{ACAD_REACTORS
330
224
102
}
330
224
100
AcDbXrecord
 90
        0
  0
XRECORD
  5
243
102
{ACAD_REACTORS
330
224
102
}
330
224
100
AcDbXrecord
1000
DSTYLE
1002
{
1070
   340
340
11
1002
}
  0
XRECORD
  5
22E
102
{ACAD_REACTORS
330
224
102
}
330
224
100
AcDbXrecord
  1
{9750AB17-34A7-424D-84EA-D1DDBBD623F4}
  0
XRECORD
  5
227
102
{ACAD_REACTORS
330
224
102
}
330
224
100
AcDbXrecord
  1

  0
XRECORD
  5
22C
102
{ACAD_REACTORS
330
224
102
}
330
224
100
AcDbXrecord
 90
        1
  0
XRECORD
  5
229
102
{ACAD_REACTORS
330
224
102
}
330
224
100
AcDbXrecord
340
1A
  0
XRECORD
  5
22B
102
{ACAD_REACTORS
330
224
102
}
330
224
100
AcDbXrecord
 90
    10781
  0
XRECORD
  5
22A
102
{ACAD_REACTORS
330
224
102
}
330
224
100
AcDbXrecord
340
19
  0
XRECORD
  5
230
102
{ACAD_REACTORS
330
224
102
}
330
224
100
AcDbXrecord
 40
0.0
  0
XRECORD
  5
233
102
{ACAD_REACTORS
330
224
102
}
330
224
100
AcDbXrecord
340
0
  0
XRECORD
  5
239
102
{ACAD_REACTORS
330
224
102
}
330
224
100
AcDbXrecord
 10
0.0
 20
0.0
 30
0.0
  0
XRECORD
  5
235
102
{ACAD_REACTORS
330
224
102
}
330
224
100
AcDbXrecord
 10
0.0
 20
0.0
 30
0.0
  0
XRECORD
  5
238
102
{ACAD_REACTORS
330
224
102
}
330
224
100
AcDbXrecord
 10
0.0
 20
0.0
 30
0.0
  0
XRECORD
  5
236
102
{ACAD_REACTORS
330
224
102
}
330
224
100
AcDbXrecord
 10
0.0
 20
0.0
 30
0.0
  0
XRECORD
  5
237
102
{ACAD_REACTORS
330
224
102
}
330
224
100
AcDbXrecord
 10
0.0
 20
0.0
 30
0.0
  0
XRECORD
  5
234
102
{ACAD_REACTORS
330
224
102
}
330
224
100
AcDbXrecord
 10
0.0
 20
0.0
 30
0.0
  0
XRECORD
  5
231
102
{ACAD_REACTORS
330
224
102
}
330
224
100
AcDbXrecord
340
0
  0
XRECORD
  5
232
102
{ACAD_REACTORS
330
224
102
}
330
224
100
AcDbXrecord
 70
     0
  0
XRECORD
  5
228
102
{ACAD_REACTORS
330
224
102
}
330
224
100
AcDbXrecord
  1

  0
XRECORD
  5
225
102
{ACAD_REACTORS
330
224
102
}
330
224
100
AcDbXrecord
 90
        1
  0
XRECORD
  5
226
102
{ACAD_REACTORS
330
224
102
}
330
224
100
AcDbXrecord
 90
       70
  0
XRECORD
  5
23C
102
{ACAD_REACTORS
330
224
102
}
330
224
100
AcDbXrecord
340
0
  0
XRECORD
  5
242
102
{ACAD_REACTORS
330
224
102
}
330
224
100
AcDbXrecord
 10
0.0
 20
0.0
 30
0.0
  0
XRECORD
  5
23E
102
{ACAD_REACTORS
330
224
102
}
330
224
100
AcDbXrecord
 10
0.0
 20
0.0
 30
0.0
  0
XRECORD
  5
241
102
{ACAD_REACTORS
330
224
102
}
330
224
100
AcDbXrecord
 10
0.0
 20
0.0
 30
0.0
  0
XRECORD
  5
23F
102
{ACAD_REACTORS
330
224
102
}
330
224
100
AcDbXrecord
 10
0.0
 20
0.0
 30
0.0
  0
XRECORD
  5
240
102
{ACAD_REACTORS
330
224
102
}
330
224
100
AcDbXrecord
 10
0.0
 20
0.0
 30
0.0
  0
XRECORD
  5
23D
102
{ACAD_REACTORS
330
224
102
}
330
224
100
AcDbXrecord
 10
0.0
 20
0.0
 30
0.0
  0
XRECORD
  5
23A
102
{ACAD_REACTORS
330
224
102
}
330
224
100
AcDbXrecord
340
0
  0
XRECORD
  5
23B
102
{ACAD_REACTORS
330
224
102
}
330
224
100
AcDbXrecord
 70
     0
  0
XRECORD
  5
22F
102
{ACAD_REACTORS
330
224
102
}
330
224
100
AcDbXrecord
  1
{FAEB1C32-E019-11D5-929B-00C0DF256EC4}
  0
DICTIONARYVAR
  5
245
102
{ACAD_REACTORS
330
244
102
}
330
244
100
DictionaryVariables
280
     0
  1
1:1
  0
ENDSEC
  0
EOF
