  0
SECTION
  2
ENTITIES
  0
ARC
  8
0
 10
20.72500
 20
48.66800
 30
0.0
 40
48.13209
 50
262.60021
 51
263.46131
  0
ARC
  8
0
 10
15.57300
 20
-2.05400
 30
0.0
 40
3.16895
 50
101.76386
 51
109.29261
  0
ARC
  8
0
 10
1.23400
 20
-45.96500
 30
0.0
 40
48.96670
 50
73.76128
 51
74.57986
  0
ARC
  8
0
 10
14.60400
 20
0.43300
 30
0.0
 40
0.87871
 50
58.11905
 51
113.47257
  0
ARC
  8
0
 10
9.78600
 20
-6.89500
 30
0.0
 40
9.64826
 50
48.88726
 51
56.80734
  0
ARC
  8
0
 10
15.76800
 20
0.87800
 30
0.0
 40
0.62105
 50
253.34494
 51
305.68795
  0
ARC
  8
0
 10
15.51400
 20
0.41100
 30
0.0
 40
0.14964
 50
300.69972
 51
374.31483
  0
ARC
  8
0
 10
15.25000
 20
2.65900
 30
0.0
 40
2.24851
 50
266.53177
 51
280.48034
  0
ARC
  8
0
 10
16.68100
 20
-1.77900
 30
0.0
 40
2.69613
 50
117.03086
 51
125.53521
  0
ARC
  8
0
 10
15.55800
 20
5.12100
 30
0.0
 40
4.50019
 50
260.16092
 51
268.70123
  0
ARC
  8
0
 10
14.10100
 20
3.34400
 30
0.0
 40
2.74462
 50
284.51724
 51
294.61328
  0
ARC
  8
0
 10
22.87600
 20
-6.52600
 30
0.0
 40
9.64731
 50
84.89160
 51
92.81643
  0
ARC
  8
0
 10
23.14600
 20
3.27700
 30
0.0
 40
0.62021
 50
289.39904
 51
341.76957
  0
ARC
  8
0
 10
23.21500
 20
2.75100
 30
0.0
 40
0.14916
 50
336.70054
 51
409.89909
  0
ARC
  8
0
 10
21.68000
 20
4.41500
 30
0.0
 40
2.25003
 50
302.51026
 51
316.45865
  0
ARC
  8
0
 10
25.44600
 20
1.66400
 30
0.0
 40
2.69584
 50
153.01667
 51
161.53145
  0
ARC
  8
0
 10
20.48200
 20
6.58700
 30
0.0
 40
4.50042
 50
296.16076
 51
304.69998
  0
ARC
  8
0
 10
20.34700
 20
4.29300
 30
0.0
 40
2.74519
 50
320.52849
 51
330.61496
  0
ARC
  8
0
 10
-0.93300
 20
44.85400
 30
0.0
 40
48.13152
 50
298.59858
 51
299.46021
  0
ARC
  8
0
 10
24.71200
 20
0.79000
 30
0.0
 40
3.17005
 50
137.74942
 51
145.29227
  0
ARC
  8
0
 10
38.92200
 20
-43.16200
 30
0.0
 40
48.96709
 50
109.76158
 51
110.58042
  0
ARC
  8
0
 10
22.46600
 20
2.23300
 30
0.0
 40
0.87912
 50
94.17857
 51
149.43863
  0
ARC
  8
0
 10
24.27500
 20
10.71400
 30
0.0
 40
4.50066
 50
328.14980
 51
336.68773
  0
ARC
  8
0
 10
25.37600
 20
8.69600
 30
0.0
 40
2.74589
 50
352.52810
 51
362.63004
  0
ARC
  8
0
 10
-14.16400
 20
31.81700
 30
0.0
 40
48.13130
 50
330.59945
 51
331.46108
  0
ARC
  8
0
 10
30.93400
 20
8.03900
 30
0.0
 40
3.16958
 50
169.75013
 51
177.28745
  0
ARC
  8
0
 10
66.27700
 20
-21.70400
 30
0.0
 40
48.96774
 50
141.76286
 51
142.58179
  0
ARC
  8
0
 10
28.26500
 20
8.07200
 30
0.0
 40
0.87946
 50
126.16628
 51
181.43372
  0
ARC
  8
0
 10
33.25500
 20
0.86000
 30
0.0
 40
9.64923
 50
116.88902
 51
124.81495
  0
ARC
  8
0
 10
28.28800
 20
9.31800
 30
0.0
 40
0.62089
 50
321.41230
 51
373.79005
  0
ARC
  8
0
 10
28.62600
 20
8.90900
 30
0.0
 40
0.14863
 50
8.51171
 51
82.25223
  0
ARC
  8
0
 10
26.44200
 20
9.50600
 30
0.0
 40
2.24947
 50
334.53994
 51
348.46029
  0
ARC
  8
0
 10
31.09400
 20
9.16900
 30
0.0
 40
2.69634
 50
185.02128
 51
193.51557
  0
ARC
  8
0
 10
25.22100
 20
16.63800
 30
0.0
 40
4.50036
 50
354.15892
 51
362.70027
  0
ARC
  8
0
 10
27.09500
 20
15.30800
 30
0.0
 40
2.74541
 50
18.52075
 51
28.61879
  0
ARC
  8
0
 10
-18.57900
 20
18.75500
 30
0.0
 40
48.13124
 50
356.59936
 51
357.46122
  0
ARC
  8
0
 10
32.37900
 20
17.15400
 30
0.0
 40
3.17052
 50
195.75920
 51
203.29825
  0
ARC
  8
0
 10
77.18300
 20
5.91300
 30
0.0
 40
48.96779
 50
167.76182
 51
168.58061
  0
ARC
  8
0
 10
29.96500
 20
16.01300
 30
0.0
 40
0.87900
 50
152.12306
 51
207.43973
  0
ARC
  8
0
 10
37.61100
 20
11.71900
 30
0.0
 40
9.64800
 50
142.89018
 51
150.81273
  0
ARC
  8
0
 10
29.44000
 20
17.14400
 30
0.0
 40
0.62107
 50
347.35112
 51
399.69907
  0
ARC
  8
0
 10
29.92300
 20
16.92300
 30
0.0
 40
0.14957
 50
34.64668
 51
108.31382
  0
ARC
  8
0
 10
27.69800
 20
16.50300
 30
0.0
 40
2.24933
 50
0.50951
 51
14.46870
  0
ARC
  8
0
 10
32.02700
 20
18.23900
 30
0.0
 40
2.69648
 50
211.00749
 51
219.52263
  0
ARC
  8
0
 10
36.11800
 20
24.33800
 30
0.0
 40
9.64823
 50
176.88671
 51
184.81000
  0
ARC
  8
0
 10
26.31000
 20
24.26600
 30
0.0
 40
0.62154
 50
21.32210
 51
73.72503
  0
ARC
  8
0
 10
26.83400
 20
24.35400
 30
0.0
 40
0.14901
 50
68.27021
 51
142.36108
  0
ARC
  8
0
 10
25.22500
 20
22.76100
 30
0.0
 40
2.24927
 50
34.53083
 51
48.47858
  0
ARC
  8
0
 10
27.84300
 20
26.62100
 30
0.0
 40
2.69582
 50
245.00365
 51
253.51451
  0
ARC
  8
0
 10
23.09500
 20
21.48900
 30
0.0
 40
4.50062
 50
28.14813
 51
36.68912
  0
ARC
  8
0
 10
25.39300
 20
21.43300
 30
0.0
 40
2.74572
 50
52.53321
 51
62.61369
  0
ARC
  8
0
 10
-14.40000
 20
-1.24900
 30
0.0
 40
48.13119
 50
30.59893
 51
31.46026
  0
ARC
  8
0
 10
28.74100
 20
25.91800
 30
0.0
 40
3.16920
 50
229.76152
 51
237.30279
  0
ARC
  8
0
 10
72.17200
 20
41.65300
 30
0.0
 40
48.96755
 50
201.76100
 51
202.57972
  0
ARC
  8
0
 10
27.37800
 20
23.62300
 30
0.0
 40
0.87904
 50
186.13865
 51
241.45198
  0
ARC
  8
0
 10
0.29400
 20
-15.12000
 30
0.0
 40
48.13147
 50
64.59879
 51
65.46048
  0
ARC
  8
0
 10
20.86900
 20
31.52700
 30
0.0
 40
3.16983
 50
263.75163
 51
271.28347
  0
ARC
  8
0
 10
48.07500
 20
68.85800
 30
0.0
 40
48.96784
 50
235.76181
 51
236.57993
  0
ARC
  8
0
 10
21.02200
 20
28.86200
 30
0.0
 40
0.87924
 50
220.15600
 51
275.41870
  0
ARC
  8
0
 10
27.86800
 20
34.34300
 30
0.0
 40
9.64886
 50
210.89247
 51
218.81561
  0
ARC
  8
0
 10
19.77700
 20
28.79800
 30
0.0
 40
0.62107
 50
55.36319
 51
107.73412
  0
ARC
  8
0
 10
20.16200
 20
29.16400
 30
0.0
 40
0.14848
 50
102.44510
 51
176.13454
  0
ARC
  8
0
 10
19.71900
 20
26.94400
 30
0.0
 40
2.24942
 50
68.53448
 51
82.46427
  0
ARC
  8
0
 10
19.73000
 20
31.60800
 30
0.0
 40
2.69638
 50
279.02565
 51
287.52770
  0
ARC
  8
0
 10
18.66500
 20
24.69800
 30
0.0
 40
4.50051
 50
62.17090
 51
70.69133
  0
ARC
  8
0
 10
20.60100
 20
25.93700
 30
0.0
 40
2.74596
 50
86.55512
 51
96.63059
  0
ARC
  8
0
 10
13.01400
 20
25.10400
 30
0.0
 40
4.50066
 50
90.15279
 51
98.69003
  0
ARC
  8
0
 10
14.14200
 20
27.10700
 30
0.0
 40
2.74530
 50
114.53897
 51
124.62784
  0
ARC
  8
0
 10
15.48800
 20
-18.67800
 30
0.0
 40
48.13180
 50
92.59954
 51
93.46139
  0
ARC
  8
0
 10
11.75400
 20
32.16900
 30
0.0
 40
3.17030
 50
291.75777
 51
299.28982
  0
ARC
  8
0
 10
18.25000
 20
77.90300
 30
0.0
 40
48.96795
 50
263.76176
 51
264.58036
  0
ARC
  8
0
 10
13.14000
 20
29.88700
 30
0.0
 40
0.87908
 50
248.16228
 51
303.49119
  0
ARC
  8
0
 10
16.61200
 20
37.94000
 30
0.0
 40
9.64839
 50
238.88856
 51
246.81233
  0
ARC
  8
0
 10
12.07100
 20
29.24600
 30
0.0
 40
0.62118
 50
83.34405
 51
135.65254
  0
ARC
  8
0
 10
12.23900
 20
29.75000
 30
0.0
 40
0.14827
 50
130.34982
 51
204.31592
  0
ARC
  8
0
 10
12.89000
 20
27.58100
 30
0.0
 40
2.24976
 50
96.50896
 51
110.44874
  0
ARC
  8
0
 10
10.71100
 20
31.70500
 30
0.0
 40
2.69631
 50
307.02295
 51
315.52591
  0
ARC
  8
0
 10
8.26700
 20
22.50600
 30
0.0
 40
4.50016
 50
124.14916
 51
132.68564
  0
ARC
  8
0
 10
8.08200
 20
24.79700
 30
0.0
 40
2.74502
 50
148.52788
 51
158.61332
  0
ARC
  8
0
 10
34.80000
 20
-12.40700
 30
0.0
 40
48.13153
 50
126.59968
 51
127.46059
  0
ARC
  8
0
 10
3.27200
 20
27.65800
 30
0.0
 40
3.16914
 50
325.76337
 51
333.29749
  0
ARC
  8
0
 10
-16.91600
 20
69.20600
 30
0.0
 40
48.96750
 50
297.76083
 51
298.57955
  0
ARC
  8
0
 10
5.69700
 20
26.54200
 30
0.0
 40
0.87915
 50
282.15396
 51
337.46035
  0
ARC
  8
0
 10
4.07200
 20
35.16000
 30
0.0
 40
9.64829
 50
272.88732
 51
280.81263
  0
ARC
  8
0
 10
5.16900
 20
25.41300
 30
0.0
 40
0.62169
 50
117.38939
 51
169.70341
  0
ARC
  8
0
 10
5.02700
 20
25.92500
 30
0.0
 40
0.14945
 50
164.47589
 51
238.24052
  0
ARC
  8
0
 10
6.77900
 20
24.49100
 30
0.0
 40
2.24978
 50
130.52947
 51
144.44456
  0
ARC
  8
0
 10
2.66600
 20
26.69100
 30
0.0
 40
2.69659
 50
341.02080
 51
349.52787
  0
ARC
  8
0
 10
5.42700
 20
17.66400
 30
0.0
 40
4.50002
 50
156.15774
 51
164.69128
  0
ARC
  8
0
 10
4.05600
 20
19.50800
 30
0.0
 40
2.74511
 50
180.52181
 51
190.60170
  0
ARC
  8
0
 10
46.43000
 20
2.11600
 30
0.0
 40
48.13165
 50
158.60003
 51
159.46067
  0
ARC
  8
0
 10
-1.53800
 20
19.38600
 30
0.0
 40
3.16848
 50
357.75709
 51
365.28775
  0
ARC
  8
0
 10
-40.67600
 20
43.92200
 30
0.0
 40
48.96676
 50
329.76108
 51
330.57978
  0
ARC
  8
0
 10
1.10900
 20
19.72400
 30
0.0
 40
0.87904
 50
314.16968
 51
369.49447
  0
ARC
  8
0
 10
-4.83500
 20
26.17200
 30
0.0
 40
9.64860
 50
304.88256
 51
312.80741
  0
ARC
  8
0
 10
1.25900
 20
18.48700
 30
0.0
 40
0.62100
 50
149.30524
 51
201.76710
  0
ARC
  8
0
 10
0.86800
 20
18.84600
 30
0.0
 40
0.14904
 50
196.36785
 51
270.00000
  0
ARC
  8
0
 10
3.11300
 20
18.55800
 30
0.0
 40
2.24929
 50
162.50768
 51
176.45703
  0
ARC
  8
0
 10
-1.53900
 20
18.24400
 30
0.0
 40
2.69546
 50
13.03604
 51
21.54878
  0
ARC
  8
0
 10
5.48100
 20
12.25400
 30
0.0
 40
4.50045
 50
188.14991
 51
196.68339
  0
ARC
  8
0
 10
3.34100
 20
13.09200
 30
0.0
 40
2.74596
 50
212.52081
 51
222.60914
  0
ARC
  8
0
 10
48.49300
 20
20.79700
 30
0.0
 40
48.13275
 50
190.59998
 51
191.46098
  0
ARC
  8
0
 10
-1.33900
 20
10.02300
 30
0.0
 40
3.16896
 50
29.76058
 51
37.29299
  0
ARC
  8
0
 10
-47.53200
 20
10.09100
 30
0.0
 40
48.96713
 50
1.76126
 51
2.57977
  0
ARC
  8
0
 10
0.72700
 20
11.71400
 30
0.0
 40
0.87870
 50
346.10609
 51
401.44382
  0
ARC
  8
0
 10
-7.73100
 20
14.03100
 30
0.0
 40
9.64866
 50
336.88406
 51
344.80999
  0
ARC
  8
0
 10
1.51000
 20
10.74400
 30
0.0
 40
0.62118
 50
181.38369
 51
233.77592
  0
ARC
  8
0
 10
0.98700
 20
10.84100
 30
0.0
 40
0.14925
 50
228.81407
 51
302.41231
  0
ARC
  8
0
 10
3.04500
 20
11.78700
 30
0.0
 40
2.24983
 50
194.51802
 51
208.45599
  0
ARC
  8
0
 10
-0.73500
 20
9.05500
 30
0.0
 40
2.69566
 50
45.03006
 51
53.53820
  0
ARC
  8
0
 10
-3.62200
 20
2.10200
 30
0.0
 40
9.64753
 50
8.89111
 51
16.81586
  0
ARC
  8
0
 10
5.95500
 20
4.21200
 30
0.0
 40
0.62070
 50
213.35696
 51
265.74997
  0
ARC
  8
0
 10
5.46100
 20
4.01700
 30
0.0
 40
0.14849
 50
260.66500
 51
334.47030
  0
ARC
  8
0
 10
6.70400
 20
5.91000
 30
0.0
 40
2.24938
 50
226.53161
 51
240.46048
  0
ARC
  8
0
 10
4.94600
 20
1.59000
 30
0.0
 40
2.69626
 50
77.01016
 51
85.51166
  0
ARC
  8
0
 10
8.52300
 20
7.59800
 30
0.0
 40
4.50122
 50
220.16086
 51
228.69312
  0
ARC
  8
0
 10
6.26400
 20
7.17400
 30
0.0
 40
2.74594
 50
244.52679
 51
254.62224
  0
ARC
  8
0
 10
40.47200
 20
37.63500
 30
0.0
 40
48.13186
 50
222.59951
 51
223.46112
  0
ARC
  8
0
 10
3.92100
 20
2.09100
 30
0.0
 40
3.16983
 50
61.75312
 51
69.28952
  0
ARC
  8
0
 10
-35.28800
 20
-22.32900
 30
0.0
 40
48.96651
 50
33.76081
 51
34.57963
  0
ARC
  8
0
 10
4.77800
 20
4.62000
 30
0.0
 40
0.87849
 50
18.10496
 51
73.46321
  0
ARC
  8
0
 10
6.01300
 20
-5.65600
 30
0.0
 40
9.64817
 50
38.88703
 51
46.81024
  0
ARC
  8
0
 10
13.25300
 20
0.96000
 30
0.0
 40
0.62079
 50
243.39367
 51
295.78079
  0
ARC
  8
0
 10
12.92300
 20
0.54400
 30
0.0
 40
0.14840
 50
290.51086
 51
364.25065
  0
ARC
  8
0
 10
13.05300
 20
2.80400
 30
0.0
 40
2.24907
 50
256.52607
 51
270.45856
  0
ARC
  8
0
 10
13.69100
 20
-1.81500
 30
0.0
 40
2.69534
 50
107.02301
 51
115.53829
  0
ARC
  8
0
 10
13.78400
 20
5.17500
 30
0.0
 40
4.50034
 50
250.15177
 51
258.69756
  0
ARC
  8
0
 10
12.04000
 20
3.67800
 30
0.0
 40
2.74491
 50
274.51399
 51
284.62351
  0
ARC
  8
0
 10
26.43400
 20
47.16300
 30
0.0
 40
48.13235
 50
252.60067
 51
253.46186
  0
ARC
  8
0
 10
12.55200
 20
-1.89400
 30
0.0
 40
3.16848
 50
91.75433
 51
99.28098
  0
ARC
  8
0
 10
-9.19300
 20
-42.64800
 30
0.0
 40
48.96626
 50
63.76201
 51
64.58103
  0
ARC
  8
0
 10
12.03000
 20
0.72300
 30
0.0
 40
0.87923
 50
48.18239
 51
103.48306
  0
ARC
  8
0
 10
18.95400
 20
5.77100
 30
0.0
 40
4.50049
 50
284.14740
 51
292.69038
  0
ARC
  8
0
 10
18.34400
 20
3.55500
 30
0.0
 40
2.74554
 50
308.52292
 51
318.61776
  0
ARC
  8
0
 10
5.96200
 20
47.65400
 30
0.0
 40
48.13180
 50
286.59914
 51
287.46069
  0
ARC
  8
0
 10
21.88600
 20
-0.77800
 30
0.0
 40
3.16921
 50
125.76680
 51
133.31231
  0
ARC
  8
0
 10
26.64700
 20
-46.72500
 30
0.0
 40
48.96710
 50
97.76158
 51
98.58070
  0
ARC
  8
0
 10
19.98900
 20
1.09900
 30
0.0
 40
0.87973
 50
82.15559
 51
137.44154
  0
ARC
  8
0
 10
18.56800
 20
-7.55400
 30
0.0
 40
9.64786
 50
72.88548
 51
80.80909
  0
ARC
  8
0
 10
20.87100
 20
1.97900
 30
0.0
 40
0.62117
 50
277.39959
 51
329.71698
  0
ARC
  8
0
 10
20.83000
 20
1.45000
 30
0.0
 40
0.14903
 50
324.28355
 51
398.41806
  0
ARC
  8
0
 10
19.67400
 20
3.39700
 30
0.0
 40
2.24953
 50
290.50537
 51
304.43899
  0
ARC
  8
0
 10
22.78600
 20
-0.07600
 30
0.0
 40
2.69572
 50
141.03811
 51
149.55385
  0
ARC
  8
0
 10
30.37700
 20
-2.13200
 30
0.0
 40
9.64718
 50
106.89095
 51
114.81704
  0
ARC
  8
0
 10
26.95400
 20
7.05800
 30
0.0
 40
0.62135
 50
311.41146
 51
363.78341
  0
ARC
  8
0
 10
27.21600
 20
6.59600
 30
0.0
 40
0.14905
 50
358.46223
 51
432.41652
  0
ARC
  8
0
 10
25.16900
 20
7.56400
 30
0.0
 40
2.24985
 50
324.51561
 51
338.45404
  0
ARC
  8
0
 10
29.69200
 20
6.42400
 30
0.0
 40
2.69617
 50
175.02105
 51
183.52994
  0
ARC
  8
0
 10
23.24500
 20
9.12900
 30
0.0
 40
4.50010
 50
318.15286
 51
326.69484
  0
ARC
  8
0
 10
23.97900
 20
6.95200
 30
0.0
 40
2.74491
 50
342.50900
 51
352.61089
  0
ARC
  8
0
 10
-10.94600
 20
36.58700
 30
0.0
 40
48.13115
 50
320.59895
 51
321.46066
  0
ARC
  8
0
 10
29.33800
 20
5.33900
 30
0.0
 40
3.16987
 50
159.75282
 51
167.29669
  0
ARC
  8
0
 10
58.97900
 20
-30.08900
 30
0.0
 40
48.96747
 50
131.76326
 51
132.58168
  0
ARC
  8
0
 10
26.71500
 20
5.83500
 30
0.0
 40
0.87881
 50
116.12769
 51
171.42733
  0
ARC
  8
0
 10
25.20300
 20
14.58500
 30
0.0
 40
4.50036
 50
346.15214
 51
354.68339
  0
ARC
  8
0
 10
26.87300
 20
13.00600
 30
0.0
 40
2.74590
 50
10.53632
 51
20.61954
  0
ARC
  8
0
 10
-17.87600
 20
22.77700
 30
0.0
 40
48.13105
 50
348.59925
 51
349.46027
  0
ARC
  8
0
 10
32.36200
 20
14.09900
 30
0.0
 40
3.16924
 50
187.76191
 51
195.29476
  0
ARC
  8
0
 10
75.16600
 20
-3.26700
 30
0.0
 40
48.96749
 50
159.76277
 51
160.58151
  0
ARC
  8
0
 10
29.81300
 20
13.30500
 30
0.0
 40
0.87892
 50
144.12123
 51
199.40387
  0
ARC
  8
0
 10
36.78700
 20
7.98900
 30
0.0
 40
9.64778
 50
134.89082
 51
142.81415
  0
ARC
  8
0
 10
29.45000
 20
14.49800
 30
0.0
 40
0.62090
 50
339.34675
 51
391.69219
  0
ARC
  8
0
 10
29.89800
 20
14.21200
 30
0.0
 40
0.14928
 50
26.73711
 51
100.03021
  0
ARC
  8
0
 10
27.63700
 20
14.10600
 30
0.0
 40
2.24927
 50
352.51478
 51
366.45834
  0
ARC
  8
0
 10
32.16500
 20
15.22300
 30
0.0
 40
2.69609
 50
203.03674
 51
211.53232
  0
ARC
  8
0
 10
24.26000
 20
19.85000
 30
0.0
 40
4.49985
 50
20.16260
 51
28.70090
  0
ARC
  8
0
 10
26.52700
 20
19.47600
 30
0.0
 40
2.74531
 50
44.52771
 51
54.60789
  0
ARC
  8
0
 10
-16.03500
 20
2.55200
 30
0.0
 40
48.13087
 50
22.59944
 51
23.46088
  0
ARC
  8
0
 10
30.46700
 20
23.45100
 30
0.0
 40
3.16968
 50
221.76415
 51
229.29871
  0
ARC
  8
0
 10
75.66500
 20
32.98900
 30
0.0
 40
48.96796
 50
193.76211
 51
194.58026
  0
ARC
  8
0
 10
28.79700
 20
21.36800
 30
0.0
 40
0.87861
 50
178.17342
 51
233.46920
  0
ARC
  8
0
 10
37.55300
 20
20.86000
 30
0.0
 40
9.64889
 50
168.89154
 51
176.81556
  0
ARC
  8
0
 10
27.83000
 20
22.15300
 30
0.0
 40
0.62092
 50
13.40960
 51
65.74700
  0
ARC
  8
0
 10
28.36100
 20
22.16800
 30
0.0
 40
0.14849
 50
60.49485
 51
134.45434
  0
ARC
  8
0
 10
26.54500
 20
20.81400
 30
0.0
 40
2.25000
 50
26.53089
 51
40.45767
  0
ARC
  8
0
 10
29.67500
 20
24.27300
 30
0.0
 40
2.69660
 50
237.01711
 51
245.52615
  0
ARC
  8
0
 10
20.42100
 20
23.90900
 30
0.0
 40
4.50072
 50
52.25677
 51
60.68941
  0
ARC
  8
0
 10
22.54300
 20
24.79300
 30
0.0
 40
2.74887
 50
76.68668
 51
86.61761
  0
ARC
  8
0
 10
-4.58400
 20
-12.11400
 30
0.0
 40
48.13162
 50
54.59946
 51
55.46107
  0
ARC
  8
0
 10
23.77800
 20
30.25200
 30
0.0
 40
3.16964
 50
253.74920
 51
261.28957
  0
ARC
  8
0
 10
57.05300
 20
62.29200
 30
0.0
 40
48.96811
 50
225.76202
 51
226.58128
  0
ARC
  8
0
 10
23.46500
 20
27.60100
 30
0.0
 40
0.87971
 50
210.21418
 51
265.50139
  0
ARC
  8
0
 10
31.15900
 20
31.80900
 30
0.0
 40
9.64809
 50
200.88828
 51
208.81522
  0
ARC
  8
0
 10
22.22900
 20
27.75400
 30
0.0
 40
0.62085
 50
45.39154
 51
97.77764
  0
ARC
  8
0
 10
22.67200
 20
28.04700
 30
0.0
 40
0.14940
 50
92.68977
 51
166.05677
  0
ARC
  8
0
 10
21.84900
 20
25.93800
 30
0.0
 40
2.24960
 50
58.52937
 51
72.45909
  0
ARC
  8
0
 10
22.67000
 20
30.52900
 30
0.0
 40
2.69639
 50
269.02250
 51
277.52303
  0
ARC
  8
0
 10
11.34300
 20
-18.37400
 30
0.0
 40
48.13095
 50
84.59940
 51
85.46097
  0
ARC
  8
0
 10
14.72200
 20
32.49700
 30
0.0
 40
3.17031
 50
283.76007
 51
291.28794
  0
ARC
  8
0
 10
27.52000
 20
76.88200
 30
0.0
 40
48.96824
 50
255.76170
 51
256.57986
  0
ARC
  8
0
 10
15.77800
 20
30.04500
 30
0.0
 40
0.87978
 50
240.14203
 51
295.39889
  0
ARC
  8
0
 10
20.33600
 20
37.53600
 30
0.0
 40
9.64823
 50
230.88943
 51
238.81422
  0
ARC
  8
0
 10
14.61300
 20
29.46700
 30
0.0
 40
0.68984
 50
73.66671
 51
121.90811
  0
ARC
  8
0
 10
14.88800
 20
29.98500
 30
0.0
 40
0.16521
 50
119.35775
 51
177.20730
  0
ARC
  8
0
 10
15.20900
 20
27.79600
 30
0.0
 40
2.24989
 50
88.52271
 51
102.44870
  0
ARC
  8
0
 10
13.62500
 20
32.18300
 30
0.0
 40
2.69577
 50
299.02777
 51
307.52453
  0
ARC
  8
0
 10
14.98700
 20
25.32500
 30
0.0
 40
4.50132
 50
82.15973
 51
90.68736
  0
ARC
  8
0
 10
16.38200
 20
27.15200
 30
0.0
 40
2.74542
 50
106.52734
 51
116.62106
  0
ARC
  8
0
 10
9.90600
 20
23.82500
 30
0.0
 40
4.50042
 50
116.16076
 51
124.69998
  0
ARC
  8
0
 10
10.04100
 20
26.11900
 30
0.0
 40
2.74519
 50
140.52849
 51
150.61496
  0
ARC
  8
0
 10
31.32200
 20
-14.44100
 30
0.0
 40
48.13114
 50
118.60020
 51
119.46183
  0
ARC
  8
0
 10
5.67600
 20
29.62200
 30
0.0
 40
3.17005
 50
317.74942
 51
325.29227
  0
ARC
  8
0
 10
-8.53300
 20
73.57500
 30
0.0
 40
48.96767
 50
289.76008
 51
290.57892
  0
ARC
  8
0
 10
7.92200
 20
28.17900
 30
0.0
 40
0.87933
 50
274.17382
 51
329.43863
  0
ARC
  8
0
 10
7.51200
 20
36.93900
 30
0.0
 40
9.64864
 50
264.89213
 51
272.81585
  0
ARC
  8
0
 10
7.24200
 20
27.13500
 30
0.0
 40
0.62021
 50
109.39904
 51
161.76957
  0
ARC
  8
0
 10
7.17200
 20
27.66100
 30
0.0
 40
0.14839
 50
156.54767
 51
230.19443
  0
ARC
  8
0
 10
8.70800
 20
25.99700
 30
0.0
 40
2.25003
 50
122.51026
 51
136.45865
  0
ARC
  8
0
 10
4.94100
 20
28.74800
 30
0.0
 40
2.69679
 50
333.02631
 51
341.53818
  0
ARC
  8
0
 10
44.55300
 20
-1.40400
 30
0.0
 40
48.13170
 50
150.60107
 51
151.46269
  0
ARC
  8
0
 10
-0.54600
 20
22.37300
 30
0.0
 40
3.16958
 50
349.75013
 51
357.28745
  0
ARC
  8
0
 10
-35.88800
 20
52.11700
 30
0.0
 40
48.96757
 50
321.76122
 51
322.58015
  0
ARC
  8
0
 10
2.12300
 20
22.34000
 30
0.0
 40
0.87946
 50
306.16628
 51
361.43372
  0
ARC
  8
0
 10
-2.86600
 20
29.55100
 30
0.0
 40
9.64789
 50
296.88641
 51
304.81347
  0
ARC
  8
0
 10
2.10000
 20
21.09400
 30
0.0
 40
0.62089
 50
141.41230
 51
193.79005
  0
ARC
  8
0
 10
1.76200
 20
21.50300
 30
0.0
 40
0.14863
 50
188.51171
 51
262.25223
  0
ARC
  8
0
 10
3.94600
 20
20.90600
 30
0.0
 40
2.24947
 50
154.53994
 51
168.46029
  0
ARC
  8
0
 10
-0.70500
 20
21.24300
 30
0.0
 40
2.69535
 50
5.02314
 51
13.52054
  0
ARC
  8
0
 10
6.11300
 20
19.69800
 30
0.0
 40
4.50066
 50
148.14980
 51
156.68773
  0
ARC
  8
0
 10
5.01200
 20
21.71500
 30
0.0
 40
2.74584
 50
172.50741
 51
182.60919
  0
ARC
  8
0
 10
5.16700
 20
13.75300
 30
0.0
 40
4.50099
 50
174.15892
 51
182.69967
  0
ARC
  8
0
 10
3.29300
 20
15.08300
 30
0.0
 40
2.74541
 50
198.52075
 51
208.61879
  0
ARC
  8
0
 10
48.96800
 20
11.63600
 30
0.0
 40
48.13224
 50
176.59943
 51
177.46127
  0
ARC
  8
0
 10
-1.99000
 20
13.23700
 30
0.0
 40
3.16961
 50
15.76411
 51
23.30540
  0
ARC
  8
0
 10
-46.79500
 20
24.47800
 30
0.0
 40
48.96779
 50
347.76182
 51
348.58061
  0
ARC
  8
0
 10
0.42300
 20
14.37800
 30
0.0
 40
0.87900
 50
332.12306
 51
387.43973
  0
ARC
  8
0
 10
-7.22200
 20
18.67300
 30
0.0
 40
9.64769
 50
322.88186
 51
330.80465
  0
ARC
  8
0
 10
0.94800
 20
13.24800
 30
0.0
 40
0.62085
 50
167.44116
 51
219.77011
  0
ARC
  8
0
 10
0.46500
 20
13.46800
 30
0.0
 40
0.14957
 50
214.64668
 51
288.31382
  0
ARC
  8
0
 10
2.69000
 20
13.88800
 30
0.0
 40
2.25008
 50
180.50928
 51
194.46870
  0
ARC
  8
0
 10
-1.63800
 20
12.15200
 30
0.0
 40
2.69494
 50
31.02940
 51
39.54969
  0
ARC
  8
0
 10
-5.72900
 20
6.05300
 30
0.0
 40
9.64724
 50
356.88639
 51
364.81642
  0
ARC
  8
0
 10
4.07800
 20
6.12500
 30
0.0
 40
0.62154
 50
201.32210
 51
253.72503
  0
ARC
  8
0
 10
3.55400
 20
6.03700
 30
0.0
 40
0.14855
 50
248.27021
 51
322.12502
  0
ARC
  8
0
 10
5.16300
 20
7.63000
 30
0.0
 40
2.24987
 50
214.53083
 51
228.45951
  0
ARC
  8
0
 10
2.54500
 20
3.77000
 30
0.0
 40
2.69637
 50
65.01263
 51
73.51451
  0
ARC
  8
0
 10
7.29200
 20
8.90300
 30
0.0
 40
4.49982
 50
208.16536
 51
216.69673
  0
ARC
  8
0
 10
4.99500
 20
8.95800
 30
0.0
 40
2.74572
 50
232.53321
 51
242.61369
  0
ARC
  8
0
 10
44.78900
 20
31.64100
 30
0.0
 40
48.13256
 50
210.59935
 51
211.46066
  0
ARC
  8
0
 10
1.64600
 20
4.47300
 30
0.0
 40
3.17028
 50
49.75940
 51
57.28758
  0
ARC
  8
0
 10
-41.78300
 20
-11.26100
 30
0.0
 40
48.96657
 50
21.76143
 51
22.57909
  0
ARC
  8
0
 10
3.01000
 20
6.76800
 30
0.0
 40
0.87914
 50
6.20345
 51
61.45198
  0
ARC
  8
0
 10
2.52000
 20
-3.95100
 30
0.0
 40
9.64834
 50
30.88737
 51
38.81098
  0
ARC
  8
0
 10
10.61100
 20
1.59300
 30
0.0
 40
0.62107
 50
235.36319
 51
287.73412
  0
ARC
  8
0
 10
10.22600
 20
1.22700
 30
0.0
 40
0.14848
 50
282.44510
 51
356.52008
  0
ARC
  8
0
 10
10.66900
 20
3.44700
 30
0.0
 40
2.24899
 50
248.53448
 51
262.46093
  0
ARC
  8
0
 10
10.65800
 20
-1.21600
 30
0.0
 40
2.69539
 50
99.02899
 51
107.53410
  0
ARC
  8
0
 10
11.72300
 20
5.69300
 30
0.0
 40
4.50012
 50
242.15370
 51
250.69133
  0
ARC
  8
0
 10
9.78700
 20
4.45400
 30
0.0
 40
2.74536
 50
266.53303
 51
276.63059
  0
ARC
  8
0
 10
30.09400
 20
45.51200
 30
0.0
 40
48.13238
 50
244.59930
 51
245.46098
  0
ARC
  8
0
 10
9.51900
 20
-1.13500
 30
0.0
 40
3.16883
 50
83.74966
 51
91.28388
  0
ARC
  8
0
 10
-17.68600
 20
-38.46600
 30
0.0
 40
48.96645
 50
55.76212
 51
56.58027
  0
ARC
  8
0
 10
9.36600
 20
1.52900
 30
0.0
 40
0.87924
 50
40.15600
 51
95.41870
  0
ARC
  8
0
 10
13.77600
 20
-7.52800
 30
0.0
 40
9.64839
 50
58.88856
 51
66.81233
  0
ARC
  8
0
 10
18.31700
 20
1.16500
 30
0.0
 40
0.62019
 50
263.33334
 51
315.71861
  0
ARC
  8
0
 10
18.14800
 20
0.66200
 30
0.0
 40
0.14905
 50
310.64302
 51
384.15764
  0
ARC
  8
0
 10
17.49800
 20
2.83000
 30
0.0
 40
2.24883
 50
276.51184
 51
290.45764
  0
ARC
  8
0
 10
19.67700
 20
-1.29200
 30
0.0
 40
2.69561
 50
127.03575
 51
135.54108
  0
ARC
  8
0
 10
17.37400
 20
5.30800
 30
0.0
 40
4.50066
 50
270.15279
 51
278.69003
  0
ARC
  8
0
 10
16.24600
 20
3.30500
 30
0.0
 40
2.74530
 50
294.53897
 51
304.62784
  0
ARC
  8
0
 10
14.90000
 20
49.09000
 30
0.0
 40
48.13180
 50
272.59954
 51
273.46139
  0
ARC
  8
0
 10
18.63400
 20
-1.75600
 30
0.0
 40
3.16943
 50
111.76448
 51
119.29867
  0
ARC
  8
0
 10
12.13800
 20
-47.49000
 30
0.0
 40
48.96696
 50
83.76163
 51
84.58025
  0
ARC
  8
0
 10
17.24800
 20
0.52500
 30
0.0
 40
0.87908
 50
68.16228
 51
123.49119
  0
ARC
  8
0
 10
-4.41200
 20
42.82000
 30
0.0
 40
48.13233
 50
306.59897
 51
307.45987
  0
ARC
  8
0
 10
27.11600
 20
2.75300
 30
0.0
 40
3.16970
 50
145.74842
 51
153.28134
  0
ARC
  8
0
 10
47.30500
 20
-38.79300
 30
0.0
 40
48.96710
 50
117.76241
 51
118.58114
  0
ARC
  8
0
 10
24.69100
 20
3.87000
 30
0.0
 40
0.87915
 50
102.15396
 51
157.46035
  0
ARC
  8
0
 10
26.31600
 20
-4.74700
 30
0.0
 40
9.64731
 50
92.88761
 51
100.81375
  0
ARC
  8
0
 10
25.21900
 20
4.99900
 30
0.0
 40
0.62169
 50
297.38939
 51
349.70341
  0
ARC
  8
0
 10
25.36100
 20
4.48700
 30
0.0
 40
0.14945
 50
344.47589
 51
418.24052
  0
ARC
  8
0
 10
23.60900
 20
5.92100
 30
0.0
 40
2.24978
 50
310.52947
 51
324.44456
  0
ARC
  8
0
 10
27.72200
 20
3.72100
 30
0.0
 40
2.69659
 50
161.02080
 51
169.52787
  0
ARC
  8
0
 10
22.12100
 20
7.90600
 30
0.0
 40
4.50070
 50
304.14201
 51
312.68564
  0
ARC
  8
0
 10
22.30600
 20
5.61500
 30
0.0
 40
2.74529
 50
328.51008
 51
338.61332
  0
ARC
  8
0
 10
-16.04100
 20
28.29600
 30
0.0
 40
48.13071
 50
338.59959
 51
339.46026
  0
ARC
  8
0
 10
31.92700
 20
11.02600
 30
0.0
 40
3.16947
 50
177.75780
 51
185.28608
  0
ARC
  8
0
 10
71.06500
 20
-13.50900
 30
0.0
 40
48.96712
 50
149.76268
 51
150.58138
  0
ARC
  8
0
 10
29.27900
 20
10.68700
 30
0.0
 40
0.87903
 50
134.12427
 51
189.43017
  0
ARC
  8
0
 10
35.22400
 20
4.24000
 30
0.0
 40
9.64843
 50
124.89083
 51
132.81176
  0
ARC
  8
0
 10
29.12900
 20
11.92500
 30
0.0
 40
0.62100
 50
329.30524
 51
381.68126
  0
ARC
  8
0
 10
29.52000
 20
11.56600
 30
0.0
 40
0.14904
 50
16.36785
 51
90.00000
  0
ARC
  8
0
 10
27.27500
 20
11.85400
 30
0.0
 40
2.24929
 50
342.50768
 51
356.45703
  0
ARC
  8
0
 10
31.92800
 20
12.16700
 30
0.0
 40
2.69621
 50
193.01054
 51
201.52121
  0
ARC
  8
0
 10
24.96100
 20
12.74800
 30
0.0
 40
4.50002
 50
336.15774
 51
344.69128
  0
ARC
  8
0
 10
26.33200
 20
10.90400
 30
0.0
 40
2.74511
 50
0.52181
 51
10.60170
  0
ARC
  8
0
 10
24.90700
 20
18.13700
 30
0.0
 40
4.50045
 50
8.14991
 51
16.68339
  0
ARC
  8
0
 10
27.04700
 20
17.29900
 30
0.0
 40
2.74550
 50
32.52081
 51
42.62327
  0
ARC
  8
0
 10
-18.10400
 20
9.59400
 30
0.0
 40
48.13137
 50
10.60020
 51
11.46145
  0
ARC
  8
0
 10
31.72800
 20
20.36800
 30
0.0
 40
3.16983
 50
209.75161
 51
217.28204
  0
ARC
  8
0
 10
77.92100
 20
20.30100
 30
0.0
 40
48.96866
 50
181.76239
 51
182.58083
  0
ARC
  8
0
 10
29.66100
 20
18.67800
 30
0.0
 40
0.87920
 50
166.16940
 51
221.44954
  0
ARC
  8
0
 10
38.11900
 20
16.36000
 30
0.0
 40
9.64866
 50
156.88406
 51
164.80999
  0
ARC
  8
0
 10
28.87800
 20
19.64700
 30
0.0
 40
0.62118
 50
1.38369
 51
53.77592
  0
ARC
  8
0
 10
29.40100
 20
19.55100
 30
0.0
 40
0.14840
 50
48.55927
 51
122.61924
  0
ARC
  8
0
 10
27.34300
 20
18.60400
 30
0.0
 40
2.24983
 50
14.51802
 51
28.45599
  0
ARC
  8
0
 10
31.12400
 20
21.33700
 30
0.0
 40
2.69706
 50
225.03004
 51
233.53374
  0
ARC
  8
0
 10
21.86500
 20
22.79400
 30
0.0
 40
4.50057
 50
40.15113
 51
48.68472
  0
ARC
  8
0
 10
24.12400
 20
23.21700
 30
0.0
 40
2.74594
 50
64.52679
 51
74.62224
  0
ARC
  8
0
 10
-10.08300
 20
-7.24300
 30
0.0
 40
48.13044
 50
42.59944
 51
43.46108
  0
ARC
  8
0
 10
26.46700
 20
28.30000
 30
0.0
 40
3.16983
 50
241.75312
 51
249.28952
  0
ARC
  8
0
 10
65.67700
 20
52.72100
 30
0.0
 40
48.96790
 50
213.76114
 51
214.57993
  0
ARC
  8
0
 10
25.61000
 20
25.77200
 30
0.0
 40
0.87928
 50
198.16692
 51
253.48175
  0
ARC
  8
0
 10
34.01100
 20
28.28900
 30
0.0
 40
9.64849
 50
188.89019
 51
196.81414
  0
ARC
  8
0
 10
24.43300
 20
26.17900
 30
0.0
 40
0.62070
 50
33.35696
 51
85.74997
  0
ARC
  8
0
 10
24.92700
 20
26.37400
 30
0.0
 40
0.14849
 50
80.66500
 51
154.47030
  0
ARC
  8
0
 10
23.68400
 20
24.48100
 30
0.0
 40
2.24938
 50
46.53161
 51
60.46048
  0
ARC
  8
0
 10
25.44100
 20
28.80100
 30
0.0
 40
2.69619
 50
257.03087
 51
265.53284
  0
ARC
  8
0
 10
16.60400
 20
25.21600
 30
0.0
 40
4.50034
 50
70.15177
 51
78.69756
  0
ARC
  8
0
 10
18.34800
 20
26.71300
 30
0.0
 40
2.74491
 50
94.51399
 51
104.62351
  0
ARC
  8
0
 10
3.95400
 20
-16.77100
 30
0.0
 40
48.13139
 50
72.60031
 51
73.46152
  0
ARC
  8
0
 10
17.83600
 20
32.28600
 30
0.0
 40
3.16948
 50
271.75377
 51
279.27806
  0
ARC
  8
0
 10
39.58200
 20
73.04000
 30
0.0
 40
48.96802
 50
243.76147
 51
244.57941
  0
ARC
  8
0
 10
18.35800
 20
29.66800
 30
0.0
 40
0.87900
 50
228.18239
 51
283.41967
  0
ARC
  8
0
 10
24.37500
 20
36.04800
 30
0.0
 40
9.64835
 50
218.88703
 51
226.81431
  0
ARC
  8
0
 10
17.13500
 20
29.43200
 30
0.0
 40
0.62079
 50
63.39367
 51
115.78079
  0
ARC
  8
0
 10
17.46500
 20
29.84700
 30
0.0
 40
0.14934
 50
110.37644
 51
184.25065
  0
ARC
  8
0
 10
17.33500
 20
27.58700
 30
0.0
 40
2.24907
 50
76.52607
 51
90.45856
  0
ARC
  8
0
 10
16.69700
 20
32.20700
 30
0.0
 40
2.69624
 50
287.01679
 51
295.52913
  0
ARC
  8
0
 10
11.43400
 20
24.64100
 30
0.0
 40
4.50049
 50
104.14740
 51
112.69038
  0
ARC
  8
0
 10
12.04400
 20
26.85700
 30
0.0
 40
2.74554
 50
128.52292
 51
138.61776
  0
ARC
  8
0
 10
24.42600
 20
-17.24100
 30
0.0
 40
48.13084
 50
106.59948
 51
107.46104
  0
ARC
  8
0
 10
8.50200
 20
31.19100
 30
0.0
 40
3.16994
 50
305.75623
 51
313.29991
  0
ARC
  8
0
 10
3.74100
 20
77.13800
 30
0.0
 40
48.96809
 50
277.76142
 51
278.58052
  0
ARC
  8
0
 10
10.39900
 20
29.31300
 30
0.0
 40
0.87973
 50
262.15559
 51
317.44154
  0
ARC
  8
0
 10
11.82000
 20
37.96700
 30
0.0
 40
9.64910
 50
252.88898
 51
260.81004
  0
ARC
  8
0
 10
9.51700
 20
28.43300
 30
0.0
 40
0.62117
 50
97.39959
 51
149.79676
  0
ARC
  8
0
 10
9.55800
 20
28.96200
 30
0.0
 40
0.14903
 50
144.28355
 51
218.41806
  0
ARC
  8
0
 10
10.71400
 20
27.01500
 30
0.0
 40
2.24953
 50
110.50537
 51
124.43899
  0
ARC
  8
0
 10
7.60200
 20
30.48900
 30
0.0
 40
2.69623
 50
321.02159
 51
329.53553
  0
ARC
  8
0
 10
41.33500
 20
-6.17400
 30
0.0
 40
48.13129
 50
140.60062
 51
141.46234
  0
ARC
  8
0
 10
1.05000
 20
25.07300
 30
0.0
 40
3.16987
 50
339.75282
 51
347.29669
  0
ARC
  8
0
 10
-28.59000
 20
60.50200
 30
0.0
 40
48.96755
 50
311.76161
 51
312.58003
  0
ARC
  8
0
 10
3.67300
 20
24.57700
 30
0.0
 40
0.87881
 50
296.12769
 51
351.42733
  0
ARC
  8
0
 10
0.01100
 20
32.54500
 30
0.0
 40
9.64814
 50
286.88923
 51
294.81454
  0
ARC
  8
0
 10
3.43400
 20
23.35400
 30
0.0
 40
0.62135
 50
131.41146
 51
183.78341
  0
ARC
  8
0
 10
3.17200
 20
23.81600
 30
0.0
 40
0.14905
 50
178.46223
 51
252.41652
  0
ARC
  8
0
 10
5.21900
 20
22.84800
 30
0.0
 40
2.24985
 50
144.51561
 51
158.45404
  0
ARC
  8
0
 10
0.69600
 20
23.98800
 30
0.0
 40
2.69617
 50
355.02105
 51
363.52994
  0
ARC
  8
0
 10
7.14300
 20
21.28300
 30
0.0
 40
4.50010
 50
138.15286
 51
146.69484
  0
ARC
  8
0
 10
6.40900
 20
23.46000
 30
0.0
 40
2.74491
 50
162.50900
 51
172.61089
  0
ARC
  8
0
 10
48.26500
 20
7.63500
 30
0.0
 40
48.13203
 50
168.59949
 51
169.46049
  0
ARC
  8
0
 10
-1.97300
 20
16.31300
 30
0.0
 40
3.16828
 50
7.76435
 51
15.29953
  0
ARC
  8
0
 10
-44.77700
 20
33.68000
 30
0.0
 40
48.96688
 50
339.76127
 51
340.58002
  0
ARC
  8
0
 10
0.57500
 20
17.10600
 30
0.0
 40
0.87925
 50
324.17410
 51
379.46534
  0
ARC
  8
0
 10
-6.39800
 20
22.42300
 30
0.0
 40
9.64707
 50
314.88661
 51
322.81056
  0
ARC
  8
0
 10
0.93800
 20
15.91400
 30
0.0
 40
0.62090
 50
159.34675
 51
211.69219
  0
ARC
  8
0
 10
0.49000
 20
16.20000
 30
0.0
 40
0.14928
 50
206.73711
 51
280.03021
  0
ARC
  8
0
 10
2.75100
 20
16.30600
 30
0.0
 40
2.24927
 50
172.51478
 51
186.45834
  0
ARC
  8
0
 10
-1.77600
 20
15.18900
 30
0.0
 40
2.69523
 50
23.04506
 51
31.54344
  0
ARC
  8
0
 10
5.18500
 20
15.82700
 30
0.0
 40
4.50036
 50
166.15214
 51
174.68339
  0
ARC
  8
0
 10
3.51500
 20
17.40500
 30
0.0
 40
2.74555
 50
190.51580
 51
200.60001
  0
ARC
  8
0
 10
46.42400
 20
27.83900
 30
0.0
 40
48.13179
 50
202.59899
 51
203.46040
  0
ARC
  8
0
 10
-0.07800
 20
6.94000
 30
0.0
 40
3.16903
 50
41.77620
 51
49.31242
  0
ARC
  8
0
 10
-45.27600
 20
-2.59700
 30
0.0
 40
48.96674
 50
13.76125
 51
14.57943
  0
ARC
  8
0
 10
1.59000
 20
9.02300
 30
0.0
 40
0.87944
 50
358.17550
 51
413.41684
  0
ARC
  8
0
 10
-7.16400
 20
9.53100
 30
0.0
 40
9.64790
 50
348.89039
 51
356.81523
  0
ARC
  8
0
 10
2.55800
 20
8.23800
 30
0.0
 40
0.62092
 50
193.40960
 51
245.74700
  0
ARC
  8
0
 10
2.02700
 20
8.22400
 30
0.0
 40
0.14921
 50
240.68411
 51
314.18542
  0
ARC
  8
0
 10
3.84200
 20
9.57700
 30
0.0
 40
2.24924
 50
206.54227
 51
220.47420
  0
ARC
  8
0
 10
0.71300
 20
6.11800
 30
0.0
 40
2.69660
 50
57.01711
 51
65.52615
  0
ARC
  8
0
 10
6.12800
 20
10.54100
 30
0.0
 40
4.50069
 50
200.15822
 51
208.70090
  0
ARC
  8
0
 10
3.86100
 20
10.91500
 30
0.0
 40
2.74579
 50
224.51308
 51
234.60789
  0
ARC
  8
0
 10
34.97300
 20
42.50600
 30
0.0
 40
48.13301
 50
234.59918
 51
235.46076
  0
ARC
  8
0
 10
6.61000
 20
0.13900
 30
0.0
 40
3.16964
 50
73.74920
 51
81.28957
  0
ARC
  8
0
 10
-26.66400
 20
-31.90000
 30
0.0
 40
48.96670
 50
45.76205
 51
46.58133
  0
ARC
  8
0
 10
6.92200
 20
2.79100
 30
0.0
 40
0.87879
 50
30.12501
 51
85.43128
  0
ARC
  8
0
 10
-0.77000
 20
-1.41700
 30
0.0
 40
9.64680
 50
20.88485
 51
28.81288
  0
ARC
  8
0
 10
8.15900
 20
2.63700
 30
0.0
 40
0.62085
 50
225.39154
 51
277.77764
  0
ARC
  8
0
 10
7.71600
 20
2.34400
 30
0.0
 40
0.14916
 50
272.68977
 51
346.42957
  0
ARC
  8
0
 10
8.53900
 20
4.45300
 30
0.0
 40
2.24929
 50
238.50764
 51
252.45141
  0
ARC
  8
0
 10
7.71800
 20
-0.13700
 30
0.0
 40
2.69539
 50
89.02213
 51
97.54688
  0
ARC
  8
0
 10
9.96600
 20
6.48200
 30
0.0
 40
4.50044
 50
232.15740
 51
240.70051
  0
ARC
  8
0
 10
7.84500
 20
5.59800
 30
0.0
 40
2.74578
 50
256.52050
 51
266.61761
  0
ARC
  8
0
 10
18.71200
 20
48.99000
 30
0.0
 40
48.13174
 50
266.59943
 51
267.46122
  0
ARC
  8
0
 10
17.11000
 20
-1.96800
 30
0.0
 40
3.16921
 50
105.76411
 51
113.28880
  0
ARC
  8
0
 10
5.86900
 20
-46.77200
 30
0.0
 40
48.96754
 50
77.76157
 51
78.57946
  0
ARC
  8
0
 10
15.97000
 20
0.44500
 30
0.0
 40
0.87976
 50
62.21112
 51
117.40972
  0
ARC
  8
0
 10
11.67500
 20
-7.20000
 30
0.0
 40
9.64848
 50
52.88544
 51
60.81273
  0
ARC
  8
0
 10
17.10000
 20
0.97100
 30
0.0
 40
0.62107
 50
257.35112
 51
309.77011
  0
ARC
  8
0
 10
16.88000
 20
0.48700
 30
0.0
 40
0.14862
 50
304.54837
 51
378.43495
  0
ARC
  8
0
 10
16.45900
 20
2.71200
 30
0.0
 40
2.24933
 50
270.53498
 51
284.46870
  0
ARC
  8
0
 10
18.19600
 20
-1.61600
 30
0.0
 40
2.69571
 50
121.01844
 51
129.53616
  0
ARC
  8
0
 10
16.59500
 20
5.18900
 30
0.0
 40
4.50036
 50
264.15892
 51
272.70027
  0
ARC
  8
0
 10
15.26500
 20
3.31500
 30
0.0
 40
2.74517
 50
288.52075
 51
298.62879
  0
ARC
  8
0
 10
19.80700
 20
6.15100
 30
0.0
 40
4.50073
 50
290.15822
 51
298.69479
  0
ARC
  8
0
 10
19.43300
 20
3.88300
 30
0.0
 40
2.74508
 50
314.52771
 51
324.62491
  0
ARC
  8
0
 10
2.50800
 20
46.44700
 30
0.0
 40
48.13219
 50
292.60009
 51
293.46150
  0
ARC
  8
0
 10
23.40800
 20
-0.05600
 30
0.0
 40
3.16968
 50
131.76415
 51
139.29871
  0
ARC
  8
0
 10
32.94600
 20
-45.25300
 30
0.0
 40
48.96725
 50
103.76239
 51
104.58169
  0
ARC
  8
0
 10
21.32400
 20
1.61300
 30
0.0
 40
0.87921
 50
88.10823
 51
143.41684
  0
ARC
  8
0
 10
20.81600
 20
-7.14100
 30
0.0
 40
9.64798
 50
78.88457
 51
86.80897
  0
ARC
  8
0
 10
22.11000
 20
2.58100
 30
0.0
 40
0.62190
 50
283.38823
 51
335.74700
  0
ARC
  8
0
 10
22.12400
 20
2.05000
 30
0.0
 40
0.14958
 50
330.35014
 51
404.18542
  0
ARC
  8
0
 10
20.77100
 20
3.86500
 30
0.0
 40
2.24948
 50
296.50810
 51
310.47420
  0
ARC
  8
0
 10
24.22900
 20
0.73500
 30
0.0
 40
2.69625
 50
147.00554
 51
155.52615
  0
ARC
  8
0
 10
28.24500
 20
-3.60000
 30
0.0
 40
9.64790
 50
98.89019
 51
106.81586
  0
ARC
  8
0
 10
26.13500
 20
5.97800
 30
0.0
 40
0.62155
 50
303.38327
 51
355.74997
  0
ARC
  8
0
 10
26.33000
 20
5.48400
 30
0.0
 40
0.14911
 50
350.34817
 51
424.12315
  0
ARC
  8
0
 10
24.43800
 20
6.72700
 30
0.0
 40
2.24938
 50
316.51312
 51
330.46048
  0
ARC
  8
0
 10
28.75800
 20
4.96900
 30
0.0
 40
2.69619
 50
167.03087
 51
175.53284
  0
ARC
  8
0
 10
22.75000
 20
8.54500
 30
0.0
 40
4.50088
 50
310.15934
 51
318.69312
  0
ARC
  8
0
 10
23.17400
 20
6.28600
 30
0.0
 40
2.74528
 50
334.53665
 51
344.62224
  0
ARC
  8
0
 10
-7.28600
 20
40.49400
 30
0.0
 40
48.13118
 50
312.59864
 51
313.46026
  0
ARC
  8
0
 10
28.25700
 20
3.94300
 30
0.0
 40
3.17030
 50
151.76167
 51
159.28952
  0
ARC
  8
0
 10
52.67800
 20
-35.26500
 30
0.0
 40
48.96708
 50
123.76341
 51
124.58060
  0
ARC
  8
0
 10
25.72800
 20
4.80000
 30
0.0
 40
0.87880
 50
108.16692
 51
163.40069
  0
ARC
  8
0
 10
24.65400
 20
11.74500
 30
0.0
 40
4.50097
 50
332.15964
 51
340.69133
  0
ARC
  8
0
 10
25.89400
 20
9.81000
 30
0.0
 40
2.74508
 50
356.51220
 51
366.61226
  0
ARC
  8
0
 10
-15.16300
 20
30.11600
 30
0.0
 40
48.13100
 50
334.59879
 51
335.45999
  0
ARC
  8
0
 10
31.48400
 20
9.54200
 30
0.0
 40
3.16981
 50
173.76960
 51
181.30154
  0
ARC
  8
0
 10
68.81500
 20
-17.66400
 30
0.0
 40
48.96781
 50
145.76278
 51
146.58156
  0
ARC
  8
0
 10
28.81800
 20
9.38900
 30
0.0
 40
0.87902
 50
130.14821
 51
185.48359
  0
ARC
  8
0
 10
34.29900
 20
2.54200
 30
0.0
 40
9.64834
 50
120.88737
 51
128.81098
  0
ARC
  8
0
 10
28.75500
 20
10.63300
 30
0.0
 40
0.62050
 50
325.43917
 51
377.73412
  0
ARC
  8
0
 10
29.12000
 20
10.24800
 30
0.0
 40
0.14968
 50
12.73640
 51
86.16040
  0
ARC
  8
0
 10
26.90000
 20
10.69200
 30
0.0
 40
2.24942
 50
338.51077
 51
352.46427
  0
ARC
  8
0
 10
31.56400
 20
10.68000
 30
0.0
 40
2.69638
 50
189.02565
 51
197.52770
  0
ARC
  8
0
 10
25.32400
 20
15.44400
 30
0.0
 40
4.50033
 50
352.15799
 51
360.70025
  0
ARC
  8
0
 10
27.15000
 20
14.04900
 30
0.0
 40
2.74589
 50
16.52734
 51
26.61171
  0
ARC
  8
0
 10
-18.37600
 20
19.08800
 30
0.0
 40
48.13195
 50
354.59951
 51
355.46106
  0
ARC
  8
0
 10
32.49600
 20
15.70900
 30
0.0
 40
3.17094
 50
193.75577
 51
201.28794
  0
ARC
  8
0
 10
76.88000
 20
2.91200
 30
0.0
 40
48.96800
 50
165.76284
 51
166.58100
  0
ARC
  8
0
 10
30.04300
 20
14.65400
 30
0.0
 40
0.87938
 50
150.16613
 51
205.45774
  0
ARC
  8
0
 10
37.53500
 20
10.09500
 30
0.0
 40
9.64918
 50
140.88857
 51
148.81422
  0
ARC
  8
0
 10
29.55800
 20
15.80200
 30
0.0
 40
0.62020
 50
345.33637
 51
397.79394
  0
ARC
  8
0
 10
30.03300
 20
15.56500
 30
0.0
 40
0.14904
 50
32.61924
 51
106.36785
  0
ARC
  8
0
 10
27.79500
 20
15.22200
 30
0.0
 40
2.24913
 50
358.52206
 51
372.47907
  0
ARC
  8
0
 10
32.18200
 20
16.80700
 30
0.0
 40
2.69717
 50
209.01746
 51
217.52844
  0
ARC
  8
0
 10
24.64000
 20
18.99700
 30
0.0
 40
4.50074
 50
14.15975
 51
22.69038
  0
ARC
  8
0
 10
26.85600
 20
18.38800
 30
0.0
 40
2.74554
 50
38.52292
 51
48.61776
  0
ARC
  8
0
 10
-17.24300
 20
6.00500
 30
0.0
 40
48.13206
 50
16.60062
 51
17.46182
  0
ARC
  8
0
 10
31.19000
 20
21.92900
 30
0.0
 40
3.16998
 50
215.75623
 51
223.27436
  0
ARC
  8
0
 10
77.13700
 20
26.69100
 30
0.0
 40
48.96809
 50
187.76258
 51
188.58052
  0
ARC
  8
0
 10
29.31100
 20
20.03200
 30
0.0
 40
0.87831
 50
172.14669
 51
227.44547
  0
ARC
  8
0
 10
37.96500
 20
18.61200
 30
0.0
 40
9.64814
 50
162.88723
 51
170.81496
  0
ARC
  8
0
 10
28.43100
 20
20.91500
 30
0.0
 40
0.62104
 50
7.30811
 51
59.71698
  0
ARC
  8
0
 10
28.96100
 20
20.87300
 30
0.0
 40
0.14945
 50
54.59692
 51
128.48020
  0
ARC
  8
0
 10
27.01400
 20
19.71700
 30
0.0
 40
2.24896
 50
20.53815
 51
34.47441
  0
ARC
  8
0
 10
30.48800
 20
22.82900
 30
0.0
 40
2.69622
 50
231.02159
 51
239.50644
  0
ARC
  8
0
 10
-12.40800
 20
-4.36800
 30
0.0
 40
48.13016
 50
36.59943
 51
37.46132
  0
ARC
  8
0
 10
27.65700
 20
27.16000
 30
0.0
 40
3.17053
 50
235.75859
 51
243.28947
  0
ARC
  8
0
 10
69.20500
 20
47.34900
 30
0.0
 40
48.96895
 50
207.76236
 51
208.58058
  0
ARC
  8
0
 10
26.54100
 20
24.73400
 30
0.0
 40
0.87869
 50
192.15396
 51
247.43534
  0
ARC
  8
0
 10
35.15900
 20
26.36000
 30
0.0
 40
9.64929
 50
182.89295
 51
190.81847
  0
ARC
  8
0
 10
25.41200
 20
25.26300
 30
0.0
 40
0.62034
 50
27.34988
 51
79.77783
  0
ARC
  8
0
 10
25.92400
 20
25.40500
 30
0.0
 40
0.14904
 50
74.74488
 51
148.44287
  0
ARC
  8
0
 10
24.49000
 20
23.65200
 30
0.0
 40
2.24962
 50
40.54603
 51
54.48009
  0
ARC
  8
0
 10
26.68900
 20
27.76500
 30
0.0
 40
2.69590
 50
251.03399
 51
259.52787
  0
ARC
  8
0
 10
22.50500
 20
22.16400
 30
0.0
 40
4.50084
 50
34.15969
 51
42.69500
  0
ARC
  8
0
 10
24.79600
 20
22.35000
 30
0.0
 40
2.74477
 50
58.52788
 51
68.63276
  0
ARC
  8
0
 10
19.69700
 20
24.31900
 30
0.0
 40
4.50013
 50
58.16062
 51
66.69943
  0
ARC
  8
0
 10
21.71400
 20
25.42000
 30
0.0
 40
2.74531
 50
82.52810
 51
92.61014
  0
ARC
  8
0
 10
-1.40600
 20
-14.12100
 30
0.0
 40
48.13130
 50
60.60107
 51
61.46108
  0
ARC
  8
0
 10
22.37100
 20
30.97800
 30
0.0
 40
3.16955
 50
259.76792
 51
267.28745
  0
ARC
  8
0
 10
52.11500
 20
66.32000
 30
0.0
 40
48.96725
 50
231.76214
 51
232.58015
  0
ARC
  8
0
 10
22.33800
 20
28.30800
 30
0.0
 40
0.87827
 50
216.15211
 51
271.43536
  0
ARC
  8
0
 10
29.55000
 20
33.29800
 30
0.0
 40
9.64834
 50
206.89171
 51
214.81347
  0
ARC
  8
0
 10
21.09200
 20
28.33200
 30
0.0
 40
0.62110
 50
51.34019
 51
103.72230
  0
ARC
  8
0
 10
21.50200
 20
28.66900
 30
0.0
 40
0.14962
 50
98.45503
 51
172.30395
  0
ARC
  8
0
 10
20.90400
 20
26.48600
 30
0.0
 40
2.24898
 50
64.50599
 51
78.45519
  0
ARC
  8
0
 10
21.24100
 20
31.13700
 30
0.0
 40
2.69588
 50
275.02314
 51
283.53624
  0
ARC
  8
0
 10
15.82600
 20
25.24600
 30
0.0
 40
4.50051
 50
76.16755
 51
84.69607
  0
ARC
  8
0
 10
17.40400
 20
26.91700
 30
0.0
 40
2.74528
 50
100.53632
 51
110.62689
  0
ARC
  8
0
 10
7.63400
 20
-17.83300
 30
0.0
 40
48.13086
 50
78.60042
 51
79.46144
  0
ARC
  8
0
 10
16.31200
 20
32.40600
 30
0.0
 40
3.17002
 50
277.75947
 51
285.27256
  0
ARC
  8
0
 10
33.67900
 20
75.21000
 30
0.0
 40
48.96807
 50
249.76208
 51
250.58041
  0
ARC
  8
0
 10
17.10500
 20
29.85700
 30
0.0
 40
0.87954
 50
234.15941
 51
289.46534
  0
ARC
  8
0
 10
22.42200
 20
36.83100
 30
0.0
 40
9.64919
 50
224.89083
 51
232.81301
  0
ARC
  8
0
 10
15.91300
 20
29.49400
 30
0.0
 40
0.62055
 50
69.43315
 51
121.81933
  0
ARC
  8
0
 10
16.19800
 20
29.94200
 30
0.0
 40
0.14892
 50
116.73711
 51
190.47742
  0
ARC
  8
0
 10
16.30500
 20
27.68000
 30
0.0
 40
2.24927
 50
82.54004
 51
96.45834
  0
ARC
  8
0
 10
15.18800
 20
32.20800
 30
0.0
 40
2.69560
 50
293.01718
 51
301.51420
  0
ARC
  8
0
 10
14.07100
 20
38.12100
 30
0.0
 40
9.64904
 50
246.88952
 51
254.81154
  0
ARC
  8
0
 10
10.78400
 20
28.88000
 30
0.0
 40
0.62023
 50
91.38592
 51
143.72133
  0
ARC
  8
0
 10
10.88100
 20
29.40200
 30
0.0
 40
0.14925
 50
138.81407
 51
212.41231
  0
ARC
  8
0
 10
11.82700
 20
27.34500
 30
0.0
 40
2.24893
 50
104.52441
 51
118.46813
  0
ARC
  8
0
 10
9.09500
 20
31.12500
 30
0.0
 40
2.69626
 50
315.01503
 51
323.52111
  0
ARC
  8
0
 10
12.29500
 20
24.90900
 30
0.0
 40
4.50059
 50
98.16251
 51
106.69924
  0
ARC
  8
0
 10
13.13200
 20
27.04900
 30
0.0
 40
2.74550
 50
122.52081
 51
132.62327
  0
ARC
  8
0
 10
20.83700
 20
-18.10200
 30
0.0
 40
48.13079
 50
100.59925
 51
101.46145
  0
ARC
  8
0
 10
10.06300
 20
31.72900
 30
0.0
 40
3.17032
 50
299.76730
 51
307.29642
  0
ARC
  8
0
 10
10.13100
 20
77.92200
 30
0.0
 40
48.96816
 50
271.76239
 51
272.58089
  0
ARC
  8
0
 10
11.75400
 20
29.66300
 30
0.0
 40
0.87968
 50
256.12173
 51
311.44954
  0
ARC
  8
0
 10
31.68100
 20
-14.39800
 30
0.0
 40
48.13084
 50
120.60056
 51
121.46190
  0
ARC
  8
0
 10
4.51300
 20
28.74300
 30
0.0
 40
3.17028
 50
319.75940
 51
327.28758
  0
ARC
  8
0
 10
-11.22100
 20
72.17300
 30
0.0
 40
48.96755
 50
291.76100
 51
292.57972
  0
ARC
  8
0
 10
6.80900
 20
27.37900
 30
0.0
 40
0.87885
 50
276.14563
 51
331.45198
  0
ARC
  8
0
 10
6.09300
 20
36.12000
 30
0.0
 40
9.64818
 50
266.89264
 51
274.81592
  0
ARC
  8
0
 10
6.16500
 20
26.31200
 30
0.0
 40
0.62061
 50
111.35567
 51
163.69913
  0
ARC
  8
0
 10
6.07700
 20
26.83600
 30
0.0
 40
0.14901
 50
158.62938
 51
232.36108
  0
ARC
  8
0
 10
7.67000
 20
25.22600
 30
0.0
 40
2.25009
 50
124.51639
 51
138.45951
  0
ARC
  8
0
 10
3.81000
 20
27.84400
 30
0.0
 40
2.69595
 50
335.03190
 51
343.53489
  0
ARC
  8
0
 10
8.94300
 20
23.09700
 30
0.0
 40
4.50071
 50
118.15935
 51
126.68912
  0
ARC
  8
0
 10
8.99800
 20
25.39400
 30
0.0
 40
2.74595
 50
142.51664
 51
152.61369
  0
ARC
  8
0
 10
6.52200
 20
20.42300
 30
0.0
 40
4.50010
 50
142.14959
 51
150.68941
  0
ARC
  8
0
 10
5.63800
 20
22.54400
 30
0.0
 40
2.74478
 50
166.51563
 51
176.61638
  0
ARC
  8
0
 10
42.54600
 20
-4.58200
 30
0.0
 40
48.13166
 50
144.60112
 51
145.46205
  0
ARC
  8
0
 10
0.17900
 20
23.77900
 30
0.0
 40
3.16955
 50
343.76655
 51
351.28957
  0
ARC
  8
0
 10
-31.85900
 20
57.05500
 30
0.0
 40
48.96734
 50
315.76039
 51
316.57883
  0
ARC
  8
0
 10
2.83100
 20
23.46700
 30
0.0
 40
0.87879
 50
300.12501
 51
355.43128
  0
ARC
  8
0
 10
-1.37700
 20
31.16100
 30
0.0
 40
9.64796
 50
290.88274
 51
298.80715
  0
ARC
  8
0
 10
2.67700
 20
22.23000
 30
0.0
 40
0.62085
 50
135.39154
 51
187.68616
  0
ARC
  8
0
 10
2.38400
 20
22.67300
 30
0.0
 40
0.14916
 50
182.68977
 51
256.42957
  0
ARC
  8
0
 10
4.49400
 20
21.85100
 30
0.0
 40
2.24963
 50
148.54267
 51
162.48338
  0
ARC
  8
0
 10
-0.09700
 20
22.67200
 30
0.0
 40
2.69539
 50
359.02213
 51
367.52581
  0
ARC
  8
0
 10
47.20300
 20
3.95500
 30
0.0
 40
48.13249
 50
162.59918
 51
163.46072
  0
ARC
  8
0
 10
-1.85400
 20
17.83700
 30
0.0
 40
3.16962
 50
1.75377
 51
9.29590
  0
ARC
  8
0
 10
-42.60800
 20
39.58300
 30
0.0
 40
48.96755
 50
333.76147
 51
334.57997
  0
ARC
  8
0
 10
0.76400
 20
18.36000
 30
0.0
 40
0.87879
 50
318.09033
 51
373.43482
  0
ARC
  8
0
 10
-5.61600
 20
24.37600
 30
0.0
 40
9.64763
 50
308.89076
 51
316.81024
  0
ARC
  8
0
 10
1.00000
 20
17.13600
 30
0.0
 40
0.62073
 50
153.39367
 51
205.69763
  0
ARC
  8
0
 10
0.58400
 20
17.46700
 30
0.0
 40
0.14940
 50
200.87160
 51
274.22223
  0
ARC
  8
0
 10
2.84400
 20
17.33600
 30
0.0
 40
2.24907
 50
166.52607
 51
180.45856
  0
ARC
  8
0
 10
-1.77500
 20
16.69900
 30
0.0
 40
2.69507
 50
17.02301
 51
25.51910
  0
ARC
  8
0
 10
5.21500
 20
16.60500
 30
0.0
 40
4.50047
 50
160.15177
 51
168.68507
  0
ARC
  8
0
 10
3.71900
 20
18.35000
 30
0.0
 40
2.74588
 50
184.53315
 51
194.61824
  0
ARC
  8
0
 10
49.06800
 20
15.44700
 30
0.0
 40
48.13252
 50
182.59948
 51
183.46020
  0
ARC
  8
0
 10
-1.77800
 20
11.71300
 30
0.0
 40
3.16926
 50
21.78127
 51
29.30752
  0
ARC
  8
0
 10
-47.51200
 20
18.20900
 30
0.0
 40
48.96685
 50
353.76279
 51
354.58141
  0
ARC
  8
0
 10
0.50200
 20
13.10000
 30
0.0
 40
0.87976
 50
338.16228
 51
393.45525
  0
ARC
  8
0
 10
-7.55000
 20
16.57200
 30
0.0
 40
9.64820
 50
328.88348
 51
336.80999
  0
ARC
  8
0
 10
1.14300
 20
12.03100
 30
0.0
 40
0.62107
 50
173.43568
 51
225.78304
  0
ARC
  8
0
 10
0.63900
 20
12.19900
 30
0.0
 40
0.14892
 50
220.64302
 51
294.31592
  0
ARC
  8
0
 10
2.80800
 20
12.85000
 30
0.0
 40
2.24976
 50
186.53426
 51
200.44874
  0
ARC
  8
0
 10
-1.31500
 20
10.67000
 30
0.0
 40
2.69601
 50
37.03991
 51
45.54108
  0
ARC
  8
0
 10
5.28600
 20
12.97400
 30
0.0
 40
4.50101
 50
180.15275
 51
188.69003
  0
ARC
  8
0
 10
3.28300
 20
14.10100
 30
0.0
 40
2.74541
 50
204.51131
 51
214.61066
  0
ARC
  8
0
 10
-6.54900
 20
7.47200
 30
0.0
 40
9.64765
 50
354.88569
 51
362.81614
  0
ARC
  8
0
 10
3.25500
 20
7.20200
 30
0.0
 40
0.62138
 50
199.36840
 51
251.71084
  0
ARC
  8
0
 10
2.72800
 20
7.13200
 30
0.0
 40
0.14916
 50
246.54767
 51
320.44033
  0
ARC
  8
0
 10
4.39200
 20
8.66800
 30
0.0
 40
2.24934
 50
212.54543
 51
226.47711
  0
ARC
  8
0
 10
1.64100
 20
4.90100
 30
0.0
 40
2.69631
 50
63.02631
 51
71.51129
  0
ARC
  8
0
 10
6.56500
 20
9.86500
 30
0.0
 40
4.50068
 50
206.14372
 51
214.68227
  0
ARC
  8
0
 10
4.27000
 20
10.00100
 30
0.0
 40
2.74502
 50
230.52849
 51
240.63315
  0
ARC
  8
0
 10
44.83200
 20
31.28100
 30
0.0
 40
48.13262
 50
208.59906
 51
209.46021
  0
ARC
  8
0
 10
0.76700
 20
5.63500
 30
0.0
 40
3.17010
 50
47.76157
 51
55.29227
  0
ARC
  8
0
 10
-43.18500
 20
-8.57400
 30
0.0
 40
48.96709
 50
19.76158
 51
20.58042
  0
ARC
  8
0
 10
2.21000
 20
7.88200
 30
0.0
 40
0.87933
 50
4.17382
 51
59.43863
  0
ARC
  8
0
 10
36.56500
 20
41.29500
 30
0.0
 40
48.13301
 50
230.59970
 51
231.46122
  0
ARC
  8
0
 10
5.31600
 20
1.00900
 30
0.0
 40
3.17078
 50
69.75282
 51
77.28304
  0
ARC
  8
0
 10
-30.11200
 20
-28.63000
 30
0.0
 40
48.96623
 50
41.76152
 51
42.58082
  0
ARC
  8
0
 10
5.81300
 20
3.63300
 30
0.0
 40
0.87880
 50
26.12769
 51
81.49180
  0
ARC
  8
0
 10
-2.15500
 20
-0.02800
 30
0.0
 40
9.64734
 50
16.88527
 51
24.80915
  0
ARC
  8
0
 10
7.03600
 20
3.39300
 30
0.0
 40
0.62068
 50
221.34223
 51
273.69733
  0
ARC
  8
0
 10
6.57400
 20
3.13200
 30
0.0
 40
0.14905
 50
268.46223
 51
341.93154
  0
ARC
  8
0
 10
7.54100
 20
5.17900
 30
0.0
 40
2.25009
 50
234.53635
 51
248.46339
  0
ARC
  8
0
 10
6.40200
 20
0.65600
 30
0.0
 40
2.69617
 50
85.02105
 51
93.52994
  0
ARC
  8
0
 10
9.10700
 20
7.10300
 30
0.0
 40
4.50051
 50
228.16135
 51
236.69484
  0
ARC
  8
0
 10
6.92900
 20
6.36900
 30
0.0
 40
2.74578
 50
252.53518
 51
262.61357
  0
ARC
  8
0
 10
28.27400
 20
46.39000
 30
0.0
 40
48.13173
 50
248.59892
 51
249.46067
  0
ARC
  8
0
 10
11.00400
 20
-1.57900
 30
0.0
 40
3.16957
 50
87.75780
 51
95.30408
  0
ARC
  8
0
 10
-13.53100
 20
-40.71700
 30
0.0
 40
48.96712
 50
59.76268
 51
60.58138
  0
ARC
  8
0
 10
10.66500
 20
1.06900
 30
0.0
 40
0.87903
 50
44.12427
 51
99.43017
  0
ARC
  8
0
 10
4.21800
 20
-4.87500
 30
0.0
 40
9.64775
 50
34.88109
 51
42.80741
  0
ARC
  8
0
 10
11.90200
 20
1.21900
 30
0.0
 40
0.62115
 50
239.38464
 51
291.73289
  0
ARC
  8
0
 10
11.54300
 20
0.82700
 30
0.0
 40
0.14900
 50
286.84720
 51
360.38453
  0
ARC
  8
0
 10
11.83100
 20
3.07300
 30
0.0
 40
2.24929
 50
252.53198
 51
266.45703
  0
ARC
  8
0
 10
12.14500
 20
-1.57900
 30
0.0
 40
2.69502
 50
103.04084
 51
111.52901
  0
ARC
  8
0
 10
12.72500
 20
5.38700
 30
0.0
 40
4.50062
 50
246.15774
 51
254.69464
  0
ARC
  8
0
 10
10.88100
 20
4.01600
 30
0.0
 40
2.74511
 50
270.52181
 51
280.62222
  0
ARC
  8
0
 10
9.55100
 20
48.51500
 30
0.0
 40
48.13177
 50
280.59903
 51
281.46121
  0
ARC
  8
0
 10
20.32500
 20
-1.31600
 30
0.0
 40
3.16949
 50
119.78525
 51
127.30737
  0
ARC
  8
0
 10
20.25700
 20
-47.50900
 30
0.0
 40
48.96667
 50
91.76246
 51
92.58094
  0
ARC
  8
0
 10
18.63400
 20
0.74900
 30
0.0
 40
0.87968
 50
76.12173
 51
131.44954
  0
ARC
  8
0
 10
16.31700
 20
-7.70800
 30
0.0
 40
9.64808
 50
66.88719
 51
74.80999
  0
ARC
  8
0
 10
19.60400
 20
1.53200
 30
0.0
 40
0.62118
 50
271.38369
 51
323.72133
  0
ARC
  8
0
 10
19.50700
 20
1.01000
 30
0.0
 40
0.14948
 50
318.52562
 51
392.08706
  0
ARC
  8
0
 10
18.56100
 20
3.06700
 30
0.0
 40
2.24983
 50
284.51802
 51
298.45599
  0
ARC
  8
0
 10
21.29300
 20
-0.71200
 30
0.0
 40
2.69549
 50
135.03006
 51
143.55530
  0
ARC
  8
0
 10
18.09300
 20
5.50300
 30
0.0
 40
4.50059
 50
278.16251
 51
286.69924
  0
ARC
  8
0
 10
17.25600
 20
3.36300
 30
0.0
 40
2.74550
 50
302.52081
 51
312.62327
  0
ARC
  8
0
 10
24.29500
 20
-5.70700
 30
0.0
 40
9.64718
 50
86.89232
 51
94.81642
  0
ARC
  8
0
 10
24.22300
 20
4.10000
 30
0.0
 40
0.62061
 50
291.35567
 51
343.69913
  0
ARC
  8
0
 10
24.31000
 20
3.57600
 30
0.0
 40
0.14912
 50
338.76939
 51
412.36108
  0
ARC
  8
0
 10
22.71800
 20
5.18600
 30
0.0
 40
2.25009
 50
304.51639
 51
318.44262
  0
ARC
  8
0
 10
26.57800
 20
2.56800
 30
0.0
 40
2.69595
 50
155.03190
 51
163.53489
  0
ARC
  8
0
 10
21.44500
 20
7.31500
 30
0.0
 40
4.50071
 50
298.15935
 51
306.68912
  0
ARC
  8
0
 10
21.39000
 20
5.01700
 30
0.0
 40
2.74534
 50
322.53321
 51
332.63223
  0
ARC
  8
0
 10
-1.29200
 20
44.81100
 30
0.0
 40
48.13119
 50
300.59893
 51
301.46026
  0
ARC
  8
0
 10
25.87500
 20
1.66900
 30
0.0
 40
3.17028
 50
139.75940
 51
147.28758
  0
ARC
  8
0
 10
41.61000
 20
-41.76000
 30
0.0
 40
48.96701
 50
111.76252
 51
112.58125
  0
ARC
  8
0
 10
23.57900
 20
3.03300
 30
0.0
 40
0.87885
 50
96.14563
 51
151.45198
  0
ARC
  8
0
 10
-12.15700
 20
34.99500
 30
0.0
 40
48.13080
 50
324.59877
 51
325.46039
  0
ARC
  8
0
 10
30.20900
 20
6.63300
 30
0.0
 40
3.17054
 50
163.76655
 51
171.29231
  0
ARC
  8
0
 10
62.24800
 20
-26.64200
 30
0.0
 40
48.96738
 50
135.76205
 51
136.58048
  0
ARC
  8
0
 10
27.55700
 20
6.94500
 30
0.0
 40
0.87879
 50
120.12501
 51
175.43128
  0
ARC
  8
0
 10
31.76600
 20
-0.74800
 30
0.0
 40
9.64757
 50
110.89040
 51
118.81522
  0
ARC
  8
0
 10
27.71100
 20
8.18200
 30
0.0
 40
0.62085
 50
315.39154
 51
367.68616
  0
ARC
  8
0
 10
28.00400
 20
7.73900
 30
0.0
 40
0.14916
 50
2.68977
 51
76.33885
  0
ARC
  8
0
 10
25.89400
 20
8.56100
 30
0.0
 40
2.24963
 50
328.54267
 51
342.45909
  0
ARC
  8
0
 10
30.48600
 20
7.74000
 30
0.0
 40
2.69639
 50
179.02250
 51
187.52303
  0
ARC
  8
0
 10
23.86600
 20
9.98900
 30
0.0
 40
4.50010
 50
322.14959
 51
330.68941
  0
ARC
  8
0
 10
24.75000
 20
7.86800
 30
0.0
 40
2.74478
 50
346.51563
 51
356.61638
  0
ARC
  8
0
 10
25.17300
 20
13.80700
 30
0.0
 40
4.50047
 50
340.15177
 51
348.68507
  0
ARC
  8
0
 10
26.66900
 20
12.06200
 30
0.0
 40
2.74588
 50
4.53315
 51
14.61824
  0
ARC
  8
0
 10
-16.81400
 20
26.45700
 30
0.0
 40
48.13153
 50
342.59882
 51
343.46038
  0
ARC
  8
0
 10
32.24300
 20
12.57500
 30
0.0
 40
3.17061
 50
181.75322
 51
189.29298
  0
ARC
  8
0
 10
72.99700
 20
-9.17000
 30
0.0
 40
48.96800
 50
153.76304
 51
154.58153
  0
ARC
  8
0
 10
29.62400
 20
12.05200
 30
0.0
 40
0.87879
 50
138.09033
 51
193.43482
  0
ARC
  8
0
 10
36.00500
 20
6.03600
 30
0.0
 40
9.64835
 50
128.89538
 51
136.81431
  0
ARC
  8
0
 10
29.38800
 20
13.27600
 30
0.0
 40
0.62073
 50
333.39367
 51
385.69763
  0
ARC
  8
0
 10
29.80400
 20
12.94500
 30
0.0
 40
0.14940
 50
20.87160
 51
94.22223
  0
ARC
  8
0
 10
27.54400
 20
13.07600
 30
0.0
 40
2.24907
 50
346.52607
 51
360.45856
  0
ARC
  8
0
 10
32.16400
 20
13.71300
 30
0.0
 40
2.69603
 50
197.01679
 51
205.50995
  0
ARC
  8
0
 10
25.10200
 20
17.41700
 30
0.0
 40
4.50101
 50
0.15275
 51
8.69003
  0
ARC
  8
0
 10
27.10500
 20
16.29000
 30
0.0
 40
2.74541
 50
24.51131
 51
34.61066
  0
ARC
  8
0
 10
-18.67900
 20
14.94400
 30
0.0
 40
48.13153
 50
2.59954
 51
3.46027
  0
ARC
  8
0
 10
32.16700
 20
18.67800
 30
0.0
 40
3.17019
 50
201.77456
 51
209.29867
  0
ARC
  8
0
 10
77.90100
 20
12.18200
 30
0.0
 40
48.96790
 50
173.76292
 51
174.58036
  0
ARC
  8
0
 10
29.88600
 20
17.29100
 30
0.0
 40
0.87921
 50
158.16228
 51
213.40088
  0
ARC
  8
0
 10
37.93900
 20
13.81900
 30
0.0
 40
9.64905
 50
148.88655
 51
156.81233
  0
ARC
  8
0
 10
29.24500
 20
18.36000
 30
0.0
 40
0.62107
 50
353.43568
 51
405.78304
  0
ARC
  8
0
 10
29.74900
 20
18.19200
 30
0.0
 40
0.14892
 50
40.64302
 51
114.31592
  0
ARC
  8
0
 10
27.58000
 20
17.54100
 30
0.0
 40
2.24976
 50
6.53426
 51
20.44874
  0
ARC
  8
0
 10
31.70400
 20
19.72100
 30
0.0
 40
2.69681
 50
217.02712
 51
225.52591
  0
ARC
  8
0
 10
23.82300
 20
20.52600
 30
0.0
 40
4.50043
 50
26.14372
 51
34.68952
  0
ARC
  8
0
 10
26.11700
 20
20.39000
 30
0.0
 40
2.74606
 50
50.51238
 51
60.62520
  0
ARC
  8
0
 10
-14.44300
 20
-0.88900
 30
0.0
 40
48.13065
 50
28.59915
 51
29.46079
  0
ARC
  8
0
 10
29.62000
 20
24.75600
 30
0.0
 40
3.17010
 50
227.76157
 51
235.29227
  0
ARC
  8
0
 10
73.57300
 20
38.96600
 30
0.0
 40
48.96804
 50
199.76228
 51
200.58152
  0
ARC
  8
0
 10
28.17800
 20
22.50900
 30
0.0
 40
0.87925
 50
184.10883
 51
239.43863
  0
ARC
  8
0
 10
36.93800
 20
22.91900
 30
0.0
 40
9.64860
 50
174.88622
 51
182.80992
  0
ARC
  8
0
 10
27.13300
 20
23.18900
 30
0.0
 40
0.62138
 50
19.36840
 51
71.71084
  0
ARC
  8
0
 10
27.66000
 20
23.25900
 30
0.0
 40
0.14916
 50
66.54767
 51
140.44033
  0
ARC
  8
0
 10
25.99600
 20
21.72300
 30
0.0
 40
2.24934
 50
32.54543
 51
46.47711
  0
ARC
  8
0
 10
28.74700
 20
25.49000
 30
0.0
 40
2.69677
 50
243.00738
 51
251.51129
  0
ARC
  8
0
 10
21.28100
 20
23.28800
 30
0.0
 40
4.50051
 50
48.16135
 51
56.69484
  0
ARC
  8
0
 10
23.45900
 20
24.02200
 30
0.0
 40
2.74578
 50
72.53518
 51
82.61357
  0
ARC
  8
0
 10
-6.17600
 20
-10.90200
 30
0.0
 40
48.13082
 50
50.59986
 51
51.46066
  0
ARC
  8
0
 10
25.07200
 20
29.38200
 30
0.0
 40
3.16987
 50
249.75282
 51
257.27906
  0
ARC
  8
0
 10
60.50100
 20
59.02200
 30
0.0
 40
48.96838
 50
221.76161
 51
222.58009
  0
ARC
  8
0
 10
24.57500
 20
26.75800
 30
0.0
 40
0.87881
 50
206.12769
 51
261.42733
  0
ARC
  8
0
 10
32.54400
 20
30.42000
 30
0.0
 40
9.64867
 50
196.88923
 51
204.81205
  0
ARC
  8
0
 10
23.35200
 20
26.99800
 30
0.0
 40
0.62068
 50
41.34223
 51
93.69733
  0
ARC
  8
0
 10
23.81400
 20
27.25900
 30
0.0
 40
0.14905
 50
88.46223
 51
161.93154
  0
ARC
  8
0
 10
22.84700
 20
25.21200
 30
0.0
 40
2.25009
 50
54.53635
 51
68.46339
  0
ARC
  8
0
 10
23.98600
 20
29.73500
 30
0.0
 40
2.69617
 50
265.02105
 51
273.52994
  0
ARC
  8
0
 10
17.66200
 20
25.00400
 30
0.0
 40
4.50088
 50
66.14609
 51
74.68236
  0
ARC
  8
0
 10
19.50700
 20
26.37500
 30
0.0
 40
2.74602
 50
90.52181
 51
100.61837
  0
ARC
  8
0
 10
2.11400
 20
-15.99800
 30
0.0
 40
48.13173
 50
68.59892
 51
69.46067
  0
ARC
  8
0
 10
19.38400
 20
31.97100
 30
0.0
 40
3.16957
 50
267.75780
 51
275.30408
  0
ARC
  8
0
 10
43.92000
 20
71.10900
 30
0.0
 40
48.96846
 50
239.76167
 51
240.58093
  0
ARC
  8
0
 10
19.72300
 20
29.32200
 30
0.0
 40
0.87903
 50
224.12427
 51
279.43017
  0
ARC
  8
0
 10
26.17000
 20
35.26700
 30
0.0
 40
9.64843
 50
214.88596
 51
222.81176
  0
ARC
  8
0
 10
18.48600
 20
29.17200
 30
0.0
 40
0.62115
 50
59.38464
 51
111.73289
  0
ARC
  8
0
 10
18.84500
 20
29.56400
 30
0.0
 40
0.14900
 50
106.84720
 51
180.38453
  0
ARC
  8
0
 10
18.55700
 20
27.31800
 30
0.0
 40
2.24929
 50
72.53198
 51
86.45703
  0
ARC
  8
0
 10
18.24300
 20
31.97200
 30
0.0
 40
2.69688
 50
283.03125
 51
291.51341
  0
ARC
  8
0
 10
13.79300
 20
25.22300
 30
0.0
 40
4.50036
 50
84.15892
 51
92.70027
  0
ARC
  8
0
 10
15.12300
 20
27.09600
 30
0.0
 40
2.74612
 50
108.51412
 51
118.61879
  0
ARC
  8
0
 10
11.67600
 20
-18.57800
 30
0.0
 40
48.13174
 50
86.59943
 51
87.46122
  0
ARC
  8
0
 10
13.27800
 20
32.38100
 30
0.0
 40
3.17016
 50
285.75920
 51
293.28165
  0
ARC
  8
0
 10
24.51900
 20
77.18500
 30
0.0
 40
48.96852
 50
257.76182
 51
258.57969
  0
ARC
  8
0
 10
14.41800
 20
29.96600
 30
0.0
 40
0.87887
 50
242.18071
 51
297.43973
  0
ARC
  8
0
 10
18.71300
 20
37.61300
 30
0.0
 40
9.64928
 50
232.88903
 51
240.81563
  0
ARC
  8
0
 10
13.28800
 20
29.44100
 30
0.0
 40
0.62107
 50
77.35112
 51
129.77011
  0
ARC
  8
0
 10
13.50800
 20
29.92500
 30
0.0
 40
0.14862
 50
124.54837
 51
198.43495
  0
ARC
  8
0
 10
13.92800
 20
27.70000
 30
0.0
 40
2.24908
 50
90.50951
 51
104.44404
  0
ARC
  8
0
 10
12.19200
 20
32.02900
 30
0.0
 40
2.69648
 50
301.00749
 51
309.52263
  0
ARC
  8
0
 10
27.88000
 20
-16.03400
 30
0.0
 40
48.13127
 50
112.60054
 51
113.46197
  0
ARC
  8
0
 10
6.98000
 20
30.46900
 30
0.0
 40
3.17033
 50
311.75211
 51
319.28501
  0
ARC
  8
0
 10
-2.55700
 20
75.66600
 30
0.0
 40
48.96796
 50
283.76097
 51
284.58026
  0
ARC
  8
0
 10
9.06400
 20
28.79900
 30
0.0
 40
0.87947
 50
268.11038
 51
323.41684
  0
ARC
  8
0
 10
9.57100
 20
37.55400
 30
0.0
 40
9.64889
 50
258.89154
 51
266.81556
  0
ARC
  8
0
 10
8.27800
 20
27.83100
 30
0.0
 40
0.62092
 50
103.40960
 51
155.74700
  0
ARC
  8
0
 10
8.26400
 20
28.36200
 30
0.0
 40
0.14921
 50
150.68411
 51
224.18542
  0
ARC
  8
0
 10
9.61700
 20
26.54700
 30
0.0
 40
2.24948
 50
116.50810
 51
130.47420
  0
ARC
  8
0
 10
6.15900
 20
29.67600
 30
0.0
 40
2.69584
 50
327.02337
 51
335.54549
  0
ARC
  8
0
 10
10.58100
 20
24.26100
 30
0.0
 40
4.50073
 50
110.15822
 51
118.69479
  0
ARC
  8
0
 10
10.95500
 20
26.52900
 30
0.0
 40
2.74508
 50
134.52771
 51
144.62491
  0
ARC
  8
0
 10
37.67500
 20
-10.08200
 30
0.0
 40
48.13173
 50
132.60032
 51
133.46112
  0
ARC
  8
0
 10
2.13100
 20
26.46800
 30
0.0
 40
3.16983
 50
331.76904
 51
339.28952
  0
ARC
  8
0
 10
-22.28900
 20
65.67800
 30
0.0
 40
48.96733
 50
303.76081
 51
304.57897
  0
ARC
  8
0
 10
4.66000
 20
25.61200
 30
0.0
 40
0.87880
 50
288.16692
 51
343.40069
  0
ARC
  8
0
 10
2.14300
 20
34.01300
 30
0.0
 40
9.64889
 50
278.88928
 51
286.81414
  0
ARC
  8
0
 10
4.25300
 20
24.43400
 30
0.0
 40
0.62071
 50
123.43406
 51
175.74997
  0
ARC
  8
0
 10
4.05800
 20
24.92800
 30
0.0
 40
0.14894
 50
170.72740
 51
244.12315
  0
ARC
  8
0
 10
5.95000
 20
23.68500
 30
0.0
 40
2.24938
 50
136.51312
 51
150.46048
  0
ARC
  8
0
 10
1.63000
 20
25.44300
 30
0.0
 40
2.69619
 50
347.01016
 51
355.53284
  0
ARC
  8
0
 10
7.63800
 20
21.86700
 30
0.0
 40
4.50022
 50
130.15934
 51
138.70269
  0
ARC
  8
0
 10
7.21400
 20
24.12600
 30
0.0
 40
2.74528
 50
154.53665
 51
164.62224
  0
ARC
  8
0
 10
45.55200
 20
0.29600
 30
0.0
 40
48.13190
 50
154.59930
 51
155.46048
  0
ARC
  8
0
 10
-1.09500
 20
20.87000
 30
0.0
 40
3.16881
 50
353.76763
 51
361.30195
  0
ARC
  8
0
 10
-38.42600
 20
48.07600
 30
0.0
 40
48.96645
 50
325.76212
 51
326.58027
  0
ARC
  8
0
 10
1.57000
 20
21.02300
 30
0.0
 40
0.87802
 50
310.14821
 51
365.48983
  0
ARC
  8
0
 10
-3.91000
 20
27.86900
 30
0.0
 40
9.64697
 50
300.88533
 51
308.81008
  0
ARC
  8
0
 10
1.63300
 20
19.77900
 30
0.0
 40
0.62050
 50
145.43917
 51
197.73412
  0
ARC
  8
0
 10
1.26700
 20
20.16400
 30
0.0
 40
0.14927
 50
192.82134
 51
266.54338
  0
ARC
  8
0
 10
3.48800
 20
19.72000
 30
0.0
 40
2.24942
 50
158.51077
 51
172.46427
  0
ARC
  8
0
 10
-1.17500
 20
19.73200
 30
0.0
 40
2.69522
 50
9.03232
 51
17.53410
  0
ARC
  8
0
 10
5.73400
 20
18.66700
 30
0.0
 40
4.50107
 50
152.17090
 51
160.69554
  0
ARC
  8
0
 10
4.49400
 20
20.60200
 30
0.0
 40
2.74502
 50
176.53303
 51
186.61226
  0
ARC
  8
0
 10
3.38500
 20
16.28900
 30
0.0
 40
2.74584
 50
194.53221
 51
204.62356
  0
ARC
  8
0
 10
5.16100
 20
14.83100
 30
0.0
 40
4.50019
 50
170.16092
 51
178.68850
  0
ARC
  8
0
 10
-1.73900
 20
13.70900
 30
0.0
 40
2.69555
 50
27.03086
 51
35.51791
  0
ARC
  8
0
 10
2.70000
 20
15.13900
 30
0.0
 40
2.24931
 50
176.53331
 51
190.45066
  0
ARC
  8
0
 10
0.45100
 20
14.87500
 30
0.0
 40
0.14886
 50
210.69972
 51
284.41011
  0
ARC
  8
0
 10
0.91800
 20
14.62200
 30
0.0
 40
0.62111
 50
163.43336
 51
215.76287
  0
ARC
  8
0
 10
-6.85400
 20
20.60300
 30
0.0
 40
9.64728
 50
318.88335
 51
326.80906
  0
ARC
  8
0
 10
0.47300
 20
15.78600
 30
0.0
 40
0.87852
 50
328.11905
 51
383.41273
  0
ARC
  8
0
 10
-45.92500
 20
29.15500
 30
0.0
 40
48.96670
 50
343.76128
 51
344.57986
  0
ARC
  8
0
 10
-2.01400
 20
14.81600
 30
0.0
 40
3.16895
 50
11.76386
 51
19.29261
  0
ARC
  8
0
 10
48.70800
 20
9.66400
 30
0.0
 40
48.13209
 50
172.60021
 51
173.46131
  0
ARC
  8
0
 10
47.63200
 20
24.38600
 30
0.0
 40
48.13304
 50
196.59994
 51
197.46146
  0
ARC
  8
0
 10
-0.80100
 20
8.46200
 30
0.0
 40
3.16858
 50
35.76680
 51
43.29915
  0
ARC
  8
0
 10
-46.74800
 20
3.70100
 30
0.0
 40
48.96710
 50
7.76158
 51
8.58070
  0
ARC
  8
0
 10
1.07600
 20
10.35900
 30
0.0
 40
0.87973
 50
352.15559
 51
407.44154
  0
ARC
  8
0
 10
-7.57700
 20
11.77900
 30
0.0
 40
9.64785
 50
342.89290
 51
350.81496
  0
ARC
  8
0
 10
1.95700
 20
9.47700
 30
0.0
 40
0.62117
 50
187.39959
 51
239.71698
  0
ARC
  8
0
 10
1.42700
 20
9.51800
 30
0.0
 40
0.14883
 50
234.59692
 51
308.17885
  0
ARC
  8
0
 10
3.37400
 20
10.67400
 30
0.0
 40
2.24978
 50
200.50537
 51
214.45999
  0
ARC
  8
0
 10
-0.09900
 20
7.56200
 30
0.0
 40
2.69572
 50
51.03811
 51
59.55385
  0
ARC
  8
0
 10
5.74800
 20
11.39400
 30
0.0
 40
4.50074
 50
194.15975
 51
202.69038
  0
ARC
  8
0
 10
3.53200
 20
12.00300
 30
0.0
 40
2.74554
 50
218.52292
 51
228.61776
  0
ARC
  8
0
 10
42.79700
 20
34.76000
 30
0.0
 40
48.13235
 50
216.59968
 51
217.46081
  0
ARC
  8
0
 10
2.73100
 20
3.23100
 30
0.0
 40
3.17053
 50
55.75859
 51
63.28947
  0
ARC
  8
0
 10
-38.81600
 20
-16.95600
 30
0.0
 40
48.96713
 50
27.76083
 51
28.57908
  0
ARC
  8
0
 10
3.84700
 20
5.65700
 30
0.0
 40
0.87869
 50
12.15396
 51
67.43534
  0
ARC
  8
0
 10
-4.77000
 20
4.03200
 30
0.0
 40
9.64731
 50
2.88761
 51
10.81375
  0
ARC
  8
0
 10
4.97600
 20
5.12900
 30
0.0
 40
0.62100
 50
207.43185
 51
259.70341
  0
ARC
  8
0
 10
4.46400
 20
4.98600
 30
0.0
 40
0.14904
 50
254.74488
 51
328.44287
  0
ARC
  8
0
 10
5.89800
 20
6.73900
 30
0.0
 40
2.24962
 50
220.54603
 51
234.48009
  0
ARC
  8
0
 10
3.69800
 20
2.62600
 30
0.0
 40
2.69608
 50
71.01389
 51
79.50698
  0
ARC
  8
0
 10
7.88300
 20
8.22700
 30
0.0
 40
4.50084
 50
214.15969
 51
222.69500
  0
ARC
  8
0
 10
5.59200
 20
8.04200
 30
0.0
 40
2.74595
 50
238.53878
 51
248.62093
  0
ARC
  8
0
 10
31.79500
 20
44.51300
 30
0.0
 40
48.13304
 50
240.59958
 51
241.46060
  0
ARC
  8
0
 10
8.01600
 20
-0.58600
 30
0.0
 40
3.16859
 50
79.74691
 51
87.28659
  0
ARC
  8
0
 10
-21.72700
 20
-35.92800
 30
0.0
 40
48.96725
 50
51.76141
 51
52.58015
  0
ARC
  8
0
 10
8.05000
 20
2.08300
 30
0.0
 40
0.87927
 50
36.15211
 51
91.43372
  0
ARC
  8
0
 10
0.83800
 20
-2.90600
 30
0.0
 40
9.64789
 50
26.88641
 51
34.80859
  0
ARC
  8
0
 10
9.29600
 20
2.06000
 30
0.0
 40
0.62110
 50
231.34019
 51
283.70040
  0
ARC
  8
0
 10
8.88600
 20
1.72200
 30
0.0
 40
0.14863
 50
278.51171
 51
352.25223
  0
ARC
  8
0
 10
9.48300
 20
3.90500
 30
0.0
 40
2.24855
 50
244.52899
 51
258.45519
  0
ARC
  8
0
 10
9.14700
 20
-0.74500
 30
0.0
 40
2.69491
 50
95.02501
 51
103.54122
  0
ARC
  8
0
 10
10.69100
 20
6.07200
 30
0.0
 40
4.50000
 50
238.15390
 51
246.69943
  0
ARC
  8
0
 10
8.67400
 20
4.97100
 30
0.0
 40
2.74484
 50
262.52539
 51
272.61014
  0
ARC
  8
0
 10
14.56200
 20
5.14500
 30
0.0
 40
4.50026
 50
256.15214
 51
264.69607
  0
ARC
  8
0
 10
12.98400
 20
3.47400
 30
0.0
 40
2.74496
 50
280.51961
 51
290.62689
  0
ARC
  8
0
 10
22.75400
 20
48.22500
 30
0.0
 40
48.13185
 50
258.59949
 51
259.46166
  0
ARC
  8
0
 10
14.07600
 20
-2.01400
 30
0.0
 40
3.16924
 50
97.76191
 51
105.29476
  0
ARC
  8
0
 10
-3.29000
 20
-44.81800
 30
0.0
 40
48.96679
 50
69.76277
 51
70.58112
  0
ARC
  8
0
 10
13.28300
 20
0.53500
 30
0.0
 40
0.87873
 50
54.12123
 51
109.48708
  0
ARC
  8
0
 10
7.96600
 20
-6.43900
 30
0.0
 40
9.64849
 50
44.88663
 51
52.80942
  0
ARC
  8
0
 10
14.47500
 20
0.89700
 30
0.0
 40
0.62090
 50
249.34675
 51
301.81933
  0
ARC
  8
0
 10
14.19000
 20
0.44900
 30
0.0
 40
0.14847
 50
296.39247
 51
370.47742
  0
ARC
  8
0
 10
14.08300
 20
2.71100
 30
0.0
 40
2.24927
 50
262.54004
 51
276.45834
  0
ARC
  8
0
 10
15.20000
 20
-1.81600
 30
0.0
 40
2.69471
 50
113.02549
 51
121.52532
  0
ARC
  8
0
 10
6.95900
 20
2.88200
 30
0.0
 40
1.07342
 50
44.54708
 51
91.33470
  0
ARC
  8
0
 10
8.03200
 20
2.06300
 30
0.0
 40
1.19213
 50
47.71984
 51
90.86514
  0
ARC
  8
0
 10
9.36000
 20
1.41100
 30
0.0
 40
1.28120
 50
53.28215
 51
95.01624
  0
ARC
  8
0
 10
10.63500
 20
1.03100
 30
0.0
 40
1.22856
 50
54.74430
 51
97.15394
  0
ARC
  8
0
 10
12.03100
 20
0.88500
 30
0.0
 40
1.00346
 50
57.90987
 51
104.83947
  0
ARC
  8
0
 10
13.25800
 20
0.49500
 30
0.0
 40
1.15863
 50
59.60469
 51
102.30889
  0
ARC
  8
0
 10
14.61100
 20
0.84400
 30
0.0
 40
0.72330
 50
60.77606
 51
125.20617
  0
ARC
  8
0
 10
15.94300
 20
0.44500
 30
0.0
 40
1.15465
 50
74.01371
 51
117.94113
  0
ARC
  8
0
 10
17.20100
 20
0.73700
 30
0.0
 40
0.95462
 50
76.48792
 51
126.43776
  0
ARC
  8
0
 10
18.50400
 20
0.99800
 30
0.0
 40
0.91774
 50
81.22536
 51
133.36595
  0
ARC
  8
0
 10
19.85900
 20
1.19800
 30
0.0
 40
1.11232
 50
84.58165
 51
137.11301
  0
ARC
  8
0
 10
21.05700
 20
1.95200
 30
0.0
 40
0.78664
 50
89.48975
 51
153.33723
  0
ARC
  8
0
 10
22.36500
 20
2.40900
 30
0.0
 40
1.01239
 50
101.74289
 51
157.15811
  0
ARC
  8
0
 10
23.46000
 20
3.21300
 30
0.0
 40
0.95434
 50
101.85155
 51
164.92928
  0
ARC
  8
0
 10
24.60000
 20
3.98800
 30
0.0
 40
1.02421
 50
109.74414
 51
165.23080
  0
ARC
  8
0
 10
25.43300
 20
4.94300
 30
0.0
 40
0.90453
 50
107.11205
 51
170.83967
  0
ARC
  8
0
 10
26.61600
 20
5.82400
 30
0.0
 40
1.09263
 50
119.49772
 51
172.53015
  0
ARC
  8
0
 10
27.67500
 20
6.91600
 30
0.0
 40
1.26281
 50
137.63170
 51
176.91084
  0
ARC
  8
0
 10
28.20900
 20
8.09500
 30
0.0
 40
1.09604
 50
139.62551
 51
182.09207
  0
ARC
  8
0
 10
28.93700
 20
9.38300
 30
0.0
 40
1.28080
 50
143.15694
 51
188.39583
  0
ARC
  8
0
 10
29.33600
 20
10.71100
 30
0.0
 40
1.20493
 50
147.12763
 51
188.39909
  0
ARC
  8
0
 10
29.43700
 20
12.10800
 30
0.0
 40
0.94300
 50
154.76654
 51
198.74237
  0
ARC
  8
0
 10
29.85200
 20
13.28100
 30
0.0
 40
1.15791
 50
157.44486
 51
200.15643
  0
ARC
  8
0
 10
29.88900
 20
14.69200
 30
0.0
 40
1.02748
 50
161.67089
 51
207.78711
  0
ARC
  8
0
 10
29.96600
 20
15.98700
 30
0.0
 40
1.15560
 50
167.55189
 51
210.47057
  0
ARC
  8
0
 10
29.60800
 20
17.21300
 30
0.0
 40
0.88962
 50
166.21368
 51
219.70656
  0
ARC
  8
0
 10
29.35700
 20
18.49600
 30
0.0
 40
0.84417
 50
173.26240
 51
230.67239
  0
ARC
  8
0
 10
29.22000
 20
19.87300
 30
0.0
 40
1.10035
 50
185.58105
 51
232.16155
  0
ARC
  8
0
 10
28.58600
 20
20.98900
 30
0.0
 40
0.85570
 50
183.61810
 51
240.43791
  0
ARC
  8
0
 10
27.99500
 20
22.24900
 30
0.0
 40
0.90946
 50
190.58095
 51
246.93389
  0
ARC
  8
0
 10
27.18500
 20
23.43100
 30
0.0
 40
0.90197
 50
201.18801
 51
253.83639
  0
ARC
  8
0
 10
26.42200
 20
24.64400
 30
0.0
 40
1.02422
 50
213.89181
 51
256.04516
  0
ARC
  8
0
 10
25.46800
 20
25.47600
 30
0.0
 40
0.90407
 50
208.83301
 51
263.39384
  0
ARC
  8
0
 10
24.58700
 20
26.65900
 30
0.0
 40
1.09212
 50
214.78142
 51
263.53233
  0
ARC
  8
0
 10
23.65600
 20
27.89200
 30
0.0
 40
1.50704
 50
229.73685
 51
260.75651
  0
ARC
  8
0
 10
22.38200
 20
28.33800
 30
0.0
 40
1.23330
 50
228.45134
 51
270.09294
  0
ARC
  8
0
 10
20.96500
 20
28.58700
 30
0.0
 40
0.91769
 50
228.57909
 51
280.61198
  0
ARC
  8
0
 10
19.67300
 20
29.04900
 30
0.0
 40
0.92591
 50
233.47667
 51
285.08687
  0
ARC
  8
0
 10
18.25600
 20
29.48200
 30
0.0
 40
0.97762
 50
243.77568
 51
290.23355
  0
ARC
  8
0
 10
17.07600
 20
29.70700
 30
0.0
 40
1.02429
 50
246.88956
 51
291.65599
  0
ARC
  8
0
 10
15.76000
 20
29.76700
 30
0.0
 40
0.91718
 50
245.11142
 51
298.96961
  0
ARC
  8
0
 10
14.44500
 20
29.96700
 30
0.0
 40
1.15563
 50
254.38831
 51
298.49564
  0
ARC
  8
0
 10
13.12000
 20
29.81400
 30
0.0
 40
1.09474
 50
260.64094
 51
307.80154
  0
ARC
  8
0
 10
11.82000
 20
29.61100
 30
0.0
 40
1.06832
 50
264.84442
 51
314.16529
  0
ARC
  8
0
 10
10.56900
 20
29.05900
 30
0.0
 40
0.87495
 50
267.70415
 51
327.50872
  0
ARC
  8
0
 10
9.07000
 20
28.85600
 30
0.0
 40
1.26516
 50
280.24409
 51
324.97830
  0
ARC
  8
0
 10
8.02300
 20
28.00300
 30
0.0
 40
1.01233
 50
283.72038
 51
334.80189
  0
ARC
  8
0
 10
6.92700
 20
27.19900
 30
0.0
 40
0.95485
 50
289.13711
 51
344.69752
  0
ARC
  8
0
 10
5.78800
 20
26.42400
 30
0.0
 40
1.02403
 50
295.63899
 51
345.40737
  0
ARC
  8
0
 10
4.95500
 20
25.46900
 30
0.0
 40
0.90418
 50
286.71138
 51
349.28688
  0
ARC
  8
0
 10
3.77200
 20
24.58800
 30
0.0
 40
1.09277
 50
303.38453
 51
354.64417
  0
ARC
  8
0
 10
2.71300
 20
23.49600
 30
0.0
 40
1.26269
 50
313.39460
 51
358.09387
  0
ARC
  8
0
 10
1.81700
 20
22.37800
 30
0.0
 40
1.44319
 50
322.40719
 51
359.04714
  0
ARC
  8
0
 10
1.45100
 20
21.02900
 30
0.0
 40
1.28137
 50
325.97509
 51
365.06080
  0
ARC
  8
0
 10
1.05500
 20
19.74500
 30
0.0
 40
1.22236
 50
325.63391
 51
368.46819
  0
ARC
  8
0
 10
0.59100
 20
18.33400
 30
0.0
 40
1.29346
 50
337.30175
 51
374.36929
  0
ARC
  8
0
 10
0.53600
 20
17.13100
 30
0.0
 40
1.15773
 50
337.22398
 51
378.79490
  0
ARC
  8
0
 10
0.35700
 20
15.78500
 30
0.0
 40
1.22924
 50
343.89454
 51
384.98028
  0
ARC
  8
0
 10
0.42200
 20
14.40400
 30
0.0
 40
1.15548
 50
344.23169
 51
388.93899
  0
ARC
  8
0
 10
0.39100
 20
13.09000
 30
0.0
 40
1.27782
 50
352.53573
 51
390.31776
  0
ARC
  8
0
 10
1.11600
 20
11.90000
 30
0.0
 40
0.78880
 50
350.95563
 51
410.09212
  0
ARC
  8
0
 10
1.37400
 20
10.63200
 30
0.0
 40
0.81799
 50
351.49348
 51
415.00798
  0
ARC
  8
0
 10
1.67600
 20
9.20700
 30
0.0
 40
1.00965
 50
11.88866
 51
57.12839
  0
ARC
  8
0
 10
2.39600
 20
8.11500
 30
0.0
 40
0.93940
 50
14.80567
 51
66.27284
  0
ARC
  8
0
 10
3.29300
 20
7.14300
 30
0.0
 40
0.72252
 50
13.78596
 51
76.30995
  0
ARC
  8
0
 10
4.01600
 20
5.90900
 30
0.0
 40
0.89390
 50
22.08717
 51
78.51408
  0
ARC
  8
0
 10
4.92000
 20
4.91500
 30
0.0
 40
0.90440
 50
24.49639
 51
82.49753
  0
ARC
  8
0
 10
5.80100
 20
3.73200
 30
0.0
 40
1.09235
 50
31.63843
 51
83.00513
  0
ARC
  8
0
 10
11.76300
 20
25.20900
 30
0.0
 40
0.91760
 50
270.12496
 51
284.83891
  0
ARC
  8
0
 10
11.94600
 20
24.40000
 30
0.0
 40
0.09398
 50
303.69007
 51
380.55605
  0
ARC
  8
0
 10
11.96200
 20
25.11000
 30
0.0
 40
0.68138
 50
247.38660
 51
276.07068
  0
ARC
  8
0
 10
11.96400
 20
24.57600
 30
0.0
 40
0.28057
 50
152.61258
 51
199.79119
  0
ARC
  8
0
 10
11.93800
 20
24.39100
 30
0.0
 40
0.38512
 50
81.17454
 51
125.38203
  0
ARC
  8
0
 10
11.59100
 20
24.73900
 30
0.0
 40
0.40725
 50
352.94481
 51
364.50661
  0
ARC
  8
0
 10
12.00000
 20
23.97200
 30
0.0
 40
0.71701
 50
90.39955
 51
105.12192
  0
ARC
  8
0
 10
11.92000
 20
24.58900
 30
0.0
 40
0.13066
 50
144.97206
 51
197.87870
  0
ARC
  8
0
 10
11.81100
 20
23.23300
 30
0.0
 40
1.31608
 50
77.40034
 51
90.65304
  0
ARC
  8
0
 10
11.88900
 20
24.41000
 30
0.0
 40
0.23553
 50
327.65941
 51
387.11071
  0
ARC
  8
0
 10
11.87200
 20
24.58300
 30
0.0
 40
0.36915
 50
252.98856
 51
305.84465
  0
ARC
  8
0
 10
11.95400
 20
24.25800
 30
0.0
 40
0.19205
 50
169.80190
 51
188.38325
  0
ARC
  8
0
 10
15.52200
 20
24.59400
 30
0.0
 40
0.39418
 50
262.71272
 51
279.19939
  0
ARC
  8
0
 10
19.67300
 20
24.15000
 30
0.0
 40
4.20133
 50
171.81589
 51
179.27719
  0
ARC
  8
0
 10
15.12800
 20
15.74300
 30
0.0
 40
9.01423
 50
85.71196
 51
87.53916
  0
ARC
  8
0
 10
15.61600
 20
24.65800
 30
0.0
 40
0.20041
 50
351.10169
 51
381.69511
  0
ARC
  8
0
 10
15.75900
 20
27.43100
 30
0.0
 40
2.80554
 50
267.11924
 51
271.12370
  0
ARC
  8
0
 10
17.09300
 20
24.59300
 30
0.0
 40
1.47543
 50
178.60187
 51
183.88640
  0
ARC
  8
0
 10
15.63300
 20
23.50700
 30
0.0
 40
0.98607
 50
81.83703
 51
90.69728
  0
ARC
  8
0
 10
15.49000
 20
24.46800
 30
0.0
 40
0.28343
 50
351.06941
 51
363.03404
  0
ARC
  8
0
 10
15.72900
 20
21.44000
 30
0.0
 40
2.98428
 50
89.21281
 51
92.22993
  0
ARC
  8
0
 10
12.27600
 20
24.74700
 30
0.0
 40
3.35308
 50
350.71466
 51
354.38632
  0
ARC
  8
0
 10
14.20600
 20
17.79100
 30
0.0
 40
0.04440
 50
352.23483
 51
480.06858
  0
ARC
  8
0
 10
14.59600
 20
17.43000
 30
0.0
 40
0.57353
 50
135.91835
 51
158.08726
  0
ARC
  8
0
 10
13.71900
 20
18.22500
 30
0.0
 40
0.67571
 50
275.44033
 51
300.70200
  0
ARC
  8
0
 10
13.87900
 20
17.67400
 30
0.0
 40
0.15480
 50
164.25796
 51
231.57192
  0
ARC
  8
0
 10
13.56100
 20
18.85400
 30
0.0
 40
1.15088
 50
278.44704
 51
312.46457
  0
ARC
  8
0
 10
14.36000
 20
17.88400
 30
0.0
 40
0.12298
 50
63.43495
 51
100.30485
  0
ARC
  8
0
 10
14.64600
 20
17.98300
 30
0.0
 40
0.23126
 50
177.27369
 51
244.65382
  0
ARC
  8
0
 10
14.72800
 20
18.12200
 30
0.0
 40
0.39225
 50
242.52038
 51
270.87691
  0
ARC
  8
0
 10
14.67400
 20
17.71400
 30
0.0
 40
0.06280
 50
307.23483
 51
374.93142
  0
ARC
  8
0
 10
14.87500
 20
18.60700
 30
0.0
 40
0.95698
 50
240.16599
 51
260.19318
  0
ARC
  8
0
 10
13.18100
 20
17.85800
 30
0.0
 40
1.22092
 50
346.06619
 51
356.19529
  0
ARC
  8
0
 10
14.66500
 20
18.62600
 30
0.0
 40
1.10328
 50
243.34205
 51
254.27574
  0
ARC
  8
0
 10
14.01200
 20
17.82200
 30
0.0
 40
0.24101
 50
310.96229
 51
351.16341
  0
ARC
  8
0
 10
22.55100
 20
23.53800
 30
0.0
 40
2.84273
 50
244.69696
 51
281.05300
  0
ARC
  8
0
 10
23.03100
 20
24.03600
 30
0.0
 40
3.28869
 50
247.94301
 51
271.13252
  0
ARC
  8
0
 10
21.45100
 20
23.62300
 30
0.0
 40
2.65748
 50
267.51981
 51
277.45929
  0
ARC
  8
0
 10
7.51900
 20
24.00300
 30
0.0
 40
3.28869
 50
268.86748
 51
292.05699
  0
ARC
  8
0
 10
7.99900
 20
23.50400
 30
0.0
 40
2.84182
 50
258.94313
 51
295.31165
  0
ARC
  8
0
 10
9.09900
 20
23.59000
 30
0.0
 40
2.65748
 50
262.54071
 51
272.48019
  0
ARC
  8
0
 10
18.43400
 20
25.17400
 30
0.0
 40
0.30644
 50
260.23030
 51
302.85900
  0
ARC
  8
0
 10
18.55200
 20
24.95100
 30
0.0
 40
0.05913
 50
324.68879
 51
446.12148
  0
ARC
  8
0
 10
18.80000
 20
27.97900
 30
0.0
 40
2.97900
 50
261.11637
 51
265.30184
  0
ARC
  8
0
 10
18.42400
 20
25.17900
 30
0.0
 40
0.16642
 50
138.16633
 51
239.56949
  0
ARC
  8
0
 10
18.50000
 20
24.99800
 30
0.0
 40
0.35392
 50
83.82110
 51
124.40847
  0
ARC
  8
0
 10
18.49400
 20
25.27600
 30
0.0
 40
0.08523
 50
356.63354
 51
418.92096
  0
ARC
  8
0
 10
18.71300
 20
23.54700
 30
0.0
 40
1.72919
 50
94.44445
 51
98.95023
  0
ARC
  8
0
 10
18.49100
 20
25.12200
 30
0.0
 40
0.14223
 50
109.46257
 51
152.35402
  0
ARC
  8
0
 10
18.41900
 20
25.20300
 30
0.0
 40
0.05608
 50
195.52411
 51
258.69007
  0
ARC
  8
0
 10
17.73500
 20
18.69100
 30
0.0
 40
6.49197
 50
81.65646
 51
84.04966
  0
ARC
  8
0
 10
18.53700
 20
24.98800
 30
0.0
 40
0.18835
 50
345.81571
 51
401.98721
  0
ARC
  8
0
 10
18.51700
 20
25.00300
 30
0.0
 40
0.21100
 50
243.43495
 51
343.19672
  0
ARC
  8
0
 10
18.63400
 20
25.01400
 30
0.0
 40
0.29003
 50
209.40091
 51
223.32353
  0
ARC
  8
0
 10
16.40400
 20
17.78100
 30
0.0
 40
0.04085
 50
21.54098
 51
190.17551
  0
ARC
  8
0
 10
16.94000
 20
18.10600
 30
0.0
 40
0.59301
 50
211.90185
 51
243.78062
  0
ARC
  8
0
 10
16.59900
 20
17.73800
 30
0.0
 40
0.18243
 50
295.72046
 51
347.33494
  0
ARC
  8
0
 10
16.89800
 20
18.28200
 30
0.0
 40
0.59745
 50
193.05931
 51
258.29441
  0
ARC
  8
0
 10
16.20200
 20
18.28500
 30
0.0
 40
0.17902
 50
287.22038
 51
309.55967
  0
ARC
  8
0
 10
15.49600
 20
18.25800
 30
0.0
 40
0.77253
 50
333.79989
 51
349.25733
  0
ARC
  8
0
 10
15.77500
 20
18.93200
 30
0.0
 40
1.09618
 50
274.97200
 51
292.18965
  0
ARC
  8
0
 10
15.86600
 20
17.73800
 30
0.0
 40
0.10207
 50
87.75426
 51
284.85861
  0
ARC
  8
0
 10
14.91300
 20
20.13900
 30
0.0
 40
2.68392
 50
291.39310
 51
298.14160
  0
ARC
  8
0
 10
15.01700
 20
17.73900
 30
0.0
 40
1.16152
 50
351.79278
 51
361.72674
  0
ARC
  8
0
 10
16.24800
 20
17.88700
 30
0.0
 40
0.32486
 50
254.46645
 51
296.32829
  0
ARC
  8
0
 10
15.85600
 20
17.58700
 30
0.0
 40
0.53607
 50
0.96197
 51
20.19318
  0
ARC
  8
0
 10
11.32700
 20
24.24000
 30
0.0
 40
2.04250
 50
265.14084
 51
305.87682
  0
ARC
  8
0
 10
49.62400
 20
-52.65400
 30
0.0
 40
84.16537
 50
116.33702
 51
117.19861
  0
ARC
  8
0
 10
12.11100
 20
22.31000
 30
0.0
 40
0.49617
 50
33.65804
 51
69.59263
  0
ARC
  8
0
 10
19.22200
 20
24.27300
 30
0.0
 40
2.04242
 50
234.14592
 51
274.88711
  0
ARC
  8
0
 10
-19.07300
 20
-52.62100
 30
0.0
 40
84.16492
 50
62.80200
 51
63.66359
  0
ARC
  8
0
 10
18.43800
 20
22.34300
 30
0.0
 40
0.49579
 50
110.29905
 51
146.27785
  0
ARC
  8
0
 10
17.97500
 20
17.61200
 30
0.0
 40
0.16162
 50
190.33655
 51
285.50504
  0
ARC
  8
0
 10
18.20200
 20
17.47600
 30
0.0
 40
0.18497
 50
158.02549
 51
185.89552
  0
ARC
  8
0
 10
18.01100
 20
17.34700
 30
0.0
 40
0.19912
 50
351.62574
 51
444.23211
  0
ARC
  8
0
 10
18.41000
 20
17.48200
 30
0.0
 40
0.26038
 50
219.07250
 51
247.17702
  0
ARC
  8
0
 10
17.82600
 20
17.29900
 30
0.0
 40
0.48635
 50
353.26952
 51
383.77107
  0
ARC
  8
0
 10
18.00500
 20
17.33900
 30
0.0
 40
0.30863
 50
30.39018
 51
127.76101
  0
ARC
  8
0
 10
16.41400
 20
12.17600
 30
0.0
 40
7.21725
 50
141.35631
 51
159.74966
  0
ARC
  8
0
 10
-1.56800
 20
6.01700
 30
0.0
 40
14.16439
 50
37.67489
 51
40.06557
  0
ARC
  8
0
 10
9.63900
 20
15.13800
 30
0.0
 40
0.36749
 50
141.85153
 51
180.62445
  0
ARC
  8
0
 10
9.39500
 20
15.69400
 30
0.0
 40
0.33206
 50
262.21152
 51
561.28641
  0
ARC
  8
0
 10
9.27600
 20
14.45500
 30
0.0
 40
1.13740
 50
99.58682
 51
113.63515
  0
ARC
  8
0
 10
8.24500
 20
14.04500
 30
0.0
 40
1.56170
 50
68.39616
 51
96.25103
  0
ARC
  8
0
 10
10.75800
 20
12.83100
 30
0.0
 40
3.85347
 50
89.70259
 51
134.12733
  0
ARC
  8
0
 10
0.24900
 20
25.99800
 30
0.0
 40
13.53962
 50
353.45185
 51
355.67107
  0
ARC
  8
0
 10
13.68900
 20
24.65900
 30
0.0
 40
0.32281
 50
79.10777
 51
101.13493
  0
ARC
  8
0
 10
8.73900
 20
25.20200
 30
0.0
 40
4.89397
 50
352.58020
 51
357.32938
  0
ARC
  8
0
 10
14.23700
 20
24.50700
 30
0.0
 40
0.64806
 50
174.42136
 51
184.51399
  0
ARC
  8
0
 10
13.65800
 20
24.90100
 30
0.0
 40
0.45005
 50
261.43776
 51
275.48258
  0
ARC
  8
0
 10
-2.48400
 20
19.70900
 30
0.0
 40
20.74263
 50
13.55053
 51
14.71826
  0
ARC
  8
0
 10
17.55300
 20
24.86400
 30
0.0
 40
0.11768
 50
77.73523
 51
134.30131
  0
ARC
  8
0
 10
3.55200
 20
21.43700
 30
0.0
 40
14.35589
 50
12.15608
 51
14.15240
  0
ARC
  8
0
 10
17.50400
 20
25.76200
 30
0.0
 40
1.30532
 50
273.60373
 51
286.74129
  0
ARC
  8
0
 10
17.81200
 20
24.52100
 30
0.0
 40
0.06896
 50
352.46055
 51
433.14160
  0
ARC
  8
0
 10
17.69500
 20
25.09900
 30
0.0
 40
0.53018
 50
268.48688
 51
284.98016
  0
ARC
  8
0
 10
14.81100
 20
20.70500
 30
0.0
 40
0.65701
 50
311.48139
 51
329.14093
  0
ARC
  8
0
 10
15.36900
 20
20.41600
 30
0.0
 40
0.23735
 50
182.17474
 51
238.78785
  0
ARC
  8
0
 10
15.47300
 20
20.09100
 30
0.0
 40
0.46523
 50
113.69990
 51
137.17915
  0
ARC
  8
0
 10
15.24500
 20
20.39100
 30
0.0
 40
0.13250
 50
349.96688
 51
431.97528
  0
ARC
  8
0
 10
21.62600
 20
25.97400
 30
0.0
 40
4.54121
 50
240.31302
 51
249.58572
  0
ARC
  8
0
 10
19.69100
 20
20.42300
 30
0.0
 40
1.63640
 50
88.42345
 51
101.06273
  0
ARC
  8
0
 10
21.21000
 20
24.23200
 30
0.0
 40
2.62658
 50
235.86222
 51
255.69392
  0
ARC
  8
0
 10
20.35700
 20
22.59100
 30
0.0
 40
0.92809
 50
250.15930
 51
282.71657
  0
ARC
  8
0
 10
9.34000
 20
24.19900
 30
0.0
 40
2.62741
 50
284.30069
 51
304.13778
  0
ARC
  8
0
 10
10.19300
 20
22.55800
 30
0.0
 40
0.92809
 50
257.29702
 51
289.84070
  0
ARC
  8
0
 10
8.92400
 20
25.94100
 30
0.0
 40
4.54190
 50
290.41428
 51
299.68073
  0
ARC
  8
0
 10
10.85900
 20
20.39000
 30
0.0
 40
1.63561
 50
78.93054
 51
91.57655
  0
ARC
  8
0
 10
24.18400
 20
21.10500
 30
0.0
 40
9.18806
 50
196.04818
 51
199.51959
  0
LINE
  8
0
 10
15.354
 20
18.565
 30
0.0
 11
15.344
 21
18.005
 31
0.0
  0
ARC
  8
0
 10
15.38900
 20
18.29000
 30
0.0
 40
0.28853
 50
261.02737
 51
297.89727
  0
ARC
  8
0
 10
18.52100
 20
16.69200
 30
0.0
 40
2.00758
 50
315.50453
 51
331.30299
  0
ARC
  8
0
 10
19.97900
 20
15.60700
 30
0.0
 40
0.32626
 50
317.36010
 51
381.76880
  0
ARC
  8
0
 10
20.69300
 20
15.01100
 30
0.0
 40
0.60472
 50
141.65110
 51
186.36112
  0
ARC
  8
0
 10
18.81300
 20
16.16500
 30
0.0
 40
1.76824
 50
316.32902
 51
339.67911
  0
ARC
  8
0
 10
20.00800
 20
15.61000
 30
0.0
 40
0.46777
 50
352.73795
 51
417.83882
  0
ARC
  8
0
 10
21.57300
 20
15.02700
 30
0.0
 40
1.64041
 50
143.35367
 51
170.95111
  0
ARC
  8
0
 10
23.69000
 20
17.85800
 30
0.0
 40
0.29928
 50
100.59612
 51
159.86969
  0
ARC
  8
0
 10
23.43900
 20
18.05800
 30
0.0
 40
0.10184
 50
199.50245
 51
252.81429
  0
ARC
  8
0
 10
21.13100
 20
19.46000
 30
0.0
 40
2.63734
 50
327.00892
 51
337.69431
  0
ARC
  8
0
 10
23.49400
 20
18.12700
 30
0.0
 40
0.34083
 50
332.38239
 51
436.94238
  0
ARC
  8
0
 10
22.90400
 20
18.47800
 30
0.0
 40
1.02700
 50
305.03777
 51
330.28972
  0
ARC
  8
0
 10
23.47400
 20
17.67500
 30
0.0
 40
0.04159
 50
145.92280
 51
297.18111
  0
ARC
  8
0
 10
22.95000
 20
18.17800
 30
0.0
 40
0.68593
 50
315.59066
 51
357.82631
  0
ARC
  8
0
 10
16.33500
 20
22.36300
 30
0.0
 40
1.94336
 50
161.14548
 51
188.70133
  0
ARC
  8
0
 10
16.13400
 20
22.18700
 30
0.0
 40
1.82768
 50
153.85623
 51
184.51892
  0
ARC
  8
0
 10
14.34000
 20
22.15200
 30
0.0
 40
0.11253
 50
255.59331
 51
311.71912
  0
ARC
  8
0
 10
20.53700
 20
17.17200
 30
0.0
 40
1.14546
 50
87.39744
 51
157.46478
  0
ARC
  8
0
 10
20.21600
 20
17.67600
 30
0.0
 40
0.74076
 50
59.76583
 51
185.04018
  0
ARC
  8
0
 10
37.67800
 20
29.79800
 30
0.0
 40
21.33783
 50
193.48007
 51
194.90374
  0
ARC
  8
0
 10
17.81600
 20
21.35400
 30
0.0
 40
3.58182
 50
99.50443
 51
104.35438
  0
ARC
  8
0
 10
17.15200
 20
24.80200
 30
0.0
 40
0.10978
 50
358.94882
 51
408.32312
  0
ARC
  8
0
 10
16.67700
 20
27.27600
 30
0.0
 40
2.54434
 50
278.40717
 51
283.27147
  0
ARC
  8
0
 10
16.23200
 20
24.45300
 30
0.0
 40
0.87298
 50
9.89392
 51
20.53299
  0
ARC
  8
0
 10
17.22400
 20
24.31500
 30
0.0
 40
0.31841
 50
84.59379
 51
114.62356
  0
ARC
  8
0
 10
17.15000
 20
24.57000
 30
0.0
 40
0.12107
 50
358.10661
 51
390.80145
  0
ARC
  8
0
 10
17.30600
 20
24.24700
 30
0.0
 40
0.32097
 50
96.26133
 51
122.40274
  0
ARC
  8
0
 10
17.32200
 20
24.52000
 30
0.0
 40
0.18801
 50
180.60951
 51
213.26692
  0
ARC
  8
0
 10
17.33100
 20
23.88300
 30
0.0
 40
0.55939
 50
87.84858
 51
107.26845
  0
ARC
  8
0
 10
17.11200
 20
24.41700
 30
0.0
 40
0.24132
 50
345.84859
 51
365.94686
  0
ARC
  8
0
 10
16.90000
 20
26.11800
 30
0.0
 40
1.81563
 50
274.99435
 51
284.21993
  0
ARC
  8
0
 10
15.27800
 20
19.57900
 30
0.0
 40
0.25446
 50
305.56385
 51
352.76308
  0
ARC
  8
0
 10
15.49400
 20
19.54300
 30
0.0
 40
0.18402
 50
211.87314
 51
248.31422
  0
ARC
  8
0
 10
22.42400
 20
14.39900
 30
0.0
 40
8.69963
 50
143.14459
 51
144.53965
  0
ARC
  8
0
 10
15.32800
 20
19.42200
 30
0.0
 40
0.23754
 50
31.74971
 51
55.30485
  0
ARC
  8
0
 10
15.97300
 20
20.82300
 30
0.0
 40
0.18170
 50
354.94831
 51
430.66519
  0
ARC
  8
0
 10
16.18100
 20
20.78000
 30
0.0
 40
0.26025
 50
124.66730
 51
161.63467
  0
ARC
  8
0
 10
16.11600
 20
20.85100
 30
0.0
 40
0.18296
 50
176.54128
 51
254.14063
  0
ARC
  8
0
 10
15.94500
 20
20.85100
 30
0.0
 40
0.21358
 50
304.50852
 51
348.11134
  0
ARC
  8
0
 10
14.37500
 20
20.86700
 30
0.0
 40
0.18339
 50
297.83183
 51
434.82708
  0
ARC
  8
0
 10
14.55800
 20
20.88800
 30
0.0
 40
0.20670
 50
130.87241
 51
241.69924
  0
ARC
  8
0
 10
15.03800
 20
21.88500
 30
0.0
 40
0.14266
 50
297.10387
 51
422.71201
  0
ARC
  8
0
 10
15.22100
 20
21.88500
 30
0.0
 40
0.17335
 50
133.12212
 51
227.10380
  0
ARC
  8
0
 10
25.14300
 20
35.44300
 30
0.0
 40
15.23679
 50
253.57990
 51
259.54851
  0
ARC
  8
0
 10
22.07100
 20
21.27300
 30
0.0
 40
0.87032
 50
263.73252
 51
290.72556
  0
ARC
  8
0
 10
30.43700
 20
54.80100
 30
0.0
 40
35.41845
 50
253.63219
 51
256.17915
  0
ARC
  8
0
 10
20.58100
 20
23.29300
 30
0.0
 40
2.47815
 50
267.10873
 51
275.90614
  0
ARC
  8
0
 10
5.40600
 20
35.41000
 30
0.0
 40
15.23679
 50
280.45149
 51
286.42371
  0
ARC
  8
0
 10
8.47900
 20
21.24000
 30
0.0
 40
0.87067
 50
249.21289
 51
276.26748
  0
ARC
  8
0
 10
0.11200
 20
54.76800
 30
0.0
 40
35.41870
 50
283.82242
 51
286.36937
  0
ARC
  8
0
 10
9.96900
 20
23.26000
 30
0.0
 40
2.47815
 50
264.09386
 51
272.89127
  0
ARC
  8
0
 10
15.71300
 20
32.90900
 30
0.0
 40
7.86429
 50
258.78866
 51
279.16049
  0
ARC
  8
0
 10
15.42000
 20
16.86600
 30
0.0
 40
8.42174
 50
79.43593
 51
98.44093
  0
ARC
  8
0
 10
23.39500
 20
16.07100
 30
0.0
 40
0.50849
 50
239.24881
 51
290.14689
  0
ARC
  8
0
 10
22.96900
 20
16.60000
 30
0.0
 40
0.98015
 50
279.75062
 51
307.82883
  0
LINE
  8
0
 10
23.570
 20
15.826
 30
0.0
 11
23.186
 21
15.836
 31
0.0
  0
ARC
  8
0
 10
23.27700
 20
15.81600
 30
0.0
 40
0.09317
 50
102.39541
 51
167.60459
  0
ARC
  8
0
 10
24.20000
 20
31.99200
 30
0.0
 40
16.11261
 50
266.64482
 51
268.26440
  0
ARC
  8
0
 10
23.38300
 20
15.86500
 30
0.0
 40
0.32973
 50
304.60711
 51
363.82563
  0
LINE
  8
0
 10
7.594
 20
14.148
 30
0.0
 11
7.819
 21
14.211
 31
0.0
  0
ARC
  8
0
 10
7.23900
 20
13.83000
 30
0.0
 40
0.69394
 50
33.30077
 51
75.38260
  0
ARC
  8
0
 10
8.57100
 20
15.71100
 30
0.0
 40
1.67414
 50
226.28271
 51
235.78770
  0
ARC
  8
0
 10
7.51400
 20
14.52600
 30
0.0
 40
0.23083
 50
244.87814
 51
300.23853
  0
ARC
  8
0
 10
7.14800
 20
13.95200
 30
0.0
 40
0.45405
 50
53.71215
 51
86.08520
  0
ARC
  8
0
 10
7.19800
 20
14.38300
 30
0.0
 40
0.02906
 50
130.81508
 51
213.69007
  0
ARC
  8
0
 10
5.01100
 20
9.70400
 30
0.0
 40
5.14036
 50
59.87354
 51
65.11509
  0
ARC
  8
0
 10
8.89300
 20
6.35100
 30
0.0
 40
1.56192
 50
16.52000
 51
30.34093
  0
ARC
  8
0
 10
8.86000
 20
2.76500
 30
0.0
 40
4.58803
 50
64.29505
 51
72.48133
  0
ARC
  8
0
 10
10.84500
 20
6.85700
 30
0.0
 40
0.04295
 50
245.22486
 51
443.21103
  0
ARC
  8
0
 10
10.29000
 20
5.94500
 30
0.0
 40
1.02502
 50
58.40348
 51
80.51011
  0
ARC
  8
0
 10
11.20900
 20
7.52700
 30
0.0
 40
0.94266
 50
217.28323
 51
238.18146
  0
ARC
  8
0
 10
10.58600
 20
6.92300
 30
0.0
 40
0.23409
 50
213.14700
 51
302.60273
  0
ARC
  8
0
 10
13.63100
 20
9.71600
 30
0.0
 40
7.18337
 50
172.50497
 51
174.07909
  0
ARC
  8
0
 10
6.38000
 20
10.83600
 30
0.0
 40
0.39354
 50
285.62542
 51
320.15713
  0
ARC
  8
0
 10
6.47300
 20
10.31200
 30
0.0
 40
0.34302
 50
52.46196
 51
83.97350
  0
ARC
  8
0
 10
10.23900
 20
11.35300
 30
0.0
 40
1.68854
 50
80.62693
 51
93.39636
  0
ARC
  8
0
 10
10.37700
 20
13.04400
 30
0.0
 40
0.23807
 50
121.74971
 51
181.44413
  0
ARC
  8
0
 10
10.35900
 20
13.02400
 30
0.0
 40
0.24707
 50
51.73858
 51
115.73323
  0
ARC
  8
0
 10
10.22300
 20
13.11600
 30
0.0
 40
0.30647
 50
341.74244
 51
379.44003
  0
LINE
  8
0
 10
15.107
 20
14.860
 30
0.0
 11
14.739
 21
14.860
 31
0.0
  0
ARC
  8
0
 10
15.02500
 20
14.58500
 30
0.0
 40
0.39681
 50
103.40588
 51
136.12330
  0
ARC
  8
0
 10
14.95200
 20
14.80900
 30
0.0
 40
0.16317
 50
18.21287
 51
96.68932
  0
ARC
  8
0
 10
15.52000
 20
19.87900
 30
0.0
 40
0.14368
 50
308.78436
 51
419.31104
  0
ARC
  8
0
 10
15.69700
 20
19.89200
 30
0.0
 40
0.15229
 50
133.66778
 51
235.16208
  0
ARC
  8
0
 10
14.78000
 20
19.11500
 30
0.0
 40
0.62815
 50
147.54980
 51
183.46823
  0
ARC
  8
0
 10
13.91300
 20
19.51200
 30
0.0
 40
0.49681
 50
298.88658
 51
330.79955
  0
ARC
  8
0
 10
14.06400
 20
19.23600
 30
0.0
 40
0.28439
 50
6.87482
 51
49.42056
  0
ARC
  8
0
 10
15.89400
 20
21.44600
 30
0.0
 40
0.33442
 50
311.36321
 51
350.00196
  0
ARC
  8
0
 10
16.31900
 20
21.41500
 30
0.0
 40
0.30002
 50
191.34741
 51
227.16108
  0
ARC
  8
0
 10
16.23300
 20
21.29300
 30
0.0
 40
0.21733
 50
112.19350
 51
163.14925
  0
ARC
  8
0
 10
16.09400
 20
21.37800
 30
0.0
 40
0.12938
 50
4.43267
 51
63.83145
  0
ARC
  8
0
 10
14.80900
 20
21.35900
 30
0.0
 40
0.20796
 50
170.31121
 51
262.25966
  0
ARC
  8
0
 10
14.68100
 20
21.23000
 30
0.0
 40
0.12621
 50
322.40373
 51
358.18170
  0
ARC
  8
0
 10
14.63500
 20
21.22500
 30
0.0
 40
0.17200
 50
0.33311
 51
100.39432
  0
ARC
  8
0
 10
6.34500
 20
34.18700
 30
0.0
 40
14.21126
 50
281.77881
 51
287.05916
  0
ARC
  8
0
 10
8.54700
 20
23.63900
 30
0.0
 40
3.43650
 50
272.93567
 51
281.73836
  0
ARC
  8
0
 10
6.67400
 20
30.29300
 30
0.0
 40
10.29202
 50
281.48353
 51
290.49544
  0
ARC
  8
0
 10
10.23100
 20
19.89200
 30
0.0
 40
0.76339
 50
68.24040
 51
86.54539
  0
ARC
  8
0
 10
-12.05100
 20
-124.73200
 30
0.0
 40
148.88309
 50
76.84051
 51
77.51072
  0
ARC
  8
0
 10
21.64600
 20
22.19500
 30
0.0
 40
1.96435
 50
254.95209
 51
275.78607
  0
ARC
  8
0
 10
23.28900
 20
31.57400
 30
0.0
 40
11.47970
 50
252.96516
 51
259.19025
  0
ARC
  8
0
 10
20.20300
 20
19.38300
 30
0.0
 40
1.24630
 50
92.62135
 51
102.84299
  0
ARC
  8
0
 10
22.06400
 20
18.41700
 30
0.0
 40
0.24946
 50
118.51873
 51
190.85950
  0
ARC
  8
0
 10
22.11000
 20
18.55100
 30
0.0
 40
0.34269
 50
144.40388
 51
211.88133
  0
ARC
  8
0
 10
21.94800
 20
18.67500
 30
0.0
 40
0.13908
 50
9.93639
 51
147.11524
  0
ARC
  8
0
 10
21.13700
 20
18.52500
 30
0.0
 40
0.96383
 50
336.62954
 51
370.40055
  0
ARC
  8
0
 10
22.00200
 20
18.16800
 30
0.0
 40
0.03140
 50
180.00000
 51
307.23483
  0
ARC
  8
0
 10
20.87400
 20
18.42100
 30
0.0
 40
1.12579
 50
347.01301
 51
364.48461
  0
ARC
  8
0
 10
21.84900
 20
18.52400
 30
0.0
 40
0.14776
 50
354.17366
 51
409.39871
  0
ARC
  8
0
 10
25.56900
 20
18.15800
 30
0.0
 40
3.84503
 50
211.99117
 51
219.42780
  0
ARC
  8
0
 10
9.25900
 20
-4.98200
 30
0.0
 40
24.81184
 50
57.33664
 51
58.26950
  0
LINE
  8
0
 10
22.650
 20
15.906
 30
0.0
 11
22.599
 21
15.716
 31
0.0
  0
ARC
  8
0
 10
8.13000
 20
25.00600
 30
0.0
 40
3.92072
 50
282.28154
 51
295.76116
  0
ARC
  8
0
 10
9.32600
 20
22.99800
 30
0.0
 40
1.85887
 50
258.76866
 51
301.02190
  0
ARC
  8
0
 10
10.59800
 20
24.90500
 30
0.0
 40
3.51405
 50
257.44290
 51
264.87347
  0
ARC
  8
0
 10
13.43900
 20
20.64200
 30
0.0
 40
0.69385
 50
282.65420
 51
341.85244
  0
ARC
  8
0
 10
13.14900
 20
20.67600
 30
0.0
 40
0.83728
 50
301.86755
 51
345.33306
  0
ARC
  8
0
 10
14.12300
 20
20.80200
 30
0.0
 40
0.37782
 50
244.11701
 51
266.20610
  0
ARC
  8
0
 10
22.42000
 20
25.03900
 30
0.0
 40
3.92072
 50
244.23884
 51
257.71846
  0
ARC
  8
0
 10
21.22300
 20
23.03200
 30
0.0
 40
1.85977
 50
239.02039
 51
281.25555
  0
ARC
  8
0
 10
19.95200
 20
24.93800
 30
0.0
 40
3.51405
 50
275.12653
 51
282.55710
  0
ARC
  8
0
 10
15.22600
 20
20.99700
 30
0.0
 40
0.32067
 50
297.28421
 51
336.07381
  0
ARC
  8
0
 10
15.50800
 20
20.95700
 30
0.0
 40
0.27973
 50
181.84761
 51
241.14434
  0
ARC
  8
0
 10
17.29500
 20
18.73300
 30
0.0
 40
3.02895
 50
129.29207
 51
133.00663
  0
ARC
  8
0
 10
15.31600
 20
20.88100
 30
0.0
 40
0.20527
 50
356.05481
 51
432.71258
  0
ARC
  8
0
 10
15.55600
 20
20.42900
 30
0.0
 40
0.20905
 50
295.33307
 51
361.37045
  0
ARC
  8
0
 10
15.68700
 20
20.33600
 30
0.0
 40
0.10387
 50
161.38984
 51
246.14953
  0
ARC
  8
0
 10
14.83300
 20
21.13300
 30
0.0
 40
1.07481
 50
314.69845
 51
323.17276
  0
ARC
  8
0
 10
15.69400
 20
20.41400
 30
0.0
 40
0.07500
 50
15.73200
 51
90.76390
  0
ARC
  8
0
 10
15.43500
 20
20.04800
 30
0.0
 40
0.66212
 50
138.12213
 51
150.29806
  0
ARC
  8
0
 10
13.12900
 20
19.21600
 30
0.0
 40
2.08373
 50
33.82734
 51
37.86534
  0
ARC
  8
0
 10
14.91100
 20
20.54200
 30
0.0
 40
0.14545
 50
130.25949
 51
198.93534
  0
ARC
  8
0
 10
14.68100
 20
20.41800
 30
0.0
 40
0.27151
 50
15.42216
 51
59.94103
  0
ARC
  8
0
 10
15.20500
 20
22.61300
 30
0.0
 40
0.15800
 50
270.00000
 51
400.08620
  0
ARC
  8
0
 10
13.77900
 20
24.12400
 30
0.0
 40
2.09241
 50
312.26816
 51
317.63421
  0
LINE
  8
0
 10
15.186
 20
22.576
 30
0.0
 11
15.205
 21
22.455
 31
0.0
  0
ARC
  8
0
 10
15.16700
 20
22.28800
 30
0.0
 40
0.47791
 50
116.61870
 51
170.24204
  0
ARC
  8
0
 10
16.64600
 20
22.11300
 30
0.0
 40
1.79684
 50
160.42554
 51
173.19142
  0
ARC
  8
0
 10
14.78300
 20
22.36200
 30
0.0
 40
0.08820
 50
176.09951
 51
335.50143
  0
ARC
  8
0
 10
20.62100
 20
25.56300
 30
0.0
 40
2.60819
 50
189.55622
 51
200.56119
  0
ARC
  8
0
 10
18.13200
 20
24.78100
 30
0.0
 40
0.14230
 50
251.56505
 51
289.32813
  0
ARC
  8
0
 10
19.55600
 20
25.34200
 30
0.0
 40
1.62562
 50
187.42229
 51
205.35121
  0
ARC
  8
0
 10
17.99400
 20
25.03200
 30
0.0
 40
0.11237
 50
60.69779
 51
116.56505
  0
ARC
  8
0
 10
9.91700
 20
22.33800
 30
0.0
 40
1.31703
 50
265.51454
 51
306.16494
  0
ARC
  8
0
 10
8.81300
 20
24.21900
 30
0.0
 40
3.34718
 50
287.40100
 51
298.77030
  0
ARC
  8
0
 10
10.61400
 20
22.76500
 30
0.0
 40
1.49214
 50
262.68447
 51
273.07333
  0
ARC
  8
0
 10
21.73700
 20
24.25200
 30
0.0
 40
3.34718
 50
241.22970
 51
252.59900
  0
ARC
  8
0
 10
20.63300
 20
22.37100
 30
0.0
 40
1.31703
 50
233.83506
 51
274.48546
  0
ARC
  8
0
 10
19.93600
 20
22.79800
 30
0.0
 40
1.49214
 50
266.92667
 51
277.31553
  0
ARC
  8
0
 10
12.55300
 20
24.81000
 30
0.0
 40
0.15606
 50
168.90628
 51
210.83783
  0
ARC
  8
0
 10
12.67000
 20
24.40900
 30
0.0
 40
0.50942
 50
97.55748
 51
122.06509
  0
ARC
  8
0
 10
12.51100
 20
24.95800
 30
0.0
 40
0.10245
 50
334.44003
 51
378.78862
  0
ARC
  8
0
 10
11.76800
 20
29.46900
 30
0.0
 40
4.55653
 50
276.18606
 51
280.62429
  0
ARC
  8
0
 10
14.64900
 20
25.03700
 30
0.0
 40
2.39253
 50
182.34805
 51
195.09339
  0
ARC
  8
0
 10
12.00200
 20
27.56100
 30
0.0
 40
3.16499
 50
276.11229
 51
282.13016
  0
ARC
  8
0
 10
12.60000
 20
24.49100
 30
0.0
 40
0.07116
 50
340.29202
 51
408.43363
  0
ARC
  8
0
 10
12.50900
 20
24.98300
 30
0.0
 40
0.46029
 50
263.13745
 51
287.45058
  0
ARC
  8
0
 10
12.50900
 20
24.59600
 30
0.0
 40
0.08902
 50
160.74071
 51
231.84277
  0
ARC
  8
0
 10
12.60400
 20
24.43900
 30
0.0
 40
0.25744
 50
81.05054
 51
133.74095
  0
ARC
  8
0
 10
13.46700
 20
24.71000
 30
0.0
 40
0.82318
 50
175.82016
 51
181.18334
  0
ARC
  8
0
 10
12.59400
 20
24.40600
 30
0.0
 40
0.36824
 50
81.86990
 51
118.37452
  0
ARC
  8
0
 10
14.85100
 20
20.06400
 30
0.0
 40
0.48075
 50
307.13228
 51
333.16846
  0
ARC
  8
0
 10
15.24900
 20
19.83000
 30
0.0
 40
0.18402
 50
171.51568
 51
234.06419
  0
ARC
  8
0
 10
18.14300
 20
17.80900
 30
0.0
 40
3.69526
 50
143.46192
 51
146.33574
  0
ARC
  8
0
 10
16.28400
 20
21.04900
 30
0.0
 40
1.52108
 50
223.13521
 51
227.61224
  0
ARC
  8
0
 10
15.19900
 20
19.86800
 30
0.0
 40
0.08367
 50
345.46554
 51
404.02898
  0
ARC
  8
0
 10
16.95100
 20
18.43000
 30
0.0
 40
0.48901
 50
178.00485
 51
269.53133
  0
ARC
  8
0
 10
18.58000
 20
19.98800
 30
0.0
 40
2.61856
 50
216.05150
 51
231.41879
  0
ARC
  8
0
 10
15.08300
 20
19.30800
 30
0.0
 40
0.09202
 50
132.35745
 51
277.51214
  0
ARC
  8
0
 10
15.02400
 20
19.28000
 30
0.0
 40
0.09604
 50
318.01279
 51
451.78991
  0
ARC
  8
0
 10
24.25500
 20
16.04800
 30
0.0
 40
2.50203
 50
204.20895
 51
216.30186
  0
ARC
  8
0
 10
22.01600
 20
15.02100
 30
0.0
 40
0.04301
 50
38.23383
 51
178.66778
  0
ARC
  8
0
 10
10.84600
 20
4.73600
 30
0.0
 40
15.22600
 50
41.34416
 51
42.62580
  0
ARC
  8
0
 10
22.43200
 20
15.00000
 30
0.0
 40
0.25838
 50
233.04120
 51
289.20633
  0
ARC
  8
0
 10
23.82200
 20
16.02800
 30
0.0
 40
1.82253
 50
208.87140
 51
224.26633
  0
ARC
  8
0
 10
21.90400
 20
12.98000
 30
0.0
 40
2.19202
 50
77.85960
 51
81.55196
  0
ARC
  8
0
 10
18.93200
 20
11.26000
 30
0.0
 40
5.16800
 50
41.62709
 51
48.37291
  0
ARC
  8
0
 10
22.57400
 20
14.72500
 30
0.0
 40
0.22330
 50
298.63094
 51
351.76104
  0
ARC
  8
0
 10
22.48100
 20
14.79200
 30
0.0
 40
0.33043
 50
222.91521
 51
307.25140
  0
ARC
  8
0
 10
22.28600
 20
18.77800
 30
0.0
 40
0.33700
 50
359.65997
 51
428.76711
  0
ARC
  8
0
 10
22.38700
 20
18.93200
 30
0.0
 40
0.16155
 50
82.52267
 51
195.06849
  0
ARC
  8
0
 10
22.30700
 20
18.89900
 30
0.0
 40
0.07653
 50
186.75357
 51
289.14814
  0
ARC
  8
0
 10
22.41800
 20
18.92200
 30
0.0
 40
0.12814
 50
165.96376
 51
227.84662
  0
ARC
  8
0
 10
22.35100
 20
18.95600
 30
0.0
 40
0.05768
 50
56.30993
 51
183.01279
  0
ARC
  8
0
 10
22.28400
 20
18.77400
 30
0.0
 40
0.25045
 50
18.14558
 51
66.71127
  0
ARC
  8
0
 10
22.63500
 20
18.89700
 30
0.0
 40
0.12163
 50
201.71394
 51
264.33629
  0
ARC
  8
0
 10
6.35800
 20
12.79800
 30
0.0
 40
0.41824
 50
326.30993
 51
381.47052
  0
ARC
  8
0
 10
7.02100
 20
10.19600
 30
0.0
 40
2.76859
 50
95.67970
 51
106.41174
  0
ARC
  8
0
 10
6.45100
 20
12.53800
 30
0.0
 40
0.37969
 50
124.11043
 51
176.52721
  0
ARC
  8
0
 10
6.63700
 20
11.89300
 30
0.0
 40
0.87499
 50
93.86634
 51
130.22482
  0
ARC
  8
0
 10
6.41700
 20
12.77300
 30
0.0
 40
0.16115
 50
291.93389
 51
357.51045
  0
ARC
  8
0
 10
6.86900
 20
11.74500
 30
0.0
 40
0.96244
 50
114.03502
 51
140.86568
  0
ARC
  8
0
 10
6.24900
 20
12.34900
 30
0.0
 40
0.12714
 50
178.63607
 51
240.81408
  0
ARC
  8
0
 10
-15.81100
 20
47.62500
 30
0.0
 40
41.66715
 50
301.86677
 51
302.71102
  0
ARC
  8
0
 10
9.54700
 20
10.95500
 30
0.0
 40
0.86220
 50
315.61101
 51
354.34231
  0
ARC
  8
0
 10
10.30000
 20
10.36300
 30
0.0
 40
0.13744
 50
184.59054
 51
270.41821
  0
ARC
  8
0
 10
9.10000
 20
11.37500
 30
0.0
 40
1.66225
 50
316.26761
 51
336.38049
  0
ARC
  8
0
 10
10.16300
 20
10.78700
 30
0.0
 40
0.46670
 50
350.37617
 51
399.52263
  0
ARC
  8
0
 10
11.54000
 20
9.31300
 30
0.0
 40
2.04223
 50
119.86668
 51
135.07936
  0
ARC
  8
0
 10
10.36800
 20
10.61000
 30
0.0
 40
0.31000
 50
152.11234
 51
202.83365
  0
ARC
  8
0
 10
11.42000
 20
9.68200
 30
0.0
 40
1.56255
 50
130.50982
 51
148.85383
  0
ARC
  8
0
 10
8.14800
 20
7.61200
 30
0.0
 40
0.23598
 50
13.97736
 51
61.03994
  0
ARC
  8
0
 10
-3.09400
 20
6.28900
 30
0.0
 40
11.55371
 50
4.56720
 51
6.85991
  0
ARC
  8
0
 10
8.53200
 20
7.43900
 30
0.0
 40
0.25465
 50
244.64312
 51
276.53896
  0
ARC
  8
0
 10
0.78400
 20
7.33500
 30
0.0
 40
7.77842
 50
358.90240
 51
363.30936
  0
ARC
  8
0
 10
8.15100
 20
7.70100
 30
0.0
 40
0.40656
 50
11.77979
 51
84.06483
  0
ARC
  8
0
 10
17.39500
 20
5.88100
 30
0.0
 40
9.46763
 50
166.41293
 51
169.39745
  0
ARC
  8
0
 10
8.42300
 20
7.58800
 30
0.0
 40
0.33582
 50
174.01778
 51
238.91895
  0
ARC
  8
0
 10
12.91100
 20
7.45600
 30
0.0
 40
4.66357
 50
175.54758
 51
181.90465
  0
LINE
  8
0
 10
12.070
 20
16.528
 30
0.0
 11
12.266
 21
16.735
 31
0.0
  0
ARC
  8
0
 10
11.83500
 20
16.23500
 30
0.0
 40
0.66037
 50
355.13549
 51
409.23866
  0
LINE
  8
0
 10
12.493
 20
16.179
 30
0.0
 11
11.792
 21
16.180
 31
0.0
  0
LINE
  8
0
 10
11.792
 20
16.180
 30
0.0
 11
12.070
 21
16.528
 31
0.0
  0
ARC
  8
0
 10
9.15900
 20
24.48800
 30
0.0
 40
4.43589
 50
273.16622
 51
291.82300
  0
ARC
  8
0
 10
8.22200
 20
25.87800
 30
0.0
 40
5.93790
 50
281.48214
 51
292.87297
  0
ARC
  8
0
 10
10.99300
 20
22.87600
 30
0.0
 40
2.51267
 50
259.37894
 51
265.82340
  0
ARC
  8
0
 10
19.84300
 20
23.26400
 30
0.0
 40
1.74782
 50
231.94959
 51
276.66962
  0
ARC
  8
0
 10
21.57400
 20
26.11100
 30
0.0
 40
4.83101
 50
239.46951
 51
251.56130
  0
ARC
  8
0
 10
19.77900
 20
17.14100
 30
0.0
 40
4.85394
 50
97.80291
 51
102.04612
  0
ARC
  8
0
 10
14.77300
 20
24.27200
 30
0.0
 40
0.32956
 50
352.85342
 51
402.41421
  0
ARC
  8
0
 10
15.03900
 20
24.84600
 30
0.0
 40
0.61811
 50
264.24329
 51
275.66447
  0
ARC
  8
0
 10
14.71400
 20
24.27300
 30
0.0
 40
0.26815
 50
350.92672
 51
403.03548
  0
ARC
  8
0
 10
15.21500
 20
24.44700
 30
0.0
 40
0.30513
 50
150.32502
 51
178.30980
  0
ARC
  8
0
 10
14.97500
 20
24.69400
 30
0.0
 40
0.09920
 50
255.40342
 51
284.03624
  0
ARC
  8
0
 10
14.97300
 20
24.63200
 30
0.0
 40
0.04280
 50
307.40536
 51
380.55605
  0
ARC
  8
0
 10
14.94900
 20
24.61700
 30
0.0
 40
0.07068
 50
25.11483
 51
71.82198
  0
ARC
  8
0
 10
14.20400
 20
24.89200
 30
0.0
 40
0.79470
 50
344.82708
 51
353.12569
  0
ARC
  8
0
 10
14.96700
 20
24.64300
 30
0.0
 40
0.15654
 50
289.01367
 51
440.77918
  0
LINE
  8
0
 10
14.297
 20
9.102
 30
0.0
 11
16.146
 21
9.102
 31
0.0
  0
ARC
  8
0
 10
15.22200
 20
12.53200
 30
0.0
 40
3.55253
 50
254.90755
 51
285.07687
  0
ARC
  8
0
 10
18.49800
 20
12.52400
 30
0.0
 40
0.30010
 50
320.14546
 51
385.88197
  0
ARC
  8
0
 10
15.49800
 20
15.16900
 30
0.0
 40
4.29925
 50
315.26386
 51
318.70625
  0
LINE
  8
0
 10
18.552
 20
12.143
 30
0.0
 11
19.516
 21
12.144
 31
0.0
  0
LINE
  8
0
 10
19.516
 20
12.144
 30
0.0
 11
19.535
 21
12.144
 31
0.0
  0
ARC
  8
0
 10
14.48500
 20
13.40200
 30
0.0
 40
5.20433
 50
346.01182
 51
358.78862
  0
LINE
  8
0
 10
19.687
 20
13.292
 30
0.0
 11
17.801
 21
13.292
 31
0.0
  0
ARC
  8
0
 10
19.04000
 20
14.35800
 30
0.0
 40
1.63523
 50
220.70776
 51
251.86421
  0
ARC
  8
0
 10
18.41300
 20
12.35400
 30
0.0
 40
0.46543
 50
40.29419
 51
75.30659
  0
ARC
  8
0
 10
9.91600
 20
13.30900
 30
0.0
 40
0.87632
 50
264.30242
 51
309.48731
  0
ARC
  8
0
 10
9.84300
 20
12.48300
 30
0.0
 40
0.04808
 50
106.92751
 51
253.07249
  0
ARC
  8
0
 10
9.71500
 20
13.27600
 30
0.0
 40
0.75564
 50
278.67699
 51
314.35625
  0
ARC
  8
0
 10
10.17400
 20
13.91100
 30
0.0
 40
1.17702
 50
258.18405
 51
273.36074
  0
ARC
  8
0
 10
10.20300
 20
12.15600
 30
0.0
 40
0.66068
 50
65.87902
 51
114.12098
  0
LINE
  8
0
 10
10.473
 20
12.759
 30
0.0
 11
10.473
 21
12.633
 31
0.0
  0
ARC
  8
0
 10
62.63700
 20
37.10500
 30
0.0
 40
48.97243
 50
196.53182
 51
197.83854
  0
ARC
  8
0
 10
14.73600
 20
22.81600
 30
0.0
 40
1.01687
 50
20.37794
 51
38.21103
  0
ARC
  8
0
 10
14.95900
 20
22.71800
 30
0.0
 40
0.92755
 50
51.61032
 51
80.19240
  0
LINE
  8
0
 10
15.117
 20
23.632
 30
0.0
 11
14.841
 21
23.621
 31
0.0
  0
ARC
  8
0
 10
14.24300
 20
21.49200
 30
0.0
 40
2.21154
 50
63.89840
 51
74.31085
  0
ARC
  8
0
 10
15.15000
 20
23.52000
 30
0.0
 40
0.07823
 50
253.65183
 51
327.52881
  0
ARC
  8
0
 10
15.09500
 20
23.18400
 30
0.0
 40
0.26309
 50
82.79394
 51
114.71430
  0
ARC
  8
0
 10
14.87500
 20
23.51600
 30
0.0
 40
0.14404
 50
252.19465
 51
319.78700
  0
ARC
  8
0
 10
15.15900
 20
23.84800
 30
0.0
 40
0.57231
 50
208.26685
 51
235.03258
  0
LINE
  8
0
 10
14.655
 20
23.577
 30
0.0
 11
14.325
 21
23.577
 31
0.0
  0
ARC
  8
0
 10
14.35500
 20
23.27000
 30
0.0
 40
0.30846
 50
95.58122
 51
194.84762
  0
LINE
  8
0
 10
14.057
 20
23.191
 30
0.0
 11
14.222
 21
23.309
 31
0.0
  0
LINE
  8
0
 10
14.222
 20
23.309
 30
0.0
 11
14.315
 21
23.298
 31
0.0
  0
LINE
  8
0
 10
14.315
 20
23.298
 30
0.0
 11
14.425
 21
23.260
 31
0.0
  0
LINE
  8
0
 10
14.425
 20
23.260
 30
0.0
 11
14.810
 21
23.114
 31
0.0
  0
ARC
  8
0
 10
14.89100
 20
23.16400
 30
0.0
 40
0.09518
 50
151.00404
 51
211.68637
  0
ARC
  8
0
 10
15.21100
 20
24.61600
 30
0.0
 40
1.46334
 50
242.92714
 51
254.00618
  0
ARC
  8
0
 10
16.42100
 20
25.25400
 30
0.0
 40
2.69948
 50
220.52302
 51
225.97560
  0
ARC
  8
0
 10
14.49000
 20
22.92800
 30
0.0
 40
0.58465
 50
85.68397
 51
101.94418
  0
ARC
  8
0
 10
14.64600
 20
23.48000
 30
0.0
 40
0.11621
 50
164.52867
 51
240.56151
  0
ARC
  8
0
 10
13.50600
 20
19.16800
 30
0.0
 40
4.34803
 50
71.03582
 51
75.57704
  0
ARC
  8
0
 10
14.83300
 20
23.14000
 30
0.0
 40
0.16430
 50
316.48146
 51
418.43819
  0
ARC
  8
0
 10
15.02700
 20
23.00500
 30
0.0
 40
0.07816
 50
163.65183
 51
271.48787
  0
ARC
  8
0
 10
14.71100
 20
23.25500
 30
0.0
 40
0.45654
 50
314.20058
 51
350.29009
  0
ARC
  8
0
 10
14.97800
 20
22.73100
 30
0.0
 40
0.48300
 50
27.73636
 51
67.73600
  0
ARC
  8
0
 10
15.04400
 20
23.20700
 30
0.0
 40
0.44029
 50
325.00798
 51
357.91743
  0
ARC
  8
0
 10
15.65900
 20
23.22000
 30
0.0
 40
0.17738
 50
189.40922
 51
241.26020
  0
ARC
  8
0
 10
14.60500
 20
22.78400
 30
0.0
 40
1.00892
 50
348.62324
 51
376.17161
  0
ARC
  8
0
 10
15.19900
 20
22.04000
 30
0.0
 40
0.67308
 50
41.38612
 51
54.06650
  0
ARC
  8
0
 10
26.04400
 20
21.03000
 30
0.0
 40
10.44186
 50
171.99018
 51
173.75979
  0
ARC
  8
0
 10
15.70000
 20
22.17100
 30
0.0
 40
0.03667
 50
189.46232
 51
334.13364
  0
ARC
  8
0
 10
16.17500
 20
22.08500
 30
0.0
 40
0.44813
 50
144.53664
 51
171.00075
  0
ARC
  8
0
 10
16.42600
 20
22.66500
 30
0.0
 40
0.69415
 50
207.45100
 51
234.08797
  0
ARC
  8
0
 10
6.02900
 20
9.88900
 30
0.0
 40
1.37537
 50
314.49923
 51
336.69746
  0
ARC
  8
0
 10
7.00500
 20
9.04500
 30
0.0
 40
0.13800
 50
179.58482
 51
264.99417
  0
ARC
  8
0
 10
5.60800
 20
10.05900
 30
0.0
 40
1.61603
 50
321.17961
 51
335.11590
  0
ARC
  8
0
 10
6.88100
 20
9.45300
 30
0.0
 40
0.20670
 50
339.02219
 51
388.67695
  0
ARC
  8
0
 10
11.65500
 20
5.66800
 30
0.0
 40
6.01507
 50
139.78098
 51
144.22756
  0
ARC
  8
0
 10
6.89200
 20
9.29300
 30
0.0
 40
0.16064
 50
161.11391
 51
222.97268
  0
ARC
  8
0
 10
8.94100
 20
7.81700
 30
0.0
 40
2.67940
 50
132.82181
 51
145.23046
  0
ARC
  8
0
 10
6.81400
 20
9.40800
 30
0.0
 40
0.48323
 50
352.49174
 51
410.71059
  0
ARC
  8
0
 10
12.31900
 20
12.47600
 30
0.0
 40
1.68283
 50
197.03514
 51
210.81776
  0
ARC
  8
0
 10
18.07300
 20
10.60600
 30
0.0
 40
7.49065
 50
169.40713
 51
173.26871
  0
ARC
  8
0
 10
9.42200
 20
14.00900
 30
0.0
 40
2.80081
 50
295.64101
 51
301.22689
  0
ARC
  8
0
 10
6.72200
 20
9.32300
 30
0.0
 40
2.06586
 50
68.11619
 51
73.19712
  0
ARC
  8
0
 10
6.26700
 20
11.41400
 30
0.0
 40
1.05815
 50
353.81528
 51
364.01228
  0
ARC
  8
0
 10
6.86000
 20
10.37700
 30
0.0
 40
1.20391
 50
53.92014
 51
67.42043
  0
ARC
  8
0
 10
7.19800
 20
11.52700
 30
0.0
 40
0.41105
 50
315.69028
 51
334.49471
  0
ARC
  8
0
 10
23.98400
 20
11.29100
 30
0.0
 40
5.90540
 50
103.99389
 51
109.54875
  0
ARC
  8
0
 10
22.79800
 20
17.05900
 30
0.0
 40
0.24520
 50
110.28256
 51
188.92399
  0
ARC
  8
0
 10
22.54100
 20
17.03100
 30
0.0
 40
0.31346
 50
289.76448
 51
416.30993
  0
ARC
  8
0
 10
22.73800
 20
15.60100
 30
0.0
 40
1.13956
 50
94.58395
 51
114.85591
  0
ARC
  8
0
 10
22.49800
 20
17.04300
 30
0.0
 40
0.47397
 50
239.63890
 51
459.83992
  0
ARC
  8
0
 10
22.63800
 20
16.58200
 30
0.0
 40
0.95395
 50
103.39528
 51
149.51009
  0
ARC
  8
0
 10
22.16000
 20
17.19700
 30
0.0
 40
0.36809
 50
200.84753
 51
245.73671
  0
ARC
  8
0
 10
10.70600
 20
23.23100
 30
0.0
 40
1.74798
 50
263.36294
 51
308.07622
  0
ARC
  8
0
 10
8.97600
 20
26.07800
 30
0.0
 40
4.83160
 50
288.43870
 51
300.52447
  0
ARC
  8
0
 10
10.77100
 20
17.10800
 30
0.0
 40
4.85388
 50
77.95388
 51
82.19549
  0
ARC
  8
0
 10
20.84600
 20
22.93800
 30
0.0
 40
2.11518
 50
229.98633
 51
254.47879
  0
ARC
  8
0
 10
19.95200
 20
21.87800
 30
0.0
 40
1.03153
 50
214.89190
 51
288.54034
  0
ARC
  8
0
 10
19.08000
 20
24.03100
 30
0.0
 40
2.74321
 50
270.54307
 51
278.51114
  0
ARC
  8
0
 10
13.24100
 20
19.19000
 30
0.0
 40
1.25623
 50
289.38691
 51
318.93853
  0
ARC
  8
0
 10
13.82600
 20
18.32800
 30
0.0
 40
0.36407
 50
242.51998
 51
365.83593
  0
ARC
  8
0
 10
15.69000
 20
21.63000
 30
0.0
 40
0.21300
 50
123.31705
 51
210.54757
  0
ARC
  8
0
 10
15.32600
 20
21.71400
 30
0.0
 40
0.26428
 50
313.31080
 51
380.83516
  0
ARC
  8
0
 10
14.55200
 20
22.00900
 30
0.0
 40
0.29954
 50
292.61986
 51
345.49983
  0
ARC
  8
0
 10
6.69300
 20
25.29200
 30
0.0
 40
8.73219
 50
335.94757
 51
338.10599
  0
ARC
  8
0
 10
15.11000
 20
22.11600
 30
0.0
 40
0.32499
 50
194.25003
 51
214.18060
  0
LINE
  8
0
 10
12.668
 20
14.860
 30
0.0
 11
11.059
 21
14.860
 31
0.0
  0
ARC
  8
0
 10
15.69700
 20
13.29800
 30
0.0
 40
4.89412
 50
146.92362
 51
161.38734
  0
LINE
  8
0
 10
11.596
 20
15.969
 30
0.0
 11
12.438
 21
15.970
 31
0.0
  0
ARC
  8
0
 10
12.93600
 20
15.75300
 30
0.0
 40
0.54439
 50
156.45517
 51
185.37547
  0
ARC
  8
0
 10
29.39300
 20
18.77700
 30
0.0
 40
17.27488
 50
190.25353
 51
192.19136
  0
ARC
  8
0
 10
13.74900
 20
15.76200
 30
0.0
 40
1.39335
 50
207.02488
 51
220.34260
  0
LINE
  8
0
 10
12.687
 20
14.860
 30
0.0
 11
12.668
 21
14.860
 31
0.0
  0
ARC
  8
0
 10
22.92200
 20
18.68400
 30
0.0
 40
0.33427
 50
357.76436
 51
469.03119
  0
ARC
  8
0
 10
23.31200
 20
19.04400
 30
0.0
 40
0.50093
 50
185.03910
 51
203.03339
  0
ARC
  8
0
 10
23.69800
 20
18.78500
 30
0.0
 40
0.84965
 50
175.74616
 51
194.65775
  0
ARC
  8
0
 10
22.10100
 20
18.85600
 30
0.0
 40
0.82608
 50
339.74431
 51
362.08257
  0
ARC
  8
0
 10
22.78600
 20
18.64000
 30
0.0
 40
0.28306
 50
19.39512
 51
60.35555
  0
ARC
  8
0
 10
22.40800
 20
18.63300
 30
0.0
 40
0.65285
 50
338.42679
 51
368.89963
  0
ARC
  8
0
 10
23.09700
 20
18.37600
 30
0.0
 40
0.08438
 50
168.28753
 51
301.42957
  0
ARC
  8
0
 10
22.47100
 20
18.71300
 30
0.0
 40
0.78512
 50
328.59812
 51
356.93351
  0
ARC
  8
0
 10
8.65100
 20
21.20300
 30
0.0
 40
8.18658
 50
269.31411
 51
272.04416
  0
ARC
  8
0
 10
8.88800
 20
12.52700
 30
0.0
 40
0.59356
 50
109.59537
 51
124.35938
  0
ARC
  8
0
 10
8.35000
 20
16.11900
 30
0.0
 40
3.05188
 50
276.37751
 51
285.88092
  0
ARC
  8
0
 10
8.79900
 20
13.13600
 30
0.0
 40
0.38897
 50
306.10325
 51
367.08848
  0
ARC
  8
0
 10
8.76200
 20
13.77500
 30
0.0
 40
0.98942
 50
257.56543
 51
285.59541
  0
ARC
  8
0
 10
8.55800
 20
12.86600
 30
0.0
 40
0.05824
 50
168.11134
 51
261.02737
  0
ARC
  8
0
 10
15.31000
 20
-110.75500
 30
0.0
 40
123.82035
 50
93.01332
 51
93.15234
  0
ARC
  8
0
 10
8.76500
 20
13.07700
 30
0.0
 40
0.18650
 50
281.12919
 51
342.82944
  0
ARC
  8
0
 10
12.02200
 20
10.72700
 30
0.0
 40
4.69537
 50
288.25744
 51
316.49313
  0
ARC
  8
0
 10
13.93300
 20
9.10900
 30
0.0
 40
2.19990
 50
312.78891
 51
333.86591
  0
ARC
  8
0
 10
15.29000
 20
15.04800
 30
0.0
 40
6.93625
 50
261.38509
 51
275.11216
  0
ARC
  8
0
 10
15.18200
 20
15.45500
 30
0.0
 40
7.32441
 50
252.87139
 51
262.69742
  0
ARC
  8
0
 10
17.10100
 20
9.60600
 30
0.0
 40
4.23535
 50
195.75585
 51
208.13217
  0
ARC
  8
0
 10
15.95200
 20
18.43900
 30
0.0
 40
11.13466
 50
256.57032
 51
258.36814
  0
ARC
  8
0
 10
13.69200
 20
9.99200
 30
0.0
 40
2.45904
 50
270.34950
 51
293.38522
  0
ARC
  8
0
 10
14.72400
 20
7.60000
 30
0.0
 40
0.14615
 50
326.74563
 51
472.52940
  0
ARC
  8
0
 10
14.10400
 20
8.00900
 30
0.0
 40
0.88864
 50
294.97792
 51
326.61393
  0
ARC
  8
0
 10
15.95300
 20
2.14900
 30
0.0
 40
5.26552
 50
106.25629
 51
116.15625
  0
LINE
  8
0
 10
13.632
 20
6.875
 30
0.0
 11
13.494
 21
6.271
 31
0.0
  0
ARC
  8
0
 10
16.19800
 20
22.54700
 30
0.0
 40
0.87905
 50
250.18395
 51
368.17620
  0
ARC
  8
0
 10
17.28300
 20
22.75000
 30
0.0
 40
0.22953
 50
157.45694
 51
199.94030
  0
ARC
  8
0
 10
17.18700
 20
22.79400
 30
0.0
 40
0.12419
 50
103.02919
 51
159.22775
  0
ARC
  8
0
 10
17.20800
 20
22.32500
 30
0.0
 40
0.59203
 50
86.70743
 51
94.74757
  0
ARC
  8
0
 10
17.25100
 20
23.23100
 30
0.0
 40
0.31512
 50
268.36342
 51
300.96376
  0
ARC
  8
0
 10
17.49000
 20
22.70200
 30
0.0
 40
0.27020
 50
73.44293
 51
106.55707
  0
ARC
  8
0
 10
17.81300
 20
23.37700
 30
0.0
 40
0.48360
 50
239.40222
 51
295.08131
  0
ARC
  8
0
 10
17.16700
 20
21.21400
 30
0.0
 40
1.92349
 50
63.74134
 51
88.89772
  0
ARC
  8
0
 10
17.22600
 20
22.69800
 30
0.0
 40
0.43955
 50
92.86891
 51
148.40960
  0
ARC
  8
0
 10
17.27900
 20
22.70200
 30
0.0
 40
0.48312
 50
152.10889
 51
200.61159
  0
ARC
  8
0
 10
16.41200
 20
22.29300
 30
0.0
 40
0.47890
 50
247.77616
 51
389.93780
  0
ARC
  8
0
 10
15.73100
 20
22.63700
 30
0.0
 40
0.93244
 50
280.44225
 51
302.42878
  0
ARC
  8
0
 10
18.48300
 20
16.83600
 30
0.0
 40
0.97349
 50
324.95494
 51
350.89577
  0
ARC
  8
0
 10
19.38500
 20
16.42900
 30
0.0
 40
0.18494
 50
168.14325
 51
235.36369
  0
ARC
  8
0
 10
18.59900
 20
16.80800
 30
0.0
 40
0.69448
 50
330.59281
 51
356.86138
  0
ARC
  8
0
 10
18.88900
 20
16.78100
 30
0.0
 40
0.40315
 50
358.43648
 51
401.48009
  0
ARC
  8
0
 10
17.57400
 20
17.24000
 30
0.0
 40
1.62835
 50
334.14324
 51
353.22850
  0
ARC
  8
0
 10
19.09600
 20
16.63700
 30
0.0
 40
0.12149
 50
188.99714
 51
241.95531
  0
ARC
  8
0
 10
18.10200
 20
17.09400
 30
0.0
 40
0.99521
 50
331.42630
 51
366.86793
  0
ARC
  8
0
 10
18.92000
 20
16.60400
 30
0.0
 40
0.63232
 50
48.01279
 51
74.40313
  0
ARC
  8
0
 10
18.97500
 20
16.77000
 30
0.0
 40
0.47732
 50
349.37297
 51
399.55967
  0
ARC
  8
0
 10
17.52200
 20
4.42600
 30
0.0
 40
12.01630
 50
147.42092
 51
149.40995
  0
ARC
  8
0
 10
8.74100
 20
10.10300
 30
0.0
 40
1.62321
 50
164.34552
 51
170.24159
  0
ARC
  8
0
 10
7.39500
 20
10.48600
 30
0.0
 40
0.27548
 50
203.11654
 51
252.68320
  0
ARC
  8
0
 10
8.10800
 20
10.13000
 30
0.0
 40
0.80042
 50
146.46881
 51
173.32780
  0
ARC
  8
0
 10
6.85400
 20
10.36000
 30
0.0
 40
0.62437
 50
340.34618
 51
379.85761
  0
ARC
  8
0
 10
7.50400
 20
10.13700
 30
0.0
 40
0.06356
 50
168.15792
 51
282.72436
  0
ARC
  8
0
 10
5.11900
 20
10.65500
 30
0.0
 40
2.46818
 50
346.40856
 51
360.69643
  0
ARC
  8
0
 10
7.32200
 20
10.63800
 30
0.0
 40
0.26913
 50
10.05731
 51
73.79098
  0
ARC
  8
0
 10
9.70300
 20
22.90500
 30
0.0
 40
2.11636
 50
285.54005
 51
310.03441
  0
ARC
  8
0
 10
10.59700
 20
21.84500
 30
0.0
 40
1.03223
 50
251.52994
 51
325.13985
  0
ARC
  8
0
 10
11.46900
 20
23.99800
 30
0.0
 40
2.74311
 50
261.50951
 51
269.47781
  0
ARC
  8
0
 10
22.39800
 20
26.36800
 30
0.0
 40
6.37020
 50
248.33221
 51
259.08696
  0
ARC
  8
0
 10
21.01800
 20
20.84600
 30
0.0
 40
0.75336
 50
251.90180
 51
283.35374
  0
ARC
  8
0
 10
131.11100
 20
442.51300
 30
0.0
 40
436.55405
 50
255.21776
 51
255.36133
  0
ARC
  8
0
 10
19.74200
 20
21.57500
 30
0.0
 40
1.16728
 50
269.21450
 51
285.09583
  0
ARC
  8
0
 10
23.43700
 20
16.70500
 30
0.0
 40
0.36083
 50
93.49706
 51
124.04238
  0
ARC
  8
0
 10
23.33400
 20
17.10400
 30
0.0
 40
0.14094
 50
151.61665
 51
225.28792
  0
ARC
  8
0
 10
20.35100
 20
21.34400
 30
0.0
 40
5.05843
 50
304.41577
 51
307.08512
  0
ARC
  8
0
 10
23.15800
 20
17.03900
 30
0.0
 40
0.36324
 50
340.51616
 51
408.01279
  0
ARC
  8
0
 10
23.12700
 20
17.23900
 30
0.0
 40
0.49244
 50
277.70228
 51
319.28505
  0
ARC
  8
0
 10
19.84300
 20
20.39300
 30
0.0
 40
4.94840
 50
312.60860
 51
316.08092
  0
ARC
  8
0
 10
23.30700
 20
17.02000
 30
0.0
 40
0.11700
 50
329.45940
 51
382.61986
  0
ARC
  8
0
 10
15.97400
 20
18.54400
 30
0.0
 40
0.23254
 50
307.46310
 51
398.89068
  0
ARC
  8
0
 10
16.29100
 20
18.50600
 30
0.0
 40
0.22880
 50
126.46923
 51
219.67725
  0
ARC
  8
0
 10
15.04600
 20
21.01200
 30
0.0
 40
0.29095
 50
184.14178
 51
231.27868
  0
ARC
  8
0
 10
14.82900
 20
21.02800
 30
0.0
 40
0.24550
 50
278.19611
 51
335.42069
  0
ARC
  8
0
 10
14.81700
 20
20.82800
 30
0.0
 40
0.25470
 50
22.63717
 51
85.72206
  0
ARC
  8
0
 10
14.07200
 20
21.66000
 30
0.0
 40
0.95800
 50
315.63518
 51
322.89087
  0
ARC
  8
0
 10
6.67800
 20
11.23900
 30
0.0
 40
0.38964
 50
351.14204
 51
416.30993
  0
ARC
  8
0
 10
10.73400
 20
7.71400
 30
0.0
 40
5.43843
 50
134.93294
 51
141.34513
  0
ARC
  8
0
 10
6.68200
 20
11.13300
 30
0.0
 40
0.19623
 50
186.43692
 51
240.94540
  0
ARC
  8
0
 10
10.92200
 20
8.52800
 30
0.0
 40
4.97171
 50
145.77934
 51
150.68682
  0
ARC
  8
0
 10
6.61800
 20
11.18600
 30
0.0
 40
0.23726
 50
341.02959
 51
395.56575
  0
ARC
  8
0
 10
5.01800
 20
11.90500
 30
0.0
 40
1.99012
 50
329.69796
 51
336.42337
  0
ARC
  8
0
 10
6.84100
 20
10.90300
 30
0.0
 40
0.10501
 50
181.09122
 51
302.93223
  0
ARC
  8
0
 10
4.51800
 20
12.10800
 30
0.0
 40
2.70925
 50
331.48577
 51
339.94643
  0
ARC
  8
0
 10
10.98800
 20
8.49600
 30
0.0
 40
0.48938
 50
318.23034
 51
384.52151
  0
ARC
  8
0
 10
11.36000
 20
8.35400
 30
0.0
 40
0.18419
 50
228.52145
 51
267.82132
  0
ARC
  8
0
 10
11.00700
 20
8.44200
 30
0.0
 40
0.32316
 50
315.62684
 51
358.75849
  0
ARC
  8
0
 10
9.24300
 20
11.17100
 30
0.0
 40
3.44111
 50
302.66019
 51
307.33611
  0
ARC
  8
0
 10
11.11600
 20
8.36300
 30
0.0
 40
0.09082
 50
200.62988
 51
259.80850
  0
ARC
  8
0
 10
12.47100
 20
7.16000
 30
0.0
 40
1.85633
 50
123.99824
 51
140.88218
  0
ARC
  8
0
 10
10.83900
 20
25.63000
 30
0.0
 40
3.70961
 50
284.27973
 51
300.53994
  0
ARC
  8
0
 10
12.06400
 20
23.45900
 30
0.0
 40
1.45735
 50
257.71852
 51
307.64051
  0
ARC
  8
0
 10
12.50400
 20
21.76800
 30
0.0
 40
0.70139
 50
50.03737
 51
71.72004
  0
ARC
  8
0
 10
19.54100
 20
21.91800
 30
0.0
 40
1.22282
 50
217.85443
 51
272.10896
  0
ARC
  8
0
 10
18.45600
 20
22.15800
 30
0.0
 40
0.99724
 50
276.91123
 51
291.16126
  0
ARC
  8
0
 10
20.77400
 20
23.24100
 30
0.0
 40
2.80819
 50
225.79352
 51
244.94983
  0
ARC
  8
0
 10
19.70200
 20
19.45800
 30
0.0
 40
4.14304
 50
190.00798
 51
198.84167
  0
ARC
  8
0
 10
12.34800
 20
16.78300
 30
0.0
 40
3.81327
 50
20.47866
 51
30.84265
  0
ARC
  8
0
 10
15.85200
 20
18.18200
 30
0.0
 40
0.09426
 50
221.12874
 51
316.29217
  0
ARC
  8
0
 10
13.49800
 20
15.02600
 30
0.0
 40
6.79726
 50
302.80866
 51
319.31367
  0
LINE
  8
0
 10
18.652
 20
10.595
 30
0.0
 11
17.286
 21
10.594
 31
0.0
  0
ARC
  8
0
 10
23.75700
 20
2.01400
 30
0.0
 40
10.74663
 50
127.02345
 51
129.24852
  0
ARC
  8
0
 10
17.49900
 20
9.78700
 30
0.0
 40
0.77128
 50
134.57949
 51
178.43980
  0
ARC
  8
0
 10
18.32000
 20
9.82500
 30
0.0
 40
1.59222
 50
180.61180
 51
198.71943
  0
LINE
  8
0
 10
16.812
 20
9.314
 30
0.0
 11
17.182
 21
9.313
 31
0.0
  0
ARC
  8
0
 10
27.38200
 20
14.75800
 30
0.0
 40
0.30628
 50
354.75476
 51
424.44003
  0
ARC
  8
0
 10
27.24300
 20
15.11800
 30
0.0
 40
0.59075
 50
318.85064
 51
383.44056
  0
ARC
  8
0
 10
27.45500
 20
15.73600
 30
0.0
 40
0.50555
 50
253.36621
 51
310.74881
  0
ARC
  8
0
 10
27.57700
 20
15.29700
 30
0.0
 40
0.27044
 50
189.18266
 51
256.52899
  0
ARC
  8
0
 10
3.82700
 20
13.57500
 30
0.0
 40
0.95825
 50
109.19128
 51
138.89282
  0
ARC
  8
0
 10
3.26700
 20
14.36800
 30
0.0
 40
0.23055
 50
147.75753
 51
225.17629
  0
ARC
  8
0
 10
2.79200
 20
14.67600
 30
0.0
 40
0.33559
 50
326.54669
 51
389.85079
  0
ARC
  8
0
 10
4.29000
 20
16.54300
 30
0.0
 40
2.08490
 50
234.62525
 51
251.31303
  0
LINE
  8
0
 10
3.622
 20
14.568
 30
0.0
 11
3.512
 21
14.480
 31
0.0
  0
ARC
  8
0
 10
19.71100
 20
25.66300
 30
0.0
 40
3.70961
 50
239.46006
 51
255.72026
  0
ARC
  8
0
 10
18.48600
 20
23.49200
 30
0.0
 40
1.45735
 50
232.35949
 51
282.28148
  0
ARC
  8
0
 10
18.04600
 20
21.80100
 30
0.0
 40
0.70139
 50
108.27996
 51
129.96263
  0
ARC
  8
0
 10
11.00800
 20
21.88400
 30
0.0
 40
1.22235
 50
267.93618
 51
322.21135
  0
ARC
  8
0
 10
9.77600
 20
23.20700
 30
0.0
 40
2.80771
 50
295.03169
 51
314.22071
  0
ARC
  8
0
 10
12.09400
 20
22.12500
 30
0.0
 40
0.99724
 50
248.83874
 51
263.08877
  0
ARC
  8
0
 10
17.49300
 20
26.79500
 30
0.0
 40
0.49940
 50
165.37913
 51
234.78241
  0
ARC
  8
0
 10
17.61900
 20
26.88900
 30
0.0
 40
0.61026
 50
119.33730
 51
176.99215
  0
LINE
  8
0
 10
17.320
 20
27.421
 30
0.0
 11
17.332
 21
27.499
 31
0.0
  0
ARC
  8
0
 10
17.31300
 20
26.92000
 30
0.0
 40
0.57931
 50
88.12050
 51
175.63926
  0
ARC
  8
0
 10
17.32700
 20
26.89000
 30
0.0
 40
0.59561
 50
172.86305
 51
257.08477
  0
LINE
  8
0
 10
17.194
 20
26.310
 30
0.0
 11
17.204
 21
26.388
 31
0.0
  0
LINE
  8
0
 10
15.752
 20
13.292
 30
0.0
 11
10.841
 21
13.292
 31
0.0
  0
ARC
  8
0
 10
14.15800
 20
13.21100
 30
0.0
 40
3.31798
 50
178.60113
 51
198.76822
  0
LINE
  8
0
 10
11.018
 20
12.144
 30
0.0
 11
15.834
 21
12.144
 31
0.0
  0
ARC
  8
0
 10
17.86100
 20
13.45800
 30
0.0
 40
2.41595
 50
200.01755
 51
212.95327
  0
ARC
  8
0
 10
15.95100
 20
12.77000
 30
0.0
 40
0.38612
 50
159.21818
 51
201.11213
  0
ARC
  8
0
 10
14.87200
 20
13.43700
 30
0.0
 40
0.89242
 50
323.56668
 51
350.57992
  0
ARC
  8
0
 10
15.34900
 20
3.30100
 30
0.0
 40
1.00961
 50
210.93456
 51
234.23137
  0
ARC
  8
0
 10
16.20600
 20
2.81900
 30
0.0
 40
1.72339
 50
181.23019
 51
191.41427
  0
ARC
  8
0
 10
14.85400
 20
3.05400
 30
0.0
 40
0.66734
 50
239.66940
 51
279.49056
  0
ARC
  8
0
 10
14.88400
 20
2.78300
 30
0.0
 40
0.39518
 50
281.67958
 51
371.99335
  0
ARC
  8
0
 10
14.95300
 20
2.79500
 30
0.0
 40
0.32539
 50
12.45223
 51
40.88777
  0
LINE
  8
0
 10
15.199
 20
3.008
 30
0.0
 11
15.164
 21
3.036
 31
0.0
  0
LINE
  8
0
 10
15.164
 20
3.036
 30
0.0
 11
15.072
 21
3.097
 31
0.0
  0
LINE
  8
0
 10
15.072
 20
3.097
 30
0.0
 11
14.880
 21
3.186
 31
0.0
  0
LINE
  8
0
 10
14.880
 20
3.186
 30
0.0
 11
14.844
 21
3.195
 31
0.0
  0
ARC
  8
0
 10
14.88100
 20
3.38300
 30
0.0
 40
0.19160
 50
198.05425
 51
258.86600
  0
ARC
  8
0
 10
14.87700
 20
3.36900
 30
0.0
 40
0.18341
 50
115.16787
 51
194.26451
  0
ARC
  8
0
 10
14.85100
 20
3.07000
 30
0.0
 40
0.46789
 50
33.04441
 51
96.38076
  0
ARC
  8
0
 10
13.94900
 20
3.36300
 30
0.0
 40
1.29573
 50
358.31792
 51
367.71737
  0
ARC
  8
0
 10
14.84000
 20
2.38900
 30
0.0
 40
1.21340
 50
71.10216
 51
93.21389
  0
ARC
  8
0
 10
14.80900
 20
3.28200
 30
0.0
 40
0.32035
 50
96.63665
 51
230.44633
  0
ARC
  8
0
 10
16.23900
 20
5.78100
 30
0.0
 40
3.19589
 50
239.24535
 51
247.05329
  0
ARC
  8
0
 10
14.92900
 20
2.67300
 30
0.0
 40
0.17808
 50
10.67895
 51
68.79978
  0
ARC
  8
0
 10
14.83200
 20
2.66300
 30
0.0
 40
0.27576
 50
336.03751
 51
368.98344
  0
ARC
  8
0
 10
14.87800
 20
2.71900
 30
0.0
 40
0.26581
 50
243.33833
 51
320.80159
  0
ARC
  8
0
 10
15.28000
 20
22.08600
 30
0.0
 40
0.17837
 50
327.38076
 51
419.69732
  0
ARC
  8
0
 10
15.44700
 20
22.12600
 30
0.0
 40
0.13756
 50
124.03661
 51
262.87498
  0
ARC
  8
0
 10
15.13400
 20
21.69800
 30
0.0
 40
0.86358
 50
313.73322
 51
326.77020
  0
ARC
  8
0
 10
15.84600
 20
21.35700
 30
0.0
 40
0.30564
 50
213.79405
 51
247.88512
  0
ARC
  8
0
 10
16.32700
 20
20.72200
 30
0.0
 40
0.87016
 50
131.27264
 51
147.68038
  0
ARC
  8
0
 10
15.68600
 20
21.21800
 30
0.0
 40
0.17161
 50
2.35791
 51
67.02060
  0
ARC
  8
0
 10
13.79800
 20
20.80700
 30
0.0
 40
2.33237
 50
311.88859
 51
315.97279
  0
ARC
  8
0
 10
15.34300
 20
19.07600
 30
0.0
 40
0.17182
 50
354.92787
 51
399.80557
  0
ARC
  8
0
 10
15.22200
 20
19.14900
 30
0.0
 40
0.30381
 50
322.48890
 51
343.11967
  0
ARC
  8
0
 10
15.46300
 20
19.07200
 30
0.0
 40
0.10800
 50
180.53050
 51
270.00000
  0
ARC
  8
0
 10
17.20800
 20
26.85600
 30
0.0
 40
0.55200
 50
293.40327
 51
360.20759
  0
LINE
  8
0
 10
17.427
 20
26.350
 30
0.0
 11
17.420
 21
26.280
 31
0.0
  0
ARC
  8
0
 10
17.42200
 20
26.87600
 30
0.0
 40
0.59600
 50
269.80773
 51
353.34079
  0
ARC
  8
0
 10
17.42800
 20
26.89300
 30
0.0
 40
0.59208
 50
351.63693
 51
438.40539
  0
LINE
  8
0
 10
17.547
 20
27.473
 30
0.0
 11
17.537
 21
27.394
 31
0.0
  0
ARC
  8
0
 10
17.19800
 20
26.93900
 30
0.0
 40
0.56780
 50
351.79855
 51
413.31186
  0
ARC
  8
0
 10
14.21000
 20
19.79700
 30
0.0
 40
0.65424
 50
1.57655
 51
66.76690
  0
ARC
  8
0
 10
11.42700
 20
17.02900
 30
0.0
 40
4.42436
 50
39.02790
 51
43.97435
  0
ARC
  8
0
 10
14.74900
 20
19.90800
 30
0.0
 40
0.23726
 50
125.56575
 51
162.32895
  0
ARC
  8
0
 10
26.01300
 20
24.67100
 30
0.0
 40
12.41072
 50
200.68086
 51
202.20863
  0
ARC
  8
0
 10
14.47400
 20
19.42400
 30
0.0
 40
0.86699
 50
94.76364
 51
102.49286
  0
ARC
  8
0
 10
14.46500
 20
20.20800
 30
0.0
 40
0.19002
 50
89.09540
 51
161.37214
  0
ARC
  8
0
 10
15.82500
 20
18.78100
 30
0.0
 40
0.61578
 50
2.88564
 51
26.85652
  0
ARC
  8
0
 10
16.83800
 20
18.76900
 30
0.0
 40
0.54824
 50
147.99462
 51
164.77238
  0
ARC
  8
0
 10
16.67100
 20
19.09000
 30
0.0
 40
0.40393
 50
206.05633
 51
226.70533
  0
ARC
  8
0
 10
16.41100
 20
18.82000
 30
0.0
 40
0.03008
 50
234.68879
 51
344.57784
  0
ARC
  8
0
 10
13.07900
 20
17.86200
 30
0.0
 40
1.57890
 50
19.53665
 51
27.13312
  0
LINE
  8
0
 10
14.484
 20
18.582
 30
0.0
 11
14.450
 21
18.467
 31
0.0
  0
ARC
  8
0
 10
5.35400
 20
18.61300
 30
0.0
 40
9.09717
 50
357.31593
 51
359.08042
  0
ARC
  8
0
 10
14.33700
 20
18.39300
 30
0.0
 40
0.23076
 50
296.78713
 51
359.25271
  0
ARC
  8
0
 10
14.88100
 20
13.60900
 30
0.0
 40
4.87080
 50
325.12555
 51
339.62293
  0
LINE
  8
0
 10
19.447
 20
11.913
 30
0.0
 11
18.406
 21
11.914
 31
0.0
  0
LINE
  8
0
 10
18.406
 20
11.914
 30
0.0
 11
18.387
 21
11.914
 31
0.0
  0
ARC
  8
0
 10
17.86500
 20
11.90700
 30
0.0
 40
0.52204
 50
329.45088
 51
360.76829
  0
ARC
  8
0
 10
16.63000
 20
13.04000
 30
0.0
 40
2.18868
 50
300.74826
 51
320.30169
  0
ARC
  8
0
 10
17.98300
 20
10.80600
 30
0.0
 40
0.42351
 50
123.53998
 51
177.55758
  0
LINE
  8
0
 10
17.561
 20
10.824
 30
0.0
 11
18.875
 21
10.824
 31
0.0
  0
ARC
  8
0
 10
23.31500
 20
13.04000
 30
0.0
 40
0.72997
 50
81.64782
 51
164.66916
  0
ARC
  8
0
 10
23.14900
 20
13.29500
 30
0.0
 40
0.54166
 50
59.97960
 51
186.57386
  0
ARC
  8
0
 10
18.94200
 20
23.07100
 30
0.0
 40
1.59253
 50
233.09411
 51
276.27265
  0
ARC
  8
0
 10
20.05400
 20
23.92200
 30
0.0
 40
2.60855
 50
231.94393
 51
248.92464
  0
ARC
  8
0
 10
18.66200
 20
18.89900
 30
0.0
 40
2.97684
 50
94.16104
 51
103.12590
  0
ARC
  8
0
 10
9.56400
 20
23.96000
 30
0.0
 40
3.91351
 50
295.74660
 51
311.63354
  0
ARC
  8
0
 10
11.15800
 20
22.04400
 30
0.0
 40
1.61268
 50
273.76917
 51
321.72305
  0
ARC
  8
0
 10
12.22400
 20
22.91500
 30
0.0
 40
1.88095
 50
268.17203
 51
276.10468
  0
ARC
  8
0
 10
9.57900
 20
6.89900
 30
0.0
 40
0.28679
 50
33.46821
 51
83.59362
  0
ARC
  8
0
 10
11.52700
 20
7.82600
 30
0.0
 40
1.87404
 50
204.22635
 51
214.30066
  0
ARC
  8
0
 10
10.02500
 20
6.98800
 30
0.0
 40
0.22300
 50
258.08485
 51
304.40266
  0
ARC
  8
0
 10
8.78900
 20
6.31700
 30
0.0
 40
1.44659
 50
19.67514
 51
46.59658
  0
ARC
  8
0
 10
9.57700
 20
7.15700
 30
0.0
 40
0.29504
 50
45.68697
 51
108.37354
  0
ARC
  8
0
 10
14.81000
 20
7.76700
 30
0.0
 40
5.33621
 50
183.54553
 51
189.14456
  0
ARC
  8
0
 10
9.79800
 20
7.02400
 30
0.0
 40
0.27711
 50
202.30129
 51
271.65429
  0
ARC
  8
0
 10
3.46200
 20
4.17100
 30
0.0
 40
6.84750
 50
22.09976
 51
26.10478
  0
ARC
  8
0
 10
13.81700
 20
18.64300
 30
0.0
 40
0.15100
 50
348.54125
 51
392.00538
  0
ARC
  8
0
 10
9.26300
 20
23.15500
 30
0.0
 40
6.44699
 50
310.09232
 51
316.57125
  0
ARC
  8
0
 10
13.36200
 20
18.27300
 30
0.0
 40
0.07334
 50
154.13364
 51
316.66834
  0
ARC
  8
0
 10
14.93200
 20
17.47800
 30
0.0
 40
1.83314
 50
123.69874
 51
153.18335
  0
ARC
  8
0
 10
13.86000
 20
19.03800
 30
0.0
 40
0.06519
 50
327.52881
 51
392.47119
  0
ARC
  8
0
 10
15.11900
 20
17.26600
 30
0.0
 40
2.17161
 50
123.67543
 51
149.59733
  0
ARC
  8
0
 10
13.36200
 20
18.26900
 30
0.0
 40
0.15057
 50
140.38931
 51
306.56310
  0
ARC
  8
0
 10
12.81900
 20
19.36700
 30
0.0
 40
1.37220
 50
297.42405
 51
326.65746
  0
ARC
  8
0
 10
27.34000
 20
14.22200
 30
0.0
 40
1.58004
 50
265.24238
 51
275.41111
  0
ARC
  8
0
 10
26.81800
 20
13.48700
 30
0.0
 40
0.92647
 50
294.98698
 51
317.49335
  0
LINE
  8
0
 10
27.501
 20
12.861
 30
0.0
 11
27.510
 21
12.872
 31
0.0
  0
ARC
  8
0
 10
27.30400
 20
13.00200
 30
0.0
 40
0.24358
 50
327.74529
 51
404.66689
  0
ARC
  8
0
 10
27.35100
 20
12.95400
 30
0.0
 40
0.25265
 50
60.08635
 51
93.17983
  0
ARC
  8
0
 10
27.35100
 20
13.04400
 30
0.0
 40
0.16279
 50
94.93922
 51
152.96274
  0
ARC
  8
0
 10
24.64300
 20
14.53500
 30
0.0
 40
2.92901
 50
323.28659
 51
331.06321
  0
ARC
  8
0
 10
26.78400
 20
12.99300
 30
0.0
 40
0.29415
 50
180.38976
 51
314.72454
  0
LINE
  8
0
 10
26.490
 20
12.991
 30
0.0
 11
26.495
 21
13.077
 31
0.0
  0
ARC
  8
0
 10
27.72100
 20
12.88900
 30
0.0
 40
1.24049
 50
155.52164
 51
171.28193
  0
ARC
  8
0
 10
26.62800
 20
12.21600
 30
0.0
 40
1.18782
 50
82.25873
 51
91.73717
  0
ARC
  8
0
 10
26.98100
 20
13.01100
 30
0.0
 40
0.42826
 50
116.80453
 51
177.99279
  0
ARC
  8
0
 10
26.66700
 20
13.03000
 30
0.0
 40
0.11416
 50
182.00955
 51
198.91108
  0
ARC
  8
0
 10
26.70700
 20
13.06400
 30
0.0
 40
0.16469
 50
205.62842
 51
335.61363
  0
LINE
  8
0
 10
26.857
 20
12.996
 30
0.0
 11
26.883
 21
13.055
 31
0.0
  0
LINE
  8
0
 10
26.883
 20
13.055
 30
0.0
 11
26.978
 21
13.214
 31
0.0
  0
LINE
  8
0
 10
26.978
 20
13.214
 30
0.0
 11
27.042
 21
13.293
 31
0.0
  0
ARC
  8
0
 10
27.18800
 20
13.16300
 30
0.0
 40
0.19548
 50
124.99202
 51
138.31778
  0
ARC
  8
0
 10
27.23600
 20
13.09500
 30
0.0
 40
0.27853
 50
99.09028
 51
125.05943
  0
LINE
  8
0
 10
27.192
 20
13.370
 30
0.0
 11
27.224
 21
13.375
 31
0.0
  0
ARC
  8
0
 10
27.24700
 20
13.01400
 30
0.0
 40
0.36186
 50
3.96153
 51
93.64550
  0
ARC
  8
0
 10
26.99600
 20
13.01200
 30
0.0
 40
0.61259
 50
323.63548
 51
362.52612
  0
LINE
  8
0
 10
24.625
 20
21.246
 30
0.0
 11
25.623
 21
21.962
 31
0.0
  0
ARC
  8
0
 10
26.10400
 20
21.25800
 30
0.0
 40
0.85290
 50
111.60182
 51
124.34240
  0
ARC
  8
0
 10
25.86500
 20
21.89200
 30
0.0
 40
0.17580
 50
81.12944
 51
115.25316
  0
ARC
  8
0
 10
26.76700
 20
23.64600
 30
0.0
 40
1.80698
 50
241.03779
 51
244.62667
  0
ARC
  8
0
 10
25.98200
 20
22.04700
 30
0.0
 40
0.03544
 50
288.43495
 51
376.38954
  0
ARC
  8
0
 10
29.16400
 20
24.67900
 30
0.0
 40
4.09732
 50
212.72430
 51
219.79125
  0
ARC
  8
0
 10
25.69000
 20
22.45300
 30
0.0
 40
0.03041
 50
22.16635
 51
207.40758
  0
ARC
  8
0
 10
25.42200
 20
22.27900
 30
0.0
 40
0.29022
 50
327.95276
 51
393.58020
  0
LINE
  8
0
 10
25.668
 20
22.125
 30
0.0
 11
25.035
 21
21.678
 31
0.0
  0
LINE
  8
0
 10
25.035
 20
21.678
 30
0.0
 11
25.010
 21
21.709
 31
0.0
  0
LINE
  8
0
 10
25.010
 20
21.709
 30
0.0
 11
25.213
 21
23.103
 31
0.0
  0
ARC
  8
0
 10
26.87600
 20
24.55500
 30
0.0
 40
2.20768
 50
209.88653
 51
221.12489
  0
ARC
  8
0
 10
24.89200
 20
23.41900
 30
0.0
 40
0.07885
 50
27.21611
 51
77.55000
  0
ARC
  8
0
 10
24.63400
 20
23.36100
 30
0.0
 40
0.30634
 50
310.35740
 51
386.14684
  0
LINE
  8
0
 10
24.832
 20
23.128
 30
0.0
 11
23.977
 21
22.474
 31
0.0
  0
ARC
  8
0
 10
23.87800
 20
22.62600
 30
0.0
 40
0.18243
 50
224.55586
 51
303.07683
  0
ARC
  8
0
 10
23.72700
 20
22.48300
 30
0.0
 40
0.02580
 50
35.53768
 51
216.86990
  0
ARC
  8
0
 10
30.03600
 20
26.80600
 30
0.0
 40
7.67331
 50
214.42738
 51
218.50238
  0
ARC
  8
0
 10
24.04400
 20
22.05400
 30
0.0
 40
0.02817
 50
242.52557
 51
390.25644
  0
ARC
  8
0
 10
24.25100
 20
22.23000
 30
0.0
 40
0.24440
 50
131.84776
 51
221.51673
  0
LINE
  8
0
 10
24.088
 20
22.412
 30
0.0
 11
24.805
 21
22.967
 31
0.0
  0
ARC
  8
0
 10
24.82200
 20
22.93100
 30
0.0
 40
0.04004
 50
2.86241
 51
115.27772
  0
LINE
  8
0
 10
24.862
 20
22.933
 30
0.0
 11
24.586
 21
21.322
 31
0.0
  0
LINE
  8
0
 10
24.586
 20
21.322
 30
0.0
 11
24.625
 21
21.244
 31
0.0
  0
ARC
  8
0
 10
15.13400
 20
17.71900
 30
0.0
 40
8.67226
 50
88.20266
 51
94.10633
  0
ARC
  8
0
 10
14.51700
 20
26.39000
 30
0.0
 40
0.02193
 50
114.22775
 51
259.21570
  0
ARC
  8
0
 10
14.15300
 20
27.65300
 30
0.0
 40
1.29270
 50
285.93931
 51
295.19640
  0
ARC
  8
0
 10
14.51500
 20
26.68100
 30
0.0
 40
0.27261
 50
313.66086
 51
345.55596
  0
LINE
  8
0
 10
14.779
 20
26.613
 30
0.0
 11
14.742
 21
27.821
 31
0.0
  0
ARC
  8
0
 10
14.55100
 20
27.18500
 30
0.0
 40
0.66484
 50
73.28423
 51
113.86624
  0
ARC
  8
0
 10
14.60600
 20
27.47700
 30
0.0
 40
0.45288
 50
135.71616
 51
163.84607
  0
ARC
  8
0
 10
14.14500
 20
27.62400
 30
0.0
 40
0.03342
 50
180.00000
 51
321.07246
  0
ARC
  8
0
 10
15.28800
 20
27.63400
 30
0.0
 40
1.17636
 50
164.21517
 51
180.48720
  0
LINE
  8
0
 10
14.156
 20
27.954
 30
0.0
 11
15.688
 21
28.001
 31
0.0
  0
ARC
  8
0
 10
15.22300
 20
27.77200
 30
0.0
 40
0.51833
 50
353.23196
 51
386.21901
  0
ARC
  8
0
 10
15.71600
 20
27.71500
 30
0.0
 40
0.02193
 50
204.22775
 51
349.21570
  0
ARC
  8
0
 10
15.23600
 20
27.44300
 30
0.0
 40
0.52987
 50
29.75829
 51
51.74558
  0
ARC
  8
0
 10
15.38300
 20
27.35300
 30
0.0
 40
0.53773
 50
70.31749
 51
122.00538
  0
LINE
  8
0
 10
15.098
 20
27.809
 30
0.0
 11
15.128
 21
26.705
 31
0.0
  0
ARC
  8
0
 10
15.32100
 20
26.68600
 30
0.0
 40
0.19465
 50
174.37760
 51
239.08672
  0
ARC
  8
0
 10
15.45600
 20
26.87400
 30
0.0
 40
0.42612
 50
236.49656
 51
260.27242
  0
ARC
  8
0
 10
15.37600
 20
26.41400
 30
0.0
 40
0.04079
 50
318.01279
 51
438.69007
  0
ARC
  8
0
 10
17.75500
 20
19.34600
 30
0.0
 40
1.37220
 50
213.34254
 51
242.57595
  0
ARC
  8
0
 10
17.21200
 20
18.24800
 30
0.0
 40
0.15057
 50
233.43690
 51
399.61069
  0
ARC
  8
0
 10
15.45500
 20
17.24400
 30
0.0
 40
2.17220
 50
30.42542
 51
56.33919
  0
ARC
  8
0
 10
16.71400
 20
19.01700
 30
0.0
 40
0.06519
 50
147.52881
 51
212.47119
  0
ARC
  8
0
 10
15.64200
 20
17.45600
 30
0.0
 40
1.83383
 50
26.84454
 51
56.31860
  0
ARC
  8
0
 10
17.21200
 20
18.25200
 30
0.0
 40
0.07355
 50
223.89829
 51
385.86636
  0
ARC
  8
0
 10
21.31100
 20
23.13300
 30
0.0
 40
6.44699
 50
223.42230
 51
229.90768
  0
ARC
  8
0
 10
16.75600
 20
18.62200
 30
0.0
 40
0.15009
 50
147.79230
 51
191.53462
  0
LINE
  8
0
 10
13.475
 20
9.313
 30
0.0
 11
16.463
 21
9.313
 31
0.0
  0
ARC
  8
0
 10
13.49500
 20
8.61600
 30
0.0
 40
3.04876
 50
13.21577
 51
27.06092
  0
ARC
  8
0
 10
13.44400
 20
9.86900
 30
0.0
 40
2.77010
 50
2.77355
 51
15.21521
  0
LINE
  8
0
 10
16.117
 20
10.596
 30
0.0
 11
11.895
 21
10.594
 31
0.0
  0
ARC
  8
0
 10
16.36300
 20
14.48900
 30
0.0
 40
5.92739
 50
221.08044
 51
240.84024
  0
ARC
  8
0
 10
9.39300
 20
4.91700
 30
0.0
 40
1.00944
 50
183.97643
 51
207.30120
  0
ARC
  8
0
 10
9.93800
 20
4.09800
 30
0.0
 40
1.72335
 50
154.23790
 51
164.41538
  0
ARC
  8
0
 10
8.84000
 20
4.92200
 30
0.0
 40
0.66795
 50
212.71461
 51
252.48735
  0
ARC
  8
0
 10
8.74400
 20
4.66600
 30
0.0
 40
0.39520
 50
254.59230
 51
345.01244
  0
ARC
  8
0
 10
8.87700
 20
4.64600
 30
0.0
 40
0.26188
 50
341.70378
 51
377.32792
  0
LINE
  8
0
 10
9.127
 20
4.724
 30
0.0
 11
9.108
 21
4.765
 31
0.0
  0
LINE
  8
0
 10
9.108
 20
4.765
 30
0.0
 11
9.054
 21
4.861
 31
0.0
  0
LINE
  8
0
 10
9.054
 20
4.861
 30
0.0
 11
8.927
 21
5.021
 31
0.0
  0
LINE
  8
0
 10
8.927
 20
5.021
 30
0.0
 11
8.893
 21
5.055
 31
0.0
  0
ARC
  8
0
 10
9.01400
 20
5.20300
 30
0.0
 40
0.19121
 50
171.27662
 51
230.73168
  0
ARC
  8
0
 10
9.00400
 20
5.19200
 30
0.0
 40
0.18341
 50
88.43493
 51
167.40343
  0
ARC
  8
0
 10
8.84500
 20
4.93700
 30
0.0
 40
0.46769
 50
5.89353
 51
69.47263
  0
ARC
  8
0
 10
8.93400
 20
5.27000
 30
0.0
 40
0.47185
 50
322.83865
 51
348.88058
  0
ARC
  8
0
 10
8.43200
 20
4.23100
 30
0.0
 40
1.35288
 50
44.49085
 51
61.86274
  0
LINE
  8
0
 10
9.070
 20
5.424
 30
0.0
 11
9.026
 21
5.441
 31
0.0
  0
ARC
  8
0
 10
8.90300
 20
5.14500
 30
0.0
 40
0.32053
 50
67.43513
 51
203.36303
  0
ARC
  8
0
 10
11.31200
 20
6.72200
 30
0.0
 40
3.19531
 50
212.22777
 51
220.04893
  0
ARC
  8
0
 10
8.73400
 20
4.54700
 30
0.0
 40
0.17788
 50
344.01036
 51
402.03514
  0
ARC
  8
0
 10
8.64300
 20
4.58200
 30
0.0
 40
0.27513
 50
309.08373
 51
342.22359
  0
ARC
  8
0
 10
8.70900
 20
4.61200
 30
0.0
 40
0.26551
 50
216.56743
 51
293.76530
  0
ARC
  8
0
 10
7.06200
 20
12.81700
 30
0.0
 40
0.84698
 50
324.32077
 51
351.43911
  0
ARC
  8
0
 10
11.04800
 20
12.46700
 30
0.0
 40
3.30114
 50
140.03886
 51
182.50011
  0
ARC
  8
0
 10
12.70100
 20
12.16700
 30
0.0
 40
4.83258
 50
149.94924
 51
173.77246
  0
ARC
  8
0
 10
10.49600
 20
23.88900
 30
0.0
 40
2.60855
 50
291.07536
 51
308.05607
  0
ARC
  8
0
 10
11.60700
 20
23.03800
 30
0.0
 40
1.59260
 50
263.76312
 51
306.93465
  0
ARC
  8
0
 10
11.88800
 20
18.86600
 30
0.0
 40
2.97684
 50
76.87410
 51
85.83896
  0
ARC
  8
0
 10
20.98600
 20
23.99300
 30
0.0
 40
3.91351
 50
228.36646
 51
244.25340
  0
ARC
  8
0
 10
19.39200
 20
22.07700
 30
0.0
 40
1.61268
 50
218.27695
 51
266.23083
  0
ARC
  8
0
 10
18.32600
 20
22.94800
 30
0.0
 40
1.88095
 50
263.89532
 51
271.82797
  0
LINE
  8
0
 10
6.462
 20
23.192
 30
0.0
 11
6.928
 21
23.063
 31
0.0
  0
LINE
  8
0
 10
6.928
 20
23.063
 30
0.0
 11
7.234
 21
23.063
 31
0.0
  0
LINE
  8
0
 10
7.234
 20
23.063
 30
0.0
 11
7.353
 21
23.142
 31
0.0
  0
ARC
  8
0
 10
7.36800
 20
23.11100
 30
0.0
 40
0.03501
 50
1.63658
 51
115.82099
  0
ARC
  8
0
 10
6.93200
 20
23.16000
 30
0.0
 40
0.47343
 50
325.94050
 51
354.18103
  0
ARC
  8
0
 10
6.96900
 20
23.18500
 30
0.0
 40
0.45839
 50
258.54290
 51
320.75457
  0
LINE
  8
0
 10
6.878
 20
22.736
 30
0.0
 11
6.433
 21
22.855
 31
0.0
  0
ARC
  8
0
 10
6.37300
 20
22.68700
 30
0.0
 40
0.17839
 50
70.34618
 51
109.35079
  0
ARC
  8
0
 10
6.46200
 20
23.14200
 30
0.0
 40
0.32291
 50
220.10091
 51
242.72077
  0
ARC
  8
0
 10
5.99400
 20
23.11300
 30
0.0
 40
0.28490
 50
320.99409
 51
420.10546
  0
ARC
  8
0
 10
5.94000
 20
23.09000
 30
0.0
 40
0.33364
 50
54.02313
 51
131.34778
  0
LINE
  8
0
 10
5.720
 20
23.340
 30
0.0
 11
5.663
 21
23.389
 31
0.0
  0
ARC
  8
0
 10
6.14500
 20
23.24300
 30
0.0
 40
0.50388
 50
97.98538
 51
163.14820
  0
ARC
  8
0
 10
6.10700
 20
23.34900
 30
0.0
 40
0.39430
 50
21.85567
 51
94.65504
  0
ARC
  8
0
 10
6.02800
 20
23.35500
 30
0.0
 40
0.46459
 50
339.41502
 51
377.53795
  0
ARC
  8
0
 10
4.80200
 20
8.51700
 30
0.0
 40
4.40509
 50
99.63125
 51
109.89531
  0
ARC
  8
0
 10
3.45400
 20
12.34100
 30
0.0
 40
0.35202
 50
115.40037
 51
172.14669
  0
ARC
  8
0
 10
3.96600
 20
12.29500
 30
0.0
 40
0.86586
 50
173.76220
 51
198.93716
  0
ARC
  8
0
 10
3.67500
 20
12.16000
 30
0.0
 40
0.54799
 50
195.45693
 51
230.03379
  0
ARC
  8
0
 10
3.60000
 20
12.11000
 30
0.0
 40
0.46220
 50
233.17969
 51
276.34019
  0
ARC
  8
0
 10
2.72100
 20
16.69900
 30
0.0
 40
5.13295
 50
280.43863
 51
286.39773
  0
ARC
  8
0
 10
4.22300
 20
11.35600
 30
0.0
 40
0.42233
 50
61.06418
 51
97.20915
  0
ARC
  8
0
 10
4.43500
 20
11.73300
 30
0.0
 40
0.01140
 50
225.00000
 51
375.25512
  0
ARC
  8
0
 10
-6.30800
 20
8.88900
 30
0.0
 40
11.12447
 50
14.82824
 51
16.33664
  0
ARC
  8
0
 10
4.35800
 20
12.01000
 30
0.0
 40
0.01236
 50
41.63354
 51
194.03624
  0
ARC
  8
0
 10
3.97700
 20
12.04300
 30
0.0
 40
0.37075
 50
343.37482
 51
354.42780
  0
ARC
  8
0
 10
4.11600
 20
12.10500
 30
0.0
 40
0.27364
 50
279.25573
 51
322.12502
  0
ARC
  8
0
 10
3.61200
 20
13.24200
 30
0.0
 40
1.50995
 50
265.89816
 51
291.27998
  0
ARC
  8
0
 10
3.59400
 20
12.08400
 30
0.0
 40
0.35978
 50
212.62997
 51
255.49983
  0
ARC
  8
0
 10
3.67800
 20
12.13400
 30
0.0
 40
0.45749
 50
171.19669
 51
212.23106
  0
ARC
  8
0
 10
3.63900
 20
12.09200
 30
0.0
 40
0.42791
 50
127.96903
 51
164.82708
  0
ARC
  8
0
 10
4.29300
 20
10.36800
 30
0.0
 40
2.25603
 50
96.61785
 51
113.98570
  0
ARC
  8
0
 10
4.08200
 20
12.35500
 30
0.0
 40
0.25868
 50
55.08060
 51
100.91899
  0
ARC
  8
0
 10
4.25000
 20
12.59700
 30
0.0
 40
0.03605
 50
236.30993
 51
303.69007
  0
ARC
  8
0
 10
5.27700
 20
13.02400
 30
0.0
 40
1.10630
 50
181.34667
 51
204.40965
  0
ARC
  8
0
 10
4.14400
 20
12.99400
 30
0.0
 40
0.02846
 50
8.42697
 51
161.56505
  0
LINE
  8
0
 10
4.117
 20
13.003
 30
0.0
 11
4.104
 21
12.891
 31
0.0
  0
ARC
  8
0
 10
4.06000
 20
12.90600
 30
0.0
 40
0.04648
 50
276.20345
 51
341.17529
  0
LINE
  8
0
 10
20.472
 20
4.185
 30
0.0
 11
20.728
 21
3.950
 31
0.0
  0
LINE
  8
0
 10
20.728
 20
3.950
 30
0.0
 11
20.925
 21
3.851
 31
0.0
  0
LINE
  8
0
 10
20.925
 20
3.851
 30
0.0
 11
21.027
 21
3.863
 31
0.0
  0
ARC
  8
0
 10
21.02600
 20
3.83800
 30
0.0
 40
0.02507
 50
336.50143
 51
447.70939
  0
ARC
  8
0
 10
20.76300
 20
4.01200
 30
0.0
 40
0.34014
 50
298.82555
 51
327.24453
  0
ARC
  8
0
 10
20.79500
 20
4.01600
 30
0.0
 40
0.32958
 50
231.53027
 51
293.60947
  0
LINE
  8
0
 10
20.590
 20
3.758
 30
0.0
 11
20.343
 21
3.980
 31
0.0
  0
ARC
  8
0
 10
20.24900
 20
3.89100
 30
0.0
 40
0.12944
 50
43.43493
 51
82.43468
  0
ARC
  8
0
 10
20.45500
 20
4.15400
 30
0.0
 40
0.23226
 50
192.95758
 51
215.53768
  0
ARC
  8
0
 10
20.14600
 20
4.28900
 30
0.0
 40
0.20459
 50
293.93405
 51
393.22363
  0
ARC
  8
0
 10
20.10400
 20
4.29200
 30
0.0
 40
0.23963
 50
27.10051
 51
104.50017
  0
LINE
  8
0
 10
20.044
 20
4.524
 30
0.0
 11
20.023
 21
4.574
 31
0.0
  0
ARC
  8
0
 10
20.28500
 20
4.32200
 30
0.0
 40
0.36352
 50
74.81416
 51
136.11456
  0
ARC
  8
0
 10
20.29500
 20
4.40300
 30
0.0
 40
0.28329
 50
357.36989
 51
432.46424
  0
ARC
  8
0
 10
20.24700
 20
4.43200
 30
0.0
 40
0.33411
 50
312.33137
 51
352.76849
  0
ARC
  8
0
 10
26.42500
 20
10.33500
 30
0.0
 40
0.12822
 50
86.86976
 51
125.79740
  0
ARC
  8
0
 10
26.39600
 20
10.66700
 30
0.0
 40
0.23269
 50
236.03677
 51
258.59345
  0
ARC
  8
0
 10
26.07800
 20
10.55500
 30
0.0
 40
0.20470
 50
336.69115
 51
436.10001
  0
ARC
  8
0
 10
26.04500
 20
10.52800
 30
0.0
 40
0.23967
 50
69.97601
 51
147.43713
  0
LINE
  8
0
 10
25.843
 20
10.657
 30
0.0
 11
25.794
 21
10.679
 31
0.0
  0
ARC
  8
0
 10
26.15600
 20
10.67400
 30
0.0
 40
0.36308
 50
113.88238
 51
179.20867
  0
ARC
  8
0
 10
26.10900
 20
10.74000
 30
0.0
 40
0.28417
 50
37.96381
 51
110.60324
  0
ARC
  8
0
 10
26.05300
 20
10.72900
 30
0.0
 40
0.33476
 50
355.36454
 51
393.54766
  0
LINE
  8
0
 10
26.386
 20
10.702
 30
0.0
 11
26.734
 21
10.705
 31
0.0
  0
LINE
  8
0
 10
26.734
 20
10.705
 30
0.0
 11
26.946
 21
10.766
 31
0.0
  0
LINE
  8
0
 10
26.946
 20
10.766
 30
0.0
 11
27.012
 21
10.844
 31
0.0
  0
ARC
  8
0
 10
27.02900
 20
10.82500
 30
0.0
 40
0.02563
 50
20.55605
 51
131.82017
  0
ARC
  8
0
 10
26.71700
 20
10.77300
 30
0.0
 40
0.34149
 50
341.88395
 51
370.28984
  0
ARC
  8
0
 10
26.73800
 20
10.79800
 30
0.0
 40
0.33010
 50
274.51854
 51
336.61908
  0
LINE
  8
0
 10
26.764
 20
10.469
 30
0.0
 11
26.432
 21
10.463
 31
0.0
  0
LINE
  8
0
 10
26.196
 20
18.843
 30
0.0
 11
27.022
 21
19.557
 31
0.0
  0
ARC
  8
0
 10
26.79100
 20
19.01100
 30
0.0
 40
0.59285
 50
48.28610
 51
67.06790
  0
LINE
  8
0
 10
27.185
 20
19.453
 30
0.0
 11
27.203
 21
19.471
 31
0.0
  0
ARC
  8
0
 10
32.74100
 20
21.50300
 30
0.0
 40
5.89992
 50
194.02682
 51
200.14907
  0
ARC
  8
0
 10
26.96600
 20
20.05600
 30
0.0
 40
0.05375
 50
18.43495
 51
92.16108
  0
ARC
  8
0
 10
26.99000
 20
20.05800
 30
0.0
 40
0.05724
 50
117.01267
 51
175.98582
  0
ARC
  8
0
 10
27.31500
 20
20.06200
 30
0.0
 40
0.38223
 50
180.00000
 51
193.92718
  0
LINE
  8
0
 10
26.944
 20
19.970
 30
0.0
 11
25.805
 21
18.875
 31
0.0
  0
LINE
  8
0
 10
25.805
 20
18.875
 30
0.0
 11
25.781
 21
18.779
 31
0.0
  0
ARC
  8
0
 10
24.99000
 20
15.53700
 30
0.0
 40
3.33824
 50
71.03314
 51
76.28856
  0
ARC
  8
0
 10
27.78300
 20
26.96400
 30
0.0
 40
8.44528
 50
258.33079
 51
267.46182
  0
LINE
  8
0
 10
27.409
 20
18.527
 30
0.0
 11
27.498
 21
18.432
 31
0.0
  0
ARC
  8
0
 10
27.52000
 20
18.44800
 30
0.0
 40
0.02807
 50
216.02737
 51
364.08562
  0
ARC
  8
0
 10
30.89600
 20
19.75600
 30
0.0
 40
3.59425
 50
193.22044
 51
201.30994
  0
ARC
  8
0
 10
27.35700
 20
18.93000
 30
0.0
 40
0.04119
 50
5.71059
 51
174.42780
  0
ARC
  8
0
 10
26.63700
 20
18.93700
 30
0.0
 40
0.67901
 50
347.92882
 51
359.74685
  0
ARC
  8
0
 10
27.16100
 20
18.83600
 30
0.0
 40
0.14603
 50
308.04704
 51
343.67695
  0
ARC
  8
0
 10
27.14200
 20
18.93200
 30
0.0
 40
0.23749
 50
265.63843
 51
297.32032
  0
ARC
  8
0
 10
26.96100
 20
20.67700
 30
0.0
 40
1.98769
 50
247.35796
 51
274.70380
  0
ARC
  8
0
 10
14.36200
 20
22.52400
 30
0.0
 40
0.87912
 50
167.11774
 51
270.52145
  0
ARC
  8
0
 10
13.36600
 20
22.74800
 30
0.0
 40
0.14204
 50
348.61082
 51
466.77651
  0
ARC
  8
0
 10
13.29900
 20
23.19800
 30
0.0
 40
0.31507
 50
239.03624
 51
274.73344
  0
ARC
  8
0
 10
13.06000
 20
22.66900
 30
0.0
 40
0.27020
 50
73.44293
 51
106.55707
  0
ARC
  8
0
 10
12.73700
 20
23.34400
 30
0.0
 40
0.48360
 50
244.91869
 51
300.59778
  0
ARC
  8
0
 10
13.38300
 20
21.18100
 30
0.0
 40
1.92349
 50
91.10228
 51
116.25866
  0
ARC
  8
0
 10
13.32300
 20
22.66500
 30
0.0
 40
0.43991
 50
31.52218
 51
87.00091
  0
ARC
  8
0
 10
13.27000
 20
22.66900
 30
0.0
 40
0.48400
 50
334.12395
 51
387.83573
  0
ARC
  8
0
 10
14.09400
 20
22.31300
 30
0.0
 40
0.41514
 50
159.55703
 51
166.19816
  0
ARC
  8
0
 10
14.14800
 20
22.27000
 30
0.0
 40
0.47855
 50
162.73883
 51
261.20823
  0
ARC
  8
0
 10
14.44900
 20
22.17000
 30
0.0
 40
0.53091
 50
224.84639
 51
261.44255
  0
ARC
  8
0
 10
22.24300
 20
18.17200
 30
0.0
 40
0.34941
 50
2.78871
 51
41.74278
  0
ARC
  8
0
 10
17.86100
 20
20.02100
 30
0.0
 40
4.91586
 50
334.58175
 51
340.79467
  0
ARC
  8
0
 10
23.49600
 20
18.09400
 30
0.0
 40
1.20934
 50
177.29848
 51
188.70653
  0
ARC
  8
0
 10
33.49800
 20
16.18500
 30
0.0
 40
11.38109
 50
168.04237
 51
170.05268
  0
ARC
  8
0
 10
22.46100
 20
18.23200
 30
0.0
 40
0.32577
 50
10.27333
 51
107.32255
  0
ARC
  8
0
 10
21.87600
 20
18.57200
 30
0.0
 40
0.94855
 50
326.61149
 51
342.69285
  0
ARC
  8
0
 10
23.48300
 20
17.56300
 30
0.0
 40
0.94945
 50
149.13974
 51
168.08648
  0
ARC
  8
0
 10
22.52200
 20
17.82100
 30
0.0
 40
0.06977
 50
178.33972
 51
297.29957
  0
ARC
  8
0
 10
21.11400
 20
18.54000
 30
0.0
 40
1.51910
 50
331.83210
 51
346.64070
  0
ARC
  8
0
 10
8.03900
 20
12.10700
 30
0.0
 40
0.42977
 50
287.88688
 51
337.67796
  0
ARC
  8
0
 10
8.00000
 20
12.23000
 30
0.0
 40
0.55880
 50
226.01526
 51
287.81889
  0
ARC
  8
0
 10
7.70600
 20
11.82500
 30
0.0
 40
0.09404
 50
90.60951
 51
178.17203
  0
ARC
  8
0
 10
8.23200
 20
12.99600
 30
0.0
 40
1.19902
 50
243.92647
 51
259.66522
  0
ARC
  8
0
 10
8.00800
 20
12.04100
 30
0.0
 40
0.22472
 50
272.30082
 51
327.72436
  0
ARC
  8
0
 10
8.33000
 20
12.85200
 30
0.0
 40
0.94031
 50
236.98636
 51
261.93022
  0
ARC
  8
0
 10
7.95100
 20
11.82500
 30
0.0
 40
0.27351
 50
80.95111
 51
119.09530
  0
ARC
  8
0
 10
6.47700
 20
6.90200
 30
0.0
 40
5.41004
 50
68.79063
 51
73.71565
  0
ARC
  8
0
 10
-0.19500
 20
4.49100
 30
0.0
 40
6.22786
 50
32.20727
 51
38.11382
  0
ARC
  8
0
 10
5.07800
 20
7.84000
 30
0.0
 40
0.03026
 50
262.40536
 51
381.44774
  0
ARC
  8
0
 10
5.38400
 20
7.97700
 30
0.0
 40
0.30522
 50
180.56355
 51
204.38181
  0
ARC
  8
0
 10
5.21800
 20
7.98100
 30
0.0
 40
0.13958
 50
118.21736
 51
182.88296
  0
LINE
  8
0
 10
5.152
 20
8.104
 30
0.0
 11
5.797
 21
8.565
 31
0.0
  0
ARC
  8
0
 10
5.64000
 20
8.21300
 30
0.0
 40
0.38587
 50
14.25232
 51
65.96204
  0
ARC
  8
0
 10
5.63500
 20
8.33600
 30
0.0
 40
0.38013
 50
333.77198
 51
355.77474
  0
ARC
  8
0
 10
5.99000
 20
8.16000
 30
0.0
 40
0.01615
 50
150.25512
 51
291.80141
  0
ARC
  8
0
 10
5.82600
 20
8.47600
 30
0.0
 40
0.37210
 50
297.18481
 51
330.12116
  0
LINE
  8
0
 10
6.148
 20
8.291
 30
0.0
 11
5.505
 21
9.184
 31
0.0
  0
ARC
  8
0
 10
5.77000
 20
8.38200
 30
0.0
 40
0.84490
 50
108.28479
 51
124.53646
  0
ARC
  8
0
 10
5.30500
 20
9.05800
 30
0.0
 40
0.02441
 50
124.99202
 51
262.56859
  0
ARC
  8
0
 10
5.40200
 20
8.72500
 30
0.0
 40
0.32572
 50
79.72667
 51
107.87870
  0
ARC
  8
0
 10
5.20600
 20
8.64000
 30
0.0
 40
0.47805
 50
17.18216
 51
57.90569
  0
LINE
  8
0
 10
5.662
 20
8.781
 30
0.0
 11
4.957
 21
8.275
 31
0.0
  0
ARC
  8
0
 10
4.89200
 20
8.45900
 30
0.0
 40
0.19556
 50
257.59830
 51
289.45632
  0
ARC
  8
0
 10
5.32500
 20
9.06500
 30
0.0
 40
0.92828
 50
229.89412
 51
239.20569
  0
ARC
  8
0
 10
4.71900
 20
8.34100
 30
0.0
 40
0.01612
 50
60.25512
 51
203.19859
  0
LINE
  8
0
 10
6.046
 20
21.493
 30
0.0
 11
4.466
 21
21.608
 31
0.0
  0
ARC
  8
0
 10
4.45500
 20
21.56000
 30
0.0
 40
0.04967
 50
77.09259
 51
220.10091
  0
LINE
  8
0
 10
4.417
 20
21.528
 30
0.0
 11
4.584
 21
21.292
 31
0.0
  0
LINE
  8
0
 10
4.584
 20
21.292
 30
0.0
 11
5.269
 21
21.219
 31
0.0
  0
ARC
  8
0
 10
4.85700
 20
21.22700
 30
0.0
 40
0.41207
 50
322.71189
 51
358.88760
  0
LINE
  8
0
 10
5.184
 20
20.978
 30
0.0
 11
5.278
 21
20.911
 31
0.0
  0
LINE
  8
0
 10
5.278
 20
20.911
 30
0.0
 11
5.448
 21
21.199
 31
0.0
  0
LINE
  8
0
 10
5.448
 20
21.199
 30
0.0
 11
5.777
 21
21.164
 31
0.0
  0
ARC
  8
0
 10
5.76000
 20
21.06700
 30
0.0
 40
0.09847
 50
9.94057
 51
80.05943
  0
LINE
  8
0
 10
5.857
 20
21.084
 30
0.0
 11
5.892
 21
20.956
 31
0.0
  0
LINE
  8
0
 10
5.892
 20
20.956
 30
0.0
 11
6.048
 21
21.231
 31
0.0
  0
LINE
  8
0
 10
6.048
 20
21.231
 30
0.0
 11
6.246
 21
21.547
 31
0.0
  0
LINE
  8
0
 10
6.246
 20
21.547
 30
0.0
 11
6.210
 21
21.578
 31
0.0
  0
ARC
  8
0
 10
5.05400
 20
23.19300
 30
0.0
 40
1.98609
 50
301.78518
 51
305.59469
  0
ARC
  8
0
 10
6.06000
 20
21.55600
 30
0.0
 40
0.06530
 50
258.51801
 51
308.10758
  0
ARC
  8
0
 10
11.36200
 20
26.23300
 30
0.0
 40
0.46460
 50
258.32729
 51
312.03306
  0
ARC
  8
0
 10
10.77600
 20
26.89100
 30
0.0
 40
1.34559
 50
311.80681
 51
331.77715
  0
ARC
  8
0
 10
11.47200
 20
26.06700
 30
0.0
 40
0.52389
 50
348.06614
 51
381.02966
  0
ARC
  8
0
 10
11.61500
 20
26.12100
 30
0.0
 40
0.40392
 50
291.03751
 51
336.24007
  0
ARC
  8
0
 10
12.92900
 20
20.89300
 30
0.0
 40
4.98986
 50
103.54888
 51
114.06858
  0
ARC
  8
0
 10
10.87800
 20
25.48000
 30
0.0
 40
0.03538
 50
132.70939
 51
297.29957
  0
ARC
  8
0
 10
11.78100
 20
25.03200
 30
0.0
 40
1.04115
 50
143.36135
 51
152.91812
  0
LINE
  8
0
 10
10.946
 20
25.653
 30
0.0
 11
10.518
 21
26.800
 31
0.0
  0
ARC
  8
0
 10
10.44200
 20
26.77800
 30
0.0
 40
0.07912
 50
16.14434
 51
89.27478
  0
ARC
  8
0
 10
10.43300
 20
27.62500
 30
0.0
 40
0.76883
 50
255.99991
 51
270.74600
  0
ARC
  8
0
 10
10.25600
 20
26.89600
 30
0.0
 40
0.02012
 50
116.56505
 51
242.10273
  0
LINE
  8
0
 10
10.247
 20
26.914
 30
0.0
 11
11.400
 21
27.334
 31
0.0
  0
ARC
  8
0
 10
10.96600
 20
26.92200
 30
0.0
 40
0.59841
 50
11.57293
 51
43.51037
  0
ARC
  8
0
 10
11.49600
 20
27.04600
 30
0.0
 40
0.05692
 50
288.43495
 51
355.91438
  0
ARC
  8
0
 10
11.01500
 20
26.61200
 30
0.0
 40
0.62825
 50
37.29011
 51
59.80264
  0
ARC
  8
0
 10
11.33400
 20
26.18800
 30
0.0
 40
0.96700
 50
90.17775
 51
110.21608
  0
ARC
  8
0
 10
11.20400
 20
26.71000
 30
0.0
 40
0.43570
 50
117.91778
 51
143.68252
  0
LINE
  8
0
 10
10.853
 20
26.968
 30
0.0
 11
11.015
 21
26.504
 31
0.0
  0
ARC
  8
0
 10
11.06600
 20
26.53600
 30
0.0
 40
0.06082
 50
212.10626
 51
279.46232
  0
ARC
  8
0
 10
10.92300
 20
27.16100
 30
0.0
 40
0.70263
 50
282.59079
 51
307.42441
  0
ARC
  8
0
 10
10.60700
 20
26.95800
 30
0.0
 40
0.82345
 50
334.46187
 51
348.29418
  0
ARC
  8
0
 10
11.42800
 20
26.79500
 30
0.0
 40
0.01552
 50
14.93142
 51
194.93142
  0
LINE
  8
0
 10
11.443
 20
26.799
 30
0.0
 11
11.628
 21
26.371
 31
0.0
  0
ARC
  8
0
 10
11.60000
 20
26.36500
 30
0.0
 40
0.02912
 50
254.05460
 51
372.09476
  0
ARC
  8
0
 10
11.36500
 20
26.19000
 30
0.0
 40
0.27067
 50
32.92617
 51
76.32313
  0
ARC
  8
0
 10
11.36300
 20
26.07900
 30
0.0
 40
0.37998
 50
79.99202
 51
123.18822
  0
ARC
  8
0
 10
11.24800
 20
26.24500
 30
0.0
 40
0.17863
 50
121.46005
 51
158.31771
  0
LINE
  8
0
 10
11.082
 20
26.311
 30
0.0
 11
11.268
 21
25.778
 31
0.0
  0
LINE
  8
0
 10
21.509
 20
24.671
 30
0.0
 11
21.867
 21
24.427
 31
0.0
  0
LINE
  8
0
 10
21.867
 20
24.427
 30
0.0
 11
21.945
 21
24.419
 31
0.0
  0
LINE
  8
0
 10
21.945
 20
24.419
 30
0.0
 11
21.880
 21
24.484
 31
0.0
  0
ARC
  8
0
 10
21.97400
 20
24.55200
 30
0.0
 40
0.11605
 50
161.40893
 51
215.88214
  0
LINE
  8
0
 10
21.864
 20
24.589
 30
0.0
 11
22.340
 21
25.351
 31
0.0
  0
ARC
  8
0
 10
22.43700
 20
25.30100
 30
0.0
 40
0.10914
 50
76.21840
 51
152.73053
  0
LINE
  8
0
 10
22.463
 20
25.407
 30
0.0
 11
22.464
 21
25.420
 31
0.0
  0
ARC
  8
0
 10
20.96500
 20
23.73200
 30
0.0
 40
2.25777
 50
48.39386
 51
59.08412
  0
ARC
  8
0
 10
22.10800
 20
25.65200
 30
0.0
 40
0.02500
 50
45.00000
 51
216.86990
  0
ARC
  8
0
 10
21.93600
 20
25.53400
 30
0.0
 40
0.18388
 50
354.38242
 51
394.12281
  0
ARC
  8
0
 10
21.60000
 20
25.60500
 30
0.0
 40
0.52677
 50
312.07614
 51
350.26936
  0
LINE
  8
0
 10
21.953
 20
25.214
 30
0.0
 11
21.896
 21
25.213
 31
0.0
  0
LINE
  8
0
 10
21.896
 20
25.213
 30
0.0
 11
21.509
 21
25.475
 31
0.0
  0
LINE
  8
0
 10
21.509
 20
25.475
 30
0.0
 11
21.508
 21
25.517
 31
0.0
  0
ARC
  8
0
 10
22.38900
 20
25.17200
 30
0.0
 40
0.94619
 50
134.22925
 51
158.61467
  0
LINE
  8
0
 10
21.729
 20
25.850
 30
0.0
 11
21.799
 21
25.850
 31
0.0
  0
LINE
  8
0
 10
21.799
 20
25.850
 30
0.0
 11
21.813
 21
25.850
 31
0.0
  0
LINE
  8
0
 10
21.813
 20
25.850
 30
0.0
 11
21.813
 21
25.864
 31
0.0
  0
LINE
  8
0
 10
21.813
 20
25.864
 30
0.0
 11
21.425
 21
26.127
 31
0.0
  0
LINE
  8
0
 10
21.425
 20
26.127
 30
0.0
 11
21.423
 21
26.110
 31
0.0
  0
ARC
  8
0
 10
21.28900
 20
25.98600
 30
0.0
 40
0.18377
 50
340.28326
 51
402.78034
  0
ARC
  8
0
 10
37.88900
 20
14.71500
 30
0.0
 40
19.88702
 50
145.69224
 51
148.31039
  0
ARC
  8
0
 10
21.08000
 20
24.11800
 30
0.0
 40
1.05009
 50
96.17751
 51
105.01579
  0
LINE
  8
0
 10
20.808
 20
25.132
 30
0.0
 11
21.264
 21
24.816
 31
0.0
  0
ARC
  8
0
 10
21.25600
 20
24.84300
 30
0.0
 40
0.02816
 50
286.50436
 51
412.30576
  0
ARC
  8
0
 10
21.34300
 20
24.98500
 30
0.0
 40
0.13951
 50
146.99335
 51
239.74356
  0
LINE
  8
0
 10
21.226
 20
25.061
 30
0.0
 11
21.411
 21
25.381
 31
0.0
  0
LINE
  8
0
 10
21.411
 20
25.381
 30
0.0
 11
21.450
 21
25.387
 31
0.0
  0
LINE
  8
0
 10
21.450
 20
25.387
 30
0.0
 11
21.867
 21
25.102
 31
0.0
  0
LINE
  8
0
 10
21.867
 20
25.102
 30
0.0
 11
21.868
 21
25.060
 31
0.0
  0
LINE
  8
0
 10
21.868
 20
25.060
 30
0.0
 11
21.633
 21
24.713
 31
0.0
  0
LINE
  8
0
 10
21.633
 20
24.713
 30
0.0
 11
21.522
 21
24.686
 31
0.0
  0
LINE
  8
0
 10
21.522
 20
24.686
 30
0.0
 11
21.508
 21
24.672
 31
0.0
  0
ARC
  8
0
 10
25.68200
 20
9.12800
 30
0.0
 40
0.59151
 50
238.62094
 51
325.34165
  0
ARC
  8
0
 10
25.66800
 20
9.14100
 30
0.0
 40
0.59561
 50
156.92795
 51
240.42216
  0
LINE
  8
0
 10
25.121
 20
9.374
 30
0.0
 11
25.182
 21
9.341
 31
0.0
  0
ARC
  8
0
 10
25.73400
 20
9.34500
 30
0.0
 40
0.55215
 50
180.41518
 51
247.19655
  0
ARC
  8
0
 10
25.81300
 20
9.32200
 30
0.0
 40
0.56836
 50
238.91504
 51
300.44510
  0
LINE
  8
0
 10
26.101
 20
8.832
 30
0.0
 11
26.168
 21
8.791
 31
0.0
  0
ARC
  8
0
 10
20.25900
 20
17.57600
 30
0.0
 40
1.14618
 50
87.39971
 51
157.57634
  0
ARC
  8
0
 10
19.93800
 20
18.08000
 30
0.0
 40
0.74162
 50
59.80473
 51
185.18743
  0
ARC
  8
0
 10
12.25700
 20
22.52900
 30
0.0
 40
1.25888
 50
261.18117
 51
309.29261
  0
ARC
  8
0
 10
10.70600
 20
24.59900
 30
0.0
 40
3.58144
 50
292.28268
 51
305.26987
  0
ARC
  8
0
 10
9.50900
 20
13.67000
 30
0.0
 40
8.64524
 50
65.79190
 51
67.81092
  0
ARC
  8
0
 10
19.86900
 20
14.54600
 30
0.0
 40
1.19284
 50
357.83801
 51
386.71549
  0
ARC
  8
0
 10
20.59800
 20
14.85200
 30
0.0
 40
0.40718
 50
34.39257
 51
90.70384
  0
ARC
  8
0
 10
18.67000
 20
15.74900
 30
0.0
 40
1.98444
 50
334.02893
 51
345.70466
  0
ARC
  8
0
 10
20.83800
 20
14.80800
 30
0.0
 40
0.39190
 50
169.38034
 51
228.82783
  0
ARC
  8
0
 10
21.28500
 20
14.54100
 30
0.0
 40
0.70561
 50
140.05927
 51
182.27438
  0
ARC
  8
0
 10
19.14000
 20
14.64200
 30
0.0
 40
1.64271
 50
352.86633
 51
372.37743
  0
ARC
  8
0
 10
20.87800
 20
14.63900
 30
0.0
 40
0.22920
 50
241.75026
 51
322.98011
  0
ARC
  8
0
 10
14.49300
 20
22.21900
 30
0.0
 40
2.98133
 50
4.77162
 51
8.17631
  0
ARC
  8
0
 10
17.53900
 20
23.10000
 30
0.0
 40
0.46699
 50
258.25675
 51
295.35785
  0
ARC
  8
0
 10
17.51400
 20
22.39700
 30
0.0
 40
0.36083
 50
51.31533
 51
123.46987
  0
ARC
  8
0
 10
18.07100
 20
22.48300
 30
0.0
 40
0.78597
 50
164.12470
 51
189.16235
  0
ARC
  8
0
 10
17.04900
 20
22.92500
 30
0.0
 40
0.61846
 50
293.53920
 51
312.18015
  0
LINE
  8
0
 10
12.992
 20
14.647
 30
0.0
 11
11.003
 21
14.647
 31
0.0
  0
ARC
  8
0
 10
14.82900
 20
13.52500
 30
0.0
 40
3.98712
 50
163.65587
 51
180.24430
  0
LINE
  8
0
 10
10.842
 20
13.508
 30
0.0
 11
15.538
 21
13.509
 31
0.0
  0
ARC
  8
0
 10
15.47200
 20
13.51600
 30
0.0
 40
0.06660
 50
353.94581
 51
401.34778
  0
ARC
  8
0
 10
15.68800
 20
14.58500
 30
0.0
 40
1.03859
 50
240.84359
 51
260.80075
  0
ARC
  8
0
 10
0.12900
 20
-4.11400
 30
0.0
 40
23.30553
 50
49.76696
 51
50.56650
  0
ARC
  8
0
 10
14.73800
 20
13.70600
 30
0.0
 40
0.26464
 50
42.85624
 51
78.43504
  0
ARC
  8
0
 10
14.73500
 20
12.43600
 30
0.0
 40
1.53008
 50
87.90247
 51
98.56965
  0
ARC
  8
0
 10
14.46100
 20
14.55100
 30
0.0
 40
0.60375
 50
247.59921
 51
274.36959
  0
ARC
  8
0
 10
14.82700
 20
16.34000
 30
0.0
 40
2.42191
 50
240.40770
 51
255.75142
  0
ARC
  8
0
 10
13.91000
 20
14.64200
 30
0.0
 40
0.49427
 50
197.44403
 51
235.63476
  0
ARC
  8
0
 10
13.16900
 20
14.42300
 30
0.0
 40
0.27917
 50
14.73312
 51
56.30993
  0
ARC
  8
0
 10
13.32300
 20
14.02600
 30
0.0
 40
0.62828
 50
90.00000
 51
105.98298
  0
ARC
  8
0
 10
13.08900
 20
14.81000
 30
0.0
 40
0.19019
 50
238.98458
 51
288.72095
  0
ARC
  8
0
 10
12.47900
 20
22.45000
 30
0.0
 40
0.78501
 50
350.83765
 51
375.89527
  0
ARC
  8
0
 10
13.03600
 20
22.36400
 30
0.0
 40
0.36123
 50
56.66279
 51
128.93229
  0
ARC
  8
0
 10
13.01100
 20
23.06700
 30
0.0
 40
0.46785
 50
244.42082
 51
281.74325
  0
ARC
  8
0
 10
16.05600
 20
22.18500
 30
0.0
 40
2.98045
 50
171.80193
 51
175.20762
  0
ARC
  8
0
 10
13.50100
 20
22.89200
 30
0.0
 40
0.61805
 50
227.81985
 51
246.13167
  0
ARC
  8
0
 10
7.06200
 20
14.07100
 30
0.0
 40
0.27364
 50
285.25512
 51
358.74095
  0
ARC
  8
0
 10
10.92700
 20
27.57800
 30
0.0
 40
13.98226
 50
253.57670
 51
255.11398
  0
ARC
  8
0
 10
6.96200
 20
13.86400
 30
0.0
 40
0.30353
 50
87.73205
 51
137.00253
  0
ARC
  8
0
 10
6.84800
 20
13.77700
 30
0.0
 40
0.31320
 50
42.40920
 51
110.17065
  0
ARC
  8
0
 10
6.95800
 20
14.06900
 30
0.0
 40
0.14676
 50
264.13403
 51
326.20080
  0
ARC
  8
0
 10
6.88300
 20
13.52400
 30
0.0
 40
0.40450
 50
81.44817
 51
128.17314
  0
ARC
  8
0
 10
7.01500
 20
15.66300
 30
0.0
 40
1.86063
 50
258.15258
 51
273.66858
  0
ARC
  8
0
 10
6.80400
 20
-1.86400
 30
0.0
 40
6.30969
 50
59.34615
 51
65.25467
  0
ARC
  8
0
 10
9.45600
 20
3.87800
 30
0.0
 40
0.01627
 50
86.42367
 51
227.48955
  0
ARC
  8
0
 10
9.66700
 20
4.81000
 30
0.0
 40
0.93991
 50
257.08764
 51
266.34001
  0
ARC
  8
0
 10
9.55700
 20
4.06400
 30
0.0
 40
0.19840
 50
284.59658
 51
316.63658
  0
LINE
  8
0
 10
9.701
 20
3.928
 30
0.0
 11
10.102
 21
4.711
 31
0.0
  0
ARC
  8
0
 10
9.75600
 20
4.37300
 30
0.0
 40
0.48382
 50
44.32990
 51
85.02000
  0
ARC
  8
0
 10
9.89400
 20
4.53900
 30
0.0
 40
0.33026
 50
106.89865
 51
134.87731
  0
ARC
  8
0
 10
9.65200
 20
4.79500
 30
0.0
 40
0.02418
 50
150.25512
 51
292.24902
  0
ARC
  8
0
 10
10.38400
 20
4.40000
 30
0.0
 40
0.85632
 50
135.42581
 51
151.60857
  0
LINE
  8
0
 10
9.774
 20
5.001
 30
0.0
 11
10.767
 21
4.494
 31
0.0
  0
ARC
  8
0
 10
10.39000
 20
4.51100
 30
0.0
 40
0.37768
 50
324.37415
 51
357.41812
  0
ARC
  8
0
 10
10.68500
 20
4.30200
 30
0.0
 40
0.01702
 50
176.63354
 51
317.48955
  0
ARC
  8
0
 10
10.28300
 20
4.29700
 30
0.0
 40
0.38504
 50
0.89285
 51
22.76868
  0
ARC
  8
0
 10
10.34500
 20
4.18800
 30
0.0
 40
0.39062
 50
41.36541
 51
93.22865
  0
LINE
  8
0
 10
10.323
 20
4.578
 30
0.0
 11
9.955
 21
3.865
 31
0.0
  0
ARC
  8
0
 10
10.07200
 20
3.78400
 30
0.0
 40
0.14230
 50
145.30485
 51
209.99508
  0
ARC
  8
0
 10
10.22400
 20
3.85700
 30
0.0
 40
0.31042
 50
207.63819
 51
231.42692
  0
ARC
  8
0
 10
10.01100
 20
3.59200
 30
0.0
 40
0.03047
 50
289.65382
 51
408.99091
  0
LINE
  8
0
 10
3.894
 20
9.943
 30
0.0
 11
4.387
 21
11.012
 31
0.0
  0
ARC
  8
0
 10
4.35900
 20
11.01800
 30
0.0
 40
0.02863
 50
347.90524
 51
462.52881
  0
LINE
  8
0
 10
4.353
 20
11.045
 30
0.0
 11
3.752
 21
10.794
 31
0.0
  0
ARC
  8
0
 10
3.83200
 20
10.63700
 30
0.0
 40
0.17620
 50
117.00131
 51
206.27421
  0
ARC
  8
0
 10
3.65500
 20
10.55300
 30
0.0
 40
0.01992
 50
229.08562
 51
377.52557
  0
ARC
  8
0
 10
8.69500
 20
12.73600
 30
0.0
 40
5.51078
 50
199.42792
 51
203.50852
  0
ARC
  8
0
 10
3.51500
 20
10.91000
 30
0.0
 40
0.01838
 50
19.44003
 51
202.38014
  0
ARC
  8
0
 10
3.64600
 20
10.98100
 30
0.0
 40
0.13124
 50
209.69073
 51
287.74467
  0
LINE
  8
0
 10
3.686
 20
10.856
 30
0.0
 11
4.402
 21
11.152
 31
0.0
  0
ARC
  8
0
 10
4.30700
 20
11.35000
 30
0.0
 40
0.22023
 50
295.63160
 51
371.25891
  0
ARC
  8
0
 10
4.49800
 20
11.34300
 30
0.0
 40
0.05590
 50
11.51383
 51
63.43495
  0
ARC
  8
0
 10
6.08500
 20
11.76200
 30
0.0
 40
1.58636
 50
194.90350
 51
206.11264
  0
LINE
  8
0
 10
4.661
 20
11.064
 30
0.0
 11
4.261
 21
10.135
 31
0.0
  0
LINE
  8
0
 10
4.261
 20
10.135
 30
0.0
 11
4.273
 21
10.108
 31
0.0
  0
LINE
  8
0
 10
4.273
 20
10.108
 30
0.0
 11
4.795
 21
10.301
 31
0.0
  0
ARC
  8
0
 10
4.65300
 20
10.45300
 30
0.0
 40
0.20902
 50
313.05191
 51
378.69499
  0
ARC
  8
0
 10
4.87100
 20
10.52400
 30
0.0
 40
0.02220
 50
7.76517
 51
191.30993
  0
ARC
  8
0
 10
7.69500
 20
11.42300
 30
0.0
 40
2.94227
 50
197.73280
 51
204.79690
  0
ARC
  8
0
 10
4.99900
 20
10.18800
 30
0.0
 40
0.02501
 50
272.29061
 51
362.29061
  0
ARC
  8
0
 10
5.84100
 20
11.15200
 30
0.0
 40
1.29823
 50
226.03028
 51
229.62369
  0
ARC
  8
0
 10
4.88900
 20
10.10200
 30
0.0
 40
0.12671
 50
66.26706
 51
100.50802
  0
ARC
  8
0
 10
4.93700
 20
9.61800
 30
0.0
 40
0.61261
 50
96.66062
 51
109.35184
  0
LINE
  8
0
 10
4.734
 20
10.196
 30
0.0
 11
3.908
 21
9.885
 31
0.0
  0
LINE
  8
0
 10
3.908
 20
9.885
 30
0.0
 11
3.895
 21
9.943
 31
0.0
  0
LINE
  8
0
 10
4.267
 20
16.068
 30
0.0
 11
4.205
 21
15.650
 31
0.0
  0
ARC
  8
0
 10
5.16200
 20
16.55800
 30
0.0
 40
1.31920
 50
209.97149
 51
223.49499
  0
ARC
  8
0
 10
-0.91900
 20
-12.77800
 30
0.0
 40
29.10036
 50
80.22629
 51
82.57411
  0
ARC
  8
0
 10
2.88400
 20
15.89200
 30
0.0
 40
0.19068
 50
102.72436
 51
177.58897
  0
ARC
  8
0
 10
2.63400
 20
15.93900
 30
0.0
 40
0.07184
 50
196.16450
 51
326.97613
  0
LINE
  8
0
 10
2.565
 20
15.919
 30
0.0
 11
2.630
 21
16.356
 31
0.0
  0
LINE
  8
0
 10
2.630
 20
16.356
 30
0.0
 11
4.268
 21
16.068
 31
0.0
  0
ARC
  8
0
 10
20.08700
 20
30.63800
 30
0.0
 40
4.90633
 50
244.16612
 51
249.45216
  0
ARC
  8
0
 10
17.95200
 20
26.36200
 30
0.0
 40
0.14003
 50
268.77242
 51
334.53665
  0
ARC
  8
0
 10
11.32600
 20
28.49800
 30
0.0
 40
7.10021
 50
341.98356
 51
348.84199
  0
ARC
  8
0
 10
18.14000
 20
27.15200
 30
0.0
 40
0.15484
 50
349.56252
 51
425.58667
  0
ARC
  8
0
 10
18.21400
 20
27.30700
 30
0.0
 40
0.01720
 50
61.92751
 51
234.46232
  0
ARC
  8
0
 10
27.91300
 20
64.30300
 30
0.0
 40
38.22969
 50
255.31563
 51
256.60716
  0
ARC
  8
0
 10
18.51600
 20
27.09000
 30
0.0
 40
0.54248
 50
335.60850
 51
362.42991
  0
ARC
  8
0
 10
18.66500
 20
26.74600
 30
0.0
 40
0.36626
 50
19.17901
 51
104.87096
  0
LINE
  8
0
 10
18.571
 20
27.100
 30
0.0
 11
18.473
 21
26.771
 31
0.0
  0
ARC
  8
0
 10
18.66300
 20
26.91600
 30
0.0
 40
0.23900
 50
217.34935
 51
315.51004
  0
ARC
  8
0
 10
18.43900
 20
26.67500
 30
0.0
 40
0.40088
 50
326.82610
 51
370.63721
  0
ARC
  8
0
 10
18.46600
 20
26.30500
 30
0.0
 40
0.34430
 50
26.11685
 51
94.99857
  0
LINE
  8
0
 10
18.436
 20
26.648
 30
0.0
 11
18.337
 21
26.317
 31
0.0
  0
ARC
  8
0
 10
18.52900
 20
26.25800
 30
0.0
 40
0.20086
 50
162.91824
 51
257.00538
  0
ARC
  8
0
 10
18.40700
 20
26.16800
 30
0.0
 40
0.13091
 50
251.28826
 51
306.25384
  0
ARC
  8
0
 10
14.81800
 20
18.52700
 30
0.0
 40
0.41581
 50
259.60888
 51
288.39131
  0
ARC
  8
0
 10
9.90900
 20
20.94500
 30
0.0
 40
5.60046
 50
329.68023
 51
337.33606
  0
ARC
  8
0
 10
14.46000
 20
19.13100
 30
0.0
 40
0.70641
 50
330.85874
 51
345.98344
  0
ARC
  8
0
 10
14.35800
 20
18.85800
 30
0.0
 40
0.79375
 50
342.02158
 51
367.38472
  0
ARC
  8
0
 10
10.35600
 20
19.96700
 30
0.0
 40
4.94594
 50
338.23301
 51
344.11189
  0
ARC
  8
0
 10
23.31700
 20
17.56800
 30
0.0
 40
1.41068
 50
241.01646
 51
446.46420
  0
ARC
  8
0
 10
23.13800
 20
18.69400
 30
0.0
 40
0.38765
 50
3.11406
 51
46.67239
  0
ARC
  8
0
 10
23.46100
 20
18.09400
 30
0.0
 40
0.62484
 50
4.40574
 51
84.20720
  0
ARC
  8
0
 10
23.23500
 20
17.55800
 30
0.0
 40
1.03068
 50
351.74411
 51
394.52284
  0
ARC
  8
0
 10
23.18100
 20
17.58900
 30
0.0
 40
1.08900
 50
308.77484
 51
350.53768
  0
ARC
  8
0
 10
23.28200
 20
17.44200
 30
0.0
 40
0.91124
 50
254.72834
 51
309.61236
  0
ARC
  8
0
 10
22.47200
 20
17.10600
 30
0.0
 40
0.78724
 50
281.95239
 51
316.38965
  0
ARC
  8
0
 10
6.29800
 20
14.52600
 30
0.0
 40
1.40284
 50
271.63424
 51
295.23156
  0
ARC
  8
0
 10
6.33800
 20
13.17200
 30
0.0
 40
0.04800
 50
156.64444
 51
270.00000
  0
ARC
  8
0
 10
6.74300
 20
12.70600
 30
0.0
 40
0.66127
 50
91.64648
 51
132.79269
  0
ARC
  8
0
 10
6.68600
 20
13.48000
 30
0.0
 40
0.11921
 50
288.58693
 51
361.44413
  0
ARC
  8
0
 10
6.66800
 20
12.72200
 30
0.0
 40
0.77323
 50
79.79457
 51
119.61617
  0
ARC
  8
0
 10
6.55200
 20
13.35700
 30
0.0
 40
0.26870
 50
112.07858
 51
172.08110
  0
ARC
  8
0
 10
-4.13400
 20
-355.63200
 30
0.0
 40
369.38980
 50
88.27291
 51
88.35794
  0
ARC
  8
0
 10
6.56900
 20
13.54100
 30
0.0
 40
0.43301
 50
318.83897
 51
366.50101
  0
LINE
  8
0
 10
17.378
 20
2.692
 30
0.0
 11
17.615
 21
3.508
 31
0.0
  0
LINE
  8
0
 10
17.615
 20
3.508
 30
0.0
 11
17.645
 21
3.529
 31
0.0
  0
LINE
  8
0
 10
17.645
 20
3.529
 30
0.0
 11
17.791
 21
2.839
 31
0.0
  0
ARC
  8
0
 10
17.72000
 20
2.84800
 30
0.0
 40
0.07156
 50
319.57392
 51
352.77568
  0
ARC
  8
0
 10
18.19400
 20
2.05000
 30
0.0
 40
0.86146
 50
119.18382
 51
124.02211
  0
ARC
  8
0
 10
17.72000
 20
2.74300
 30
0.0
 40
0.02353
 50
110.85446
 51
257.73523
  0
ARC
  8
0
 10
19.21200
 20
-5.85800
 30
0.0
 40
8.70812
 50
96.68024
 51
99.89935
  0
ARC
  8
0
 10
18.19600
 20
2.81200
 30
0.0
 40
0.02121
 50
278.13010
 51
444.55967
  0
LINE
  8
0
 10
18.198
 20
2.833
 30
0.0
 11
18.137
 21
2.846
 31
0.0
  0
ARC
  8
0
 10
18.16200
 20
2.97800
 30
0.0
 40
0.13439
 50
192.89875
 51
259.27555
  0
LINE
  8
0
 10
18.031
 20
2.948
 30
0.0
 11
17.882
 21
3.666
 31
0.0
  0
ARC
  8
0
 10
18.30600
 20
3.71200
 30
0.0
 40
0.42675
 50
158.84682
 51
186.19183
  0
LINE
  8
0
 10
17.908
 20
3.866
 30
0.0
 11
17.981
 21
3.905
 31
0.0
  0
ARC
  8
0
 10
17.97100
 20
3.92400
 30
0.0
 40
0.02184
 50
297.75854
 51
465.94540
  0
ARC
  8
0
 10
18.11300
 20
2.37200
 30
0.0
 40
1.57994
 50
95.37501
 51
106.73745
  0
LINE
  8
0
 10
17.658
 20
3.885
 30
0.0
 11
17.426
 21
3.090
 31
0.0
  0
ARC
  8
0
 10
17.38400
 20
3.11500
 30
0.0
 40
0.04965
 50
205.01689
 51
329.23728
  0
LINE
  8
0
 10
17.339
 20
3.094
 30
0.0
 11
17.283
 21
3.172
 31
0.0
  0
LINE
  8
0
 10
17.283
 20
3.172
 30
0.0
 11
16.887
 21
3.722
 31
0.0
  0
ARC
  8
0
 10
16.80100
 20
3.63000
 30
0.0
 40
0.12593
 50
46.93059
 51
101.48898
  0
LINE
  8
0
 10
16.776
 20
3.753
 30
0.0
 11
16.549
 21
3.694
 31
0.0
  0
ARC
  8
0
 10
16.55700
 20
3.67900
 30
0.0
 40
0.01811
 50
118.07249
 51
263.65981
  0
ARC
  8
0
 10
16.52900
 20
3.47000
 30
0.0
 40
0.19276
 50
7.45706
 51
82.24822
  0
LINE
  8
0
 10
16.720
 20
3.495
 30
0.0
 11
16.799
 21
2.790
 31
0.0
  0
ARC
  8
0
 10
16.43800
 20
2.76700
 30
0.0
 40
0.36173
 50
345.23220
 51
363.64550
  0
ARC
  8
0
 10
16.67800
 20
2.69100
 30
0.0
 40
0.11072
 50
290.07153
 51
351.64925
  0
ARC
  8
0
 10
16.72600
 20
2.56200
 30
0.0
 40
0.02692
 50
111.80141
 51
248.19859
  0
ARC
  8
0
 10
16.04000
 20
6.92900
 30
0.0
 40
4.44371
 50
278.75008
 51
283.65472
  0
LINE
  8
0
 10
17.089
 20
2.611
 30
0.0
 11
17.086
 21
2.634
 31
0.0
  0
LINE
  8
0
 10
17.086
 20
2.634
 30
0.0
 11
16.928
 21
2.707
 31
0.0
  0
ARC
  8
0
 10
16.98500
 20
2.78400
 30
0.0
 40
0.09613
 50
182.98146
 51
233.48894
  0
LINE
  8
0
 10
16.889
 20
2.779
 30
0.0
 11
16.820
 21
3.345
 31
0.0
  0
LINE
  8
0
 10
16.820
 20
3.345
 30
0.0
 11
16.838
 21
3.349
 31
0.0
  0
LINE
  8
0
 10
16.838
 20
3.349
 30
0.0
 11
17.261
 21
2.764
 31
0.0
  0
LINE
  8
0
 10
17.261
 20
2.764
 30
0.0
 11
17.355
 21
2.646
 31
0.0
  0
LINE
  8
0
 10
17.355
 20
2.646
 30
0.0
 11
17.368
 21
2.652
 31
0.0
  0
LINE
  8
0
 10
17.368
 20
2.652
 30
0.0
 11
17.378
 21
2.692
 31
0.0
  0
LINE
  8
0
 10
15.762
 20
16.180
 30
0.0
 11
18.715
 21
16.180
 31
0.0
  0
ARC
  8
0
 10
13.15800
 20
11.59300
 30
0.0
 40
7.20667
 50
39.53781
 51
51.75615
  0
LINE
  8
0
 10
17.619
 20
17.253
 30
0.0
 11
14.741
 21
17.251
 31
0.0
  0
ARC
  8
0
 10
14.89000
 20
16.99500
 30
0.0
 40
0.29620
 50
120.20074
 51
220.87523
  0
ARC
  8
0
 10
13.78700
 20
14.05700
 30
0.0
 40
2.88336
 50
66.68921
 51
72.22504
  0
ARC
  8
0
 10
15.33700
 20
17.08200
 30
0.0
 40
0.55697
 50
222.66863
 51
250.49149
  0
ARC
  8
0
 10
15.19400
 20
16.70700
 30
0.0
 40
0.15627
 50
254.00417
 51
404.74074
  0
ARC
  8
0
 10
15.56400
 20
17.20200
 30
0.0
 40
0.46451
 50
209.82138
 51
236.07020
  0
ARC
  8
0
 10
15.26500
 20
17.03200
 30
0.0
 40
0.12056
 50
112.50982
 51
210.39326
  0
ARC
  8
0
 10
15.38700
 20
13.13400
 30
0.0
 40
4.01343
 50
86.07102
 51
92.39962
  0
ARC
  8
0
 10
44.57000
 20
57.17100
 30
0.0
 40
49.37928
 50
234.16679
 51
235.16901
  0
ARC
  8
0
 10
16.24300
 20
16.55900
 30
0.0
 40
0.14756
 50
297.95799
 51
392.82854
  0
ARC
  8
0
 10
15.89600
 20
17.90200
 30
0.0
 40
1.53111
 50
270.71101
 51
285.77057
  0
ARC
  8
0
 10
16.45700
 20
15.77900
 30
0.0
 40
0.80263
 50
132.47537
 51
150.27283
  0
ARC
  8
0
 10
12.89800
 20
25.31400
 30
0.0
 40
0.50351
 50
298.85566
 51
317.01379
  0
ARC
  8
0
 10
13.38100
 20
24.84100
 30
0.0
 40
0.17356
 50
80.37475
 51
131.49647
  0
ARC
  8
0
 10
10.69400
 20
24.92200
 30
0.0
 40
2.71749
 50
355.22935
 51
361.89791
  0
ARC
  8
0
 10
14.44000
 20
24.50700
 30
0.0
 40
1.05506
 50
169.68058
 51
180.43446
  0
ARC
  8
0
 10
13.33700
 20
24.63400
 30
0.0
 40
0.14327
 50
254.60445
 51
289.57313
  0
ARC
  8
0
 10
12.52200
 20
24.57600
 30
0.0
 40
0.78110
 50
354.12153
 51
369.20907
  0
ARC
  8
0
 10
13.24800
 20
24.70700
 30
0.0
 40
0.04609
 50
352.40536
 51
462.52881
  0
ARC
  8
0
 10
13.52500
 20
24.31000
 30
0.0
 40
0.52700
 50
122.99652
 51
138.38452
  0
ARC
  8
0
 10
12.92400
 20
24.54600
 30
0.0
 40
0.23631
 50
28.84266
 51
64.52617
  0
ARC
  8
0
 10
13.01500
 20
24.72700
 30
0.0
 40
0.03306
 50
72.12130
 51
176.53177
  0
ARC
  8
0
 10
14.88300
 20
24.49900
 30
0.0
 40
1.91505
 50
173.10137
 51
180.41887
  0
ARC
  8
0
 10
12.91600
 20
24.81500
 30
0.0
 40
0.33407
 50
263.64087
 51
278.95479
  0
ARC
  8
0
 10
11.70500
 20
24.55300
 30
0.0
 40
1.17608
 50
356.58777
 51
363.36360
  0
ARC
  8
0
 10
20.69500
 20
25.22000
 30
0.0
 40
7.83899
 50
181.29382
 51
184.37516
  0
ARC
  8
0
 10
12.90100
 20
24.79700
 30
0.0
 40
0.25144
 50
72.64598
 51
99.91495
  0
ARC
  8
0
 10
13.65500
 20
25.55600
 30
0.0
 40
0.85480
 50
217.39283
 51
233.03626
  0
LINE
  8
0
 10
25.680
 20
19.490
 30
0.0
 11
26.632
 21
20.722
 31
0.0
  0
ARC
  8
0
 10
26.59700
 20
20.75700
 30
0.0
 40
0.05024
 50
315.00000
 51
455.71059
  0
LINE
  8
0
 10
26.592
 20
20.807
 30
0.0
 11
26.302
 21
20.798
 31
0.0
  0
LINE
  8
0
 10
26.302
 20
20.798
 30
0.0
 11
25.864
 21
20.268
 31
0.0
  0
ARC
  8
0
 10
26.09800
 20
20.60600
 30
0.0
 40
0.41175
 50
199.13901
 51
235.30485
  0
LINE
  8
0
 10
25.709
 20
20.471
 30
0.0
 11
25.602
 21
20.429
 31
0.0
  0
LINE
  8
0
 10
25.602
 20
20.429
 30
0.0
 11
25.749
 21
20.129
 31
0.0
  0
LINE
  8
0
 10
25.749
 20
20.129
 30
0.0
 11
25.537
 21
19.873
 31
0.0
  0
ARC
  8
0
 10
25.46600
 20
19.94200
 30
0.0
 40
0.09900
 50
246.80141
 51
315.81846
  0
LINE
  8
0
 10
25.427
 20
19.851
 30
0.0
 11
25.300
 21
19.893
 31
0.0
  0
LINE
  8
0
 10
25.300
 20
19.893
 30
0.0
 11
25.444
 21
19.611
 31
0.0
  0
LINE
  8
0
 10
25.444
 20
19.611
 30
0.0
 11
25.598
 21
19.272
 31
0.0
  0
LINE
  8
0
 10
25.598
 20
19.272
 30
0.0
 11
25.644
 21
19.284
 31
0.0
  0
ARC
  8
0
 10
25.89700
 20
19.34600
 30
0.0
 40
0.26048
 50
146.30993
 51
193.76951
  0
ARC
  8
0
 10
25.05700
 20
7.99900
 30
0.0
 40
0.42375
 50
263.07655
 51
381.60055
  0
LINE
  8
0
 10
25.451
 20
8.155
 30
0.0
 11
25.506
 21
8.149
 31
0.0
  0
ARC
  8
0
 10
24.94900
 20
7.92500
 30
0.0
 40
0.60035
 50
247.75500
 51
381.90774
  0
ARC
  8
0
 10
25.10500
 20
8.13500
 30
0.0
 40
0.85551
 50
211.12463
 51
243.40500
  0
ARC
  8
0
 10
24.84500
 20
7.99100
 30
0.0
 40
0.55950
 50
107.36624
 51
212.26651
  0
ARC
  8
0
 10
24.61000
 20
8.66000
 30
0.0
 40
0.15221
 50
296.73456
 51
363.01279
  0
ARC
  8
0
 10
24.37500
 20
7.83500
 30
0.0
 40
0.91850
 50
46.89886
 51
65.08109
  0
ARC
  8
0
 10
24.98700
 20
7.58700
 30
0.0
 40
0.91812
 50
89.06388
 51
113.51849
  0
ARC
  8
0
 10
24.79800
 20
8.08300
 30
0.0
 40
0.38804
 50
117.15980
 51
163.99376
  0
ARC
  8
0
 10
24.78900
 20
8.10800
 30
0.0
 40
0.37312
 50
167.30464
 51
222.71807
  0
ARC
  8
0
 10
25.11600
 20
8.34800
 30
0.0
 40
0.77733
 50
219.36201
 51
261.85947
  0
LINE
  8
0
 10
19.481
 20
3.152
 30
0.0
 11
19.743
 21
3.222
 31
0.0
  0
LINE
  8
0
 10
19.743
 20
3.222
 30
0.0
 11
19.739
 21
3.256
 31
0.0
  0
ARC
  8
0
 10
19.72600
 20
3.44500
 30
0.0
 40
0.18958
 50
226.70981
 51
273.93478
  0
LINE
  8
0
 10
19.596
 20
3.307
 30
0.0
 11
18.827
 21
4.136
 31
0.0
  0
ARC
  8
0
 10
18.79800
 20
4.11600
 30
0.0
 40
0.03605
 50
34.59229
 51
176.82017
  0
LINE
  8
0
 10
18.762
 20
4.118
 30
0.0
 11
18.733
 21
3.909
 31
0.0
  0
LINE
  8
0
 10
18.733
 20
3.909
 30
0.0
 11
19.061
 21
3.531
 31
0.0
  0
ARC
  8
0
 10
18.84600
 20
3.74000
 30
0.0
 40
0.29984
 50
279.80842
 51
315.81074
  0
LINE
  8
0
 10
18.897
 20
3.445
 30
0.0
 11
18.914
 21
3.363
 31
0.0
  0
LINE
  8
0
 10
18.914
 20
3.363
 30
0.0
 11
19.146
 21
3.432
 31
0.0
  0
LINE
  8
0
 10
19.146
 20
3.432
 30
0.0
 11
19.304
 21
3.250
 31
0.0
  0
ARC
  8
0
 10
19.24700
 20
3.20800
 30
0.0
 40
0.07156
 50
326.97613
 51
396.38435
  0
LINE
  8
0
 10
19.307
 20
3.169
 30
0.0
 11
19.262
 21
3.083
 31
0.0
  0
LINE
  8
0
 10
19.262
 20
3.083
 30
0.0
 11
19.481
 21
3.152
 31
0.0
  0
LINE
  8
0
 10
11.153
 20
3.128
 30
0.0
 11
10.938
 21
3.208
 31
0.0
  0
LINE
  8
0
 10
10.938
 20
3.208
 30
0.0
 11
11.026
 21
3.248
 31
0.0
  0
ARC
  8
0
 10
11.00200
 20
3.31600
 30
0.0
 40
0.07211
 50
289.44003
 51
357.61406
  0
LINE
  8
0
 10
11.074
 20
3.313
 30
0.0
 11
11.062
 21
3.555
 31
0.0
  0
LINE
  8
0
 10
11.062
 20
3.555
 30
0.0
 11
10.835
 21
3.644
 31
0.0
  0
LINE
  8
0
 10
10.835
 20
3.644
 30
0.0
 11
10.873
 21
3.718
 31
0.0
  0
ARC
  8
0
 10
11.01500
 20
3.98200
 30
0.0
 40
0.29976
 50
241.72513
 51
277.48089
  0
LINE
  8
0
 10
11.054
 20
3.685
 30
0.0
 11
11.030
 21
4.185
 31
0.0
  0
LINE
  8
0
 10
11.030
 20
4.185
 30
0.0
 11
11.181
 21
4.333
 31
0.0
  0
ARC
  8
0
 10
11.20800
 20
4.30800
 30
0.0
 40
0.03679
 50
356.82017
 51
497.20260
  0
LINE
  8
0
 10
11.244
 20
4.306
 30
0.0
 11
11.339
 21
3.179
 31
0.0
  0
ARC
  8
0
 10
11.52600
 20
3.20800
 30
0.0
 40
0.18923
 50
188.81522
 51
236.22580
  0
LINE
  8
0
 10
11.421
 20
3.051
 30
0.0
 11
11.402
 21
3.021
 31
0.0
  0
LINE
  8
0
 10
11.402
 20
3.021
 30
0.0
 11
11.153
 21
3.128
 31
0.0
  0
LINE
  8
0
 10
5.630
 20
7.201
 30
0.0
 11
6.305
 21
7.776
 31
0.0
  0
ARC
  8
0
 10
6.27400
 20
7.82600
 30
0.0
 40
0.05883
 50
301.79891
 51
379.38452
  0
ARC
  8
0
 10
6.85900
 20
8.04600
 30
0.0
 40
0.56817
 50
186.06179
 51
200.73321
  0
ARC
  8
0
 10
6.30900
 20
7.98500
 30
0.0
 40
0.01503
 50
47.72631
 51
176.18593
  0
LINE
  8
0
 10
6.319
 20
7.996
 30
0.0
 11
6.901
 21
7.301
 31
0.0
  0
ARC
  8
0
 10
6.50500
 20
7.49900
 30
0.0
 40
0.44274
 50
301.60750
 51
333.43495
  0
ARC
  8
0
 10
6.72500
 20
7.16100
 30
0.0
 40
0.04123
 50
219.09386
 51
287.10273
  0
ARC
  8
0
 10
6.30300
 20
7.38600
 30
0.0
 40
0.46378
 50
327.23508
 51
349.80576
  0
ARC
  8
0
 10
6.08900
 20
7.05800
 30
0.0
 40
0.71382
 50
20.16143
 51
40.22693
  0
ARC
  8
0
 10
6.41900
 20
7.28000
 30
0.0
 40
0.32184
 50
48.02604
 51
73.76116
  0
LINE
  8
0
 10
6.509
 20
7.589
 30
0.0
 11
6.229
 21
7.360
 31
0.0
  0
ARC
  8
0
 10
6.26100
 20
7.33100
 30
0.0
 40
0.04360
 50
137.81556
 51
216.60707
  0
ARC
  8
0
 10
6.66100
 20
7.58900
 30
0.0
 40
0.51950
 50
213.13946
 51
237.74891
  0
ARC
  8
0
 10
6.44200
 20
7.75000
 30
0.0
 40
0.60279
 50
264.47856
 51
278.31875
  0
ARC
  8
0
 10
6.53000
 20
7.14100
 30
0.0
 40
0.01403
 50
331.38954
 51
454.08562
  0
LINE
  8
0
 10
6.541
 20
7.135
 30
0.0
 11
6.292
 21
6.900
 31
0.0
  0
ARC
  8
0
 10
6.28200
 20
6.91700
 30
0.0
 40
0.02002
 50
177.13759
 51
300.46554
  0
ARC
  8
0
 10
6.10400
 20
7.03700
 30
0.0
 40
0.19822
 50
323.01424
 51
366.37211
  0
ARC
  8
0
 10
6.05200
 20
7.01600
 30
0.0
 40
0.25297
 50
9.79782
 51
76.51308
  0
LINE
  8
0
 10
6.111
 20
7.262
 30
0.0
 11
5.799
 21
7.009
 31
0.0
  0
ARC
  8
0
 10
6.13800
 20
7.05900
 30
0.0
 40
0.34311
 50
188.39021
 51
242.01592
  0
ARC
  8
0
 10
6.44700
 20
7.63200
 30
0.0
 40
0.99419
 50
241.78512
 51
261.78840
  0
ARC
  8
0
 10
6.01600
 20
7.01100
 30
0.0
 40
0.46399
 50
281.81868
 51
308.52481
  0
ARC
  8
0
 10
6.12400
 20
6.85500
 30
0.0
 40
0.29839
 50
221.05948
 51
267.50210
  0
ARC
  8
0
 10
2.82700
 20
4.62200
 30
0.0
 40
3.68599
 50
33.54780
 51
44.01072
  0
ARC
  8
0
 10
5.49700
 20
7.20200
 30
0.0
 40
0.02731
 50
66.25051
 51
225.00000
  0
ARC
  8
0
 10
5.41000
 20
6.46400
 30
0.0
 40
0.76926
 50
73.37924
 51
82.68098
  0
ARC
  8
0
 10
9.39100
 20
16.67200
 30
0.0
 40
4.98981
 50
159.05152
 51
169.57293
  0
ARC
  8
0
 10
4.33800
 20
18.55000
 30
0.0
 40
0.40460
 50
346.54839
 51
391.76521
  0
ARC
  8
0
 10
4.30300
 20
18.40400
 30
0.0
 40
0.52244
 50
43.44765
 51
76.49574
  0
ARC
  8
0
 10
3.22900
 20
18.29500
 30
0.0
 40
1.34577
 50
7.30468
 51
27.28859
  0
ARC
  8
0
 10
4.10300
 20
18.40500
 30
0.0
 40
0.46466
 50
313.86644
 51
367.55385
  0
LINE
  8
0
 10
4.425
 20
18.070
 30
0.0
 11
3.880
 21
18.219
 31
0.0
  0
ARC
  8
0
 10
4.02900
 20
18.31800
 30
0.0
 40
0.17922
 50
177.12163
 51
213.60124
  0
ARC
  8
0
 10
4.23000
 20
18.31900
 30
0.0
 40
0.38008
 50
135.53346
 51
178.79395
  0
ARC
  8
0
 10
4.14000
 20
18.38300
 30
0.0
 40
0.27122
 50
88.52036
 51
131.86160
  0
ARC
  8
0
 10
4.12800
 20
18.67600
 30
0.0
 40
0.02941
 50
310.81508
 51
432.18111
  0
ARC
  8
0
 10
3.59800
 20
17.15400
 30
0.0
 40
1.64115
 50
70.82529
 51
87.06611
  0
ARC
  8
0
 10
3.67700
 20
18.77800
 30
0.0
 40
0.01581
 50
71.56505
 51
251.56505
  0
ARC
  8
0
 10
3.07800
 20
18.19400
 30
0.0
 40
0.82297
 50
29.96076
 51
43.76855
  0
ARC
  8
0
 10
3.08900
 20
18.56900
 30
0.0
 40
0.70304
 50
338.03212
 51
362.93567
  0
ARC
  8
0
 10
3.68600
 20
18.33300
 30
0.0
 40
0.06126
 50
267.18444
 51
333.85316
  0
LINE
  8
0
 10
3.683
 20
18.272
 30
0.0
 11
3.202
 21
18.404
 31
0.0
  0
ARC
  8
0
 10
3.62000
 20
18.54500
 30
0.0
 40
0.44114
 50
173.41303
 51
198.64031
  0
ARC
  8
0
 10
4.12400
 20
18.35600
 30
0.0
 40
0.96700
 50
145.61966
 51
165.69072
  0
ARC
  8
0
 10
3.59400
 20
18.33300
 30
0.0
 40
0.62895
 50
92.82600
 51
115.22052
  0
ARC
  8
0
 10
3.50900
 20
18.97600
 30
0.0
 40
0.05604
 50
344.47589
 51
412.30576
  0
ARC
  8
0
 10
3.31100
 20
18.46900
 30
0.0
 40
0.59842
 50
67.16635
 51
99.03733
  0
LINE
  8
0
 10
3.217
 20
19.060
 30
0.0
 11
2.910
 21
17.872
 31
0.0
  0
ARC
  8
0
 10
2.93000
 20
17.87000
 30
0.0
 40
0.02059
 50
174.28941
 51
299.05460
  0
ARC
  8
0
 10
2.43000
 20
18.42800
 30
0.0
 40
0.76933
 50
311.52221
 51
326.24790
  0
ARC
  8
0
 10
3.13300
 20
17.95600
 30
0.0
 40
0.07823
 50
72.03086
 51
144.88799
  0
LINE
  8
0
 10
3.157
 20
18.030
 30
0.0
 11
4.345
 21
17.733
 31
0.0
  0
ARC
  8
0
 10
5.33000
 20
18.07000
 30
0.0
 40
1.04105
 50
198.88746
 51
208.41266
  0
ARC
  8
0
 10
4.44900
 20
17.58000
 30
0.0
 40
0.03535
 50
188.36589
 51
351.86990
  0
LINE
  8
0
 10
9.518
 20
24.712
 30
0.0
 11
9.401
 21
25.861
 31
0.0
  0
LINE
  8
0
 10
9.401
 20
25.861
 30
0.0
 11
9.429
 21
25.903
 31
0.0
  0
LINE
  8
0
 10
9.429
 20
25.903
 30
0.0
 11
9.964
 21
25.107
 31
0.0
  0
ARC
  8
0
 10
9.87000
 20
25.08300
 30
0.0
 40
0.09708
 50
341.37842
 51
374.32272
  0
ARC
  8
0
 10
10.87400
 20
24.31800
 30
0.0
 40
1.17070
 50
141.17203
 51
146.03845
  0
ARC
  8
0
 10
9.92100
 20
24.94800
 30
0.0
 40
0.03008
 50
126.86990
 51
285.42216
  0
ARC
  8
0
 10
16.19100
 20
14.85800
 30
0.0
 40
11.85103
 50
118.66062
 51
121.89827
  0
ARC
  8
0
 10
10.48800
 20
25.28300
 30
0.0
 40
0.03238
 50
306.15819
 51
458.88066
  0
ARC
  8
0
 10
10.30200
 20
25.87100
 30
0.0
 40
0.58493
 50
279.44622
 51
288.03212
  0
ARC
  8
0
 10
10.36200
 20
25.47300
 30
0.0
 40
0.18258
 50
214.73486
 51
281.37147
  0
LINE
  8
0
 10
10.212
 20
25.369
 30
0.0
 11
9.663
 21
26.189
 31
0.0
  0
ARC
  8
0
 10
10.16900
 20
26.47100
 30
0.0
 40
0.58105
 50
180.78888
 51
209.13146
  0
ARC
  8
0
 10
10.63300
 20
25.63700
 30
0.0
 40
1.33218
 50
136.85545
 51
141.67608
  0
ARC
  8
0
 10
9.63200
 20
26.56800
 30
0.0
 40
0.03522
 50
325.40771
 51
393.23171
  0
ARC
  8
0
 10
9.63700
 20
26.53300
 30
0.0
 40
0.05916
 50
66.03751
 51
120.46554
  0
ARC
  8
0
 10
10.60900
 20
24.68200
 30
0.0
 40
2.14979
 50
117.78088
 51
128.73057
  0
LINE
  8
0
 10
9.264
 20
26.359
 30
0.0
 11
9.376
 21
25.237
 31
0.0
  0
ARC
  8
0
 10
9.31200
 20
25.24600
 30
0.0
 40
0.06462
 50
226.88819
 51
351.99527
  0
LINE
  8
0
 10
9.268
 20
25.199
 30
0.0
 11
9.153
 21
25.268
 31
0.0
  0
LINE
  8
0
 10
9.153
 20
25.268
 30
0.0
 11
8.374
 21
25.760
 31
0.0
  0
ARC
  8
0
 10
8.31300
 20
25.59800
 30
0.0
 40
0.17334
 50
69.36648
 51
123.23171
  0
LINE
  8
0
 10
8.218
 20
25.743
 30
0.0
 11
7.961
 21
25.553
 31
0.0
  0
ARC
  8
0
 10
7.98100
 20
25.53800
 30
0.0
 40
0.02500
 50
143.13010
 51
281.76829
  0
ARC
  8
0
 10
8.05000
 20
25.25900
 30
0.0
 40
0.26332
 50
29.58295
 51
104.08910
  0
LINE
  8
0
 10
8.279
 20
25.389
 30
0.0
 11
8.737
 21
24.540
 31
0.0
  0
ARC
  8
0
 10
8.29400
 20
24.32700
 30
0.0
 40
0.49192
 50
7.24059
 51
25.67884
  0
ARC
  8
0
 10
8.63500
 20
24.35300
 30
0.0
 40
0.15134
 50
312.04369
 51
373.76079
  0
ARC
  8
0
 10
8.76200
 20
24.21500
 30
0.0
 40
0.03699
 50
135.00000
 51
270.00000
  0
ARC
  8
0
 10
5.67000
 20
29.37500
 30
0.0
 40
6.04725
 50
300.75089
 51
305.65114
  0
LINE
  8
0
 10
9.194
 20
24.462
 30
0.0
 11
9.180
 21
24.489
 31
0.0
  0
LINE
  8
0
 10
9.180
 20
24.489
 30
0.0
 11
8.943
 21
24.500
 31
0.0
  0
ARC
  8
0
 10
8.98800
 20
24.64500
 30
0.0
 40
0.15182
 50
209.27525
 51
252.75854
  0
LINE
  8
0
 10
8.856
 20
24.571
 30
0.0
 11
8.481
 21
25.250
 31
0.0
  0
LINE
  8
0
 10
8.481
 20
25.250
 30
0.0
 11
8.503
 21
25.265
 31
0.0
  0
LINE
  8
0
 10
8.503
 20
25.265
 30
0.0
 11
9.334
 21
24.742
 31
0.0
  0
LINE
  8
0
 10
9.334
 20
24.742
 30
0.0
 11
9.512
 21
24.642
 31
0.0
  0
LINE
  8
0
 10
9.512
 20
24.642
 30
0.0
 11
9.526
 21
24.656
 31
0.0
  0
LINE
  8
0
 10
9.526
 20
24.656
 30
0.0
 11
9.518
 21
24.712
 31
0.0
  0
ARC
  8
0
 10
8.96400
 20
13.68000
 30
0.0
 40
0.31200
 50
307.05354
 51
414.52639
  0
ARC
  8
0
 10
7.97300
 20
15.10600
 30
0.0
 40
1.65855
 50
295.49899
 51
315.00000
  0
ARC
  8
0
 10
8.39300
 20
13.80800
 30
0.0
 40
0.35501
 50
306.28856
 51
325.90708
  0
ARC
  8
0
 10
8.47000
 20
14.51700
 30
0.0
 40
1.00384
 50
277.61350
 51
304.48205
  0
ARC
  8
0
 10
8.63800
 20
13.76900
 30
0.0
 40
0.40772
 50
269.71845
 51
348.82786
  0
ARC
  8
0
 10
8.71900
 20
13.26600
 30
0.0
 40
0.12739
 50
130.84615
 51
175.49781
  0
ARC
  8
0
 10
8.59400
 20
14.37300
 30
0.0
 40
1.09700
 50
269.89554
 51
300.61401
  0
ARC
  8
0
 10
13.48700
 20
23.07300
 30
0.0
 40
0.60268
 50
40.62194
 51
100.80653
  0
ARC
  8
0
 10
15.47100
 20
28.72900
 30
0.0
 40
5.48101
 50
247.50558
 51
253.82342
  0
ARC
  8
0
 10
15.63200
 20
17.90000
 30
0.0
 40
1.65887
 50
137.15003
 51
146.73143
  0
ARC
  8
0
 10
13.89700
 20
18.91000
 30
0.0
 40
0.53327
 50
353.64794
 51
372.80904
  0
ARC
  8
0
 10
13.93000
 20
19.00100
 30
0.0
 40
0.51917
 50
313.59521
 51
343.20562
  0
ARC
  8
0
 10
14.29700
 20
18.68000
 30
0.0
 40
0.05573
 50
230.19443
 51
260.70669
  0
ARC
  8
0
 10
12.44700
 20
18.55100
 30
0.0
 40
1.81708
 50
2.74431
 51
8.19701
  0
ARC
  8
0
 10
15.48500
 20
19.54000
 30
0.0
 40
0.83463
 50
320.64294
 51
345.21451
  0
ARC
  8
0
 10
16.39500
 20
19.22100
 30
0.0
 40
0.33858
 50
166.33314
 51
218.39516
  0
ARC
  8
0
 10
17.22900
 20
18.77900
 30
0.0
 40
1.27479
 50
145.61185
 51
155.82759
  0
ARC
  8
0
 10
15.99900
 20
19.25600
 30
0.0
 40
0.30147
 50
13.62140
 51
53.77684
  0
ARC
  8
0
 10
15.06900
 20
21.40700
 30
0.0
 40
0.20264
 50
297.95607
 51
399.36932
  0
ARC
  8
0
 10
15.29500
 20
21.17900
 30
0.0
 40
0.36491
 50
101.12411
 51
150.62514
  0
ARC
  8
0
 10
17.37600
 20
23.21500
 30
0.0
 40
3.03375
 50
217.74247
 51
221.27121
  0
ARC
  8
0
 10
15.11000
 20
21.31900
 30
0.0
 40
0.10592
 50
262.40536
 51
300.68517
  0
ARC
  8
0
 10
23.29600
 20
13.15200
 30
0.0
 40
1.07143
 50
96.75357
 51
156.97697
  0
ARC
  8
0
 10
22.90200
 20
13.67500
 30
0.0
 40
0.60374
 50
63.64715
 51
189.96380
  0
ARC
  8
0
 10
23.95900
 20
19.76900
 30
0.0
 40
2.71976
 50
221.78051
 51
229.39871
  0
ARC
  8
0
 10
22.67800
 20
17.64900
 30
0.0
 40
0.81016
 50
157.59287
 51
191.10189
  0
ARC
  8
0
 10
22.60700
 20
16.77100
 30
0.0
 40
1.02247
 50
114.13320
 51
135.07925
  0
ARC
  8
0
 10
17.39300
 20
19.89400
 30
0.0
 40
6.24384
 50
61.19765
 51
67.10625
  0
ARC
  8
0
 10
20.39000
 20
25.39300
 30
0.0
 40
0.03008
 50
291.44774
 51
410.44033
  0
ARC
  8
0
 10
20.59200
 20
25.66200
 30
0.0
 40
0.30674
 50
209.49003
 51
233.35435
  0
ARC
  8
0
 10
20.44400
 20
25.58500
 30
0.0
 40
0.14035
 50
147.21572
 51
211.87536
  0
LINE
  8
0
 10
20.326
 20
25.661
 30
0.0
 11
20.668
 21
26.378
 31
0.0
  0
ARC
  8
0
 10
20.70200
 20
25.99300
 30
0.0
 40
0.38697
 50
43.21990
 51
95.04679
  0
ARC
  8
0
 10
20.63700
 20
26.09900
 30
0.0
 40
0.38169
 50
2.70488
 51
24.61788
  0
ARC
  8
0
 10
21.03400
 20
26.11600
 30
0.0
 40
0.01603
 50
176.42367
 51
320.19443
  0
ARC
  8
0
 10
20.73600
 20
26.31400
 30
0.0
 40
0.37331
 50
326.13966
 51
359.23201
  0
LINE
  8
0
 10
21.109
 20
26.309
 30
0.0
 11
20.111
 21
26.779
 31
0.0
  0
ARC
  8
0
 10
20.73300
 20
26.20400
 30
0.0
 40
0.84705
 50
137.24855
 51
153.49545
  0
ARC
  8
0
 10
19.99700
 20
26.57100
 30
0.0
 40
0.02459
 50
153.43495
 51
292.24902
  0
ARC
  8
0
 10
20.24400
 20
26.32600
 30
0.0
 40
0.32635
 50
108.76806
 51
136.86363
  0
ARC
  8
0
 10
20.11300
 20
26.15700
 30
0.0
 40
0.47879
 50
46.10008
 51
86.88656
  0
LINE
  8
0
 10
20.445
 20
26.502
 30
0.0
 11
20.073
 21
25.715
 31
0.0
  0
ARC
  8
0
 10
19.92600
 20
25.84500
 30
0.0
 40
0.19623
 50
286.58734
 51
318.51194
  0
ARC
  8
0
 10
20.01100
 20
26.58700
 30
0.0
 40
0.93045
 50
258.90746
 51
268.21394
  0
ARC
  8
0
 10
19.83200
 20
25.65800
 30
0.0
 40
0.01599
 50
90.00000
 51
230.19443
  0
LINE
  8
0
 10
13.845
 20
26.310
 30
0.0
 11
13.617
 21
27.518
 31
0.0
  0
ARC
  8
0
 10
14.45800
 20
27.65700
 30
0.0
 40
0.85240
 50
176.70459
 51
189.38497
  0
ARC
  8
0
 10
13.78300
 20
27.70700
 30
0.0
 40
0.17600
 50
146.12919
 51
180.32554
  0
ARC
  8
0
 10
12.57200
 20
29.26500
 30
0.0
 40
1.80737
 50
306.10896
 51
309.67974
  0
ARC
  8
0
 10
13.69100
 20
27.87900
 30
0.0
 40
0.03535
 50
351.86990
 51
441.86990
  0
ARC
  8
0
 10
12.64700
 20
31.87400
 30
0.0
 40
4.09663
 50
277.77209
 51
284.83682
  0
ARC
  8
0
 10
13.19900
 20
27.78500
 30
0.0
 40
0.03006
 50
86.18593
 51
273.94519
  0
ARC
  8
0
 10
13.24500
 20
27.46900
 30
0.0
 40
0.29035
 50
33.03215
 51
98.71616
  0
LINE
  8
0
 10
13.488
 20
27.627
 30
0.0
 11
13.627
 21
26.865
 31
0.0
  0
LINE
  8
0
 10
13.627
 20
26.865
 30
0.0
 11
13.587
 21
26.855
 31
0.0
  0
LINE
  8
0
 10
13.587
 20
26.855
 30
0.0
 11
12.409
 21
27.627
 31
0.0
  0
ARC
  8
0
 10
11.79400
 20
29.74800
 30
0.0
 40
2.20836
 50
274.93602
 51
286.16992
  0
ARC
  8
0
 10
11.98700
 20
27.47000
 30
0.0
 40
0.07805
 50
92.20260
 51
142.83553
  0
ARC
  8
0
 10
11.93100
 20
27.21100
 30
0.0
 40
0.30605
 50
15.35368
 51
91.12330
  0
LINE
  8
0
 10
12.226
 20
27.292
 30
0.0
 11
12.459
 21
26.241
 31
0.0
  0
ARC
  8
0
 10
12.27900
 20
26.21500
 30
0.0
 40
0.18249
 50
289.52711
 51
368.21921
  0
ARC
  8
0
 10
12.34500
 20
26.01800
 30
0.0
 40
0.02549
 50
101.30993
 51
281.30993
  0
ARC
  8
0
 10
11.08600
 20
33.56200
 30
0.0
 40
7.67381
 50
279.48073
 51
283.55091
  0
ARC
  8
0
 10
12.86800
 20
26.12400
 30
0.0
 40
0.02828
 50
306.02737
 51
458.13010
  0
ARC
  8
0
 10
12.79500
 20
26.38700
 30
0.0
 40
0.24492
 50
197.10273
 51
286.36314
  0
LINE
  8
0
 10
12.561
 20
26.315
 30
0.0
 11
12.361
 21
27.199
 31
0.0
  0
ARC
  8
0
 10
12.40000
 20
27.20000
 30
0.0
 40
0.03992
 50
67.93210
 51
181.46880
  0
LINE
  8
0
 10
12.415
 20
27.237
 30
0.0
 11
13.760
 21
26.307
 31
0.0
  0
LINE
  8
0
 10
13.760
 20
26.307
 30
0.0
 11
13.847
 21
26.309
 31
0.0
  0
ARC
  8
0
 10
6.51500
 20
19.65900
 30
0.0
 40
1.18337
 50
137.39735
 51
161.01385
  0
ARC
  8
0
 10
5.37300
 20
20.05900
 30
0.0
 40
0.02745
 50
167.00538
 51
326.88866
  0
ARC
  8
0
 10
4.95300
 20
20.07400
 30
0.0
 40
0.39410
 50
358.69144
 51
396.84078
  0
LINE
  8
0
 10
5.268
 20
20.310
 30
0.0
 11
4.735
 21
21.073
 31
0.0
  0
LINE
  8
0
 10
4.735
 20
21.073
 30
0.0
 11
4.843
 21
21.072
 31
0.0
  0
LINE
  8
0
 10
4.843
 20
21.072
 30
0.0
 11
5.327
 21
20.450
 31
0.0
  0
ARC
  8
0
 10
5.42100
 20
20.56400
 30
0.0
 40
0.14819
 50
230.49232
 51
283.66115
  0
ARC
  8
0
 10
6.57400
 20
18.80600
 30
0.0
 40
1.96366
 50
119.26716
 51
124.70992
  0
ARC
  8
0
 10
5.60900
 20
20.48000
 30
0.0
 40
0.04031
 50
330.25512
 51
442.69424
  0
ARC
  8
0
 10
9.69400
 20
0.12200
 30
0.0
 40
10.34730
 50
115.51501
 51
120.70166
  0
ARC
  8
0
 10
5.25200
 20
9.36500
 30
0.0
 40
0.09656
 50
31.87960
 51
98.97263
  0
ARC
  8
0
 10
5.34800
 20
9.42400
 30
0.0
 40
0.01702
 50
209.74488
 51
356.63354
  0
ARC
  8
0
 10
-7.22400
 20
3.05800
 30
0.0
 40
14.10659
 50
26.82117
 51
28.71257
  0
LINE
  8
0
 10
5.148
 20
9.835
 30
0.0
 11
5.134
 21
9.826
 31
0.0
  0
ARC
  8
0
 10
4.72300
 20
9.85800
 30
0.0
 40
0.41224
 50
335.61363
 51
355.54800
  0
ARC
  8
0
 10
5.02100
 20
9.72200
 30
0.0
 40
0.08450
 50
290.79411
 51
336.17574
  0
ARC
  8
0
 10
-14.69800
 20
45.55600
 30
0.0
 40
40.98523
 50
297.62793
 51
298.80694
  0
ARC
  8
0
 10
4.26800
 20
9.41700
 30
0.0
 40
0.17759
 50
227.05355
 51
283.01880
  0
ARC
  8
0
 10
4.14100
 20
9.28000
 30
0.0
 40
0.01019
 50
49.39871
 51
191.30993
  0
ARC
  8
0
 10
10.28300
 20
12.05300
 30
0.0
 40
6.74936
 50
204.27884
 51
208.75612
  0
ARC
  8
0
 10
4.37200
 20
8.83300
 30
0.0
 40
0.02828
 50
257.47119
 51
351.86990
  0
ARC
  8
0
 10
4.82900
 20
8.97500
 30
0.0
 40
0.45334
 50
186.96826
 51
198.79479
  0
ARC
  8
0
 10
4.51500
 20
8.93100
 30
0.0
 40
0.13644
 50
139.76364
 51
184.62415
  0
ARC
  8
0
 10
12.93800
 20
-1.08900
 30
0.0
 40
3.68470
 50
75.54136
 51
86.06284
  0
ARC
  8
0
 10
13.89400
 20
2.77500
 30
0.0
 40
0.29829
 50
263.06565
 51
308.32984
  0
ARC
  8
0
 10
13.78400
 20
2.78900
 30
0.0
 40
0.38587
 50
319.94697
 51
353.00390
  0
ARC
  8
0
 10
13.61400
 20
3.56800
 30
0.0
 40
0.99402
 50
283.79850
 51
303.80197
  0
ARC
  8
0
 10
13.76800
 20
2.93600
 30
0.0
 40
0.34318
 50
230.32275
 51
283.99575
  0
LINE
  8
0
 10
13.549
 20
2.672
 30
0.0
 11
13.613
 21
3.084
 31
0.0
  0
ARC
  8
0
 10
13.69800
 20
2.98300
 30
0.0
 40
0.13224
 50
93.46823
 51
130.08343
  0
ARC
  8
0
 10
13.71500
 20
2.83600
 30
0.0
 40
0.28011
 50
51.81978
 51
95.12036
  0
ARC
  8
0
 10
13.75500
 20
2.90700
 30
0.0
 40
0.20072
 50
4.85846
 51
48.24734
  0
ARC
  8
0
 10
13.96900
 20
2.94000
 30
0.0
 40
0.02137
 50
228.81407
 51
349.21570
  0
LINE
  8
0
 10
13.990
 20
2.936
 30
0.0
 11
14.017
 21
3.275
 31
0.0
  0
ARC
  8
0
 10
14.00600
 20
3.28000
 30
0.0
 40
0.01208
 50
335.55605
 51
529.69515
  0
ARC
  8
0
 10
13.52700
 20
3.67000
 30
0.0
 40
0.60792
 50
306.49234
 51
320.33924
  0
ARC
  8
0
 10
13.80400
 20
3.69400
 30
0.0
 40
0.51992
 50
254.49359
 51
279.31709
  0
ARC
  8
0
 10
13.68000
 20
3.23600
 30
0.0
 40
0.04554
 50
183.81407
 51
250.76933
  0
LINE
  8
0
 10
13.635
 20
3.233
 30
0.0
 11
13.691
 21
3.592
 31
0.0
  0
ARC
  8
0
 10
13.83100
 20
3.30200
 30
0.0
 40
0.32202
 50
90.00000
 51
115.76933
  0
ARC
  8
0
 10
13.73400
 20
2.91700
 30
0.0
 40
0.71362
 50
62.17788
 51
82.18783
  0
ARC
  8
0
 10
13.67300
 20
3.30300
 30
0.0
 40
0.46426
 50
9.42174
 51
31.87448
  0
ARC
  8
0
 10
14.13700
 20
3.42000
 30
0.0
 40
0.04219
 50
261.67435
 51
328.57043
  0
ARC
  8
0
 10
13.74800
 20
3.52300
 30
0.0
 40
0.44300
 50
343.61046
 51
375.44796
  0
LINE
  8
0
 10
14.175
 20
3.641
 30
0.0
 11
13.277
 21
3.767
 31
0.0
  0
ARC
  8
0
 10
13.27700
 20
3.75200
 30
0.0
 40
0.01500
 50
90.00000
 51
213.69007
  0
ARC
  8
0
 10
13.64500
 20
4.16600
 30
0.0
 40
0.56800
 50
227.99779
 51
242.75826
  0
ARC
  8
0
 10
13.35700
 20
3.61100
 30
0.0
 40
0.05824
 50
348.11134
 51
420.75117
  0
LINE
  8
0
 10
13.414
 20
3.599
 30
0.0
 11
13.295
 21
2.702
 31
0.0
  0
ARC
  8
0
 10
13.62500
 20
2.00700
 30
0.0
 40
0.76936
 50
115.39931
 51
124.88829
  0
ARC
  8
0
 10
13.19100
 20
2.61300
 30
0.0
 40
0.02599
 50
103.49573
 51
270.00000
  0
ARC
  8
0
 10
8.51100
 20
12.63700
 30
0.0
 40
0.39972
 50
284.48820
 51
349.47720
  0
ARC
  8
0
 10
8.49400
 20
12.91400
 30
0.0
 40
0.67424
 50
234.65989
 51
279.99321
  0
ARC
  8
0
 10
8.27900
 20
13.09300
 30
0.0
 40
0.75087
 50
256.50129
 51
302.82234
  0
ARC
  8
0
 10
12.42700
 20
44.90400
 30
0.0
 40
32.65733
 50
262.60906
 51
263.42208
  0
ARC
  8
0
 10
8.32000
 20
12.51900
 30
0.0
 40
0.09411
 50
104.77455
 51
180.60951
  0
ARC
  8
0
 10
9.88500
 20
30.46900
 30
0.0
 40
17.92985
 50
264.91551
 51
266.86360
  0
ARC
  8
0
 10
12.95600
 20
22.53400
 30
0.0
 40
0.60180
 50
256.84125
 51
294.86159
  0
ARC
  8
0
 10
12.67600
 20
22.57600
 30
0.0
 40
0.64421
 50
282.82792
 51
306.47856
  0
ARC
  8
0
 10
13.35000
 20
22.48600
 30
0.0
 40
0.51757
 50
235.78796
 51
254.19146
  0
ARC
  8
0
 10
13.40000
 20
21.94000
 30
0.0
 40
0.27035
 50
249.34435
 51
312.60158
  0
ARC
  8
0
 10
14.71700
 20
19.93600
 30
0.0
 40
2.25051
 50
123.16048
 51
128.86659
  0
ARC
  8
0
 10
13.48500
 20
21.71800
 30
0.0
 40
0.10200
 50
13.20793
 51
89.43829
  0
ARC
  8
0
 10
17.13500
 20
21.94100
 30
0.0
 40
0.27035
 50
227.39842
 51
290.58086
  0
ARC
  8
0
 10
15.81800
 20
19.93700
 30
0.0
 40
2.24967
 50
51.11742
 51
56.82559
  0
ARC
  8
0
 10
17.05000
 20
21.71900
 30
0.0
 40
0.10100
 50
90.56727
 51
166.79207
  0
ARC
  8
0
 10
17.85900
 20
22.57700
 30
0.0
 40
0.64421
 50
233.52144
 51
257.17208
  0
ARC
  8
0
 10
17.57900
 20
22.53500
 30
0.0
 40
0.60180
 50
245.13841
 51
283.15875
  0
ARC
  8
0
 10
17.18500
 20
22.48700
 30
0.0
 40
0.51757
 50
285.80854
 51
304.21204
  0
LINE
  8
0
 10
16.003
 20
11.911
 30
0.0
 11
11.095
 21
11.911
 31
0.0
  0
ARC
  8
0
 10
16.38000
 20
14.09400
 30
0.0
 40
5.71810
 50
202.44336
 51
214.88529
  0
LINE
  8
0
 10
11.690
 20
10.824
 30
0.0
 11
16.189
 21
10.824
 31
0.0
  0
ARC
  8
0
 10
21.11900
 20
9.46200
 30
0.0
 40
5.11703
 50
159.82270
 51
164.55624
  0
ARC
  8
0
 10
15.95200
 20
11.33800
 30
0.0
 40
0.38054
 50
343.04117
 51
376.81470
  0
ARC
  8
0
 10
17.26800
 20
11.89500
 30
0.0
 40
1.05171
 50
187.32100
 51
205.15183
  0
ARC
  8
0
 10
16.37800
 20
11.96500
 30
0.0
 40
0.25499
 50
214.75214
 51
233.13010
  0
ARC
  8
0
 10
16.65800
 20
12.90700
 30
0.0
 40
1.19290
 50
236.69625
 51
245.77883
  0
ARC
  8
0
 10
22.67700
 20
13.04100
 30
0.0
 40
4.76803
 50
337.78131
 51
343.49991
  0
ARC
  8
0
 10
27.20300
 20
11.67900
 30
0.0
 40
0.04589
 50
10.08060
 51
101.30993
  0
ARC
  8
0
 10
27.08800
 20
11.71600
 30
0.0
 40
0.10688
 50
312.34580
 51
364.31603
  0
ARC
  8
0
 10
27.06300
 20
11.79800
 30
0.0
 40
0.18796
 50
264.19841
 51
301.06831
  0
LINE
  8
0
 10
27.044
 20
11.611
 30
0.0
 11
26.288
 21
11.850
 31
0.0
  0
ARC
  8
0
 10
26.44400
 20
11.91200
 30
0.0
 40
0.16786
 50
176.23147
 51
201.67465
  0
ARC
  8
0
 10
26.52200
 20
11.88200
 30
0.0
 40
0.24840
 50
338.71359
 51
530.49976
  0
ARC
  8
0
 10
26.57100
 20
12.02500
 30
0.0
 40
0.29706
 50
307.99396
 51
519.91802
  0
LINE
  8
0
 10
26.292
 20
12.127
 30
0.0
 11
26.102
 21
11.523
 31
0.0
  0
ARC
  8
0
 10
26.11200
 20
11.51400
 30
0.0
 40
0.01414
 50
138.01279
 51
315.00000
  0
ARC
  8
0
 10
25.57600
 20
12.21000
 30
0.0
 40
0.89262
 50
307.71733
 51
316.36177
  0
ARC
  8
0
 10
26.26100
 20
11.52900
 30
0.0
 40
0.07615
 50
60.06849
 51
120.96376
  0
LINE
  8
0
 10
26.299
 20
11.595
 30
0.0
 11
26.964
 21
11.385
 31
0.0
  0
ARC
  8
0
 10
26.90500
 20
11.23900
 30
0.0
 40
0.15801
 50
0.72522
 51
67.99589
  0
ARC
  8
0
 10
27.07700
 20
11.24400
 30
0.0
 40
0.01523
 50
192.09476
 51
336.80141
  0
LINE
  8
0
 10
22.980
 20
5.104
 30
0.0
 11
22.470
 21
5.857
 31
0.0
  0
ARC
  8
0
 10
22.99400
 20
6.19500
 30
0.0
 40
0.62419
 50
200.14779
 51
212.82356
  0
LINE
  8
0
 10
22.408
 20
5.980
 30
0.0
 11
22.399
 21
6.055
 31
0.0
  0
ARC
  8
0
 10
21.26000
 20
6.72600
 30
0.0
 40
1.32198
 50
329.49710
 51
333.10544
  0
ARC
  8
0
 10
22.41400
 20
6.12100
 30
0.0
 40
0.02596
 50
15.64225
 51
105.64225
  0
ARC
  8
0
 10
20.55100
 20
8.49800
 30
0.0
 40
2.99679
 50
301.21295
 51
308.27752
  0
ARC
  8
0
 10
22.11200
 20
5.91500
 30
0.0
 40
0.02193
 50
111.80141
 51
294.22775
  0
ARC
  8
0
 10
22.22900
 20
5.67300
 30
0.0
 40
0.24764
 50
58.87753
 51
115.94230
  0
LINE
  8
0
 10
22.357
 20
5.885
 30
0.0
 11
22.672
 21
5.413
 31
0.0
  0
LINE
  8
0
 10
22.672
 20
5.413
 30
0.0
 11
22.649
 21
5.395
 31
0.0
  0
LINE
  8
0
 10
22.649
 20
5.395
 30
0.0
 11
21.634
 21
5.570
 31
0.0
  0
ARC
  8
0
 10
20.60400
 20
6.81400
 30
0.0
 40
1.61526
 50
298.38965
 51
309.62388
  0
ARC
  8
0
 10
21.39600
 20
5.34200
 30
0.0
 40
0.05651
 50
115.20112
 51
166.70143
  0
ARC
  8
0
 10
21.43400
 20
5.15100
 30
0.0
 40
0.22419
 50
39.01940
 51
114.50741
  0
LINE
  8
0
 10
21.608
 20
5.292
 30
0.0
 11
22.070
 21
4.654
 31
0.0
  0
ARC
  8
0
 10
21.95700
 20
4.58500
 30
0.0
 40
0.13373
 50
312.87890
 51
391.40905
  0
ARC
  8
0
 10
22.05900
 20
4.47200
 30
0.0
 40
0.01860
 50
126.25384
 51
303.69007
  0
ARC
  8
0
 10
19.01800
 20
9.16800
 30
0.0
 40
5.61321
 50
302.92843
 51
306.99851
  0
ARC
  8
0
 10
22.37900
 20
4.69500
 30
0.0
 40
0.02109
 50
329.53446
 51
481.42957
  0
ARC
  8
0
 10
22.25400
 20
4.85000
 30
0.0
 40
0.17951
 50
220.25510
 51
309.76441
  0
LINE
  8
0
 10
22.117
 20
4.734
 30
0.0
 11
21.726
 21
5.269
 31
0.0
  0
ARC
  8
0
 10
21.75200
 20
5.28100
 30
0.0
 40
0.02901
 50
91.97493
 51
204.77514
  0
LINE
  8
0
 10
21.751
 20
5.310
 30
0.0
 11
22.924
 21
5.077
 31
0.0
  0
LINE
  8
0
 10
22.924
 20
5.077
 30
0.0
 11
22.980
 21
5.104
 31
0.0
  0
ARC
  8
0
 10
10.19900
 20
3.77900
 30
0.0
 40
0.28317
 50
277.09992
 51
316.14576
  0
ARC
  8
0
 10
10.23200
 20
3.47900
 30
0.0
 40
0.01964
 50
83.99099
 51
255.25644
  0
ARC
  8
0
 10
10.07800
 20
2.61300
 30
0.0
 40
0.86006
 50
56.47622
 51
80.02289
  0
ARC
  8
0
 10
10.56400
 20
3.35700
 30
0.0
 40
0.02915
 50
247.83365
 51
361.97493
  0
ARC
  8
0
 10
9.47200
 20
2.47400
 30
0.0
 40
1.42761
 50
38.25866
 51
43.69418
  0
ARC
  8
0
 10
10.60300
 20
3.50200
 30
0.0
 40
0.10754
 50
149.85861
 51
202.98872
  0
LINE
  8
0
 10
10.510
 20
3.556
 30
0.0
 11
10.903
 21
3.975
 31
0.0
  0
LINE
  8
0
 10
10.903
 20
3.975
 30
0.0
 11
10.889
 21
4.052
 31
0.0
  0
LINE
  8
0
 10
10.889
 20
4.052
 30
0.0
 11
10.404
 21
3.583
 31
0.0
  0
ARC
  8
0
 10
-6.43700
 20
19.16600
 30
0.0
 40
18.39057
 50
315.22471
 51
317.56075
  0
ARC
  8
0
 10
7.12000
 20
6.76900
 30
0.0
 40
0.02039
 50
319.08562
 51
348.69007
  0
ARC
  8
0
 10
7.02600
 20
6.80400
 30
0.0
 40
0.12048
 50
341.11391
 51
412.84170
  0
ARC
  8
0
 10
7.14000
 20
6.91600
 30
0.0
 40
0.04554
 50
70.76933
 51
202.03623
  0
LINE
  8
0
 10
7.155
 20
6.959
 30
0.0
 11
7.358
 21
6.767
 31
0.0
  0
LINE
  8
0
 10
7.358
 20
6.767
 30
0.0
 11
6.615
 21
6.024
 31
0.0
  0
LINE
  8
0
 10
6.615
 20
6.024
 30
0.0
 11
6.422
 21
6.206
 31
0.0
  0
ARC
  8
0
 10
6.54500
 20
5.38300
 30
0.0
 40
0.83320
 50
84.97367
 51
98.50012
  0
ARC
  8
0
 10
3.27500
 20
16.58100
 30
0.0
 40
1.05812
 50
346.33154
 51
367.93100
  0
ARC
  8
0
 10
3.29100
 20
16.61100
 30
0.0
 40
1.03849
 50
6.41330
 51
40.93663
  0
ARC
  8
0
 10
3.47400
 20
16.67000
 30
0.0
 40
0.86434
 50
45.93765
 51
83.62321
  0
ARC
  8
0
 10
3.40500
 20
16.87500
 30
0.0
 40
0.67449
 50
75.84014
 51
133.97804
  0
ARC
  8
0
 10
3.97500
 20
16.55200
 30
0.0
 40
1.31625
 50
142.10209
 51
178.86816
  0
LINE
  8
0
 10
2.659
 20
16.578
 30
0.0
 11
2.787
 21
16.559
 31
0.0
  0
ARC
  8
0
 10
3.54200
 20
16.51200
 30
0.0
 40
0.75646
 50
143.23632
 51
176.43784
  0
ARC
  8
0
 10
3.43700
 20
16.39500
 30
0.0
 40
0.75800
 50
76.80709
 51
131.30689
  0
ARC
  8
0
 10
3.42500
 20
16.16900
 30
0.0
 40
0.98159
 50
47.72631
 51
79.13652
  0
ARC
  8
0
 10
3.70400
 20
16.58600
 30
0.0
 40
0.49055
 50
333.85316
 51
399.04287
  0
LINE
  8
0
 10
4.144
 20
16.370
 30
0.0
 11
4.307
 21
16.337
 31
0.0
  0
LINE
  8
0
 10
16.798
 20
13.744
 30
0.0
 11
17.220
 21
13.531
 31
0.0
  0
LINE
  8
0
 10
17.220
 20
13.531
 30
0.0
 11
19.686
 21
13.521
 31
0.0
  0
ARC
  8
0
 10
14.48500
 20
13.40200
 30
0.0
 40
5.20265
 50
1.31071
 51
13.86797
  0
LINE
  8
0
 10
19.536
 20
14.649
 30
0.0
 11
15.671
 21
14.650
 31
0.0
  0
LINE
  8
0
 10
15.671
 20
14.650
 30
0.0
 11
15.652
 21
14.650
 31
0.0
  0
LINE
  8
0
 10
15.652
 20
14.650
 30
0.0
 11
15.654
 21
14.601
 31
0.0
  0
ARC
  8
0
 10
14.90900
 20
12.73600
 30
0.0
 40
2.00903
 50
61.58528
 51
68.22508
  0
ARC
  8
0
 10
15.41900
 20
13.93200
 30
0.0
 40
0.72536
 50
42.70939
 51
52.00711
  0
ARC
  8
0
 10
16.17800
 20
14.42800
 30
0.0
 40
0.22603
 50
181.01398
 51
202.93210
  0
ARC
  8
0
 10
16.02200
 20
14.27600
 30
0.0
 40
0.08249
 50
129.09386
 51
173.73651
  0
ARC
  8
0
 10
15.86000
 20
14.29700
 30
0.0
 40
0.08125
 50
256.47684
 51
351.46923
  0
ARC
  8
0
 10
16.44400
 20
16.96400
 30
0.0
 40
2.81142
 50
251.58439
 51
257.61487
  0
ARC
  8
0
 10
17.72100
 20
18.12700
 30
0.0
 40
4.39955
 50
235.90535
 51
240.52165
  0
ARC
  8
0
 10
14.27800
 20
14.42300
 30
0.0
 40
0.97890
 50
3.57268
 51
13.41148
  0
LINE
  8
0
 10
15.230
 20
14.650
 30
0.0
 11
15.212
 21
14.650
 31
0.0
  0
LINE
  8
0
 10
15.212
 20
14.650
 30
0.0
 11
14.313
 21
14.650
 31
0.0
  0
ARC
  8
0
 10
14.10200
 20
14.63600
 30
0.0
 40
0.21146
 50
331.73600
 51
363.79605
  0
ARC
  8
0
 10
13.85000
 20
14.09800
 30
0.0
 40
0.62063
 50
32.23046
 51
45.00000
  0
ARC
  8
0
 10
16.09100
 20
17.07000
 30
0.0
 40
3.14986
 50
236.98605
 51
240.18743
  0
ARC
  8
0
 10
14.56500
 20
14.41000
 30
0.0
 40
0.08324
 50
241.27967
 51
296.56505
  0
ARC
  8
0
 10
11.44800
 20
19.78800
 30
0.0
 40
6.29857
 50
300.04952
 51
301.98417
  0
ARC
  8
0
 10
14.81000
 20
14.29700
 30
0.0
 40
0.15156
 50
20.46756
 51
99.89826
  0
ARC
  8
0
 10
11.94500
 20
12.78400
 30
0.0
 40
3.39074
 50
23.94190
 51
27.50982
  0
ARC
  8
0
 10
17.11900
 20
22.63100
 30
0.0
 40
8.72166
 50
256.23622
 51
258.02913
  0
ARC
  8
0
 10
14.95700
 20
13.73200
 30
0.0
 40
0.50948
 50
16.30069
 51
46.11394
  0
ARC
  8
0
 10
15.83700
 20
14.16600
 30
0.0
 40
0.48762
 50
216.65830
 51
262.10254
  0
ARC
  8
0
 10
15.88400
 20
14.15400
 30
0.0
 40
0.48478
 50
256.39390
 51
288.02383
  0
ARC
  8
0
 10
15.88700
 20
15.36500
 30
0.0
 40
1.67844
 50
275.02445
 51
291.09143
  0
LINE
  8
0
 10
16.491
 20
13.799
 30
0.0
 11
16.798
 21
13.743
 31
0.0
  0
ARC
  8
0
 10
12.82600
 20
21.93200
 30
0.0
 40
0.82198
 50
257.99287
 51
323.21379
  0
ARC
  8
0
 10
12.21300
 20
22.51400
 30
0.0
 40
1.45477
 50
287.68765
 51
315.19498
  0
ARC
  8
0
 10
18.19400
 20
45.12200
 30
0.0
 40
24.14681
 50
258.17257
 51
258.75196
  0
ARC
  8
0
 10
18.29300
 20
22.56200
 30
0.0
 40
1.25888
 50
230.70739
 51
278.81883
  0
ARC
  8
0
 10
19.84400
 20
24.63200
 30
0.0
 40
3.58144
 50
234.73013
 51
247.71732
  0
ARC
  8
0
 10
21.04100
 20
13.70300
 30
0.0
 40
8.64524
 50
112.18908
 51
114.20810
  0
ARC
  8
0
 10
18.95100
 20
2.08500
 30
0.0
 40
0.85982
 50
94.47027
 51
118.02545
  0
ARC
  8
0
 10
18.54000
 20
2.86200
 30
0.0
 40
0.01972
 50
120.46554
 51
291.25051
  0
ARC
  8
0
 10
18.32800
 20
3.07800
 30
0.0
 40
0.28355
 50
315.42864
 51
352.49887
  0
LINE
  8
0
 10
18.609
 20
3.041
 30
0.0
 11
18.705
 21
3.718
 31
0.0
  0
LINE
  8
0
 10
18.705
 20
3.718
 30
0.0
 11
18.762
 21
3.664
 31
0.0
  0
LINE
  8
0
 10
18.762
 20
3.664
 30
0.0
 11
18.711
 21
3.094
 31
0.0
  0
ARC
  8
0
 10
18.81700
 20
3.10800
 30
0.0
 40
0.10742
 50
187.52382
 51
241.04900
  0
ARC
  8
0
 10
18.55900
 20
1.60200
 30
0.0
 40
1.42782
 50
76.26546
 51
81.69954
  0
ARC
  8
0
 10
18.87600
 20
2.97000
 30
0.0
 40
0.02912
 50
285.94540
 51
400.81508
  0
ARC
  8
0
 10
25.75100
 20
9.22300
 30
0.0
 40
0.58032
 50
335.24555
 51
422.68343
  0
ARC
  8
0
 10
25.71800
 20
9.22200
 30
0.0
 40
0.59636
 50
59.90954
 51
144.01506
  0
LINE
  8
0
 10
25.236
 20
9.572
 30
0.0
 11
25.304
 21
9.531
 31
0.0
  0
ARC
  8
0
 10
25.56600
 20
9.10700
 30
0.0
 40
0.49843
 50
52.41739
 51
121.71294
  0
ARC
  8
0
 10
25.60300
 20
8.95400
 30
0.0
 40
0.60969
 50
6.30906
 51
64.02344
  0
LINE
  8
0
 10
26.209
 20
9.021
 30
0.0
 11
26.277
 21
8.980
 31
0.0
  0
ARC
  8
0
 10
16.74500
 20
15.23400
 30
0.0
 40
9.67480
 50
7.97935
 51
12.94313
  0
ARC
  8
0
 10
26.33200
 20
16.62900
 30
0.0
 40
0.05234
 50
263.41806
 51
347.82854
  0
ARC
  8
0
 10
26.63800
 20
16.65100
 30
0.0
 40
0.25719
 50
138.62546
 51
187.37377
  0
ARC
  8
0
 10
26.81600
 20
16.41000
 30
0.0
 40
0.55482
 50
83.27206
 51
132.07182
  0
ARC
  8
0
 10
18.62200
 20
-13.53600
 30
0.0
 40
31.59555
 50
73.14339
 51
74.84699
  0
LINE
  8
0
 10
27.784
 20
16.702
 30
0.0
 11
27.907
 21
16.552
 31
0.0
  0
ARC
  8
0
 10
27.91600
 20
16.55900
 30
0.0
 40
0.01140
 50
217.87498
 51
354.80557
  0
ARC
  8
0
 10
26.00800
 20
16.48700
 30
0.0
 40
1.92043
 50
2.11889
 51
7.26934
  0
LINE
  8
0
 10
27.913
 20
16.730
 30
0.0
 11
27.843
 21
17.072
 31
0.0
  0
ARC
  8
0
 10
27.82100
 20
17.06100
 30
0.0
 40
0.02501
 50
26.56505
 51
177.70939
  0
ARC
  8
0
 10
23.30500
 20
17.67900
 30
0.0
 40
4.53352
 50
350.24680
 51
352.17734
  0
ARC
  8
0
 10
27.70500
 20
16.92500
 30
0.0
 40
0.06992
 50
286.62076
 51
348.36637
  0
ARC
  8
0
 10
27.69400
 20
17.99600
 30
0.0
 40
1.13875
 50
238.02662
 51
271.56040
  0
ARC
  8
0
 10
28.38400
 20
15.98600
 30
0.0
 40
1.66248
 50
115.70190
 51
141.08174
  0
ARC
  8
0
 10
27.95700
 20
17.64400
 30
0.0
 40
0.33472
 50
208.55581
 51
229.36157
  0
ARC
  8
0
 10
27.75900
 20
17.40900
 30
0.0
 40
0.02816
 50
223.53120
 51
366.11550
  0
LINE
  8
0
 10
27.787
 20
17.412
 30
0.0
 11
27.665
 21
18.067
 31
0.0
  0
ARC
  8
0
 10
27.62800
 20
18.06200
 30
0.0
 40
0.03733
 50
7.69605
 51
178.36342
  0
ARC
  8
0
 10
27.21100
 20
18.05000
 30
0.0
 40
0.38283
 50
333.97041
 51
361.94910
  0
ARC
  8
0
 10
27.48200
 20
17.92500
 30
0.0
 40
0.08527
 50
309.28941
 51
329.50017
  0
LINE
  8
0
 10
27.536
 20
17.859
 30
0.0
 11
26.987
 21
17.391
 31
0.0
  0
ARC
  8
0
 10
26.49500
 20
17.95100
 30
0.0
 40
0.74542
 50
263.29466
 51
311.30162
  0
ARC
  8
0
 10
26.47800
 20
17.42600
 30
0.0
 40
0.22610
 50
198.03429
 51
251.96571
  0
ARC
  8
0
 10
26.19100
 20
17.32400
 30
0.0
 40
0.07885
 50
23.96249
 51
102.45000
  0
ARC
  8
0
 10
20.07700
 20
21.17000
 30
0.0
 40
3.69263
 50
44.53919
 51
55.07027
  0
ARC
  8
0
 10
22.89200
 20
23.99600
 30
0.0
 40
0.29942
 50
232.20915
 51
277.29116
  0
ARC
  8
0
 10
22.80500
 20
24.06500
 30
0.0
 40
0.38675
 50
288.85658
 51
321.94280
  0
ARC
  8
0
 10
23.06100
 20
24.82200
 30
0.0
 40
0.99615
 50
252.82110
 51
272.76188
  0
ARC
  8
0
 10
22.86700
 20
24.20000
 30
0.0
 40
0.34386
 50
199.54172
 51
253.09328
  0
LINE
  8
0
 10
22.543
 20
24.085
 30
0.0
 11
22.810
 21
24.407
 31
0.0
  0
ARC
  8
0
 10
22.83100
 20
24.27600
 30
0.0
 40
0.13267
 50
62.46393
 51
99.10733
  0
ARC
  8
0
 10
22.77000
 20
24.14000
 30
0.0
 40
0.28087
 50
21.08146
 51
64.25601
  0
ARC
  8
0
 10
22.84100
 20
24.18100
 30
0.0
 40
0.20035
 50
333.94650
 51
377.43939
  0
ARC
  8
0
 10
23.04200
 20
24.09900
 30
0.0
 40
0.02184
 50
195.94540
 51
315.00000
  0
LINE
  8
0
 10
23.057
 20
24.084
 30
0.0
 11
23.256
 21
24.362
 31
0.0
  0
ARC
  8
0
 10
23.24900
 20
24.37200
 30
0.0
 40
0.01220
 50
304.99202
 51
502.12502
  0
ARC
  8
0
 10
23.03900
 20
24.95400
 30
0.0
 40
0.60911
 50
275.46710
 51
289.26785
  0
ARC
  8
0
 10
23.28900
 20
24.83200
 30
0.0
 40
0.52069
 50
223.44343
 51
248.36206
  0
ARC
  8
0
 10
22.94600
 20
24.50200
 30
0.0
 40
0.04517
 50
152.30053
 51
218.65981
  0
LINE
  8
0
 10
22.906
 20
24.523
 30
0.0
 11
23.139
 21
24.802
 31
0.0
  0
ARC
  8
0
 10
23.11000
 20
24.48100
 30
0.0
 40
0.32293
 50
59.06667
 51
84.83776
  0
ARC
  8
0
 10
22.82800
 20
24.20000
 30
0.0
 40
0.71558
 50
31.15612
 51
51.24016
  0
ARC
  8
0
 10
22.97500
 20
24.56400
 30
0.0
 40
0.46503
 50
338.29012
 51
360.73926
  0
ARC
  8
0
 10
23.43400
 20
24.42400
 30
0.0
 40
0.04186
 50
229.84400
 51
297.18111
  0
ARC
  8
0
 10
23.15300
 20
24.71300
 30
0.0
 40
0.44303
 50
312.62167
 51
344.55204
  0
LINE
  8
0
 10
23.580
 20
24.595
 30
0.0
 11
22.874
 21
25.166
 31
0.0
  0
ARC
  8
0
 10
22.86600
 20
25.15400
 30
0.0
 40
0.01442
 50
56.30993
 51
188.13010
  0
ARC
  8
0
 10
23.39600
 20
25.31900
 30
0.0
 40
0.56954
 50
197.06572
 51
210.84299
  0
LINE
  8
0
 10
22.907
 20
25.027
 30
0.0
 11
22.912
 21
25.020
 31
0.0
  0
ARC
  8
0
 10
22.86300
 20
24.99000
 30
0.0
 40
0.05745
 50
317.12110
 51
391.47684
  0
LINE
  8
0
 10
22.905
 20
24.951
 30
0.0
 11
22.340
 21
24.242
 31
0.0
  0
ARC
  8
0
 10
22.26500
 20
23.47500
 30
0.0
 40
0.77075
 50
84.41517
 51
93.86847
  0
ARC
  8
0
 10
22.20500
 20
24.21900
 30
0.0
 40
0.02624
 50
72.25533
 51
237.52881
  0
ARC
  8
0
 10
16.56700
 20
24.48900
 30
0.0
 40
0.14329
 50
287.04393
 51
443.52604
  0
ARC
  8
0
 10
16.82700
 20
24.67600
 30
0.0
 40
0.24829
 50
166.24379
 51
190.67636
  0
ARC
  8
0
 10
16.60900
 20
24.55000
 30
0.0
 40
0.18642
 50
47.41334
 51
97.08690
  0
ARC
  8
0
 10
16.49900
 20
24.46600
 30
0.0
 40
0.32190
 50
332.79747
 51
403.11181
  0
ARC
  8
0
 10
16.57800
 20
24.51800
 30
0.0
 40
0.28750
 50
281.23177
 51
316.12883
  0
ARC
  8
0
 10
17.34700
 20
24.43700
 30
0.0
 40
0.74287
 50
186.57016
 51
195.74354
  0
ARC
  8
0
 10
13.48700
 20
16.87000
 30
0.0
 40
8.67219
 50
126.20127
 51
132.11146
  0
ARC
  8
0
 10
7.66200
 20
23.32300
 30
0.0
 40
0.02236
 50
153.43495
 51
296.56505
  0
ARC
  8
0
 10
6.59800
 20
24.09400
 30
0.0
 40
1.29201
 50
323.91067
 51
333.17713
  0
ARC
  8
0
 10
7.48100
 20
23.55100
 30
0.0
 40
0.27294
 50
351.57303
 51
383.55720
  0
LINE
  8
0
 10
7.731
 20
23.660
 30
0.0
 11
6.958
 21
24.590
 31
0.0
  0
ARC
  8
0
 10
7.19900
 20
23.97000
 30
0.0
 40
0.66523
 50
111.24159
 51
151.93258
  0
ARC
  8
0
 10
7.06300
 20
24.23400
 30
0.0
 40
0.45365
 50
173.79928
 51
201.75446
  0
ARC
  8
0
 10
6.60900
 20
24.06600
 30
0.0
 40
0.03300
 50
217.56859
 51
360.00000
  0
ARC
  8
0
 10
7.50300
 20
24.77800
 30
0.0
 40
1.17641
 50
202.22648
 51
218.50759
  0
LINE
  8
0
 10
6.414
 20
24.333
 30
0.0
 11
7.593
 21
25.313
 31
0.0
  0
ARC
  8
0
 10
7.36700
 20
24.84600
 30
0.0
 40
0.51881
 50
31.26711
 51
64.17580
  0
ARC
  8
0
 10
7.79100
 20
25.10500
 30
0.0
 40
0.02236
 50
243.43495
 51
387.75854
  0
ARC
  8
0
 10
7.58000
 20
24.59500
 30
0.0
 40
0.53000
 50
67.69636
 51
89.67569
  0
ARC
  8
0
 10
7.75100
 20
24.61400
 30
0.0
 40
0.53790
 50
108.19917
 51
159.98046
  0
LINE
  8
0
 10
7.246
 20
24.798
 30
0.0
 11
7.949
 21
23.947
 31
0.0
  0
ARC
  8
0
 10
8.11300
 20
24.05100
 30
0.0
 40
0.19448
 50
212.38068
 51
277.08848
  0
ARC
  8
0
 10
8.10400
 20
24.28200
 30
0.0
 40
0.42547
 50
274.45037
 51
298.19131
  0
ARC
  8
0
 10
8.32400
 20
23.87000
 30
0.0
 40
0.04159
 50
357.20730
 51
477.18111
  0
ARC
  8
0
 10
6.38000
 20
12.02700
 30
0.0
 40
0.41356
 50
329.77351
 51
392.95998
  0
ARC
  8
0
 10
5.23100
 20
12.88400
 30
0.0
 40
1.84452
 50
308.30557
 51
324.73315
  0
ARC
  8
0
 10
6.37900
 20
11.50700
 30
0.0
 40
0.07017
 50
146.76829
 51
265.91438
  0
ARC
  8
0
 10
7.32400
 20
10.89600
 30
0.0
 40
1.19545
 50
136.55915
 51
147.09476
  0
ARC
  8
0
 10
6.15500
 20
12.07400
 30
0.0
 40
0.46680
 50
310.21471
 51
349.50852
  0
ARC
  8
0
 10
7.03100
 20
11.00600
 30
0.0
 40
1.06795
 50
112.98722
 51
140.24251
  0
ARC
  8
0
 10
6.78400
 20
11.82400
 30
0.0
 40
0.58966
 50
175.51920
 51
193.23496
  0
ARC
  8
0
 10
6.74400
 20
11.61500
 30
0.0
 40
0.60351
 50
134.52982
 51
155.00605
  0
ARC
  8
0
 10
12.78300
 20
-0.16000
 30
0.0
 40
13.81016
 50
116.00471
 51
117.89921
  0
ARC
  8
0
 10
7.25000
 20
6.36000
 30
0.0
 40
0.66905
 50
221.36321
 51
242.97537
  0
LINE
  8
0
 10
6.748
 20
5.918
 30
0.0
 11
6.828
 21
5.994
 31
0.0
  0
ARC
  8
0
 10
7.10400
 20
6.18200
 30
0.0
 40
0.33394
 50
214.26110
 51
281.57924
  0
ARC
  8
0
 10
7.09000
 20
6.32500
 30
0.0
 40
0.47830
 50
279.77832
 51
362.03686
  0
ARC
  8
0
 10
7.38800
 20
6.34700
 30
0.0
 40
0.18006
 50
358.40886
 51
379.54637
  0
ARC
  8
0
 10
7.14800
 20
6.26300
 30
0.0
 40
0.43401
 50
19.39606
 51
53.52615
  0
LINE
  8
0
 10
7.406
 20
6.612
 30
0.0
 11
7.462
 21
6.671
 31
0.0
  0
ARC
  8
0
 10
6.97200
 20
5.99900
 30
0.0
 40
0.83167
 50
19.67700
 51
53.90172
  0
ARC
  8
0
 10
7.59800
 20
6.20800
 30
0.0
 40
0.17241
 50
3.99091
 51
24.33388
  0
ARC
  8
0
 10
7.22400
 20
6.22400
 30
0.0
 40
0.54601
 50
280.98065
 51
359.58026
  0
ARC
  8
0
 10
7.26000
 20
6.34100
 30
0.0
 40
0.65690
 50
241.44523
 51
275.94505
  0
LINE
  8
0
 10
15.499
 20
14.860
 30
0.0
 11
19.474
 21
14.860
 31
0.0
  0
ARC
  8
0
 10
17.04100
 20
14.32300
 30
0.0
 40
2.49155
 50
12.44650
 51
41.36988
  0
LINE
  8
0
 10
18.910
 20
15.969
 30
0.0
 11
15.734
 21
15.970
 31
0.0
  0
ARC
  8
0
 10
15.43300
 20
16.19700
 30
0.0
 40
0.37922
 50
306.20510
 51
322.97812
  0
ARC
  8
0
 10
11.69800
 20
18.00200
 30
0.0
 40
4.48674
 50
329.10194
 51
331.93277
  0
ARC
  8
0
 10
15.17300
 20
15.77600
 30
0.0
 40
0.38403
 50
301.91050
 51
348.25002
  0
ARC
  8
0
 10
15.70100
 20
15.10700
 30
0.0
 40
0.47300
 50
133.45648
 51
157.50127
  0
ARC
  8
0
 10
15.40200
 20
15.21700
 30
0.0
 40
0.15519
 50
152.77451
 51
198.43495
  0
ARC
  8
0
 10
17.89600
 20
17.01500
 30
0.0
 40
3.22277
 50
214.96726
 51
221.96871
  0
ARC
  8
0
 10
10.64500
 20
22.70800
 30
0.0
 40
2.66458
 50
298.44057
 51
318.28610
  0
ARC
  8
0
 10
11.97100
 20
21.35700
 30
0.0
 40
0.99363
 50
266.71142
 51
330.31235
  0
ARC
  8
0
 10
12.63100
 20
20.60500
 30
0.0
 40
0.33001
 50
52.01838
 51
89.47914
  0
ARC
  8
0
 10
19.90500
 20
22.74100
 30
0.0
 40
2.66458
 50
221.71390
 51
241.55943
  0
ARC
  8
0
 10
18.57900
 20
21.39000
 30
0.0
 40
0.99363
 50
209.68765
 51
273.28858
  0
ARC
  8
0
 10
17.91900
 20
20.63800
 30
0.0
 40
0.33001
 50
90.52086
 51
127.98162
  0
ARC
  8
0
 10
23.87600
 20
20.08800
 30
0.0
 40
1.18308
 50
13.94226
 51
37.54792
  0
ARC
  8
0
 10
25.05900
 20
20.39100
 30
0.0
 40
0.04045
 50
207.21611
 51
320.01311
  0
ARC
  8
0
 10
23.13200
 20
20.51000
 30
0.0
 40
1.96344
 50
355.76468
 51
361.22570
  0
ARC
  8
0
 10
25.23300
 20
20.50200
 30
0.0
 40
0.14741
 50
106.95985
 51
160.08359
  0
LINE
  8
0
 10
25.190
 20
20.643
 30
0.0
 11
25.978
 21
20.703
 31
0.0
  0
LINE
  8
0
 10
25.978
 20
20.703
 30
0.0
 11
26.036
 21
20.794
 31
0.0
  0
LINE
  8
0
 10
26.036
 20
20.794
 30
0.0
 11
25.108
 21
20.769
 31
0.0
  0
ARC
  8
0
 10
25.08200
 20
21.15900
 30
0.0
 40
0.39086
 50
234.59890
 51
273.81407
  0
ARC
  8
0
 10
24.83700
 20
20.82300
 30
0.0
 40
0.02692
 50
43.45184
 51
211.32869
  0
ARC
  8
0
 10
18.17300
 20
17.22400
 30
0.0
 40
0.71328
 50
330.77362
 51
355.41647
  0
ARC
  8
0
 10
18.42700
 20
17.14700
 30
0.0
 40
0.45743
 50
2.50587
 51
52.20201
  0
ARC
  8
0
 10
18.59600
 20
17.36700
 30
0.0
 40
0.17944
 50
51.78897
 51
120.85420
  0
ARC
  8
0
 10
16.47500
 20
17.19900
 30
0.0
 40
2.05719
 50
357.35317
 51
369.01757
  0
ARC
  8
0
 10
18.63700
 20
17.14800
 30
0.0
 40
0.11569
 50
202.35320
 51
247.64680
  0
ARC
  8
0
 10
16.29800
 20
17.29300
 30
0.0
 40
2.30925
 50
353.73380
 51
361.88601
  0
ARC
  8
0
 10
18.50000
 20
17.16300
 30
0.0
 40
0.23203
 50
0.98776
 51
62.77132
  0
ARC
  8
0
 10
20.39500
 20
16.95200
 30
0.0
 40
1.67718
 50
172.63341
 51
182.15271
  0
ARC
  8
0
 10
18.76200
 20
16.91200
 30
0.0
 40
0.04883
 50
208.14160
 51
312.51045
  0
ARC
  8
0
 10
5.35600
 20
11.13800
 30
0.0
 40
1.97852
 50
311.70089
 51
327.08904
  0
ARC
  8
0
 10
6.66100
 20
9.71200
 30
0.0
 40
0.05390
 50
130.48601
 51
282.17146
  0
ARC
  8
0
 10
3.94800
 20
11.78700
 30
0.0
 40
3.36341
 50
322.78253
 51
329.83675
  0
ARC
  8
0
 10
6.84100
 20
9.78700
 30
0.0
 40
0.31069
 50
87.22978
 51
156.07496
  0
ARC
  8
0
 10
6.93300
 20
9.98200
 30
0.0
 40
0.38227
 50
105.20241
 51
190.39869
  0
ARC
  8
0
 10
7.51400
 20
10.58300
 30
0.0
 40
0.71975
 50
198.88807
 51
226.29555
  0
LINE
  8
0
 10
12.045
 20
3.039
 30
0.0
 11
12.259
 21
3.892
 31
0.0
  0
ARC
  8
0
 10
11.99900
 20
3.48400
 30
0.0
 40
0.48479
 50
57.49248
 51
98.06325
  0
ARC
  8
0
 10
12.09600
 20
3.67700
 30
0.0
 40
0.33104
 50
119.89515
 51
147.84770
  0
ARC
  8
0
 10
11.80200
 20
3.87200
 30
0.0
 40
0.02404
 50
163.07249
 51
306.38435
  0
ARC
  8
0
 10
12.60400
 20
3.65200
 30
0.0
 40
0.85617
 50
148.37058
 51
164.61568
  0
LINE
  8
0
 10
11.875
 20
4.101
 30
0.0
 11
12.957
 21
3.830
 31
0.0
  0
ARC
  8
0
 10
12.58600
 20
3.76200
 30
0.0
 40
0.37718
 50
337.38014
 51
370.38637
  0
ARC
  8
0
 10
12.92000
 20
3.62400
 30
0.0
 40
0.01627
 50
190.61966
 51
333.43495
  0
ARC
  8
0
 10
12.52900
 20
3.52900
 30
0.0
 40
0.38612
 50
13.78432
 51
35.83097
  0
ARC
  8
0
 10
12.61400
 20
3.43700
 30
0.0
 40
0.39129
 50
54.36019
 51
106.06640
  0
LINE
  8
0
 10
12.506
 20
3.812
 30
0.0
 11
12.307
 21
3.034
 31
0.0
  0
ARC
  8
0
 10
12.43900
 20
2.98200
 30
0.0
 40
0.14187
 50
158.49857
 51
223.28164
  0
ARC
  8
0
 10
12.57000
 20
3.08700
 30
0.0
 40
0.30912
 50
220.80233
 51
244.51275
  0
ARC
  8
0
 10
12.42300
 20
2.78100
 30
0.0
 40
0.03041
 50
302.61924
 51
422.59242
  0
ARC
  8
0
 10
10.52600
 20
-3.25600
 30
0.0
 40
6.30903
 50
72.34909
 51
78.25727
  0
ARC
  8
0
 10
11.81800
 20
2.93500
 30
0.0
 40
0.01627
 50
100.61966
 51
240.25512
  0
ARC
  8
0
 10
11.81300
 20
3.89100
 30
0.0
 40
0.94052
 50
270.12191
 51
279.36217
  0
ARC
  8
0
 10
11.87400
 20
3.13900
 30
0.0
 40
0.19859
 50
297.59730
 51
329.68110
  0
ARC
  8
0
 10
23.68600
 20
6.24000
 30
0.0
 40
0.34341
 50
281.93162
 51
335.52838
  0
ARC
  8
0
 10
23.09600
 20
6.51300
 30
0.0
 40
0.99339
 50
335.29338
 51
355.26510
  0
ARC
  8
0
 10
23.81100
 20
6.16000
 30
0.0
 40
0.38609
 50
11.51383
 51
44.58026
  0
ARC
  8
0
 10
23.89100
 20
6.23800
 30
0.0
 40
0.29800
 50
314.59172
 51
359.80773
  0
ARC
  8
0
 10
26.32100
 20
3.08400
 30
0.0
 40
3.68621
 50
127.05020
 51
137.58409
  0
ARC
  8
0
 10
23.58500
 20
5.59500
 30
0.0
 40
0.02915
 50
175.91438
 51
300.96376
  0
ARC
  8
0
 10
24.32400
 20
5.54900
 30
0.0
 40
0.76917
 50
166.84905
 51
176.41901
  0
LINE
  8
0
 10
23.575
 20
5.724
 30
0.0
 11
22.944
 21
6.379
 31
0.0
  0
ARC
  8
0
 10
22.89300
 20
6.33500
 30
0.0
 40
0.06772
 50
40.78582
 51
106.29405
  0
ARC
  8
0
 10
22.64100
 20
6.91800
 30
0.0
 40
0.56882
 50
279.51200
 51
294.21855
  0
ARC
  8
0
 10
22.73600
 20
6.37200
 30
0.0
 40
0.01503
 50
143.13010
 51
266.18593
  0
LINE
  8
0
 10
22.724
 20
6.381
 30
0.0
 11
23.382
 21
7.005
 31
0.0
  0
ARC
  8
0
 10
23.20900
 20
6.59800
 30
0.0
 40
0.44279
 50
35.16163
 51
66.97153
  0
ARC
  8
0
 10
23.53100
 20
6.83800
 30
0.0
 40
0.04272
 50
314.02898
 51
380.55605
  0
ARC
  8
0
 10
23.33300
 20
6.40300
 30
0.0
 40
0.46427
 50
60.72964
 51
83.19644
  0
ARC
  8
0
 10
23.67400
 20
6.21000
 30
0.0
 40
0.71380
 50
113.62019
 51
133.69418
  0
ARC
  8
0
 10
23.43300
 20
6.52500
 30
0.0
 40
0.32234
 50
141.42347
 51
167.08537
  0
LINE
  8
0
 10
23.119
 20
6.597
 30
0.0
 11
23.365
 21
6.329
 31
0.0
  0
ARC
  8
0
 10
23.39000
 20
6.36600
 30
0.0
 40
0.04465
 50
235.95406
 51
304.04594
  0
ARC
  8
0
 10
23.10900
 20
6.74800
 30
0.0
 40
0.51973
 50
306.14104
 51
330.87044
  0
ARC
  8
0
 10
22.95600
 20
6.51700
 30
0.0
 40
0.60739
 50
357.92429
 51
371.79140
  0
ARC
  8
0
 10
23.56800
 20
6.63900
 30
0.0
 40
0.01811
 50
83.29016
 51
173.65981
  0
LINE
  8
0
 10
23.570
 20
6.656
 30
0.0
 11
23.826
 21
6.411
 31
0.0
  0
ARC
  8
0
 10
23.80700
 20
6.40000
 30
0.0
 40
0.02195
 50
280.78430
 51
390.06858
  0
ARC
  8
0
 10
23.70100
 20
6.21100
 30
0.0
 40
0.20080
 50
56.78475
 51
99.79215
  0
ARC
  8
0
 10
23.73200
 20
6.13600
 30
0.0
 40
0.28085
 50
103.43995
 51
162.59730
  0
LINE
  8
0
 10
23.464
 20
6.220
 30
0.0
 11
23.757
 21
5.904
 31
0.0
  0
ARC
  8
0
 10
18.43700
 20
24.56400
 30
0.0
 40
1.95956
 50
174.96440
 51
190.88553
  0
ARC
  8
0
 10
16.44000
 20
24.64000
 30
0.0
 40
0.10602
 50
64.88517
 51
123.84006
  0
ARC
  8
0
 10
21.87900
 20
24.66000
 30
0.0
 40
5.49927
 50
179.29139
 51
184.79825
  0
ARC
  8
0
 10
16.46500
 20
24.33500
 30
0.0
 40
0.15026
 50
243.94650
 51
288.79989
  0
ARC
  8
0
 10
-1.64700
 20
22.11800
 30
0.0
 40
7.24046
 50
334.73738
 51
340.49895
  0
ARC
  8
0
 10
4.88100
 20
19.03800
 30
0.0
 40
0.02236
 50
153.43495
 51
333.43495
  0
ARC
  8
0
 10
4.62200
 20
19.04800
 30
0.0
 40
0.24026
 50
0.00000
 51
65.14158
  0
LINE
  8
0
 10
4.723
 20
19.266
 30
0.0
 11
3.743
 21
19.632
 31
0.0
  0
ARC
  8
0
 10
3.66900
 20
19.50800
 30
0.0
 40
0.14484
 50
59.17234
 51
112.31559
  0
ARC
  8
0
 10
2.68200
 20
20.62700
 30
0.0
 40
1.35649
 50
304.79132
 51
313.41633
  0
ARC
  8
0
 10
3.44100
 20
19.52800
 30
0.0
 40
0.02121
 50
135.00000
 51
315.00000
  0
LINE
  8
0
 10
3.426
 20
19.543
 30
0.0
 11
3.763
 21
20.444
 31
0.0
  0
ARC
  8
0
 10
4.17700
 20
20.26800
 30
0.0
 40
0.45082
 50
305.06490
 51
516.96865
  0
ARC
  8
0
 10
4.09200
 20
20.05500
 30
0.0
 40
0.37800
 50
335.60626
 51
527.47119
  0
ARC
  8
0
 10
4.05500
 20
20.11200
 30
0.0
 40
0.33293
 50
175.69369
 51
194.62087
  0
LINE
  8
0
 10
3.733
 20
20.028
 30
0.0
 11
4.861
 21
19.602
 31
0.0
  0
ARC
  8
0
 10
4.90600
 20
19.88400
 30
0.0
 40
0.28556
 50
260.93350
 51
298.00163
  0
ARC
  8
0
 10
4.93800
 20
19.75700
 30
0.0
 40
0.16133
 50
309.21445
 51
361.42320
  0
ARC
  8
0
 10
5.10900
 20
19.69100
 30
0.0
 40
0.07071
 50
8.24632
 51
98.13010
  0
ARC
  8
0
 10
9.16300
 20
11.37600
 30
0.0
 40
0.31334
 50
170.44750
 51
294.92847
  0
ARC
  8
0
 10
10.17300
 20
12.70400
 30
0.0
 40
1.83560
 50
224.05068
 51
241.42442
  0
ARC
  8
0
 10
10.75900
 20
9.48000
 30
0.0
 40
0.68647
 50
169.50852
 51
236.88866
  0
ARC
  8
0
 10
10.33000
 20
9.29600
 30
0.0
 40
0.39496
 50
128.52388
 51
277.86323
  0
LINE
  8
0
 10
20.052
 20
3.504
 30
0.0
 11
19.730
 21
4.300
 31
0.0
  0
ARC
  8
0
 10
19.65100
 20
4.26400
 30
0.0
 40
0.08827
 50
24.49857
 51
94.54804
  0
ARC
  8
0
 10
19.55000
 20
5.03500
 30
0.0
 40
0.68999
 50
266.92611
 51
277.83628
  0
ARC
  8
0
 10
19.54900
 20
4.35200
 30
0.0
 40
0.03649
 50
116.56505
 51
189.46232
  0
ARC
  8
0
 10
18.94000
 20
6.50400
 30
0.0
 40
2.20137
 50
285.62721
 51
295.97139
  0
LINE
  8
0
 10
19.904
 20
4.525
 30
0.0
 11
20.277
 21
3.646
 31
0.0
  0
ARC
  8
0
 10
20.40700
 20
3.72700
 30
0.0
 40
0.15373
 50
211.92608
 51
261.39552
  0
ARC
  8
0
 10
20.41500
 20
4.52300
 30
0.0
 40
0.94888
 50
268.12707
 51
274.47280
  0
ARC
  8
0
 10
20.47500
 20
3.55600
 30
0.0
 40
0.02529
 50
341.56505
 51
416.30993
  0
LINE
  8
0
 10
20.499
 20
3.548
 30
0.0
 11
19.987
 21
3.345
 31
0.0
  0
LINE
  8
0
 10
19.987
 20
3.345
 30
0.0
 11
19.981
 21
3.364
 31
0.0
  0
ARC
  8
0
 10
19.83200
 20
3.52800
 30
0.0
 40
0.22157
 50
312.25629
 51
353.77417
  0
LINE
  8
0
 10
26.605
 20
9.756
 30
0.0
 11
26.841
 21
10.254
 31
0.0
  0
ARC
  8
0
 10
26.81800
 20
10.24300
 30
0.0
 40
0.02549
 50
25.55997
 51
99.09028
  0
LINE
  8
0
 10
26.814
 20
10.268
 30
0.0
 11
26.739
 21
10.193
 31
0.0
  0
ARC
  8
0
 10
26.65200
 20
10.32600
 30
0.0
 40
0.15892
 50
255.69972
 51
303.19012
  0
LINE
  8
0
 10
26.613
 20
10.173
 30
0.0
 11
25.739
 21
10.563
 31
0.0
  0
ARC
  8
0
 10
23.68500
 20
11.35200
 30
0.0
 40
2.20089
 50
328.62103
 51
338.98679
  0
ARC
  8
0
 10
25.59800
 20
10.19400
 30
0.0
 40
0.03640
 50
160.55997
 51
232.81529
  0
ARC
  8
0
 10
25.13300
 20
10.69500
 30
0.0
 40
0.69079
 50
309.89053
 51
320.75728
  0
ARC
  8
0
 10
25.74000
 20
10.15900
 30
0.0
 40
0.12278
 50
77.77488
 51
126.02737
  0
LINE
  8
0
 10
25.766
 20
10.279
 30
0.0
 11
26.544
 21
9.917
 31
0.0
  0
ARC
  8
0
 10
26.36700
 20
9.78400
 30
0.0
 40
0.22173
 50
355.34365
 51
396.92166
  0
LINE
  8
0
 10
26.588
 20
9.766
 30
0.0
 11
26.603
 21
9.756
 31
0.0
  0
ARC
  8
0
 10
22.91300
 20
17.70400
 30
0.0
 40
0.34635
 50
294.56717
 51
351.19090
  0
ARC
  8
0
 10
22.85900
 20
17.66100
 30
0.0
 40
0.39612
 50
358.55344
 51
414.66419
  0
ARC
  8
0
 10
23.38200
 20
17.31000
 30
0.0
 40
0.73533
 50
113.56692
 51
149.66496
  0
ARC
  8
0
 10
22.86900
 20
17.71100
 30
0.0
 40
0.12467
 50
193.92477
 51
275.98495
  0
ARC
  8
0
 10
23.40400
 20
17.31000
 30
0.0
 40
0.59123
 50
116.95511
 51
152.04728
  0
ARC
  8
0
 10
23.03000
 20
17.75900
 30
0.0
 40
0.13160
 50
316.84761
 51
396.34746
  0
ARC
  8
0
 10
23.54400
 20
17.16700
 30
0.0
 40
0.65324
 50
129.78311
 51
150.72358
  0
ARC
  8
0
 10
23.05500
 20
17.47000
 30
0.0
 40
0.08158
 50
168.69007
 51
271.41442
  0
ARC
  8
0
 10
18.22900
 20
20.85100
 30
0.0
 40
1.65091
 50
173.11174
 51
181.90915
  0
ARC
  8
0
 10
16.83200
 20
20.73000
 30
0.0
 40
0.40040
 50
127.18471
 51
159.07550
  0
ARC
  8
0
 10
16.02400
 20
20.61400
 30
0.0
 40
0.50540
 50
14.55885
 51
30.82766
  0
ARC
  8
0
 10
16.40900
 20
20.93300
 30
0.0
 40
0.21835
 50
298.44293
 51
321.13527
  0
ARC
  8
0
 10
16.60800
 20
19.68200
 30
0.0
 40
0.37733
 50
140.69991
 51
172.83728
  0
ARC
  8
0
 10
15.51200
 20
19.48200
 30
0.0
 40
0.91643
 50
20.57068
 51
28.63542
  0
ARC
  8
0
 10
15.90700
 20
19.74200
 30
0.0
 40
0.46795
 50
338.03944
 51
367.62706
  0
ARC
  8
0
 10
16.65000
 20
19.88700
 30
0.0
 40
0.44499
 50
200.79716
 51
226.00189
  0
ARC
  8
0
 10
15.69900
 20
19.55600
 30
0.0
 40
0.21100
 50
293.16294
 51
384.98404
  0
ARC
  8
0
 10
16.07700
 20
19.41400
 30
0.0
 40
0.29954
 50
128.99099
 51
189.99690
  0
ARC
  8
0
 10
14.00000
 20
19.81200
 30
0.0
 40
0.31719
 50
357.28230
 51
398.85728
  0
ARC
  8
0
 10
14.41800
 20
19.77200
 30
0.0
 40
0.29476
 50
125.58301
 51
168.65195
  0
ARC
  8
0
 10
14.66800
 20
19.91800
 30
0.0
 40
0.54613
 50
189.27260
 51
207.59730
  0
ARC
  8
0
 10
14.05800
 20
19.92300
 30
0.0
 40
0.28712
 50
296.02959
 51
333.97041
  0
ARC
  8
0
 10
15.52700
 20
19.95800
 30
0.0
 40
0.89047
 50
194.50446
 51
209.24209
  0
LINE
  8
0
 10
14.665
 20
19.735
 30
0.0
 11
14.633
 21
19.767
 31
0.0
  0
ARC
  8
0
 10
14.71400
 20
19.57800
 30
0.0
 40
0.20568
 50
113.19859
 51
141.51421
  0
ARC
  8
0
 10
14.81100
 20
19.66400
 30
0.0
 40
0.26139
 50
170.75389
 51
209.52599
  0
ARC
  8
0
 10
15.29200
 20
19.89800
 30
0.0
 40
0.79501
 50
207.11347
 51
217.23024
  0
ARC
  8
0
 10
14.31500
 20
19.79900
 30
0.0
 40
0.51517
 50
312.00378
 51
327.60558
  0
LINE
  8
0
 10
6.393
 20
21.845
 30
0.0
 11
6.898
 21
22.419
 31
0.0
  0
ARC
  8
0
 10
6.86300
 20
22.41400
 30
0.0
 40
0.03535
 50
8.13010
 51
81.86990
  0
ARC
  8
0
 10
6.18000
 20
23.57300
 30
0.0
 40
1.31784
 50
295.10622
 51
301.47079
  0
ARC
  8
0
 10
6.67200
 20
22.58300
 30
0.0
 40
0.21403
 50
238.76079
 51
288.26544
  0
LINE
  8
0
 10
6.561
 20
22.400
 30
0.0
 11
5.545
 21
23.255
 31
0.0
  0
ARC
  8
0
 10
3.10500
 20
25.09400
 30
0.0
 40
3.05661
 50
312.62675
 51
322.99509
  0
ARC
  8
0
 10
5.21500
 20
22.81500
 30
0.0
 40
0.04999
 50
143.13010
 51
215.94211
  0
ARC
  8
0
 10
4.78700
 20
23.66200
 30
0.0
 40
0.95842
 50
293.88962
 51
304.80102
  0
ARC
  8
0
 10
5.39200
 20
22.71500
 30
0.0
 40
0.17018
 50
61.92751
 51
109.92558
  0
LINE
  8
0
 10
5.472
 20
22.865
 30
0.0
 11
6.373
 21
22.083
 31
0.0
  0
ARC
  8
0
 10
6.08600
 20
21.97400
 30
0.0
 40
0.30700
 50
339.20368
 51
380.79632
  0
LINE
  8
0
 10
6.373
 20
21.865
 30
0.0
 11
6.390
 21
21.846
 31
0.0
  0
LINE
  8
0
 10
7.083
 20
11.935
 30
0.0
 11
6.973
 21
12.142
 31
0.0
  0
ARC
  8
0
 10
6.17900
 20
12.36000
 30
0.0
 40
0.82416
 50
344.64723
 51
376.05999
  0
ARC
  8
0
 10
6.44900
 20
13.02600
 30
0.0
 40
0.68141
 50
320.00064
 51
366.83275
  0
ARC
  8
0
 10
6.55600
 20
13.58200
 30
0.0
 40
0.74430
 50
320.14494
 51
351.96788
  0
ARC
  8
0
 10
6.83500
 20
14.44100
 30
0.0
 40
1.06838
 50
295.43562
 51
318.56687
  0
LINE
  8
0
 10
7.636
 20
13.734
 30
0.0
 11
7.490
 21
13.254
 31
0.0
  0
LINE
  8
0
 10
7.490
 20
13.254
 30
0.0
 11
7.343
 21
12.683
 31
0.0
  0
LINE
  8
0
 10
7.343
 20
12.683
 30
0.0
 11
7.339
 21
12.662
 31
0.0
  0
LINE
  8
0
 10
7.339
 20
12.662
 30
0.0
 11
7.302
 21
12.376
 31
0.0
  0
LINE
  8
0
 10
7.302
 20
12.376
 30
0.0
 11
7.284
 21
12.043
 31
0.0
  0
LINE
  8
0
 10
7.284
 20
12.043
 30
0.0
 11
7.085
 21
11.935
 31
0.0
  0
ARC
  8
0
 10
18.32800
 20
10.15000
 30
0.0
 40
6.85899
 50
296.28113
 51
300.76033
  0
ARC
  8
0
 10
21.80800
 20
4.26100
 30
0.0
 40
0.02844
 50
349.87533
 51
441.86990
  0
ARC
  8
0
 10
21.64800
 20
4.72000
 30
0.0
 40
0.46114
 50
278.99202
 51
290.83234
  0
ARC
  8
0
 10
21.70400
 20
4.40300
 30
0.0
 40
0.13892
 50
231.72688
 51
276.61346
  0
ARC
  8
0
 10
30.46800
 20
9.97600
 30
0.0
 40
10.51721
 50
207.51039
 51
212.70184
  0
ARC
  8
0
 10
21.23700
 20
5.13500
 30
0.0
 40
0.09873
 50
123.85101
 51
189.94057
  0
ARC
  8
0
 10
21.17400
 20
5.23200
 30
0.0
 40
0.01700
 50
298.07249
 51
450.00000
  0
ARC
  8
0
 10
28.08600
 20
-7.31300
 30
0.0
 40
14.33810
 50
118.82095
 51
120.71293
  0
LINE
  8
0
 10
20.763
 20
5.014
 30
0.0
 11
20.771
 21
4.999
 31
0.0
  0
ARC
  8
0
 10
20.75500
 20
4.58200
 30
0.0
 40
0.41746
 50
67.61240
 51
87.80268
  0
ARC
  8
0
 10
20.88200
 20
4.88800
 30
0.0
 40
0.08616
 50
23.28606
 51
68.19859
  0
ARC
  8
0
 10
-14.81600
 20
-16.41200
 30
0.0
 40
41.65529
 50
29.62802
 51
30.80783
  0
ARC
  8
0
 10
21.21800
 20
4.13400
 30
0.0
 40
0.18120
 50
319.50219
 51
375.03326
  0
ARC
  8
0
 10
21.36300
 20
4.01000
 30
0.0
 40
0.01063
 50
138.81407
 51
281.30993
  0
ARC
  8
0
 10
23.70200
 20
17.56300
 30
0.0
 40
0.34894
 50
331.96615
 51
406.16439
  0
ARC
  8
0
 10
23.42300
 20
17.72500
 30
0.0
 40
0.67161
 50
294.73343
 51
330.95368
  0
ARC
  8
0
 10
23.76800
 20
17.18000
 30
0.0
 40
0.09121
 50
152.30053
 51
225.44414
  0
ARC
  8
0
 10
22.86600
 20
18.34700
 30
0.0
 40
1.39330
 50
306.15435
 51
314.70916
  0
ARC
  8
0
 10
23.60500
 20
17.53100
 30
0.0
 40
0.29732
 50
324.17103
 51
371.83903
  0
ARC
  8
0
 10
23.28900
 20
18.08300
 30
0.0
 40
0.78125
 50
298.43487
 51
321.03074
  0
ARC
  8
0
 10
23.65500
 20
17.44400
 30
0.0
 40
0.04838
 50
161.93953
 51
277.12502
  0
ARC
  8
0
 10
21.58400
 20
19.69700
 30
0.0
 40
3.01837
 50
312.13961
 51
321.40245
  0
ARC
  8
0
 10
15.71900
 20
20.30300
 30
0.0
 40
0.55712
 50
328.59484
 51
361.23419
  0
ARC
  8
0
 10
15.99000
 20
19.88100
 30
0.0
 40
0.24298
 50
32.90524
 51
62.27442
  0
ARC
  8
0
 10
16.05300
 20
20.01700
 30
0.0
 40
0.09402
 50
57.66981
 51
119.29136
  0
ARC
  8
0
 10
16.67500
 20
19.31700
 30
0.0
 40
1.02846
 50
130.50461
 51
140.84395
  0
ARC
  8
0
 10
17.08900
 20
19.82500
 30
0.0
 40
1.22121
 50
155.47062
 51
173.35880
  0
ARC
  8
0
 10
16.16400
 20
20.23800
 30
0.0
 40
0.20840
 50
24.71744
 51
153.18905
  0
ARC
  8
0
 10
16.29100
 20
20.51900
 30
0.0
 40
0.20455
 50
265.79464
 51
287.72324
  0
LINE
  8
0
 10
16.007
 20
24.734
 30
0.0
 11
16.007
 21
24.459
 31
0.0
  0
LINE
  8
0
 10
16.007
 20
24.459
 30
0.0
 11
16.007
 21
24.184
 31
0.0
  0
LINE
  8
0
 10
16.007
 20
24.184
 30
0.0
 11
16.079
 21
24.184
 31
0.0
  0
LINE
  8
0
 10
16.079
 20
24.184
 30
0.0
 11
16.151
 21
24.184
 31
0.0
  0
LINE
  8
0
 10
16.151
 20
24.184
 30
0.0
 11
16.151
 21
24.459
 31
0.0
  0
LINE
  8
0
 10
16.151
 20
24.459
 30
0.0
 11
16.151
 21
24.734
 31
0.0
  0
LINE
  8
0
 10
16.151
 20
24.734
 30
0.0
 11
16.079
 21
24.734
 31
0.0
  0
LINE
  8
0
 10
16.079
 20
24.734
 30
0.0
 11
16.007
 21
24.734
 31
0.0
  0
ARC
  8
0
 10
8.18300
 20
8.37700
 30
0.0
 40
0.66063
 50
59.31893
 51
121.38023
  0
ARC
  8
0
 10
-27.55000
 20
-44.77900
 30
0.0
 40
64.70957
 50
54.25060
 51
56.12280
  0
ARC
  8
0
 10
12.26000
 20
10.94600
 30
0.0
 40
3.78249
 50
238.00746
 51
270.12120
  0
ARC
  8
0
 10
11.98000
 20
7.45100
 30
0.0
 40
0.40658
 50
261.92977
 51
315.09964
  0
ARC
  8
0
 10
12.00100
 20
10.25500
 30
0.0
 40
3.20738
 50
228.79223
 51
268.60630
  0
ARC
  8
0
 10
94.82800
 20
133.99600
 30
0.0
 40
152.08430
 50
235.43983
 51
236.04746
  0
ARC
  8
0
 10
7.95100
 20
7.92500
 30
0.0
 40
1.02246
 50
53.79135
 51
96.17921
  0
ARC
  8
0
 10
12.78900
 20
21.98500
 30
0.0
 40
1.08651
 50
288.51835
 51
328.35795
  0
ARC
  8
0
 10
13.11200
 20
21.91500
 30
0.0
 40
0.96025
 50
271.31280
 51
323.55999
  0
ARC
  8
0
 10
14.38700
 20
22.80800
 30
0.0
 40
1.54705
 50
244.21342
 51
251.02631
  0
ARC
  8
0
 10
18.15500
 20
21.16200
 30
0.0
 40
0.90752
 50
206.64977
 51
268.04247
  0
ARC
  8
0
 10
19.18700
 20
22.00200
 30
0.0
 40
2.04498
 50
216.49377
 51
238.68067
  0
ARC
  8
0
 10
17.29100
 20
21.79000
 30
0.0
 40
1.03635
 50
272.93143
 51
284.27817
  0
ARC
  8
0
 10
24.31400
 20
15.22100
 30
0.0
 40
3.03707
 50
183.62458
 51
197.00285
  0
ARC
  8
0
 10
21.51900
 20
14.42700
 30
0.0
 40
0.14408
 50
220.77400
 51
271.98864
  0
ARC
  8
0
 10
23.02300
 20
14.80600
 30
0.0
 40
1.58809
 50
180.61334
 51
199.23384
  0
ARC
  8
0
 10
21.42400
 20
14.60900
 30
0.0
 40
0.18033
 50
12.87500
 51
86.50294
  0
ARC
  8
0
 10
22.66400
 20
14.83500
 30
0.0
 40
1.08112
 50
189.90667
 51
205.42687
  0
ARC
  8
0
 10
21.63700
 20
14.59900
 30
0.0
 40
0.23363
 50
282.60861
 51
347.39139
  0
ARC
  8
0
 10
20.89300
 20
14.28600
 30
0.0
 40
1.00696
 50
15.08540
 51
44.43672
  0
ARC
  8
0
 10
21.42300
 20
14.79400
 30
0.0
 40
0.27354
 50
46.18731
 51
120.78415
  0
ARC
  8
0
 10
13.78000
 20
24.59500
 30
0.0
 40
0.37811
 50
57.86604
 51
80.56259
  0
LINE
  8
0
 10
13.842
 20
24.968
 30
0.0
 11
13.841
 21
24.850
 31
0.0
  0
ARC
  8
0
 10
13.84800
 20
24.79400
 30
0.0
 40
0.05643
 50
5.10217
 51
97.12502
  0
ARC
  8
0
 10
13.85400
 20
24.81700
 30
0.0
 40
0.05412
 50
253.90918
 51
340.20112
  0
LINE
  8
0
 10
13.839
 20
24.765
 30
0.0
 11
13.827
 21
24.640
 31
0.0
  0
ARC
  8
0
 10
13.82700
 20
24.85600
 30
0.0
 40
0.21600
 50
270.00000
 51
305.90972
  0
ARC
  8
0
 10
13.83400
 20
24.81500
 30
0.0
 40
0.17846
 50
311.82017
 51
394.22636
  0
ARC
  8
0
 10
9.61600
 20
11.81700
 30
0.0
 40
0.65466
 50
293.98027
 51
340.73474
  0
ARC
  8
0
 10
9.98700
 20
11.16500
 30
0.0
 40
0.11835
 50
152.78389
 51
256.31598
  0
ARC
  8
0
 10
9.80200
 20
11.67100
 30
0.0
 40
0.64053
 50
284.18811
 51
371.62590
  0
ARC
  8
0
 10
12.35300
 20
5.97200
 30
0.0
 40
6.13737
 50
108.26963
 51
114.01747
  0
ARC
  8
0
 10
9.95700
 20
11.44100
 30
0.0
 40
0.17120
 50
126.66863
 51
217.40536
  0
ARC
  8
0
 10
2.59200
 20
23.10800
 30
0.0
 40
13.81357
 50
301.55560
 51
303.58883
  0
ARC
  8
0
 10
23.13500
 20
15.18200
 30
0.0
 40
0.34746
 50
272.96945
 51
375.87740
  0
ARC
  8
0
 10
23.26200
 20
15.35900
 30
0.0
 40
0.53580
 50
207.33022
 51
258.24918
  0
ARC
  8
0
 10
23.05800
 20
15.64100
 30
0.0
 40
0.59430
 50
242.74467
 51
294.45193
  0
ARC
  8
0
 10
22.89000
 20
14.77600
 30
0.0
 40
0.52600
 50
38.04704
 51
90.32678
  0
ARC
  8
0
 10
23.09200
 20
14.92800
 30
0.0
 40
0.42669
 50
74.92154
 51
118.72840
  0
ARC
  8
0
 10
24.53700
 20
20.35400
 30
0.0
 40
5.18842
 50
255.10130
 51
258.12044
  0
ARC
  8
0
 10
12.47100
 20
20.90700
 30
0.0
 40
0.68250
 50
266.30321
 51
346.26917
  0
ARC
  8
0
 10
11.36200
 20
21.96900
 30
0.0
 40
2.04261
 50
301.42558
 51
323.52292
  0
ARC
  8
0
 10
13.06100
 20
20.64900
 30
0.0
 40
0.12060
 50
52.75004
 51
118.26851
  0
ARC
  8
0
 10
18.33700
 20
22.54700
 30
0.0
 40
1.45507
 50
224.80502
 51
252.27483
  0
ARC
  8
0
 10
17.72400
 20
21.96500
 30
0.0
 40
0.82240
 50
216.74449
 51
281.93893
  0
ARC
  8
0
 10
12.35500
 20
45.15500
 30
0.0
 40
24.14701
 50
281.24850
 51
281.83159
  0
ARC
  8
0
 10
18.46800
 20
16.69400
 30
0.0
 40
1.17933
 50
325.85179
 51
362.23622
  0
ARC
  8
0
 10
19.58900
 20
16.01700
 30
0.0
 40
0.14577
 50
174.09386
 51
222.77604
  0
ARC
  8
0
 10
0.76000
 20
28.26700
 30
0.0
 40
22.42790
 50
326.59122
 51
328.08723
  0
ARC
  8
0
 10
19.05200
 20
16.26000
 30
0.0
 40
0.76169
 50
355.18014
 51
371.44280
  0
ARC
  8
0
 10
16.75100
 20
17.50500
 30
0.0
 40
3.32825
 50
330.02238
 51
336.83984
  0
ARC
  8
0
 10
19.81700
 20
15.75400
 30
0.0
 40
0.20402
 50
154.31829
 51
233.97263
  0
ARC
  8
0
 10
17.06500
 20
17.26900
 30
0.0
 40
3.12247
 50
327.45000
 51
339.41174
  0
ARC
  8
0
 10
19.54900
 20
16.29500
 30
0.0
 40
0.45617
 50
344.22713
 51
437.70316
  0
ARC
  8
0
 10
9.63800
 20
12.67100
 30
0.0
 40
0.88524
 50
274.08101
 51
336.68229
  0
ARC
  8
0
 10
9.72100
 20
11.82700
 30
0.0
 40
0.04382
 50
100.78430
 51
242.85032
  0
ARC
  8
0
 10
9.59300
 20
12.51900
 30
0.0
 40
0.66098
 50
280.45991
 51
325.54059
  0
ARC
  8
0
 10
9.50200
 20
13.85900
 30
0.0
 40
1.82885
 50
276.24678
 51
290.35797
  0
ARC
  8
0
 10
9.82800
 20
12.06400
 30
0.0
 40
0.12906
 50
100.26514
 51
190.26514
  0
ARC
  8
0
 10
9.37200
 20
15.99900
 30
0.0
 40
3.83272
 50
276.48712
 51
286.33555
  0
ARC
  8
0
 10
4.91700
 20
7.63900
 30
0.0
 40
3.89328
 50
353.46641
 51
361.94298
  0
ARC
  8
0
 10
9.05300
 20
7.24400
 30
0.0
 40
0.27226
 50
190.15427
 51
249.56717
  0
ARC
  8
0
 10
4.34900
 20
6.72200
 30
0.0
 40
4.61672
 50
3.31545
 51
9.63985
  0
ARC
  8
0
 10
8.65700
 20
7.11600
 30
0.0
 40
0.45021
 50
22.46321
 51
57.33359
  0
ARC
  8
0
 10
-5.68000
 20
4.24800
 30
0.0
 40
15.06305
 50
10.26402
 51
11.64339
  0
ARC
  8
0
 10
9.21000
 20
7.10600
 30
0.0
 40
0.18766
 50
248.65421
 51
299.70701
  0
ARC
  8
0
 10
0.10000
 20
5.73800
 30
0.0
 40
9.28155
 50
7.45962
 51
10.62345
  0
ARC
  8
0
 10
8.81400
 20
7.35100
 30
0.0
 40
0.42004
 50
13.50636
 51
90.81846
  0
ARC
  8
0
 10
19.59800
 20
22.32500
 30
0.0
 40
3.01107
 50
213.18341
 51
226.88405
  0
ARC
  8
0
 10
17.54800
 20
20.71700
 30
0.0
 40
0.59005
 50
190.35700
 51
269.22316
  0
ARC
  8
0
 10
16.84200
 20
20.94700
 30
0.0
 40
0.35884
 50
290.55605
 51
311.15586
  0
ARC
  8
0
 10
12.00200
 20
21.31800
 30
0.0
 40
1.45669
 50
305.75261
 51
334.15617
  0
ARC
  8
0
 10
12.84300
 20
20.72300
 30
0.0
 40
0.58942
 50
270.97598
 51
349.73863
  0
ARC
  8
0
 10
13.55000
 20
20.95300
 30
0.0
 40
0.35851
 50
228.61863
 51
249.23806
  0
ARC
  8
0
 10
14.38700
 20
24.34600
 30
0.0
 40
0.07988
 50
347.70473
 51
415.71312
  0
ARC
  8
0
 10
14.43100
 20
24.41900
 30
0.0
 40
0.09803
 50
251.56505
 51
290.69545
  0
ARC
  8
0
 10
14.06800
 20
23.59500
 30
0.0
 40
0.80286
 50
65.57376
 51
85.27790
  0
ARC
  8
0
 10
0.61500
 20
26.45300
 30
0.0
 40
13.67544
 50
351.34016
 51
353.51730
  0
ARC
  8
0
 10
14.10500
 20
23.27000
 30
0.0
 40
1.64192
 50
75.84511
 51
86.57821
  0
ARC
  8
0
 10
14.44900
 20
24.82800
 30
0.0
 40
0.06580
 50
306.34746
 51
389.31001
  0
ARC
  8
0
 10
14.38400
 20
24.54300
 30
0.0
 40
0.25424
 50
65.85446
 51
116.16157
  0
ARC
  8
0
 10
14.29800
 20
24.73400
 30
0.0
 40
0.04522
 50
125.09582
 51
249.14554
  0
ARC
  8
0
 10
14.45600
 20
25.09700
 30
0.0
 40
0.44109
 50
246.75021
 51
271.16914
  0
ARC
  8
0
 10
14.01000
 20
24.65700
 30
0.0
 40
0.45500
 50
349.99932
 51
359.87408
  0
ARC
  8
0
 10
14.42100
 20
24.19000
 30
0.0
 40
0.38976
 50
84.55270
 51
112.01999
  0
ARC
  8
0
 10
14.32400
 20
24.51000
 30
0.0
 40
0.06389
 50
140.07961
 51
245.85446
  0
ARC
  8
0
 10
14.43700
 20
24.68000
 30
0.0
 40
0.26804
 50
238.63146
 51
268.93117
  0
ARC
  8
0
 10
11.00900
 20
9.28000
 30
0.0
 40
0.34885
 50
350.42967
 51
408.95318
  0
ARC
  8
0
 10
11.89700
 20
8.48200
 30
0.0
 40
1.24951
 50
121.84492
 51
153.57850
  0
ARC
  8
0
 10
10.88000
 20
8.99700
 30
0.0
 40
0.10993
 50
158.10181
 51
232.07892
  0
ARC
  8
0
 10
3.28500
 20
15.99800
 30
0.0
 40
10.33906
 50
316.72835
 51
319.29892
  0
ARC
  8
0
 10
10.60600
 20
9.23000
 30
0.0
 40
0.51765
 50
300.67889
 51
362.87899
  0
ARC
  8
0
 10
10.94200
 20
8.76200
 30
0.0
 40
0.07564
 50
162.28421
 51
294.19321
  0
ARC
  8
0
 10
10.68600
 20
9.29900
 30
0.0
 40
0.67142
 50
295.34211
 51
353.41479
  0
ARC
  8
0
 10
20.86000
 20
23.59600
 30
0.0
 40
6.11452
 50
168.55775
 51
173.44455
  0
ARC
  8
0
 10
14.72200
 20
24.88400
 30
0.0
 40
0.59346
 50
267.97182
 51
276.19093
  0
ARC
  8
0
 10
16.91800
 20
24.31100
 30
0.0
 40
2.21779
 50
166.89114
 51
180.51686
  0
ARC
  8
0
 10
14.79200
 20
24.43200
 30
0.0
 40
0.38438
 50
78.74853
 51
95.08622
  0
ARC
  8
0
 10
15.21500
 20
18.95200
 30
0.0
 40
0.65647
 50
3.84310
 51
17.38529
  0
ARC
  8
0
 10
15.98500
 20
18.90400
 30
0.0
 40
0.28332
 50
120.54757
 51
150.80771
  0
ARC
  8
0
 10
13.78000
 20
18.74500
 30
0.0
 40
1.98039
 50
4.43200
 51
8.62518
  0
ARC
  8
0
 10
15.70000
 20
18.77600
 30
0.0
 40
0.13341
 50
52.01186
 51
66.12472
  0
ARC
  8
0
 10
24.48400
 20
12.19500
 30
0.0
 40
10.97439
 50
141.70466
 51
142.46388
  0
ARC
  8
0
 10
15.82600
 20
19.75000
 30
0.0
 40
1.42916
 50
214.76868
 51
224.14914
  0
ARC
  8
0
 10
15.20200
 20
18.58700
 30
0.0
 40
0.43482
 50
138.16949
 51
157.26863
  0
ARC
  8
0
 10
14.49600
 20
18.82800
 30
0.0
 40
0.38512
 50
7.30954
 51
52.71298
  0
ARC
  8
0
 10
14.16400
 20
19.45800
 30
0.0
 40
0.65130
 50
318.54916
 51
330.16783
  0
ARC
  8
0
 10
15.12700
 20
18.98100
 30
0.0
 40
0.47722
 50
174.46860
 51
185.53140
  0
ARC
  8
0
 10
10.58400
 20
9.93800
 30
0.0
 40
0.42249
 50
349.75591
 51
425.67950
  0
ARC
  8
0
 10
10.40000
 20
10.04500
 30
0.0
 40
0.62699
 50
296.31985
 51
343.09913
  0
ARC
  8
0
 10
10.63200
 20
9.54000
 30
0.0
 40
0.07324
 50
160.82099
 51
308.90414
  0
ARC
  8
0
 10
10.12700
 20
10.05200
 30
0.0
 40
0.65440
 50
311.77896
 51
358.51100
  0
ARC
  8
0
 10
19.00100
 20
2.95200
 30
0.0
 40
10.85101
 50
139.24922
 51
141.53316
  0
ARC
  8
0
 10
10.71100
 20
9.80200
 30
0.0
 40
0.22898
 50
161.64430
 51
205.89365
  0
ARC
  8
0
 10
12.41900
 20
9.04100
 30
0.0
 40
2.09820
 50
142.33817
 51
156.60055
  0
ARC
  8
0
 10
17.76100
 20
22.01900
 30
0.0
 40
1.08719
 50
211.68692
 51
251.49839
  0
ARC
  8
0
 10
17.43800
 20
21.94800
 30
0.0
 40
0.96025
 50
216.44001
 51
268.68720
  0
ARC
  8
0
 10
16.16300
 20
22.84100
 30
0.0
 40
1.54705
 50
288.97369
 51
295.78658
  0
ARC
  8
0
 10
13.47300
 20
21.68100
 30
0.0
 40
0.87742
 50
273.26676
 51
330.19030
  0
ARC
  8
0
 10
12.64600
 20
22.47200
 30
0.0
 40
1.88361
 50
297.74862
 51
321.05971
  0
ARC
  8
0
 10
14.51900
 20
22.20900
 30
0.0
 40
1.00681
 50
246.03173
 51
253.43703
  0
ARC
  8
0
 10
7.24400
 20
8.87700
 30
0.0
 40
0.34089
 50
341.35245
 51
412.39041
  0
ARC
  8
0
 10
6.11000
 20
9.98300
 30
0.0
 40
1.58109
 50
315.58960
 51
328.07912
  0
ARC
  8
0
 10
8.16200
 20
8.21000
 30
0.0
 40
1.13877
 50
144.14649
 51
161.43759
  0
ARC
  8
0
 10
7.29600
 20
8.60500
 30
0.0
 40
0.21459
 50
188.84768
 51
219.32698
  0
ARC
  8
0
 10
8.28200
 20
7.94700
 30
0.0
 40
1.26504
 50
134.58366
 51
155.62353
  0
ARC
  8
0
 10
7.20600
 20
8.77100
 30
0.0
 40
0.20315
 50
324.42949
 51
382.27275
  0
ARC
  8
0
 10
1.66400
 20
11.00300
 30
0.0
 40
6.17208
 50
334.46043
 51
337.61936
  0
ARC
  8
0
 10
7.27700
 20
8.32900
 30
0.0
 40
0.04617
 50
163.53999
 51
287.65012
  0
ARC
  8
0
 10
5.75900
 20
9.48000
 30
0.0
 40
1.94314
 50
322.04484
 51
338.50522
  0
ARC
  8
0
 10
17.08500
 20
20.58000
 30
0.0
 40
0.55608
 50
187.75124
 51
266.80302
  0
ARC
  8
0
 10
17.37200
 20
20.61500
 30
0.0
 40
0.67086
 50
184.27425
 51
241.67609
  0
ARC
  8
0
 10
16.35600
 20
21.28100
 30
0.0
 40
0.79615
 50
282.91910
 51
295.85654
  0
ARC
  8
0
 10
13.22300
 20
20.61000
 30
0.0
 40
0.55608
 50
273.19698
 51
352.24876
  0
ARC
  8
0
 10
12.93600
 20
20.64500
 30
0.0
 40
0.67086
 50
298.32391
 51
355.72575
  0
ARC
  8
0
 10
13.95200
 20
21.31100
 30
0.0
 40
0.79615
 50
244.14346
 51
257.08090
  0
ARC
  8
0
 10
7.50100
 20
8.19200
 30
0.0
 40
0.50000
 50
0.34377
 51
54.11589
  0
ARC
  8
0
 10
9.51000
 20
7.24200
 30
0.0
 40
2.18694
 50
141.70442
 51
157.12822
  0
ARC
  8
0
 10
7.69400
 20
8.03400
 30
0.0
 40
0.20728
 50
163.75085
 51
231.08074
  0
ARC
  8
0
 10
12.38900
 20
6.26200
 30
0.0
 40
5.08684
 50
155.83851
 51
161.53656
  0
ARC
  8
0
 10
7.57000
 20
8.18900
 30
0.0
 40
0.23661
 50
355.87988
 51
401.04891
  0
ARC
  8
0
 10
6.49800
 20
8.39500
 30
0.0
 40
1.32687
 50
335.21279
 51
350.32471
  0
ARC
  8
0
 10
7.81700
 20
7.82800
 30
0.0
 40
0.11600
 50
174.53616
 51
270.00000
  0
ARC
  8
0
 10
5.81600
 20
8.75100
 30
0.0
 40
2.25466
 50
332.55984
 51
345.72338
  0
ARC
  8
0
 10
21.34100
 20
14.96600
 30
0.0
 40
0.64007
 50
61.03234
 51
116.44493
  0
ARC
  8
0
 10
22.03300
 20
15.17100
 30
0.0
 40
0.52161
 50
77.37588
 51
137.09809
  0
LINE
  8
0
 10
22.147
 20
15.680
 30
0.0
 11
21.633
 21
16.475
 31
0.0
  0
LINE
  8
0
 10
21.633
 20
16.475
 30
0.0
 11
21.601
 21
16.524
 31
0.0
  0
LINE
  8
0
 10
21.601
 20
16.524
 30
0.0
 11
20.875
 21
17.548
 31
0.0
  0
LINE
  8
0
 10
20.875
 20
17.548
 30
0.0
 11
20.738
 21
17.724
 31
0.0
  0
LINE
  8
0
 10
20.738
 20
17.724
 30
0.0
 11
20.580
 21
17.932
 31
0.0
  0
ARC
  8
0
 10
20.34500
 20
17.42500
 30
0.0
 40
0.55881
 50
65.13177
 51
169.77783
  0
LINE
  8
0
 10
19.796
 20
17.524
 30
0.0
 11
20.182
 21
16.876
 31
0.0
  0
LINE
  8
0
 10
20.182
 20
16.876
 30
0.0
 11
21.049
 21
15.543
 31
0.0
  0
ARC
  8
0
 10
7.27100
 20
10.07300
 30
0.0
 40
1.11738
 50
172.18172
 51
212.97871
  0
ARC
  8
0
 10
6.93600
 20
9.01000
 30
0.0
 40
0.43486
 50
166.02767
 51
242.31511
  0
ARC
  8
0
 10
7.15800
 20
8.28100
 30
0.0
 40
0.27646
 50
172.92646
 51
273.31778
  0
ARC
  8
0
 10
7.66800
 20
7.75000
 30
0.0
 40
0.30885
 50
184.27065
 51
278.57669
  0
ARC
  8
0
 10
8.42000
 20
7.33400
 30
0.0
 40
0.45663
 50
198.51431
 51
282.78757
  0
ARC
  8
0
 10
9.31900
 20
7.30200
 30
0.0
 40
0.75269
 50
228.87852
 51
285.01477
  0
ARC
  8
0
 10
19.68500
 20
17.75100
 30
0.0
 40
0.52661
 50
177.16481
 51
218.52388
  0
ARC
  8
0
 10
19.31400
 20
18.13300
 30
0.0
 40
0.38788
 50
148.85839
 51
246.60745
  0
ARC
  8
0
 10
21.75800
 20
19.86300
 30
0.0
 40
3.16883
 50
199.50422
 51
208.87020
  0
ARC
  8
0
 10
19.62900
 20
18.56900
 30
0.0
 40
0.89296
 50
83.95741
 51
164.62064
  0
ARC
  8
0
 10
18.57100
 20
17.80400
 30
0.0
 40
2.01527
 50
35.63022
 51
55.12679
  0
ARC
  8
0
 10
20.19800
 20
18.61300
 30
0.0
 40
0.36516
 50
1.72620
 51
88.27380
  0
ARC
  8
0
 10
19.84600
 20
17.66600
 30
0.0
 40
1.19662
 50
30.31503
 51
53.18756
  0
ARC
  8
0
 10
20.98000
 20
18.18800
 30
0.0
 40
0.13009
 50
140.92750
 51
194.25003
  0
ARC
  8
0
 10
55.48600
 20
43.52600
 30
0.0
 40
42.93031
 50
216.22499
 51
217.81646
  0
ARC
  8
0
 10
23.12600
 20
17.62800
 30
0.0
 40
1.61080
 50
160.90134
 51
195.26136
  0
ARC
  8
0
 10
22.05500
 20
18.56500
 30
0.0
 40
0.61018
 50
100.48122
 51
222.27369
  0
ARC
  8
0
 10
22.29800
 20
18.92700
 30
0.0
 40
0.42656
 50
65.60056
 51
146.08641
  0
ARC
  8
0
 10
22.69500
 20
19.04900
 30
0.0
 40
0.34620
 50
52.86531
 51
129.72072
  0
ARC
  8
0
 10
23.35100
 20
17.63100
 30
0.0
 40
1.75198
 50
39.25257
 51
104.78185
  0
ARC
  8
0
 10
15.33100
 20
14.99200
 30
0.0
 40
10.09719
 50
21.78350
 51
34.53366
  0
ARC
  8
0
 10
22.67900
 20
22.06200
 30
0.0
 40
1.65910
 50
274.73782
 51
305.77855
  0
ARC
  8
0
 10
22.17800
 20
20.96100
 30
0.0
 40
0.84365
 50
263.87001
 51
319.13352
  0
ARC
  8
0
 10
21.70900
 20
20.51700
 30
0.0
 40
0.54669
 50
250.53669
 51
313.88832
  0
ARC
  8
0
 10
21.06500
 20
20.59200
 30
0.0
 40
0.74936
 50
254.66433
 51
308.06275
  0
ARC
  8
0
 10
21.98400
 20
27.05400
 30
0.0
 40
7.27031
 50
252.42736
 51
261.16217
  0
ARC
  8
0
 10
19.67800
 20
19.70300
 30
0.0
 40
0.43442
 50
75.19602
 51
116.97809
  0
ARC
  8
0
 10
19.34000
 20
20.52100
 30
0.0
 40
0.45347
 50
257.12852
 51
288.11531
  0
ARC
  8
0
 10
18.41900
 20
18.44500
 30
0.0
 40
1.82821
 50
63.35086
 51
73.73603
  0
ARC
  8
0
 10
18.88700
 20
19.94900
 30
0.0
 40
0.25484
 50
80.05714
 51
121.19510
  0
ARC
  8
0
 10
18.48200
 20
20.68700
 30
0.0
 40
0.58730
 50
266.58196
 51
297.69947
  0
ARC
  8
0
 10
18.02500
 20
20.76600
 30
0.0
 40
0.78759
 50
259.83184
 51
302.39866
  0
ARC
  8
0
 10
17.61100
 20
20.45700
 30
0.0
 40
0.54113
 50
259.45840
 51
300.54608
  0
ARC
  8
0
 10
17.20900
 20
20.46300
 30
0.0
 40
0.61745
 50
265.44459
 51
299.38808
  0
ARC
  8
0
 10
16.90200
 20
20.15300
 30
0.0
 40
0.39950
 50
256.83339
 51
310.22794
  0
ARC
  8
0
 10
16.37100
 20
20.08800
 30
0.0
 40
0.54642
 50
295.25137
 51
323.63342
  0
ARC
  8
0
 10
15.20700
 20
18.92000
 30
0.0
 40
1.55150
 50
17.82768
 51
25.75556
  0
ARC
  8
0
 10
14.99800
 20
16.92900
 30
0.0
 40
2.98729
 50
32.97723
 51
55.63965
  0
ARC
  8
0
 10
17.02600
 20
18.23000
 30
0.0
 40
0.57802
 50
336.00731
 51
394.21242
  0
ARC
  8
0
 10
17.21300
 20
18.22200
 30
0.0
 40
0.40993
 50
263.13502
 51
326.34872
  0
ARC
  8
0
 10
17.64500
 20
18.37300
 30
0.0
 40
0.73669
 50
229.23843
 51
250.48227
  0
ARC
  8
0
 10
18.00800
 20
17.10200
 30
0.0
 40
0.83893
 50
67.13322
 51
136.54555
  0
ARC
  8
0
 10
18.48600
 20
17.22000
 30
0.0
 40
0.67269
 50
22.82952
 51
103.06487
  0
ARC
  8
0
 10
18.93100
 20
16.69700
 30
0.0
 40
0.80329
 50
64.77608
 51
77.41704
  0
LINE
  8
0
 10
6.294
 20
10.905
 30
0.0
 11
6.212
 21
10.647
 31
0.0
  0
ARC
  8
0
 10
15.49900
 20
15.06600
 30
0.0
 40
10.28484
 50
146.83063
 51
205.44634
  0
ARC
  8
0
 10
7.87000
 20
22.02800
 30
0.0
 40
1.65758
 50
233.71826
 51
265.29377
  0
ARC
  8
0
 10
8.37100
 20
20.92800
 30
0.0
 40
0.84292
 50
220.91096
 51
276.19757
  0
ARC
  8
0
 10
8.84100
 20
20.48400
 30
0.0
 40
0.54669
 50
226.11168
 51
289.46331
  0
ARC
  8
0
 10
9.48400
 20
20.55900
 30
0.0
 40
0.74892
 50
231.99750
 51
285.40945
  0
ARC
  8
0
 10
8.56600
 20
27.02100
 30
0.0
 40
7.27031
 50
278.83783
 51
287.57264
  0
ARC
  8
0
 10
10.87200
 20
19.67000
 30
0.0
 40
0.43442
 50
63.02191
 51
104.80398
  0
ARC
  8
0
 10
11.21000
 20
20.48800
 30
0.0
 40
0.45347
 50
251.88469
 51
282.87148
  0
ARC
  8
0
 10
12.13100
 20
18.41200
 30
0.0
 40
1.82821
 50
106.26397
 51
116.64914
  0
ARC
  8
0
 10
11.66300
 20
19.91600
 30
0.0
 40
0.25484
 50
58.80490
 51
99.94286
  0
ARC
  8
0
 10
12.06800
 20
20.65400
 30
0.0
 40
0.58730
 50
242.30053
 51
273.41804
  0
ARC
  8
0
 10
12.52500
 20
20.73300
 30
0.0
 40
0.78759
 50
237.60134
 51
280.16816
  0
ARC
  8
0
 10
12.93900
 20
20.42300
 30
0.0
 40
0.54023
 50
239.40002
 51
280.56101
  0
ARC
  8
0
 10
13.34000
 20
20.43000
 30
0.0
 40
0.61702
 50
240.69283
 51
274.64797
  0
ARC
  8
0
 10
13.64800
 20
20.12000
 30
0.0
 40
0.39948
 50
229.77206
 51
284.66316
  0
ARC
  8
0
 10
14.14700
 20
20.02600
 30
0.0
 40
0.49381
 50
216.26632
 51
248.99581
  0
ARC
  8
0
 10
14.90400
 20
19.02200
 30
0.0
 40
1.08048
 50
149.82755
 51
164.26584
  0
ARC
  8
0
 10
15.63400
 20
16.51500
 30
0.0
 40
3.31255
 50
122.29874
 51
140.88097
  0
ARC
  8
0
 10
13.41900
 20
18.27900
 30
0.0
 40
0.48210
 50
137.43844
 51
278.34860
  0
ARC
  8
0
 10
15.07400
 20
13.70100
 30
0.0
 40
4.39663
 50
111.13107
 51
139.12304
  0
ARC
  8
0
 10
15.24500
 20
13.41300
 30
0.0
 40
4.71510
 50
137.83666
 51
178.48074
  0
ARC
  8
0
 10
10.36900
 20
13.12300
 30
0.0
 40
0.44697
 50
68.55654
 51
174.60828
  0
ARC
  8
0
 10
10.62800
 20
12.39400
 30
0.0
 40
1.04405
 50
132.39920
 51
180.49392
  0
ARC
  8
0
 10
10.27200
 20
11.85700
 30
0.0
 40
0.86762
 50
142.49586
 51
212.95742
  0
ARC
  8
0
 10
9.79200
 20
12.33300
 30
0.0
 40
0.97990
 50
195.02938
 51
255.33977
  0
ARC
  8
0
 10
7.91100
 20
13.30700
 30
0.0
 40
1.54344
 50
307.28567
 51
361.07742
  0
ARC
  8
0
 10
8.71300
 20
13.63700
 30
0.0
 40
0.79903
 50
337.86563
 51
420.29070
  0
ARC
  8
0
 10
7.79300
 20
11.84900
 30
0.0
 40
2.81108
 50
40.10829
 51
62.06668
  0
ARC
  8
0
 10
16.17400
 20
12.73000
 30
0.0
 40
6.30002
 50
136.38307
 51
171.51106
  0
ARC
  8
0
 10
10.76900
 20
12.94900
 30
0.0
 40
4.21163
 50
78.42594
 51
150.22643
  0
ARC
  8
0
 10
7.76500
 20
10.04400
 30
0.0
 40
5.03833
 50
87.62258
 51
97.42405
  0
ARC
  8
0
 10
8.33900
 20
14.78000
 30
0.0
 40
0.47156
 50
140.77048
 51
182.79566
  0
ARC
  8
0
 10
7.71600
 20
13.60700
 30
0.0
 40
1.16242
 50
82.47064
 51
118.35083
  0
ARC
  8
0
 10
7.11100
 20
14.19700
 30
0.0
 40
0.43623
 50
83.02160
 51
167.14330
  0
ARC
  8
0
 10
6.83100
 20
13.82500
 30
0.0
 40
0.49090
 50
107.17996
 51
185.86198
  0
ARC
  8
0
 10
6.60300
 20
13.29900
 30
0.0
 40
0.54190
 50
118.55139
 51
199.87457
  0
ARC
  8
0
 10
6.68300
 20
12.57400
 30
0.0
 40
0.80002
 50
137.43234
 51
212.59753
  0
ARC
  8
0
 10
6.91000
 20
11.95300
 30
0.0
 40
0.92208
 50
168.09211
 51
224.64850
  0
ARC
  8
0
 10
6.55900
 20
11.13300
 30
0.0
 40
0.35015
 50
150.57985
 51
220.70796
  0
ARC
  8
0
 10
16.39000
 20
22.31300
 30
0.0
 40
0.25091
 50
244.25195
 51
391.27770
  0
ARC
  8
0
 10
17.28700
 20
22.74400
 30
0.0
 40
0.74638
 50
170.57561
 51
203.78322
  0
ARC
  8
0
 10
17.27300
 20
22.67900
 30
0.0
 40
0.74487
 50
121.66293
 51
165.46003
  0
ARC
  8
0
 10
17.23300
 20
22.70000
 30
0.0
 40
0.70655
 50
72.53955
 51
119.79518
  0
ARC
  8
0
 10
15.46900
 20
15.46500
 30
0.0
 40
8.15215
 50
56.30993
 51
75.97228
  0
LINE
  8
0
 10
19.991
 20
22.248
 30
0.0
 11
19.954
 21
22.178
 31
0.0
  0
LINE
  8
0
 10
19.954
 20
22.178
 30
0.0
 11
20.968
 21
21.727
 31
0.0
  0
LINE
  8
0
 10
20.968
 20
21.727
 30
0.0
 11
20.951
 21
21.676
 31
0.0
  0
LINE
  8
0
 10
20.951
 20
21.676
 30
0.0
 11
22.147
 21
21.274
 31
0.0
  0
LINE
  8
0
 10
22.147
 20
21.274
 30
0.0
 11
22.124
 21
21.189
 31
0.0
  0
ARC
  8
0
 10
23.22200
 20
24.47000
 30
0.0
 40
3.45985
 50
251.49697
 51
274.44573
  0
ARC
  8
0
 10
14.90500
 20
14.70300
 30
0.0
 40
10.66042
 50
36.35930
 51
67.79033
  0
ARC
  8
0
 10
15.60100
 20
32.38300
 30
0.0
 40
8.49330
 50
258.06687
 51
293.10558
  0
ARC
  8
0
 10
14.26700
 20
29.14000
 30
0.0
 40
5.08467
 50
256.68528
 51
265.23823
  0
ARC
  8
0
 10
12.95000
 20
23.76100
 30
0.0
 40
0.45505
 50
71.28634
 51
94.29230
  0
ARC
  8
0
 10
12.93600
 20
24.09100
 30
0.0
 40
0.12500
 50
99.23556
 51
156.92178
  0
ARC
  8
0
 10
12.98000
 20
24.08100
 30
0.0
 40
0.17120
 50
159.64166
 51
232.59464
  0
ARC
  8
0
 10
13.08000
 20
24.21600
 30
0.0
 40
0.33920
 50
233.02875
 51
290.95241
  0
ARC
  8
0
 10
13.42700
 20
23.06300
 30
0.0
 40
0.86710
 50
46.21490
 51
105.11021
  0
ARC
  8
0
 10
14.44100
 20
23.02500
 30
0.0
 40
0.78368
 50
109.22104
 51
121.94329
  0
ARC
  8
0
 10
13.84900
 20
27.99500
 30
0.0
 40
4.24356
 50
274.51470
 51
281.38937
  0
ARC
  8
0
 10
14.68400
 20
23.98200
 30
0.0
 40
0.14720
 50
271.16914
 51
306.71420
  0
ARC
  8
0
 10
14.88400
 20
22.59700
 30
0.0
 40
1.27203
 50
46.84761
 51
95.05169
  0
ARC
  8
0
 10
14.90100
 20
22.78200
 30
0.0
 40
1.13136
 50
10.33655
 51
41.05728
  0
ARC
  8
0
 10
21.94900
 20
24.24900
 30
0.0
 40
6.06856
 50
192.02288
 51
200.88093
  0
ARC
  8
0
 10
15.33100
 20
14.99200
 30
0.0
 40
10.09750
 50
237.86830
 51
373.91927
  0
ARC
  8
0
 10
23.36900
 20
17.56100
 30
0.0
 40
1.77013
 50
290.50301
 51
355.45966
  0
ARC
  8
0
 10
23.38000
 20
15.85100
 30
0.0
 40
0.61158
 50
308.89391
 51
364.88041
  0
ARC
  8
0
 10
22.94100
 20
15.27800
 30
0.0
 40
0.82869
 50
305.66632
 51
366.72195
  0
ARC
  8
0
 10
22.93700
 20
14.23300
 30
0.0
 40
0.61282
 50
3.93874
 51
37.37478
  0
ARC
  8
0
 10
23.20700
 20
13.77800
 30
0.0
 40
0.60289
 50
344.51150
 51
415.62379
  0
ARC
  8
0
 10
23.00400
 20
13.29300
 30
0.0
 40
0.84831
 50
3.78710
 51
22.45361
  0
ARC
  8
0
 10
21.88800
 20
14.98400
 30
0.0
 40
2.55484
 50
292.16788
 51
320.19443
  0
ARC
  8
0
 10
35.84700
 20
34.13900
 30
0.0
 40
25.14007
 50
237.72283
 51
238.87521
  0
ARC
  8
0
 10
22.38000
 20
13.22200
 30
0.0
 40
0.34059
 50
187.93959
 51
277.08329
  0
ARC
  8
0
 10
22.25900
 20
13.62100
 30
0.0
 40
0.49677
 50
184.84984
 51
244.15886
  0
ARC
  8
0
 10
45.04900
 20
33.58900
 30
0.0
 40
30.70177
 50
219.35086
 51
220.67417
  0
ARC
  8
0
 10
21.05600
 20
15.20200
 30
0.0
 40
1.10901
 50
212.61401
 51
283.13402
  0
ARC
  8
0
 10
20.26300
 20
15.18700
 30
0.0
 40
0.59872
 50
209.51936
 51
256.47448
  0
ARC
  8
0
 10
15.25800
 20
13.40400
 30
0.0
 40
4.72444
 50
219.63163
 51
378.35825
  0
ARC
  8
0
 10
13.78800
 20
6.81300
 30
0.0
 40
4.18389
 50
121.21272
 51
127.55189
  0
ARC
  8
0
 10
10.94900
 20
9.75500
 30
0.0
 40
0.47344
 50
350.23823
 51
412.37976
  0
ARC
  8
0
 10
11.10200
 20
9.24600
 30
0.0
 40
0.53100
 50
329.81346
 51
413.97263
  0
ARC
  8
0
 10
10.92000
 20
8.37400
 30
0.0
 40
0.88142
 50
330.23090
 51
403.34504
  0
ARC
  8
0
 10
12.61800
 20
10.41400
 30
0.0
 40
2.64724
 50
249.34009
 51
276.48601
  0
LINE
  8
0
 10
12.917
 20
7.784
 30
0.0
 11
12.449
 21
8.989
 31
0.0
  0
ARC
  8
0
 10
17.08100
 20
25.21600
 30
0.0
 40
16.87519
 50
254.06860
 51
260.04257
  0
ARC
  8
0
 10
15.13300
 20
13.86900
 30
0.0
 40
5.36268
 50
259.57856
 51
286.75553
  0
ARC
  8
0
 10
12.52900
 20
10.41100
 30
0.0
 40
4.47602
 50
319.08045
 51
337.99654
  0
ARC
  8
0
 10
10.78500
 20
12.46000
 30
0.0
 40
7.14347
 50
286.76070
 51
315.82243
  0
ARC
  8
0
 10
8.86200
 20
7.38800
 30
0.0
 40
4.35861
 50
336.06421
 51
351.98144
  0
ARC
  8
0
 10
12.13600
 20
12.13700
 30
0.0
 40
5.45759
 50
260.32711
 51
281.00726
  0
ARC
  8
0
 10
10.38100
 20
7.43300
 30
0.0
 40
1.07667
 50
247.06035
 51
321.10749
  0
ARC
  8
0
 10
16.48900
 20
22.17600
 30
0.0
 40
2.45197
 50
158.99269
 51
182.73520
  0
ARC
  8
0
 10
14.46400
 20
22.50900
 30
0.0
 40
0.60749
 50
115.80453
 51
133.99959
  0
ARC
  8
0
 10
14.30300
 20
23.25700
 30
0.0
 40
0.40624
 50
181.97493
 51
229.99567
  0
ARC
  8
0
 10
11.86900
 20
18.30700
 30
0.0
 40
5.33637
 50
67.66425
 51
89.49535
  0
ARC
  8
0
 10
11.98400
 20
24.28600
 30
0.0
 40
0.64710
 50
166.41473
 51
263.96316
  0
ARC
  8
0
 10
15.18500
 20
15.43800
 30
0.0
 40
9.79482
 50
113.05245
 51
145.47762
  0
ARC
  8
0
 10
7.32800
 20
24.43700
 30
0.0
 40
3.45700
 50
266.46505
 51
288.51881
  0
LINE
  8
0
 10
8.426
 20
21.159
 30
0.0
 11
8.403
 21
21.241
 31
0.0
  0
LINE
  8
0
 10
8.403
 20
21.241
 30
0.0
 11
9.599
 21
21.643
 31
0.0
  0
LINE
  8
0
 10
9.599
 20
21.643
 30
0.0
 11
9.582
 21
21.694
 31
0.0
  0
LINE
  8
0
 10
9.582
 20
21.694
 30
0.0
 11
10.596
 21
22.145
 31
0.0
  0
LINE
  8
0
 10
10.596
 20
22.145
 30
0.0
 11
10.565
 21
22.215
 31
0.0
  0
ARC
  8
0
 10
15.08100
 20
15.43200
 30
0.0
 40
8.15210
 50
104.02772
 51
123.65497
  0
ARC
  8
0
 10
13.31700
 20
22.66600
 30
0.0
 40
0.70750
 50
60.24507
 51
107.43615
  0
ARC
  8
0
 10
13.27700
 20
22.64600
 30
0.0
 40
0.74487
 50
14.53997
 51
58.33707
  0
ARC
  8
0
 10
13.26200
 20
22.71100
 30
0.0
 40
0.74604
 50
336.28706
 51
369.41182
  0
ARC
  8
0
 10
14.15900
 20
22.27900
 30
0.0
 40
0.25143
 50
148.33278
 51
241.79251
  0
ARC
  8
0
 10
15.68100
 20
1.52300
 30
0.0
 40
1.50083
 50
241.02697
 51
299.81118
  0
ARC
  8
0
 10
16.97300
 20
1.32400
 30
0.0
 40
1.23096
 50
243.66396
 51
308.60165
  0
ARC
  8
0
 10
18.19400
 20
1.31900
 30
0.0
 40
1.05880
 50
244.66927
 51
322.49086
  0
ARC
  8
0
 10
19.43900
 20
1.72300
 30
0.0
 40
1.12445
 50
248.82340
 51
325.61744
  0
ARC
  8
0
 10
20.58200
 20
2.45000
 30
0.0
 40
1.37886
 50
261.02953
 51
323.02201
  0
ARC
  8
0
 10
21.72500
 20
3.03800
 30
0.0
 40
1.41768
 50
268.30225
 51
329.61847
  0
ARC
  8
0
 10
22.89400
 20
3.44300
 30
0.0
 40
1.12357
 50
272.75542
 51
341.90369
  0
ARC
  8
0
 10
23.90300
 20
4.31100
 30
0.0
 40
1.21842
 50
272.77552
 51
343.33683
  0
ARC
  8
0
 10
24.85400
 20
5.17500
 30
0.0
 40
1.23190
 50
280.05109
 51
348.09696
  0
ARC
  8
0
 10
25.55000
 20
6.36300
 30
0.0
 40
1.52919
 50
289.44211
 51
346.68219
  0
ARC
  8
0
 10
26.50100
 20
7.26600
 30
0.0
 40
1.37054
 50
293.12692
 51
357.28164
  0
ARC
  8
0
 10
27.46500
 20
8.25700
 30
0.0
 40
1.13117
 50
290.98295
 51
365.98780
  0
ARC
  8
0
 10
28.09900
 20
9.33300
 30
0.0
 40
1.08027
 50
297.13632
 51
375.29698
  0
ARC
  8
0
 10
28.45600
 20
10.59100
 30
0.0
 40
1.19418
 50
305.14586
 51
377.64597
  0
ARC
  8
0
 10
28.48800
 20
11.99800
 30
0.0
 40
1.52194
 50
316.62441
 51
373.64363
  0
ARC
  8
0
 10
28.94300
 20
13.23800
 30
0.0
 40
1.35082
 50
319.29289
 51
383.44430
  0
ARC
  8
0
 10
28.98200
 20
14.43200
 30
0.0
 40
1.36593
 50
331.20207
 51
385.55174
  0
ARC
  8
0
 10
28.88800
 20
15.72500
 30
0.0
 40
1.50129
 50
332.03527
 51
389.81118
  0
ARC
  8
0
 10
29.08600
 20
17.01600
 30
0.0
 40
1.23119
 50
333.72632
 51
398.96515
  0
ARC
  8
0
 10
29.09200
 20
18.23800
 30
0.0
 40
1.05705
 50
334.77567
 51
412.53386
  0
ARC
  8
0
 10
28.68700
 20
19.48200
 30
0.0
 40
1.12445
 50
338.87096
 51
415.61744
  0
ARC
  8
0
 10
27.96000
 20
20.62500
 30
0.0
 40
1.37960
 50
351.02953
 51
413.01382
  0
ARC
  8
0
 10
27.37300
 20
21.76900
 30
0.0
 40
1.41762
 50
358.30225
 51
419.63291
  0
ARC
  8
0
 10
26.96800
 20
22.93800
 30
0.0
 40
1.12231
 50
2.70688
 51
71.93636
  0
ARC
  8
0
 10
26.09900
 20
23.94600
 30
0.0
 40
1.21842
 50
2.77552
 51
73.30526
  0
ARC
  8
0
 10
25.23600
 20
24.89700
 30
0.0
 40
1.23225
 50
10.09688
 51
78.15205
  0
ARC
  8
0
 10
24.04800
 20
25.59300
 30
0.0
 40
1.52858
 50
19.48993
 51
76.60055
  0
ARC
  8
0
 10
23.14400
 20
26.54500
 30
0.0
 40
1.36954
 50
23.00041
 51
87.27966
  0
ARC
  8
0
 10
22.15300
 20
27.50800
 30
0.0
 40
1.13106
 50
20.98295
 51
95.93742
  0
ARC
  8
0
 10
21.07700
 20
28.14300
 30
0.0
 40
1.08000
 50
27.06471
 51
105.24581
  0
ARC
  8
0
 10
19.81900
 20
28.49900
 30
0.0
 40
1.19483
 50
35.15750
 51
107.58574
  0
ARC
  8
0
 10
18.41200
 20
28.53200
 30
0.0
 40
1.52228
 50
46.59705
 51
103.68911
  0
ARC
  8
0
 10
17.17300
 20
28.98600
 30
0.0
 40
1.34952
 50
49.35726
 51
113.46638
  0
ARC
  8
0
 10
16.04900
 20
29.18800
 30
0.0
 40
1.18987
 50
60.44027
 51
121.23718
  0
ARC
  8
0
 10
14.70700
 20
28.88900
 30
0.0
 40
1.50083
 50
61.02697
 51
119.81118
  0
ARC
  8
0
 10
13.41500
 20
29.08800
 30
0.0
 40
1.23112
 50
63.66396
 51
128.53625
  0
ARC
  8
0
 10
12.19400
 20
29.09300
 30
0.0
 40
1.06013
 50
64.64354
 51
142.49086
  0
ARC
  8
0
 10
10.94900
 20
28.68900
 30
0.0
 40
1.12445
 50
68.82340
 51
145.61744
  0
ARC
  8
0
 10
9.80600
 20
27.96200
 30
0.0
 40
1.37900
 50
81.02953
 51
143.04700
  0
ARC
  8
0
 10
8.66300
 20
27.37400
 30
0.0
 40
1.41768
 50
88.34265
 51
149.61847
  0
ARC
  8
0
 10
7.49300
 20
26.96900
 30
0.0
 40
1.12325
 50
92.70447
 51
161.88784
  0
ARC
  8
0
 10
6.48500
 20
26.10100
 30
0.0
 40
1.21842
 50
92.77552
 51
163.33683
  0
ARC
  8
0
 10
5.53400
 20
25.23700
 30
0.0
 40
1.23225
 50
100.05109
 51
168.15205
  0
ARC
  8
0
 10
4.83800
 20
24.04900
 30
0.0
 40
1.52858
 50
109.48993
 51
166.18199
  0
ARC
  8
0
 10
3.88700
 20
23.14600
 30
0.0
 40
1.37546
 50
112.79930
 51
177.28164
  0
ARC
  8
0
 10
2.92300
 20
22.15500
 30
0.0
 40
1.13099
 50
110.98295
 51
186.04350
  0
ARC
  8
0
 10
2.28800
 20
21.07900
 30
0.0
 40
1.07930
 50
117.06575
 51
195.31099
  0
ARC
  8
0
 10
1.93200
 20
19.82100
 30
0.0
 40
1.19418
 50
125.14586
 51
197.64597
  0
ARC
  8
0
 10
1.90000
 20
18.41400
 30
0.0
 40
1.52194
 50
136.62441
 51
193.64363
  0
ARC
  8
0
 10
1.44500
 20
17.17400
 30
0.0
 40
1.35082
 50
139.29289
 51
203.44430
  0
ARC
  8
0
 10
1.40600
 20
15.98000
 30
0.0
 40
1.36593
 50
151.20207
 51
205.96472
  0
ARC
  8
0
 10
1.50000
 20
14.66700
 30
0.0
 40
1.50296
 50
151.59338
 51
209.81118
  0
ARC
  8
0
 10
1.30100
 20
13.37500
 30
0.0
 40
1.23074
 50
153.66396
 51
218.63071
  0
ARC
  8
0
 10
1.29600
 20
12.15400
 30
0.0
 40
1.05789
 50
154.64610
 51
232.56680
  0
ARC
  8
0
 10
1.70100
 20
10.90900
 30
0.0
 40
1.12502
 50
158.87096
 51
235.57541
  0
ARC
  8
0
 10
2.42800
 20
9.76600
 30
0.0
 40
1.37985
 50
171.03601
 51
233.01382
  0
ARC
  8
0
 10
3.01500
 20
8.62300
 30
0.0
 40
1.41759
 50
178.34265
 51
239.65335
  0
ARC
  8
0
 10
3.42000
 20
7.45300
 30
0.0
 40
1.12231
 50
182.70688
 51
251.93636
  0
ARC
  8
0
 10
4.28900
 20
6.44500
 30
0.0
 40
1.21842
 50
182.77552
 51
253.30526
  0
ARC
  8
0
 10
5.15200
 20
5.49400
 30
0.0
 40
1.23225
 50
190.09688
 51
258.15205
  0
ARC
  8
0
 10
6.34000
 20
4.79800
 30
0.0
 40
1.52858
 50
199.48993
 51
256.60055
  0
ARC
  8
0
 10
7.24400
 20
3.84600
 30
0.0
 40
1.36954
 50
203.00041
 51
267.27966
  0
ARC
  8
0
 10
8.23500
 20
2.88300
 30
0.0
 40
1.13099
 50
200.98295
 51
275.88703
  0
ARC
  8
0
 10
9.31100
 20
2.24800
 30
0.0
 40
1.07974
 50
207.04052
 51
285.19462
  0
ARC
  8
0
 10
10.56800
 20
1.89200
 30
0.0
 40
1.19418
 50
215.15750
 51
287.64597
  0
ARC
  8
0
 10
11.97500
 20
1.86000
 30
0.0
 40
1.52171
 50
226.62441
 51
283.60704
  0
ARC
  8
0
 10
13.21500
 20
1.40500
 30
0.0
 40
1.35148
 50
229.26075
 51
293.10372
  0
ARC
  8
0
 10
14.31400
 20
1.07800
 30
0.0
 40
1.07843
 50
238.02283
 51
306.40236
  0
ENDSEC
  0
EOF
