  0
SECTION
  2
HEADER
  9
$ACADVER
  1
AC1009
  9
$EXTMIN
 10
1.42140207
 20
3.11831276
 30
0.0
  9
$EXTMAX
 10
8.57859793
 20
6.88168724
 30
0.0
  0
ENDSEC
  0
SECTION
  2
TABLES
  0
TABLE
  2
LAYER
 70
1
 0
LAYER
 2
Default_Layer
 70
0
 62
1
 6
CONTINUOUS
 0
ENDTAB
 0
ENDSEC
  0
SECTION
  2
ENTITIES
  0
POLYLINE
  8
Default_Layer
 66
   1
 39
0.000000
 70
    1
  0
VERTEX
  8
0
 10
2.26635514
 20
4.15123457
  0
VERTEX
  8
0
 10
2.29902143
 20
4.19205898
  0
VERTEX
  8
0
 10
2.30133456
 20
4.24331276
  0
VERTEX
  8
0
 10
2.16758970
 20
4.15637860
  0
VERTEX
  8
0
 10
2.21542572
 20
4.13776200
  0
VERTEX
  8
0
 10
2.26635514
 20
4.15123457
  0
SEQEND
  0
POLYLINE
  8
Default_Layer
 66
   1
 39
0.000000
 70
    1
  0
VERTEX
  8
0
 10
8.49372139
 20
6.68467078
  0
VERTEX
  8
0
 10
8.40099900
 20
6.68365614
  0
VERTEX
  8
0
 10
8.31767972
 20
6.69777825
  0
VERTEX
  8
0
 10
8.24444918
 20
6.73248140
  0
VERTEX
  8
0
 10
8.18199300
 20
6.79320988
  0
VERTEX
  8
0
 10
8.10869794
 20
6.84041878
  0
VERTEX
  8
0
 10
8.02431876
 20
6.86731690
  0
VERTEX
  8
0
 10
7.93762958
 20
6.87259360
  0
VERTEX
  8
0
 10
7.85740452
 20
6.85493827
  0
VERTEX
  8
0
 10
7.86769258
 20
6.69341564
  0
VERTEX
  8
0
 10
6.77846472
 20
6.69301073
  0
VERTEX
  8
0
 10
6.06038797
 20
6.72399350
  0
VERTEX
  8
0
 10
5.74645429
 20
6.75654938
  0
VERTEX
  8
0
 10
5.49629341
 20
6.80401235
  0
VERTEX
  8
0
 10
4.58272722
 20
6.81769001
  0
VERTEX
  8
0
 10
3.72468847
 20
6.80401235
  0
VERTEX
  8
0
 10
3.64996743
 20
6.75676234
  0
VERTEX
  8
0
 10
3.58186854
 20
6.70100320
  0
VERTEX
  8
0
 10
3.51071974
 20
6.65263854
  0
VERTEX
  8
0
 10
3.42684896
 20
6.62757202
  0
VERTEX
  8
0
 10
3.34352539
 20
6.61986423
  0
VERTEX
  8
0
 10
3.27112285
 20
6.63788326
  0
VERTEX
  8
0
 10
3.14674970
 20
6.72220370
  0
VERTEX
  8
0
 10
3.02906713
 20
6.82273711
  0
VERTEX
  8
0
 10
2.96502781
 20
6.86102235
  0
VERTEX
  8
0
 10
2.89341275
 20
6.88168724
  0
VERTEX
  8
0
 10
2.82844450
 20
6.86975426
  0
VERTEX
  8
0
 10
2.80062327
 20
6.85602810
  0
VERTEX
  8
0
 10
2.78384485
 20
6.82921811
  0
VERTEX
  8
0
 10
2.81437130
 20
6.80533506
  0
VERTEX
  8
0
 10
2.84920274
 20
6.79271618
  0
VERTEX
  8
0
 10
2.88376264
 20
6.77905814
  0
VERTEX
  8
0
 10
2.91347448
 20
6.75205761
  0
VERTEX
  8
0
 10
3.04773374
 20
6.52977144
  0
VERTEX
  8
0
 10
3.15352788
 20
6.39250203
  0
VERTEX
  8
0
 10
3.21365430
 20
6.34108219
  0
VERTEX
  8
0
 10
3.27767201
 20
6.31018519
  0
VERTEX
  8
0
 10
3.23696936
 20
6.08543949
  0
VERTEX
  8
0
 10
3.24308936
 20
5.97365645
  0
VERTEX
  8
0
 10
3.27767201
 20
5.86316872
  0
VERTEX
  8
0
 10
3.18802833
 20
5.81816819
  0
VERTEX
  8
0
 10
3.12633943
 20
5.74323442
  0
VERTEX
  8
0
 10
3.08669027
 20
5.65175031
  0
VERTEX
  8
0
 10
3.06316583
 20
5.55709877
  0
VERTEX
  8
0
 10
2.78470501
 20
5.50339900
  0
VERTEX
  8
0
 10
2.54537873
 20
5.42378152
  0
VERTEX
  8
0
 10
2.34185983
 20
5.32122009
  0
VERTEX
  8
0
 10
2.17082118
 20
5.19868848
  0
VERTEX
  8
0
 10
2.02893565
 20
5.05916046
  0
VERTEX
  8
0
 10
1.91287609
 20
4.90560979
  0
VERTEX
  8
0
 10
1.81931535
 20
4.74101025
  0
VERTEX
  8
0
 10
1.74492630
 20
4.56833559
  0
VERTEX
  8
0
 10
1.64035471
 20
4.21065601
  0
VERTEX
  8
0
 10
1.57254419
 20
3.85636120
  0
VERTEX
  8
0
 10
1.51487761
 20
3.52924129
  0
VERTEX
  8
0
 10
1.44073785
 20
3.25308642
  0
VERTEX
  8
0
 10
1.42360958
 20
3.18570557
  0
VERTEX
  8
0
 10
1.42197997
 20
3.15097739
  0
VERTEX
  8
0
 10
1.43353621
 20
3.11831276
  0
VERTEX
  8
0
 10
1.92805993
 20
3.14673998
  0
VERTEX
  8
0
 10
2.34570369
 20
3.16445664
  0
VERTEX
  8
0
 10
2.71851563
 20
3.16306584
  0
VERTEX
  8
0
 10
2.80450908
 20
3.18138961
  0
VERTEX
  8
0
 10
2.84463030
 20
3.19579478
  0
VERTEX
  8
0
 10
2.87540863
 20
3.22788066
  0
VERTEX
  8
0
 10
2.83982119
 20
3.48059476
  0
VERTEX
  8
0
 10
2.78901742
 20
3.73209255
  0
VERTEX
  8
0
 10
2.75851832
 20
3.98122719
  0
VERTEX
  8
0
 10
2.76198332
 20
4.10454995
  0
VERTEX
  8
0
 10
2.78384485
 20
4.22685185
  0
VERTEX
  8
0
 10
2.80271207
 20
4.31565724
  0
VERTEX
  8
0
 10
2.83763219
 20
4.40034020
  0
VERTEX
  8
0
 10
2.94607003
 20
4.55294035
  0
VERTEX
  8
0
 10
3.09003622
 20
4.67585530
  0
VERTEX
  8
0
 10
3.25040863
 20
4.76028807
  0
VERTEX
  8
0
 10
3.31785380
 20
4.75161657
  0
VERTEX
  8
0
 10
3.38970127
 20
4.75616907
  0
VERTEX
  8
0
 10
3.45684584
 20
4.74657735
  0
VERTEX
  8
0
 10
3.51018230
 20
4.69547325
  0
VERTEX
  8
0
 10
3.59498405
 20
4.46056619
  0
VERTEX
  8
0
 10
3.66088553
 20
4.35469633
  0
VERTEX
  8
0
 10
3.75709588
 20
4.26646091
  0
VERTEX
  8
0
 10
3.87072837
 20
4.24693870
  0
VERTEX
  8
0
 10
3.99114937
 20
4.24639918
  0
VERTEX
  8
0
 10
4.17107564
 20
4.27483574
  0
VERTEX
  8
0
 10
4.35403001
 20
4.31812590
  0
VERTEX
  8
0
 10
4.43661884
 20
4.35485050
  0
VERTEX
  8
0
 10
4.50793603
 20
4.40669981
  0
VERTEX
  8
0
 10
4.56397203
 20
4.47747761
  0
VERTEX
  8
0
 10
4.60071728
 20
4.57098765
  0
VERTEX
  8
0
 10
4.61338391
 20
4.73385653
  0
VERTEX
  8
0
 10
4.61900884
 20
4.90081294
  0
VERTEX
  8
0
 10
4.63427674
 20
4.97822265
  0
VERTEX
  8
0
 10
4.66589951
 20
5.04753264
  0
VERTEX
  8
0
 10
4.71991557
 20
5.10570239
  0
VERTEX
  8
0
 10
4.80236337
 20
5.14969136
  0
VERTEX
  8
0
 10
4.92196716
 20
5.17190340
  0
VERTEX
  8
0
 10
5.04935939
 20
5.18334356
  0
VERTEX
  8
0
 10
5.16192130
 20
5.21846688
  0
VERTEX
  8
0
 10
5.20557253
 20
5.25567692
  0
VERTEX
  8
0
 10
5.23703415
 20
5.31172840
  0
VERTEX
  8
0
 10
5.30118963
 20
5.33025161
  0
VERTEX
  8
0
 10
5.34690263
 20
5.36320060
  0
VERTEX
  8
0
 10
5.40174439
 20
5.45843934
  0
VERTEX
  8
0
 10
5.43904584
 20
5.56957158
  0
VERTEX
  8
0
 10
5.49629341
 20
5.66872428
  0
VERTEX
  8
0
 10
5.56707825
 20
5.75026555
  0
VERTEX
  8
0
 10
5.67178185
 20
5.83482681
  0
VERTEX
  8
0
 10
5.80802180
 20
5.92798354
  0
VERTEX
  8
0
 10
7.89752797
 20
5.94084362
  0
VERTEX
  8
0
 10
7.92752552
 20
5.91063190
  0
VERTEX
  8
0
 10
7.99912635
 20
5.85800707
  0
VERTEX
  8
0
 10
8.04190686
 20
5.84110710
  0
VERTEX
  8
0
 10
8.08474282
 20
5.83998468
  0
VERTEX
  8
0
 10
8.12418576
 20
5.86176675
  0
VERTEX
  8
0
 10
8.15678723
 20
5.91358025
  0
VERTEX
  8
0
 10
8.28771142
 20
5.91679259
  0
VERTEX
  8
0
 10
8.40970576
 20
5.91068177
  0
VERTEX
  8
0
 10
8.51069351
 20
5.91913747
  0
VERTEX
  8
0
 10
8.54953593
 20
5.93629330
  0
VERTEX
  8
0
 10
8.57859793
 20
5.96604938
  0
VERTEX
  8
0
 10
8.56376826
 20
6.12218908
  0
VERTEX
  8
0
 10
8.55764440
 20
6.35712903
  0
VERTEX
  8
0
 10
8.54077818
 20
6.57618450
  0
VERTEX
  8
0
 10
8.52223912
 20
6.65016658
  0
VERTEX
  8
0
 10
8.49372139
 20
6.68467078
  0
SEQEND
  0
POLYLINE
  8
Default_Layer
 66
   1
 39
0.000000
 70
    1
  0
VERTEX
  8
0
 10
2.75709588
 20
4.23148148
  0
VERTEX
  8
0
 10
2.75761028
 20
4.23353909
  0
VERTEX
  8
0
 10
2.75658147
 20
4.22942387
  0
VERTEX
  8
0
 10
2.75709588
 20
4.23148148
  0
VERTEX
  8
0
 10
2.73237247
 20
4.07052774
  0
VERTEX
  8
0
 10
2.73625145
 20
3.90833920
  0
VERTEX
  8
0
 10
2.79104649
 20
3.58539095
  0
VERTEX
  8
0
 10
2.82522770
 20
3.41084295
  0
VERTEX
  8
0
 10
2.84763086
 20
3.23508230
  0
VERTEX
  8
0
 10
2.81785407
 20
3.21326202
  0
VERTEX
  8
0
 10
2.77149917
 20
3.20318930
  0
VERTEX
  8
0
 10
2.71491481
 20
3.19032922
  0
VERTEX
  8
0
 10
2.15201268
 20
3.18481351
  0
VERTEX
  8
0
 10
1.60637571
 20
3.15432099
  0
VERTEX
  8
0
 10
1.45102592
 20
3.14506173
  0
VERTEX
  8
0
 10
1.45977077
 20
3.21862140
  0
VERTEX
  8
0
 10
1.46645802
 20
3.24588477
  0
VERTEX
  8
0
 10
1.46594361
 20
3.24382716
  0
VERTEX
  8
0
 10
1.46697242
 20
3.24742798
  0
VERTEX
  8
0
 10
1.46645802
 20
3.24588477
  0
VERTEX
  8
0
 10
1.53584957
 20
3.49749917
  0
VERTEX
  8
0
 10
1.58888600
 20
3.78960905
  0
VERTEX
  8
0
 10
1.63645947
 20
4.05982491
  0
VERTEX
  8
0
 10
1.69891002
 20
4.33577699
  0
VERTEX
  8
0
 10
1.78839364
 20
4.60707038
  0
VERTEX
  8
0
 10
1.91706628
 20
4.86331019
  0
VERTEX
  8
0
 10
1.99989723
 20
4.98253658
  0
VERTEX
  8
0
 10
2.09708393
 20
5.09410150
  0
VERTEX
  8
0
 10
2.21014587
 20
5.19670556
  0
VERTEX
  8
0
 10
2.34060256
 20
5.28904940
  0
VERTEX
  8
0
 10
2.48997348
 20
5.36983367
  0
VERTEX
  8
0
 10
2.65977814
 20
5.43775900
  0
VERTEX
  8
0
 10
2.85153604
 20
5.49152603
  0
VERTEX
  8
0
 10
3.06676666
 20
5.52983539
  0
VERTEX
  8
0
 10
3.25040863
 20
4.78909465
  0
VERTEX
  8
0
 10
3.18157027
 20
4.75975915
  0
VERTEX
  8
0
 10
3.02573026
 20
4.66439889
  0
VERTEX
  8
0
 10
2.93893860
 20
4.58851239
  0
VERTEX
  8
0
 10
2.85890125
 20
4.49198321
  0
VERTEX
  8
0
 10
2.79511982
 20
4.37343252
  0
VERTEX
  8
0
 10
2.75709588
 20
4.23148148
  0
SEQEND
  0
POLYLINE
  8
Default_Layer
 66
   1
 39
0.000000
 70
    1
  0
VERTEX
  8
0
 10
8.22726049
 20
6.68981481
  0
VERTEX
  8
0
 10
7.90472962
 20
6.69547325
  0
VERTEX
  8
0
 10
7.89032633
 20
6.82921811
  0
VERTEX
  8
0
 10
7.95130686
 20
6.84037509
  0
VERTEX
  8
0
 10
8.01130306
 20
6.83263189
  0
VERTEX
  8
0
 10
8.11953187
 20
6.78191251
  0
VERTEX
  8
0
 10
8.22726049
 20
6.68981481
  0
SEQEND
  0
POLYLINE
  8
Default_Layer
 66
   1
 39
0.000000
 70
    1
  0
VERTEX
  8
0
 10
5.21131398
 20
6.71553498
  0
VERTEX
  8
0
 10
5.16883335
 20
6.72778386
  0
VERTEX
  8
0
 10
5.10174608
 20
6.72942387
  0
VERTEX
  8
0
 10
4.41052452
 20
6.73328189
  0
VERTEX
  8
0
 10
3.93096419
 20
6.72479424
  0
VERTEX
  8
0
 10
3.92593463
 20
6.64450111
  0
VERTEX
  8
0
 10
3.93199300
 20
6.57716049
  0
VERTEX
  8
0
 10
3.88554851
 20
6.56810913
  0
VERTEX
  8
0
 10
3.77419043
 20
6.53137571
  0
VERTEX
  8
0
 10
3.63988178
 20
6.45259127
  0
VERTEX
  8
0
 10
3.57723443
 20
6.39293961
  0
VERTEX
  8
0
 10
3.52458559
 20
6.31738683
  0
VERTEX
  8
0
 10
3.49604239
 20
6.24366211
  0
VERTEX
  8
0
 10
3.48883171
 20
6.16498529
  0
VERTEX
  8
0
 10
3.50452386
 20
6.00565844
  0
VERTEX
  8
0
 10
3.57533632
 20
5.95499869
  0
VERTEX
  8
0
 10
3.65304213
 20
5.91784939
  0
VERTEX
  8
0
 10
3.81625225
 20
5.87602881
  0
VERTEX
  8
0
 10
3.80905061
 20
5.63631687
  0
VERTEX
  8
0
 10
3.70826544
 20
5.69652291
  0
VERTEX
  8
0
 10
3.61590695
 20
5.78311989
  0
VERTEX
  8
0
 10
3.45256913
 20
5.97325103
  0
VERTEX
  8
0
 10
3.43327519
 20
6.10817169
  0
VERTEX
  8
0
 10
3.44245288
 20
6.24276371
  0
VERTEX
  8
0
 10
3.48279466
 20
6.36927120
  0
VERTEX
  8
0
 10
3.55699300
 20
6.47993827
  0
VERTEX
  8
0
 10
3.60860547
 20
6.53573264
  0
VERTEX
  8
0
 10
3.67814879
 20
6.57875523
  0
VERTEX
  8
0
 10
3.77818641
 20
6.63734568
  0
VERTEX
  8
0
 10
3.79417610
 20
6.68447952
  0
VERTEX
  8
0
 10
3.78384485
 20
6.75205761
  0
VERTEX
  8
0
 10
4.15628148
 20
6.77703174
  0
VERTEX
  8
0
 10
4.53629975
 20
6.77244766
  0
VERTEX
  8
0
 10
4.92139202
 20
6.76075498
  0
VERTEX
  8
0
 10
5.30905061
 20
6.76440329
  0
VERTEX
  8
0
 10
5.47088557
 20
6.73727527
  0
VERTEX
  8
0
 10
5.62592304
 20
6.69238683
  0
VERTEX
  8
0
 10
5.64252180
 20
6.50636229
  0
VERTEX
  8
0
 10
5.66553209
 20
6.32304527
  0
VERTEX
  8
0
 10
5.22057324
 20
6.33127572
  0
VERTEX
  8
0
 10
5.22283983
 20
6.51824507
  0
VERTEX
  8
0
 10
5.21131398
 20
6.71553498
  0
SEQEND
  0
POLYLINE
  8
Default_Layer
 66
   1
 39
0.000000
 70
    1
  0
VERTEX
  8
0
 10
5.13466789
 20
6.32047325
  0
VERTEX
  8
0
 10
4.91375152
 20
6.32377182
  0
VERTEX
  8
0
 10
4.72829554
 20
6.30725706
  0
VERTEX
  8
0
 10
4.57345390
 20
6.26028807
  0
VERTEX
  8
0
 10
4.50435165
 20
6.20166959
  0
VERTEX
  8
0
 10
4.48560566
 20
6.13134733
  0
VERTEX
  8
0
 10
4.51708524
 20
6.06235244
  0
VERTEX
  8
0
 10
4.59865966
 20
6.00771605
  0
VERTEX
  8
0
 10
4.76714061
 20
5.98045449
  0
VERTEX
  8
0
 10
4.94457963
 20
5.96825150
  0
VERTEX
  8
0
 10
5.14186954
 20
5.96553498
  0
VERTEX
  8
0
 10
5.14649917
 20
5.61522634
  0
VERTEX
  8
0
 10
4.57551151
 20
5.55144033
  0
VERTEX
  8
0
 10
3.98343332
 20
5.55709877
  0
VERTEX
  8
0
 10
3.97983250
 20
6.66049383
  0
VERTEX
  8
0
 10
4.48754855
 20
6.66049383
  0
VERTEX
  8
0
 10
4.48333674
 20
6.63036131
  0
VERTEX
  8
0
 10
4.49368924
 20
6.60664258
  0
VERTEX
  8
0
 10
4.54207530
 20
6.57921811
  0
VERTEX
  8
0
 10
4.65427315
 20
6.55436669
  0
VERTEX
  8
0
 10
4.80353630
 20
6.53945050
  0
VERTEX
  8
0
 10
4.96957409
 20
6.54030289
  0
VERTEX
  8
0
 10
5.13209588
 20
6.56275720
  0
VERTEX
  8
0
 10
5.13466789
 20
6.32047325
  0
SEQEND
  0
POLYLINE
  8
Default_Layer
 66
   1
 39
0.000000
 70
    1
  0
VERTEX
  8
0
 10
5.14186954
 20
5.54423868
  0
VERTEX
  8
0
 10
4.91379777
 20
5.54503965
  0
VERTEX
  8
0
 10
4.70462674
 20
5.55401235
  0
VERTEX
  8
0
 10
5.14547036
 20
5.57921811
  0
VERTEX
  8
0
 10
5.14186954
 20
5.54423868
  0
SEQEND
  0
POLYLINE
  8
Default_Layer
 66
   1
 39
0.000000
 70
    1
  0
VERTEX
  8
0
 10
5.14084073
 20
6.04423868
  0
VERTEX
  8
0
 10
4.85459955
 20
6.04731372
  0
VERTEX
  8
0
 10
4.61151974
 20
6.08127572
  0
VERTEX
  8
0
 10
4.57003083
 20
6.11064600
  0
VERTEX
  8
0
 10
4.55964285
 20
6.14565401
  0
VERTEX
  8
0
 10
4.57467891
 20
6.17985147
  0
VERTEX
  8
0
 10
4.60946213
 20
6.20679012
  0
VERTEX
  8
0
 10
4.71460938
 20
6.23992065
  0
VERTEX
  8
0
 10
4.83827515
 20
6.25626894
  0
VERTEX
  8
0
 10
5.13518230
 20
6.25771605
  0
VERTEX
  8
0
 10
5.14084073
 20
6.04423868
  0
SEQEND
  0
POLYLINE
  8
Default_Layer
 66
   1
 39
0.000000
 70
    1
  0
VERTEX
  8
0
 10
5.13209588
 20
6.61471193
  0
VERTEX
  8
0
 10
4.93089606
 20
6.58475216
  0
VERTEX
  8
0
 10
4.73806313
 20
6.59021365
  0
VERTEX
  8
0
 10
4.59769924
 20
6.62104157
  0
VERTEX
  8
0
 10
4.56097512
 20
6.64282580
  0
VERTEX
  8
0
 10
4.55390658
 20
6.66718107
  0
VERTEX
  8
0
 10
5.13055267
 20
6.65792181
  0
VERTEX
  8
0
 10
5.13209588
 20
6.61471193
  0
SEQEND
  0
POLYLINE
  8
Default_Layer
 66
   1
 39
0.000000
 70
    1
  0
VERTEX
  8
0
 10
3.85431810
 20
5.86882716
  0
VERTEX
  8
0
 10
3.86878569
 20
5.90194170
  0
VERTEX
  8
0
 10
3.85355855
 20
5.91624450
  0
VERTEX
  8
0
 10
3.82191069
 20
5.92078189
  0
VERTEX
  8
0
 10
3.68141412
 20
5.95273885
  0
VERTEX
  8
0
 10
3.54979135
 20
6.01131687
  0
VERTEX
  8
0
 10
3.53709145
 20
6.10099344
  0
VERTEX
  8
0
 10
3.54198781
 20
6.19140499
  0
VERTEX
  8
0
 10
3.56377462
 20
6.27780643
  0
VERTEX
  8
0
 10
3.60174608
 20
6.35545267
  0
VERTEX
  8
0
 10
3.67878931
 20
6.42978168
  0
VERTEX
  8
0
 10
3.78484087
 20
6.48263687
  0
VERTEX
  8
0
 10
3.91913291
 20
6.52469136
  0
VERTEX
  8
0
 10
3.91604649
 20
5.52469136
  0
VERTEX
  8
0
 10
3.86151974
 20
5.51903292
  0
VERTEX
  8
0
 10
3.85431810
 20
5.86882716
  0
SEQEND
  0
POLYLINE
  8
Default_Layer
 66
   1
 39
0.000000
 70
    1
  0
VERTEX
  8
0
 10
3.31625225
 20
5.86625514
  0
VERTEX
  8
0
 10
3.29427052
 20
5.96389205
  0
VERTEX
  8
0
 10
3.29001769
 20
6.05812757
  0
VERTEX
  8
0
 10
3.29248229
 20
6.13321479
  0
VERTEX
  8
0
 10
3.30674453
 20
6.20511184
  0
VERTEX
  8
0
 10
3.31894478
 20
6.27463300
  0
VERTEX
  8
0
 10
3.31522345
 20
6.34259259
  0
VERTEX
  8
0
 10
3.22815969
 20
6.38867288
  0
VERTEX
  8
0
 10
3.15837867
 20
6.45392876
  0
VERTEX
  8
0
 10
3.05303852
 20
6.61204347
  0
VERTEX
  8
0
 10
2.96395030
 20
6.75708912
  0
VERTEX
  8
0
 10
2.91448419
 20
6.80600867
  0
VERTEX
  8
0
 10
2.85586131
 20
6.82921811
  0
VERTEX
  8
0
 10
2.91127061
 20
6.83146558
  0
VERTEX
  8
0
 10
2.95982597
 20
6.81662302
  0
VERTEX
  8
0
 10
3.04336886
 20
6.75324172
  0
VERTEX
  8
0
 10
3.12047793
 20
6.67422207
  0
VERTEX
  8
0
 10
3.20514114
 20
6.61471193
  0
VERTEX
  8
0
 10
3.34483461
 20
6.58181633
  0
VERTEX
  8
0
 10
3.47882954
 20
6.60388644
  0
VERTEX
  8
0
 10
3.60586711
 20
6.67200715
  0
VERTEX
  8
0
 10
3.72468847
 20
6.77726337
  0
VERTEX
  8
0
 10
3.74896586
 20
6.76257230
  0
VERTEX
  8
0
 10
3.74929346
 20
6.73437946
  0
VERTEX
  8
0
 10
3.74423579
 20
6.66718107
  0
VERTEX
  8
0
 10
3.62565659
 20
6.59883193
  0
VERTEX
  8
0
 10
3.51987801
 20
6.50412086
  0
VERTEX
  8
0
 10
3.43702936
 20
6.39050266
  0
VERTEX
  8
0
 10
3.38723991
 20
6.26543210
  0
VERTEX
  8
0
 10
3.37861467
 20
6.17149689
  0
VERTEX
  8
0
 10
3.38918029
 20
6.07826431
  0
VERTEX
  8
0
 10
3.41244567
 20
5.88837449
  0
VERTEX
  8
0
 10
3.38367150
 20
5.86574904
  0
VERTEX
  8
0
 10
3.35364329
 20
5.85850729
  0
VERTEX
  8
0
 10
3.31625225
 20
5.86625514
  0
SEQEND
  0
POLYLINE
  8
Default_Layer
 66
   1
 39
0.000000
 70
    1
  0
VERTEX
  8
0
 10
4.47777489
 20
4.52572016
  0
VERTEX
  8
0
 10
4.34949923
 20
4.44626538
  0
VERTEX
  8
0
 10
4.20258891
 20
4.40324794
  0
VERTEX
  8
0
 10
4.04550924
 20
4.38584417
  0
VERTEX
  8
0
 10
3.88672551
 20
4.38323045
  0
VERTEX
  8
0
 10
3.77950031
 20
4.41834722
  0
VERTEX
  8
0
 10
3.73371463
 20
4.45160045
  0
VERTEX
  8
0
 10
3.69948271
 20
4.50051440
  0
VERTEX
  8
0
 10
3.66826122
 20
4.57884566
  0
VERTEX
  8
0
 10
3.64926881
 20
4.66573906
  0
VERTEX
  8
0
 10
3.64856750
 20
4.75425368
  0
VERTEX
  8
0
 10
3.67221933
 20
4.83744856
  0
VERTEX
  8
0
 10
3.68475141
 20
4.71415368
  0
VERTEX
  8
0
 10
3.71838279
 20
4.59773911
  0
VERTEX
  8
0
 10
3.77934396
 20
4.49585519
  0
VERTEX
  8
0
 10
3.87386542
 20
4.41615226
  0
VERTEX
  8
0
 10
3.90699564
 20
4.42115175
  0
VERTEX
  8
0
 10
3.93199300
 20
4.44135802
  0
VERTEX
  8
0
 10
3.89791015
 20
4.58090371
  0
VERTEX
  8
0
 10
3.84667264
 20
4.72169918
  0
VERTEX
  8
0
 10
3.83078120
 20
4.79145299
  0
VERTEX
  8
0
 10
3.82999347
 20
4.86018415
  0
VERTEX
  8
0
 10
3.85077355
 20
4.92744762
  0
VERTEX
  8
0
 10
3.89958559
 20
4.99279835
  0
VERTEX
  8
0
 10
4.02336724
 20
5.03324651
  0
VERTEX
  8
0
 10
4.15805032
 20
5.05984806
  0
VERTEX
  8
0
 10
4.28875824
 20
5.04790933
  0
VERTEX
  8
0
 10
4.34797257
 20
5.01977058
  0
VERTEX
  8
0
 10
4.40061439
 20
4.97273663
  0
VERTEX
  8
0
 10
4.44733129
 20
4.90099498
  0
VERTEX
  8
0
 10
4.48343332
 20
4.82510288
  0
VERTEX
  8
0
 10
4.49888468
 20
4.67410595
  0
VERTEX
  8
0
 10
4.47777489
 20
4.52572016
  0
SEQEND
  0
POLYLINE
  8
Default_Layer
 66
   1
 39
0.000000
 70
    1
  0
VERTEX
  8
0
 10
3.82911234
 20
4.96759259
  0
VERTEX
  8
0
 10
3.79334521
 20
4.90580814
  0
VERTEX
  8
0
 10
3.77800995
 20
4.84261706
  0
VERTEX
  8
0
 10
3.79232484
 20
4.71445614
  0
VERTEX
  8
0
 10
3.88672551
 20
4.46810700
  0
VERTEX
  8
0
 10
3.80983432
 20
4.53044808
  0
VERTEX
  8
0
 10
3.76369372
 20
4.61370127
  0
VERTEX
  8
0
 10
3.71903003
 20
4.80504115
  0
VERTEX
  8
0
 10
3.72052951
 20
4.88494748
  0
VERTEX
  8
0
 10
3.75919572
 20
4.93248645
  0
VERTEX
  8
0
 10
3.82911234
 20
4.96759259
  0
SEQEND
  0
POLYLINE
  8
Default_Layer
 66
   1
 39
0.000000
 70
    1
  0
VERTEX
  8
0
 10
4.57088188
 20
4.78909465
  0
VERTEX
  8
0
 10
4.56073689
 20
4.72776465
  0
VERTEX
  8
0
 10
4.54824814
 20
4.78549383
  0
VERTEX
  8
0
 10
4.52261683
 20
4.87555499
  0
VERTEX
  8
0
 10
4.47977608
 20
4.96143270
  0
VERTEX
  8
0
 10
4.41805921
 20
5.03418664
  0
VERTEX
  8
0
 10
4.33579958
 20
5.08487654
  0
VERTEX
  8
0
 10
4.65267201
 20
5.10288066
  0
VERTEX
  8
0
 10
4.67787777
 20
5.13528807
  0
VERTEX
  8
0
 10
4.66553209
 20
5.14969136
  0
VERTEX
  8
0
 10
4.44189096
 20
5.13290426
  0
VERTEX
  8
0
 10
4.22365966
 20
5.10288066
  0
VERTEX
  8
0
 10
4.13974605
 20
5.08886820
  0
VERTEX
  8
0
 10
3.94931927
 20
5.04160715
  0
VERTEX
  8
0
 10
3.84172749
 20
5.00164124
  0
VERTEX
  8
0
 10
3.74058429
 20
4.94872257
  0
VERTEX
  8
0
 10
3.65691528
 20
4.88130428
  0
VERTEX
  8
0
 10
3.60174608
 20
4.79783951
  0
VERTEX
  8
0
 10
3.60001762
 20
4.67344504
  0
VERTEX
  8
0
 10
3.62509534
 20
4.55085673
  0
VERTEX
  8
0
 10
3.68222270
 20
4.44142030
  0
VERTEX
  8
0
 10
3.77664320
 20
4.35648148
  0
VERTEX
  8
0
 10
3.93651710
 20
4.33099075
  0
VERTEX
  8
0
 10
4.09444006
 20
4.34275473
  0
VERTEX
  8
0
 10
4.40678723
 20
4.41512346
  0
VERTEX
  8
0
 10
4.42179235
 20
4.41450861
  0
VERTEX
  8
0
 10
4.40884485
 20
4.39866255
  0
VERTEX
  8
0
 10
4.26609857
 20
4.33099547
  0
VERTEX
  8
0
 10
4.11128757
 20
4.29693834
  0
VERTEX
  8
0
 10
3.94900521
 20
4.29085237
  0
VERTEX
  8
0
 10
3.78384485
 20
4.30709877
  0
VERTEX
  8
0
 10
3.70174889
 20
4.37198486
  0
VERTEX
  8
0
 10
3.64609110
 20
4.44612408
  0
VERTEX
  8
0
 10
3.58031112
 20
4.60163077
  0
VERTEX
  8
0
 10
3.51894718
 20
4.73255664
  0
VERTEX
  8
0
 10
3.46880944
 20
4.77596984
  0
VERTEX
  8
0
 10
3.39444155
 20
4.79783951
  0
VERTEX
  8
0
 10
3.57499711
 20
4.87037037
  0
VERTEX
  8
0
 10
3.67516115
 20
4.95781987
  0
VERTEX
  8
0
 10
3.80925244
 20
5.02664535
  0
VERTEX
  8
0
 10
3.96733675
 20
5.07932449
  0
VERTEX
  8
0
 10
4.13947987
 20
5.11833492
  0
VERTEX
  8
0
 10
4.48620564
 20
5.16526032
  0
VERTEX
  8
0
 10
4.76995596
 20
5.18724280
  0
VERTEX
  8
0
 10
4.65344075
 20
5.07807418
  0
VERTEX
  8
0
 10
4.59564932
 20
5.00493535
  0
VERTEX
  8
0
 10
4.57524269
 20
4.92341321
  0
VERTEX
  8
0
 10
4.57088188
 20
4.78909465
  0
SEQEND
  0
POLYLINE
  8
Default_Layer
 66
   1
 39
0.000000
 70
    1
  0
VERTEX
  8
0
 10
5.16450328
 20
5.25925926
  0
VERTEX
  8
0
 10
5.03138064
 20
5.23813049
  0
VERTEX
  8
0
 10
4.75253755
 20
5.21475322
  0
VERTEX
  8
0
 10
4.14186954
 20
5.15997942
  0
VERTEX
  8
0
 10
4.12149820
 20
5.16092981
  0
VERTEX
  8
0
 10
4.14135514
 20
5.16923868
  0
VERTEX
  8
0
 10
4.35921077
 20
5.20870835
  0
VERTEX
  8
0
 10
4.58800695
 20
5.23516793
  0
VERTEX
  8
0
 10
5.05493538
 20
5.26491770
  0
VERTEX
  8
0
 10
5.17890658
 20
5.28446502
  0
VERTEX
  8
0
 10
5.16450328
 20
5.25925926
  0
SEQEND
  0
POLYLINE
  8
Default_Layer
 66
   1
 39
0.000000
 70
    1
  0
VERTEX
  8
0
 10
5.63312468
 20
5.97325103
  0
VERTEX
  8
0
 10
5.64459639
 20
5.92013357
  0
VERTEX
  8
0
 10
5.63725367
 20
5.87778775
  0
VERTEX
  8
0
 10
5.58422824
 20
5.81375466
  0
VERTEX
  8
0
 10
5.51025494
 20
5.75783910
  0
VERTEX
  8
0
 10
5.45154032
 20
5.68672840
  0
VERTEX
  8
0
 10
5.40484366
 20
5.60195484
  0
VERTEX
  8
0
 10
5.37361504
 20
5.50893266
  0
VERTEX
  8
0
 10
5.33402396
 20
5.42237523
  0
VERTEX
  8
0
 10
5.26223991
 20
5.35699588
  0
VERTEX
  8
0
 10
4.78580716
 20
5.32267451
  0
VERTEX
  8
0
 10
4.36756607
 20
5.27742275
  0
VERTEX
  8
0
 10
4.17624836
 20
5.24118855
  0
VERTEX
  8
0
 10
3.99465572
 20
5.19081044
  0
VERTEX
  8
0
 10
3.82118055
 20
5.12248465
  0
VERTEX
  8
0
 10
3.65421522
 20
5.03240741
  0
VERTEX
  8
0
 10
3.51018230
 20
4.89557613
  0
VERTEX
  8
0
 10
3.33528518
 20
4.86316872
  0
VERTEX
  8
0
 10
3.34754660
 20
5.37489309
  0
VERTEX
  8
0
 10
3.34763086
 20
5.81121399
  0
VERTEX
  8
0
 10
3.41804998
 20
5.83425267
  0
VERTEX
  8
0
 10
3.47211645
 20
5.88837449
  0
VERTEX
  8
0
 10
3.62623714
 20
5.71663971
  0
VERTEX
  8
0
 10
3.71085553
 20
5.64097560
  0
VERTEX
  8
0
 10
3.80184896
 20
5.58950617
  0
VERTEX
  8
0
 10
3.84145802
 20
5.46656379
  0
VERTEX
  8
0
 10
5.10226049
 20
5.47222222
  0
VERTEX
  8
0
 10
5.14897090
 20
5.46899037
  0
VERTEX
  8
0
 10
5.20668435
 20
5.47942387
  0
VERTEX
  8
0
 10
5.21671871
 20
5.53959339
  0
VERTEX
  8
0
 10
5.21594361
 20
5.58590535
  0
VERTEX
  8
0
 10
5.21800123
 20
6.02623457
  0
VERTEX
  8
0
 10
5.65833044
 20
6.02572016
  0
VERTEX
  8
0
 10
5.66542597
 20
6.00807215
  0
VERTEX
  8
0
 10
5.65874419
 20
5.99604790
  0
VERTEX
  8
0
 10
5.63312468
 20
5.97325103
  0
SEQEND
  0
POLYLINE
  8
Default_Layer
 66
   1
 39
0.000000
 70
    1
  0
VERTEX
  8
0
 10
5.66553209
 20
6.07613169
  0
VERTEX
  8
0
 10
5.26223991
 20
6.08333333
  0
VERTEX
  8
0
 10
5.26223991
 20
6.11728395
  0
VERTEX
  8
0
 10
5.66553209
 20
6.12448560
  0
VERTEX
  8
0
 10
5.66553209
 20
6.07613169
  0
SEQEND
  0
POLYLINE
  8
Default_Layer
 66
   1
 39
0.000000
 70
    1
  0
VERTEX
  8
0
 10
5.67119053
 20
6.17335391
  0
VERTEX
  8
0
 10
5.25658147
 20
6.18055556
  0
VERTEX
  8
0
 10
5.24937983
 20
6.29063786
  0
VERTEX
  8
0
 10
5.67119053
 20
6.26543210
  0
VERTEX
  8
0
 10
5.67119053
 20
6.17335391
  0
SEQEND
  0
POLYLINE
  8
Default_Layer
 66
   1
 39
0.000000
 70
    1
  0
VERTEX
  8
0
 10
8.48291892
 20
6.65534979
  0
VERTEX
  8
0
 10
8.50298065
 20
6.31893004
  0
VERTEX
  8
0
 10
5.71079958
 20
6.31738683
  0
VERTEX
  8
0
 10
5.69691069
 20
6.65020576
  0
VERTEX
  8
0
 10
8.48291892
 20
6.65534979
  0
SEQEND
  0
POLYLINE
  8
Default_Layer
 66
   1
 39
0.000000
 70
    1
  0
VERTEX
  8
0
 10
5.71079958
 20
5.96604938
  0
VERTEX
  8
0
 10
5.72365966
 20
5.99845679
  0
VERTEX
  8
0
 10
5.81339122
 20
5.99511946
  0
VERTEX
  8
0
 10
5.85451931
 20
5.98658750
  0
VERTEX
  8
0
 10
5.88569670
 20
5.96604938
  0
VERTEX
  8
0
 10
5.79556131
 20
5.95997583
  0
VERTEX
  8
0
 10
5.71079958
 20
5.96604938
  0
SEQEND
  0
POLYLINE
  8
Default_Layer
 66
   1
 39
0.000000
 70
    1
  0
VERTEX
  8
0
 10
7.98189011
 20
5.90843621
  0
VERTEX
  8
0
 10
8.00201512
 20
5.92506544
  0
VERTEX
  8
0
 10
8.03950328
 20
5.93364198
  0
VERTEX
  8
0
 10
8.07979302
 20
5.92506544
  0
VERTEX
  8
0
 10
8.11203415
 20
5.90843621
  0
VERTEX
  8
0
 10
8.04555440
 20
5.89217306
  0
VERTEX
  8
0
 10
7.98189011
 20
5.90843621
  0
SEQEND
  0
POLYLINE
  8
Default_Layer
 66
   1
 39
0.000000
 70
    1
  0
VERTEX
  8
0
 10
7.94948271
 20
5.94084362
  0
VERTEX
  8
0
 10
7.89752797
 20
5.97325103
  0
VERTEX
  8
0
 10
6.90232777
 20
5.95550126
  0
VERTEX
  8
0
 10
5.91810411
 20
5.96090535
  0
VERTEX
  8
0
 10
5.91365261
 20
6.00129491
  0
VERTEX
  8
0
 10
5.93096419
 20
6.03497942
  0
VERTEX
  8
0
 10
7.10820763
 20
6.02633033
  0
VERTEX
  8
0
 10
8.27355678
 20
6.00257202
  0
VERTEX
  8
0
 10
8.28293265
 20
5.97175398
  0
VERTEX
  8
0
 10
8.29361851
 20
5.94084362
  0
VERTEX
  8
0
 10
8.24547858
 20
5.92856584
  0
VERTEX
  8
0
 10
8.19939040
 20
5.93221631
  0
VERTEX
  8
0
 10
8.11219318
 20
5.96246137
  0
VERTEX
  8
0
 10
8.02967468
 20
5.98189756
  0
VERTEX
  8
0
 10
7.98943489
 20
5.97203693
  0
VERTEX
  8
0
 10
7.94948271
 20
5.94084362
  0
SEQEND
  0
POLYLINE
  8
Default_Layer
 66
   1
 39
0.000000
 70
    1
  0
VERTEX
  8
0
 10
8.28641686
 20
6.03086420
  0
VERTEX
  8
0
 10
5.71645802
 20
6.07613169
  0
VERTEX
  8
0
 10
5.71645802
 20
6.11162551
  0
VERTEX
  8
0
 10
8.30647859
 20
6.08333333
  0
VERTEX
  8
0
 10
8.28641686
 20
6.03086420
  0
SEQEND
  0
POLYLINE
  8
Default_Layer
 66
   1
 39
0.000000
 70
    1
  0
VERTEX
  8
0
 10
8.32602592
 20
5.94187243
  0
VERTEX
  8
0
 10
8.31385829
 20
5.96816242
  0
VERTEX
  8
0
 10
8.31460805
 20
5.99684188
  0
VERTEX
  8
0
 10
8.33322756
 20
6.05195473
  0
VERTEX
  8
0
 10
8.34727272
 20
6.06644350
  0
VERTEX
  8
0
 10
8.36563497
 20
6.07150206
  0
VERTEX
  8
0
 10
8.35707087
 20
6.02949395
  0
VERTEX
  8
0
 10
8.36394699
 20
5.98238634
  0
VERTEX
  8
0
 10
8.36176485
 20
5.94742918
  0
VERTEX
  8
0
 10
8.32602592
 20
5.94187243
  0
SEQEND
  0
POLYLINE
  8
Default_Layer
 66
   1
 39
0.000000
 70
    1
  0
VERTEX
  8
0
 10
8.39649917
 20
5.94084362
  0
VERTEX
  8
0
 10
8.38528730
 20
5.99582322
  0
VERTEX
  8
0
 10
8.40370081
 20
6.05092593
  0
VERTEX
  8
0
 10
8.41795197
 20
6.06542640
  0
VERTEX
  8
0
 10
8.43610822
 20
6.07047325
  0
VERTEX
  8
0
 10
8.42769823
 20
6.02847392
  0
VERTEX
  8
0
 10
8.43462572
 20
5.98136872
  0
VERTEX
  8
0
 10
8.43239221
 20
5.94640837
  0
VERTEX
  8
0
 10
8.39649917
 20
5.94084362
  0
SEQEND
  0
POLYLINE
  8
Default_Layer
 66
   1
 39
0.000000
 70
    1
  0
VERTEX
  8
0
 10
8.47674608
 20
5.94547325
  0
VERTEX
  8
0
 10
8.46550736
 20
6.00021268
  0
VERTEX
  8
0
 10
8.48394773
 20
6.05504115
  0
VERTEX
  8
0
 10
8.49817255
 20
6.06981430
  0
VERTEX
  8
0
 10
8.51635514
 20
6.07510288
  0
VERTEX
  8
0
 10
8.50792500
 20
6.03297009
  0
VERTEX
  8
0
 10
8.51484579
 20
5.98582092
  0
VERTEX
  8
0
 10
8.51261898
 20
5.95090532
  0
VERTEX
  8
0
 10
8.47674608
 20
5.94547325
  0
SEQEND
  0
POLYLINE
  8
Default_Layer
 66
   1
 39
0.000000
 70
    1
  0
VERTEX
  8
0
 10
5.72365966
 20
6.16769547
  0
VERTEX
  8
0
 10
5.73086131
 20
6.26543210
  0
VERTEX
  8
0
 10
8.52612880
 20
6.22582305
  0
VERTEX
  8
0
 10
8.53333044
 20
6.12294239
  0
VERTEX
  8
0
 10
5.72365966
 20
6.16769547
  0
SEQEND
  0
POLYLINE
  8
Default_Layer
 66
   1
 39
0.000000
 70
    1
  0
VERTEX
  8
0
 10
1.62437983
 20
3.78343621
  0
VERTEX
  8
0
 10
1.57111995
 20
3.49007778
  0
VERTEX
  8
0
 10
1.50092304
 20
3.23508230
  0
VERTEX
  8
0
 10
1.49423579
 20
3.20833333
  0
VERTEX
  8
0
 10
1.48754855
 20
3.18312757
  0
VERTEX
  8
0
 10
1.60380369
 20
3.19032922
  0
VERTEX
  8
0
 10
2.14667289
 20
3.22068820
  0
VERTEX
  8
0
 10
2.71028518
 20
3.22685185
  0
VERTEX
  8
0
 10
2.76584073
 20
3.23868313
  0
VERTEX
  8
0
 10
2.81059382
 20
3.24948560
  0
VERTEX
  8
0
 10
2.75555267
 20
3.57818930
  0
VERTEX
  8
0
 10
2.70015716
 20
3.90638740
  0
VERTEX
  8
0
 10
2.69633376
 20
4.07228406
  0
VERTEX
  8
0
 10
2.72160205
 20
4.23816872
  0
VERTEX
  8
0
 10
2.74272748
 20
4.33430563
  0
VERTEX
  8
0
 10
2.78063008
 20
4.42578599
  0
VERTEX
  8
0
 10
2.89641412
 20
4.59030702
  0
VERTEX
  8
0
 10
3.04824892
 20
4.72279183
  0
VERTEX
  8
0
 10
3.21542921
 20
4.81430041
  0
VERTEX
  8
0
 10
3.04001769
 20
5.48971193
  0
VERTEX
  8
0
 10
2.83459851
 20
5.45032362
  0
VERTEX
  8
0
 10
2.65151509
 20
5.39616304
  0
VERTEX
  8
0
 10
2.48932239
 20
5.32847414
  0
VERTEX
  8
0
 10
2.34657536
 20
5.24850087
  0
VERTEX
  8
0
 10
2.22182897
 20
5.15748717
  0
VERTEX
  8
0
 10
2.11363817
 20
5.05667699
  0
VERTEX
  8
0
 10
2.02055795
 20
4.94731426
  0
VERTEX
  8
0
 10
1.94114324
 20
4.83064294
  0
VERTEX
  8
0
 10
1.81753024
 20
4.58035029
  0
VERTEX
  8
0
 10
1.73123888
 20
4.31575058
  0
VERTEX
  8
0
 10
1.67070884
 20
4.04679537
  0
VERTEX
  8
0
 10
1.62437983
 20
3.78343621
  0
SEQEND
  0
POLYLINE
  8
Default_Layer
 66
   1
 39
0.000000
 70
    1
  0
VERTEX
  8
0
 10
2.16450328
 20
4.30761317
  0
VERTEX
  8
0
 10
2.20253238
 20
4.32251783
  0
VERTEX
  8
0
 10
2.24198475
 20
4.32178816
  0
VERTEX
  8
0
 10
2.27831882
 20
4.30638354
  0
VERTEX
  8
0
 10
2.30699300
 20
4.27726337
  0
VERTEX
  8
0
 10
2.32189112
 20
4.23929252
  0
VERTEX
  8
0
 10
2.32115901
 20
4.19991314
  0
VERTEX
  8
0
 10
2.30575644
 20
4.16371505
  0
VERTEX
  8
0
 10
2.27664320
 20
4.13528807
  0
VERTEX
  8
0
 10
2.23866484
 20
4.12014275
  0
VERTEX
  8
0
 10
2.19928348
 20
4.12073888
  0
VERTEX
  8
0
 10
2.16308815
 20
4.13606846
  0
VERTEX
  8
0
 10
2.13466789
 20
4.16512346
  0
VERTEX
  8
0
 10
2.11951526
 20
4.20315889
  0
VERTEX
  8
0
 10
2.12010870
 20
4.24261337
  0
VERTEX
  8
0
 10
2.13544058
 20
4.27894533
  0
VERTEX
  8
0
 10
2.16450328
 20
4.30761317
  0
SEQEND
  0
POLYLINE
  8
Default_Layer
 66
   1
 39
0.000000
 70
    1
  0
VERTEX
  8
0
 10
2.74114937
 20
3.27469136
  0
VERTEX
  8
0
 10
2.25229775
 20
3.24093758
  0
VERTEX
  8
0
 10
1.76069670
 20
3.22222222
  0
VERTEX
  8
0
 10
1.56625225
 20
3.22942387
  0
VERTEX
  8
0
 10
1.71121071
 20
3.29893097
  0
VERTEX
  8
0
 10
1.86840955
 20
3.34208660
  0
VERTEX
  8
0
 10
2.18970904
 20
3.37911523
  0
VERTEX
  8
0
 10
2.47558471
 20
3.35923618
  0
VERTEX
  8
0
 10
2.60812336
 20
3.32639323
  0
VERTEX
  8
0
 10
2.74114937
 20
3.27469136
  0
SEQEND
  0
POLYLINE
  8
Default_Layer
 66
   1
 39
0.000000
 70
    1
  0
VERTEX
  8
0
 10
2.27870081
 20
4.28137860
  0
VERTEX
  8
0
 10
2.22921156
 20
4.30440484
  0
VERTEX
  8
0
 10
2.17530575
 20
4.29115226
  0
VERTEX
  8
0
 10
2.14119955
 20
4.24719285
  0
VERTEX
  8
0
 10
2.14238394
 20
4.19238683
  0
VERTEX
  8
0
 10
2.27870081
 20
4.28137860
  0
SEQEND
  0
POLYLINE
  8
Default_Layer
 66
   1
 39
0.000000
 70
    1
  0
VERTEX
  8
0
 10
5.34608765
 20
5.97788066
  0
VERTEX
  8
0
 10
5.31691945
 20
5.94923970
  0
VERTEX
  8
0
 10
5.30149882
 20
5.91291671
  0
VERTEX
  8
0
 10
5.30078516
 20
5.87345326
  0
VERTEX
  8
0
 10
5.31573785
 20
5.83539095
  0
VERTEX
  8
0
 10
5.34435746
 20
5.80636224
  0
VERTEX
  8
0
 10
5.38067308
 20
5.79104169
  0
VERTEX
  8
0
 10
5.42014352
 20
5.79043692
  0
VERTEX
  8
0
 10
5.45822756
 20
5.80555556
  0
VERTEX
  8
0
 10
5.48723512
 20
5.83400981
  0
VERTEX
  8
0
 10
5.50254862
 20
5.87021647
  0
VERTEX
  8
0
 10
5.50316043
 20
5.90958650
  0
VERTEX
  8
0
 10
5.48806295
 20
5.94753086
  0
VERTEX
  8
0
 10
5.45958793
 20
5.97667752
  0
VERTEX
  8
0
 10
5.42337383
 20
5.99209149
  0
VERTEX
  8
0
 10
5.38401047
 20
5.99281259
  0
VERTEX
  8
0
 10
5.34608765
 20
5.97788066
  0
SEQEND
  0
POLYLINE
  8
Default_Layer
 66
   1
 39
0.000000
 70
    1
  0
VERTEX
  8
0
 10
5.32345390
 20
5.86265432
  0
VERTEX
  8
0
 10
5.32252590
 20
5.91756048
  0
VERTEX
  8
0
 10
5.35637571
 20
5.96193416
  0
VERTEX
  8
0
 10
5.41060064
 20
5.97477351
  0
VERTEX
  8
0
 10
5.46028518
 20
5.95164609
  0
VERTEX
  8
0
 10
5.32345390
 20
5.86265432
  0
SEQEND
  0
POLYLINE
  8
Default_Layer
 66
   1
 39
0.000000
 70
    1
  0
VERTEX
  8
0
 10
5.44742509
 20
5.82150206
  0
VERTEX
  8
0
 10
5.39681584
 20
5.80806481
  0
VERTEX
  8
0
 10
5.34917407
 20
5.82664609
  0
VERTEX
  8
0
 10
5.48291892
 20
5.91358025
  0
VERTEX
  8
0
 10
5.48041051
 20
5.86236231
  0
VERTEX
  8
0
 10
5.44742509
 20
5.82150206
  0
SEQEND
  0
POLYLINE
  8
Default_Layer
 66
   1
 39
0.000000
 70
    1
  0
VERTEX
  8
0
 10
3.49217818
 20
5.62808642
  0
VERTEX
  8
0
 10
3.45195114
 20
5.62130136
  0
VERTEX
  8
0
 10
3.41852791
 20
5.60037771
  0
VERTEX
  8
0
 10
3.39530944
 20
5.56848846
  0
VERTEX
  8
0
 10
3.38569670
 20
5.52880658
  0
VERTEX
  8
0
 10
3.39251586
 20
5.48853438
  0
VERTEX
  8
0
 10
3.41345114
 20
5.45509609
  0
VERTEX
  8
0
 10
3.44532916
 20
5.43189268
  0
VERTEX
  8
0
 10
3.48497653
 20
5.42232510
  0
VERTEX
  8
0
 10
3.52528344
 20
5.42910027
  0
VERTEX
  8
0
 10
3.55873329
 20
5.45002036
  0
VERTEX
  8
0
 10
3.58192513
 20
5.48191278
  0
VERTEX
  8
0
 10
3.59145802
 20
5.52160494
  0
VERTEX
  8
0
 10
3.58471754
 20
5.56186745
  0
VERTEX
  8
0
 10
3.56380901
 20
5.59530251
  0
VERTEX
  8
0
 10
3.53190503
 20
5.61850915
  0
VERTEX
  8
0
 10
3.49217818
 20
5.62808642
  0
SEQEND
  0
POLYLINE
  8
Default_Layer
 66
   1
 39
0.000000
 70
    1
  0
VERTEX
  8
0
 10
3.46697242
 20
5.44444444
  0
VERTEX
  8
0
 10
3.42176904
 20
5.47502900
  0
VERTEX
  8
0
 10
3.40524402
 20
5.52829218
  0
VERTEX
  8
0
 10
3.42549377
 20
5.57998358
  0
VERTEX
  8
0
 10
3.47314526
 20
5.60751029
  0
VERTEX
  8
0
 10
3.46697242
 20
5.44444444
  0
SEQEND
  0
POLYLINE
  8
Default_Layer
 66
   1
 39
0.000000
 70
    1
  0
VERTEX
  8
0
 10
3.51121110
 20
5.44444444
  0
VERTEX
  8
0
 10
3.51686954
 20
5.60390947
  0
VERTEX
  8
0
 10
3.55755278
 20
5.57262802
  0
VERTEX
  8
0
 10
3.57242509
 20
5.52211934
  0
VERTEX
  8
0
 10
3.55406214
 20
5.47300219
  0
VERTEX
  8
0
 10
3.51121110
 20
5.44444444
  0
SEQEND
  0
POLYLINE
  8
Default_Layer
 66
   1
 39
0.000000
 70
    1
  0
VERTEX
  8
0
 10
4.07859793
 20
5.39969136
  0
VERTEX
  8
0
 10
4.03814110
 20
5.38386707
  0
VERTEX
  8
0
 10
4.02149917
 20
5.34567901
  0
VERTEX
  8
0
 10
4.03814110
 20
5.30723614
  0
VERTEX
  8
0
 10
4.07859793
 20
5.29115226
  0
VERTEX
  8
0
 10
4.11925301
 20
5.30723614
  0
VERTEX
  8
0
 10
4.13621110
 20
5.34567901
  0
VERTEX
  8
0
 10
4.11925301
 20
5.38386707
  0
VERTEX
  8
0
 10
4.07859793
 20
5.39969136
  0
SEQEND
  0
POLYLINE
  8
Default_Layer
 66
   1
 39
0.000000
 70
    1
  0
VERTEX
  8
0
 10
3.88055267
 20
5.31841564
  0
VERTEX
  8
0
 10
3.85000600
 20
5.30664131
  0
VERTEX
  8
0
 10
3.83734279
 20
5.27777778
  0
VERTEX
  8
0
 10
3.85000600
 20
5.24918392
  0
VERTEX
  8
0
 10
3.88055267
 20
5.23713992
  0
VERTEX
  8
0
 10
3.91082438
 20
5.24918392
  0
VERTEX
  8
0
 10
3.92324814
 20
5.27777778
  0
VERTEX
  8
0
 10
3.91082438
 20
5.30664131
  0
VERTEX
  8
0
 10
3.88055267
 20
5.31841564
  0
SEQEND
  0
ENDSEC
  0
EOF
