  0
SECTION
  2
HEADER
  9
$ACADVER
  1
AC1009
  9
$EXTMIN
 10
1.22222222
 20
0.01388889
 30
0.0
  9
$EXTMAX
 10
8.77777778
 20
9.98611111
 30
0.0
  0
ENDSEC
  0
SECTION
  2
TABLES
  0
TABLE
  2
LAYER
 70
1
 0
LAYER
 2
Default_Layer
 70
0
 62
1
 6
CONTINUOUS
 0
ENDTAB
 0
ENDSEC
  0
SECTION
  2
ENTITIES
  0
POLYLINE
  8
Default_Layer
 66
   1
 39
0.000000
 70
    1
  0
VERTEX
  8
0
 10
5.48611111
 20
9.75000000
  0
VERTEX
  8
0
 10
5.43346883
 20
9.71052389
  0
VERTEX
  8
0
 10
5.36364261
 20
9.70104209
  0
VERTEX
  8
0
 10
5.22222222
 20
9.70833333
  0
VERTEX
  8
0
 10
5.13751095
 20
9.69162245
  0
VERTEX
  8
0
 10
5.06389244
 20
9.65563480
  0
VERTEX
  8
0
 10
4.93055556
 20
9.54166667
  0
VERTEX
  8
0
 10
4.87074747
 20
9.40683740
  0
VERTEX
  8
0
 10
4.79166667
 20
9.29166667
  0
VERTEX
  8
0
 10
4.78690331
 20
9.23031247
  0
VERTEX
  8
0
 10
4.76867959
 20
9.18251640
  0
VERTEX
  8
0
 10
4.73069941
 20
9.15457323
  0
VERTEX
  8
0
 10
4.66666667
 20
9.15277778
  0
VERTEX
  8
0
 10
4.68372254
 20
9.27665455
  0
VERTEX
  8
0
 10
4.72333966
 20
9.38472838
  0
VERTEX
  8
0
 10
4.84722222
 20
9.58333333
  0
VERTEX
  8
0
 10
4.95507456
 20
9.72019470
  0
VERTEX
  8
0
 10
5.01487235
 20
9.76733932
  0
VERTEX
  8
0
 10
5.08333333
 20
9.79166667
  0
VERTEX
  8
0
 10
5.28761640
 20
9.80080667
  0
VERTEX
  8
0
 10
5.39494459
 20
9.78571581
  0
VERTEX
  8
0
 10
5.48611111
 20
9.75000000
  0
SEQEND
  0
POLYLINE
  8
Default_Layer
 66
   1
 39
0.000000
 70
    1
  0
VERTEX
  8
0
 10
5.58333333
 20
9.76388889
  0
VERTEX
  8
0
 10
5.74227645
 20
9.71797252
  0
VERTEX
  8
0
 10
5.91241674
 20
9.68325268
  0
VERTEX
  8
0
 10
6.07773756
 20
9.64371206
  0
VERTEX
  8
0
 10
6.22222222
 20
9.58333333
  0
VERTEX
  8
0
 10
6.21686345
 20
9.49821935
  0
VERTEX
  8
0
 10
6.19444444
 20
9.43055556
  0
VERTEX
  8
0
 10
6.20157983
 20
9.40991284
  0
VERTEX
  8
0
 10
6.22439105
 20
9.40494400
  0
VERTEX
  8
0
 10
6.24959008
 20
9.40236427
  0
VERTEX
  8
0
 10
6.26388889
 20
9.38888889
  0
VERTEX
  8
0
 10
6.26348758
 20
9.35789552
  0
VERTEX
  8
0
 10
6.25038983
 20
9.33969504
  0
VERTEX
  8
0
 10
6.22222222
 20
9.30555556
  0
VERTEX
  8
0
 10
5.99091952
 20
9.38434279
  0
VERTEX
  8
0
 10
5.76388889
 20
9.50000000
  0
VERTEX
  8
0
 10
5.64941917
 20
9.59036726
  0
VERTEX
  8
0
 10
5.56944444
 20
9.68055556
  0
VERTEX
  8
0
 10
5.56774765
 20
9.72152838
  0
VERTEX
  8
0
 10
5.58333333
 20
9.76388889
  0
SEQEND
  0
POLYLINE
  8
Default_Layer
 66
   1
 39
0.000000
 70
    1
  0
VERTEX
  8
0
 10
6.27777778
 20
9.55555556
  0
VERTEX
  8
0
 10
6.30858328
 20
9.55163721
  0
VERTEX
  8
0
 10
6.32735720
 20
9.53568792
  0
VERTEX
  8
0
 10
6.34722222
 20
9.48611111
  0
VERTEX
  8
0
 10
6.41795060
 20
9.46655858
  0
VERTEX
  8
0
 10
6.44601570
 20
9.44948702
  0
VERTEX
  8
0
 10
6.45833333
 20
9.41666667
  0
VERTEX
  8
0
 10
6.38763532
 20
9.39634533
  0
VERTEX
  8
0
 10
6.31528046
 20
9.41877924
  0
VERTEX
  8
0
 10
6.26931314
 20
9.47487909
  0
VERTEX
  8
0
 10
6.26498869
 20
9.51271333
  0
VERTEX
  8
0
 10
6.27777778
 20
9.55555556
  0
SEQEND
  0
POLYLINE
  8
Default_Layer
 66
   1
 39
0.000000
 70
    1
  0
VERTEX
  8
0
 10
6.63888889
 20
9.23611111
  0
VERTEX
  8
0
 10
6.82688949
 20
9.14118601
  0
VERTEX
  8
0
 10
6.90722261
 20
9.07332452
  0
VERTEX
  8
0
 10
6.93281618
 20
9.03240645
  0
VERTEX
  8
0
 10
6.94444444
 20
8.98611111
  0
VERTEX
  8
0
 10
6.93300739
 20
8.92212632
  0
VERTEX
  8
0
 10
6.89551466
 20
8.86174001
  0
VERTEX
  8
0
 10
6.77777778
 20
8.76388889
  0
VERTEX
  8
0
 10
6.70834118
 20
8.83681510
  0
VERTEX
  8
0
 10
6.64963497
 20
8.92047039
  0
VERTEX
  8
0
 10
6.52777778
 20
9.08333333
  0
VERTEX
  8
0
 10
6.54829287
 20
9.16209780
  0
VERTEX
  8
0
 10
6.52601831
 20
9.22629487
  0
VERTEX
  8
0
 10
6.49420681
 20
9.29540006
  0
VERTEX
  8
0
 10
6.48611111
 20
9.38888889
  0
VERTEX
  8
0
 10
6.54268999
 20
9.40466065
  0
VERTEX
  8
0
 10
6.58884209
 20
9.37048584
  0
VERTEX
  8
0
 10
6.62182315
 20
9.30731811
  0
VERTEX
  8
0
 10
6.63888889
 20
9.23611111
  0
SEQEND
  0
POLYLINE
  8
Default_Layer
 66
   1
 39
0.000000
 70
    1
  0
VERTEX
  8
0
 10
5.95833333
 20
8.59722222
  0
VERTEX
  8
0
 10
5.91508163
 20
8.67896818
  0
VERTEX
  8
0
 10
5.89402282
 20
8.78290963
  0
VERTEX
  8
0
 10
5.86345260
 20
8.87734070
  0
VERTEX
  8
0
 10
5.83469311
 20
8.91108177
  0
VERTEX
  8
0
 10
5.79166667
 20
8.93055556
  0
VERTEX
  8
0
 10
5.77656379
 20
9.00573306
  0
VERTEX
  8
0
 10
5.77777778
 20
9.09722222
  0
VERTEX
  8
0
 10
5.82700488
 20
9.12888893
  0
VERTEX
  8
0
 10
5.87369633
 20
9.14271923
  0
VERTEX
  8
0
 10
5.95730943
 20
9.12496844
  0
VERTEX
  8
0
 10
6.02429136
 20
9.06016561
  0
VERTEX
  8
0
 10
6.07031640
 20
8.96450650
  0
VERTEX
  8
0
 10
6.09105883
 20
8.85418685
  0
VERTEX
  8
0
 10
6.08219294
 20
8.74540242
  0
VERTEX
  8
0
 10
6.03939301
 20
8.65434896
  0
VERTEX
  8
0
 10
6.00391600
 20
8.62053252
  0
VERTEX
  8
0
 10
5.95833333
 20
8.59722222
  0
SEQEND
  0
POLYLINE
  8
Default_Layer
 66
   1
 39
0.000000
 70
    1
  0
VERTEX
  8
0
 10
8.08333333
 20
8.44444444
  0
VERTEX
  8
0
 10
7.98042920
 20
8.46653738
  0
VERTEX
  8
0
 10
7.89861379
 20
8.50972230
  0
VERTEX
  8
0
 10
7.82235260
 20
8.55846273
  0
VERTEX
  8
0
 10
7.73611111
 20
8.59722222
  0
VERTEX
  8
0
 10
7.71974301
 20
8.62946380
  0
VERTEX
  8
0
 10
7.69363281
 20
8.65196386
  0
VERTEX
  8
0
 10
7.62713463
 20
8.68268758
  0
VERTEX
  8
0
 10
7.56651358
 20
8.71928973
  0
VERTEX
  8
0
 10
7.54774979
 20
8.74913783
  0
VERTEX
  8
0
 10
7.54166667
 20
8.79166667
  0
VERTEX
  8
0
 10
7.60139657
 20
8.80449582
  0
VERTEX
  8
0
 10
7.65709847
 20
8.79783699
  0
VERTEX
  8
0
 10
7.75911275
 20
8.74381154
  0
VERTEX
  8
0
 10
7.85309843
 20
8.66510253
  0
VERTEX
  8
0
 10
7.94444444
 20
8.59722222
  0
VERTEX
  8
0
 10
8.02161015
 20
8.57717091
  0
VERTEX
  8
0
 10
8.08333333
 20
8.54166667
  0
VERTEX
  8
0
 10
8.09152751
 20
8.49038827
  0
VERTEX
  8
0
 10
8.08333333
 20
8.44444444
  0
SEQEND
  0
POLYLINE
  8
Default_Layer
 66
   1
 39
0.000000
 70
    1
  0
VERTEX
  8
0
 10
6.54166667
 20
8.40277778
  0
VERTEX
  8
0
 10
6.56944444
 20
8.29166667
  0
VERTEX
  8
0
 10
6.48305650
 20
8.19036692
  0
VERTEX
  8
0
 10
6.44380590
 20
8.13591445
  0
VERTEX
  8
0
 10
6.41666667
 20
8.06944444
  0
VERTEX
  8
0
 10
6.32684068
 20
8.07922883
  0
VERTEX
  8
0
 10
6.24768584
 20
8.10093827
  0
VERTEX
  8
0
 10
6.16968808
 20
8.12078968
  0
VERTEX
  8
0
 10
6.08333333
 20
8.12500000
  0
VERTEX
  8
0
 10
5.94444444
 20
8.08333333
  0
VERTEX
  8
0
 10
5.74790285
 20
8.08286900
  0
VERTEX
  8
0
 10
5.64516234
 20
8.08339244
  0
VERTEX
  8
0
 10
5.54166667
 20
8.06944444
  0
VERTEX
  8
0
 10
5.53703376
 20
8.13638758
  0
VERTEX
  8
0
 10
5.54166667
 20
8.19444444
  0
VERTEX
  8
0
 10
5.64916186
 20
8.24652745
  0
VERTEX
  8
0
 10
5.77268654
 20
8.28267612
  0
VERTEX
  8
0
 10
5.89875683
 20
8.31637562
  0
VERTEX
  8
0
 10
6.01388889
 20
8.36111111
  0
VERTEX
  8
0
 10
6.00110906
 20
8.40549392
  0
VERTEX
  8
0
 10
5.97345338
 20
8.44146414
  0
VERTEX
  8
0
 10
5.95559878
 20
8.47892452
  0
VERTEX
  8
0
 10
5.97222222
 20
8.52777778
  0
VERTEX
  8
0
 10
6.05744757
 20
8.54155091
  0
VERTEX
  8
0
 10
6.13630195
 20
8.54011247
  0
VERTEX
  8
0
 10
6.27961414
 20
8.50522508
  0
VERTEX
  8
0
 10
6.41159149
 20
8.45036403
  0
VERTEX
  8
0
 10
6.54166667
 20
8.40277778
  0
SEQEND
  0
POLYLINE
  8
Default_Layer
 66
   1
 39
0.000000
 70
    1
  0
VERTEX
  8
0
 10
6.87500000
 20
8.48611111
  0
VERTEX
  8
0
 10
7.02125381
 20
8.42403159
  0
VERTEX
  8
0
 10
7.14075025
 20
8.33519470
  0
VERTEX
  8
0
 10
7.18551446
 20
8.27579224
  0
VERTEX
  8
0
 10
7.21764934
 20
8.20376045
  0
VERTEX
  8
0
 10
7.23517489
 20
8.11711933
  0
VERTEX
  8
0
 10
7.23611111
 20
8.01388889
  0
VERTEX
  8
0
 10
7.18307634
 20
8.02698769
  0
VERTEX
  8
0
 10
7.12532247
 20
8.06405320
  0
VERTEX
  8
0
 10
7.02777778
 20
8.16666667
  0
VERTEX
  8
0
 10
6.94792525
 20
8.32688983
  0
VERTEX
  8
0
 10
6.87500000
 20
8.48611111
  0
SEQEND
  0
POLYLINE
  8
Default_Layer
 66
   1
 39
0.000000
 70
    1
  0
VERTEX
  8
0
 10
7.58333333
 20
8.48611111
  0
VERTEX
  8
0
 10
7.62500000
 20
8.48611111
  0
VERTEX
  8
0
 10
7.76558500
 20
8.42530950
  0
VERTEX
  8
0
 10
7.91535285
 20
8.37368879
  0
VERTEX
  8
0
 10
8.06230540
 20
8.31925147
  0
VERTEX
  8
0
 10
8.19444444
 20
8.25000000
  0
VERTEX
  8
0
 10
8.20848508
 20
8.01244051
  0
VERTEX
  8
0
 10
8.19614556
 20
7.78140945
  0
VERTEX
  8
0
 10
8.12500000
 20
7.34722222
  0
VERTEX
  8
0
 10
8.06607768
 20
7.11402820
  0
VERTEX
  8
0
 10
8.02521731
 20
7.00900067
  0
VERTEX
  8
0
 10
7.97222222
 20
6.91666667
  0
VERTEX
  8
0
 10
7.93075830
 20
6.96054368
  0
VERTEX
  8
0
 10
7.90359522
 20
7.01385772
  0
VERTEX
  8
0
 10
7.86111111
 20
7.12500000
  0
VERTEX
  8
0
 10
7.71108011
 20
7.40056917
  0
VERTEX
  8
0
 10
7.55555556
 20
7.66666667
  0
VERTEX
  8
0
 10
7.48799906
 20
7.67856842
  0
VERTEX
  8
0
 10
7.42317751
 20
7.67670459
  0
VERTEX
  8
0
 10
7.36551720
 20
7.68023847
  0
VERTEX
  8
0
 10
7.31944444
 20
7.70833333
  0
VERTEX
  8
0
 10
7.33259695
 20
7.79432224
  0
VERTEX
  8
0
 10
7.37362178
 20
7.87160077
  0
VERTEX
  8
0
 10
7.47222222
 20
8.02777778
  0
VERTEX
  8
0
 10
7.53987299
 20
8.21984799
  0
VERTEX
  8
0
 10
7.58333333
 20
8.44444444
  0
VERTEX
  8
0
 10
7.58333333
 20
8.48611111
  0
SEQEND
  0
POLYLINE
  8
Default_Layer
 66
   1
 39
0.000000
 70
    1
  0
VERTEX
  8
0
 10
1.76388889
 20
8.27777778
  0
VERTEX
  8
0
 10
1.69834417
 20
8.22507404
  0
VERTEX
  8
0
 10
1.61111111
 20
8.19444444
  0
VERTEX
  8
0
 10
1.54417091
 20
8.09164122
  0
VERTEX
  8
0
 10
1.52777778
 20
7.98611111
  0
VERTEX
  8
0
 10
1.55096275
 20
7.93296692
  0
VERTEX
  8
0
 10
1.58333333
 20
7.87500000
  0
VERTEX
  8
0
 10
1.58333333
 20
7.81944444
  0
VERTEX
  8
0
 10
1.66332612
 20
7.73923741
  0
VERTEX
  8
0
 10
1.76364331
 20
7.67089018
  0
VERTEX
  8
0
 10
1.85019439
 20
7.59348675
  0
VERTEX
  8
0
 10
1.87765437
 20
7.54485271
  0
VERTEX
  8
0
 10
1.88888889
 20
7.48611111
  0
VERTEX
  8
0
 10
1.84704989
 20
7.47455964
  0
VERTEX
  8
0
 10
1.81175878
 20
7.47801536
  0
VERTEX
  8
0
 10
1.75575945
 20
7.51645546
  0
VERTEX
  8
0
 10
1.66666667
 20
7.62500000
  0
VERTEX
  8
0
 10
1.58549711
 20
7.65841377
  0
VERTEX
  8
0
 10
1.52973827
 20
7.71723827
  0
VERTEX
  8
0
 10
1.44444444
 20
7.86111111
  0
VERTEX
  8
0
 10
1.44226779
 20
8.01281883
  0
VERTEX
  8
0
 10
1.44444444
 20
8.15277778
  0
VERTEX
  8
0
 10
1.49038862
 20
8.22738181
  0
VERTEX
  8
0
 10
1.57727595
 20
8.29587976
  0
VERTEX
  8
0
 10
1.67760863
 20
8.32407673
  0
VERTEX
  8
0
 10
1.72422392
 20
8.31237643
  0
VERTEX
  8
0
 10
1.76388889
 20
8.27777778
  0
SEQEND
  0
POLYLINE
  8
Default_Layer
 66
   1
 39
0.000000
 70
    1
  0
VERTEX
  8
0
 10
6.91666667
 20
8.08333333
  0
VERTEX
  8
0
 10
7.01388889
 20
8.08333333
  0
VERTEX
  8
0
 10
6.98644001
 20
8.03243358
  0
VERTEX
  8
0
 10
6.97749858
 20
8.00870064
  0
VERTEX
  8
0
 10
6.98611111
 20
7.98611111
  0
VERTEX
  8
0
 10
7.01380390
 20
7.95910816
  0
VERTEX
  8
0
 10
7.04786655
 20
7.94831603
  0
VERTEX
  8
0
 10
7.12637855
 20
7.95440459
  0
VERTEX
  8
0
 10
7.20420127
 20
7.96245752
  0
VERTEX
  8
0
 10
7.23740233
 20
7.95412086
  0
VERTEX
  8
0
 10
7.26388889
 20
7.93055556
  0
VERTEX
  8
0
 10
7.23951870
 20
7.81936538
  0
VERTEX
  8
0
 10
7.18625233
 20
7.73716848
  0
VERTEX
  8
0
 10
7.10930425
 20
7.67874845
  0
VERTEX
  8
0
 10
7.01388889
 20
7.63888889
  0
VERTEX
  8
0
 10
7.01850214
 20
7.77891783
  0
VERTEX
  8
0
 10
6.98714904
 20
7.88297976
  0
VERTEX
  8
0
 10
6.94486030
 20
7.97610737
  0
VERTEX
  8
0
 10
6.91666667
 20
8.08333333
  0
SEQEND
  0
POLYLINE
  8
Default_Layer
 66
   1
 39
0.000000
 70
    1
  0
VERTEX
  8
0
 10
6.40277778
 20
6.01388889
  0
VERTEX
  8
0
 10
6.32769782
 20
5.99155633
  0
VERTEX
  8
0
 10
6.29079548
 20
5.97989546
  0
VERTEX
  8
0
 10
6.26388889
 20
5.95833333
  0
VERTEX
  8
0
 10
6.25807907
 20
5.87382983
  0
VERTEX
  8
0
 10
6.26643428
 20
5.76343758
  0
VERTEX
  8
0
 10
6.27777778
 20
5.51388889
  0
VERTEX
  8
0
 10
6.09848561
 20
5.51452570
  0
VERTEX
  8
0
 10
5.95683767
 20
5.56003610
  0
VERTEX
  8
0
 10
5.84623216
 20
5.64153321
  0
VERTEX
  8
0
 10
5.76006726
 20
5.75013011
  0
VERTEX
  8
0
 10
5.69174119
 20
5.87693992
  0
VERTEX
  8
0
 10
5.63465212
 20
6.01307573
  0
VERTEX
  8
0
 10
5.52777778
 20
6.27777778
  0
VERTEX
  8
0
 10
5.39358532
 20
6.33287160
  0
VERTEX
  8
0
 10
5.26388889
 20
6.37500000
  0
VERTEX
  8
0
 10
5.13205285
 20
6.42279660
  0
VERTEX
  8
0
 10
5.01388889
 20
6.48611111
  0
VERTEX
  8
0
 10
4.95567731
 20
6.55632048
  0
VERTEX
  8
0
 10
4.90847542
 20
6.64014122
  0
VERTEX
  8
0
 10
4.85495249
 20
6.71986358
  0
VERTEX
  8
0
 10
4.77777778
 20
6.77777778
  0
VERTEX
  8
0
 10
4.71212536
 20
6.79353116
  0
VERTEX
  8
0
 10
4.65126258
 20
6.79687456
  0
VERTEX
  8
0
 10
4.59115739
 20
6.81150290
  0
VERTEX
  8
0
 10
4.52777778
 20
6.86111111
  0
VERTEX
  8
0
 10
4.53479574
 20
6.88861987
  0
VERTEX
  8
0
 10
4.55555556
 20
6.90277778
  0
VERTEX
  8
0
 10
4.61111111
 20
6.91666667
  0
VERTEX
  8
0
 10
5.09224035
 20
6.85132126
  0
VERTEX
  8
0
 10
5.32517588
 20
6.79550917
  0
VERTEX
  8
0
 10
5.42233743
 20
6.75658879
  0
VERTEX
  8
0
 10
5.50000000
 20
6.70833333
  0
VERTEX
  8
0
 10
5.64877662
 20
6.66612547
  0
VERTEX
  8
0
 10
5.79170772
 20
6.60054226
  0
VERTEX
  8
0
 10
5.93461829
 20
6.52982682
  0
VERTEX
  8
0
 10
6.08333333
 20
6.47222222
  0
VERTEX
  8
0
 10
6.22710199
 20
6.43908862
  0
VERTEX
  8
0
 10
6.28476666
 20
6.41664207
  0
VERTEX
  8
0
 10
6.33333333
 20
6.37500000
  0
VERTEX
  8
0
 10
6.37476091
 20
6.30146850
  0
VERTEX
  8
0
 10
6.40050598
 20
6.21055529
  0
VERTEX
  8
0
 10
6.41002584
 20
6.11158665
  0
VERTEX
  8
0
 10
6.40277778
 20
6.01388889
  0
SEQEND
  0
POLYLINE
  8
Default_Layer
 66
   1
 39
0.000000
 70
    1
  0
VERTEX
  8
0
 10
7.77777778
 20
6.09722222
  0
VERTEX
  8
0
 10
7.77772838
 20
6.32282074
  0
VERTEX
  8
0
 10
7.81498567
 20
6.51121032
  0
VERTEX
  8
0
 10
7.87877790
 20
6.67316141
  0
VERTEX
  8
0
 10
7.95833333
 20
6.81944444
  0
VERTEX
  8
0
 10
7.98082490
 20
6.81415563
  0
VERTEX
  8
0
 10
8.00000000
 20
6.80555556
  0
VERTEX
  8
0
 10
8.01556049
 20
6.69954643
  0
VERTEX
  8
0
 10
8.01388889
 20
6.58333333
  0
VERTEX
  8
0
 10
7.96303845
 20
6.50314626
  0
VERTEX
  8
0
 10
7.90277778
 20
6.41666667
  0
VERTEX
  8
0
 10
7.88464314
 20
6.31748992
  0
VERTEX
  8
0
 10
7.87724018
 20
6.21042351
  0
VERTEX
  8
0
 10
7.85135603
 20
6.12661757
  0
VERTEX
  8
0
 10
7.82235447
 20
6.10317169
  0
VERTEX
  8
0
 10
7.77777778
 20
6.09722222
  0
SEQEND
  0
POLYLINE
  8
Default_Layer
 66
   1
 39
0.000000
 70
    1
  0
VERTEX
  8
0
 10
4.73611111
 20
5.31944444
  0
VERTEX
  8
0
 10
4.63235772
 20
5.34160615
  0
VERTEX
  8
0
 10
4.51388889
 20
5.34722222
  0
VERTEX
  8
0
 10
4.42988202
 20
5.36707160
  0
VERTEX
  8
0
 10
4.34722222
 20
5.38888889
  0
VERTEX
  8
0
 10
4.19085025
 20
5.39207924
  0
VERTEX
  8
0
 10
4.01388889
 20
5.41666667
  0
VERTEX
  8
0
 10
3.94823046
 20
5.44958966
  0
VERTEX
  8
0
 10
3.88888889
 20
5.47222222
  0
VERTEX
  8
0
 10
3.83741082
 20
5.45772981
  0
VERTEX
  8
0
 10
3.79772785
 20
5.42871831
  0
VERTEX
  8
0
 10
3.72222222
 20
5.37500000
  0
VERTEX
  8
0
 10
3.73078428
 20
5.51207838
  0
VERTEX
  8
0
 10
3.74752703
 20
5.56830051
  0
VERTEX
  8
0
 10
3.77777778
 20
5.61111111
  0
VERTEX
  8
0
 10
3.93021065
 20
5.60034726
  0
VERTEX
  8
0
 10
4.06769487
 20
5.57463671
  0
VERTEX
  8
0
 10
4.20605388
 20
5.54980225
  0
VERTEX
  8
0
 10
4.36111111
 20
5.54166667
  0
VERTEX
  8
0
 10
4.40868341
 20
5.52673897
  0
VERTEX
  8
0
 10
4.44444444
 20
5.50000000
  0
VERTEX
  8
0
 10
4.47122497
 20
5.50432480
  0
VERTEX
  8
0
 10
4.48601466
 20
5.52073688
  0
VERTEX
  8
0
 10
4.50085258
 20
5.53719719
  0
VERTEX
  8
0
 10
4.52777778
 20
5.54166667
  0
VERTEX
  8
0
 10
4.60118077
 20
5.50743304
  0
VERTEX
  8
0
 10
4.65646310
 20
5.45507681
  0
VERTEX
  8
0
 10
4.73611111
 20
5.31944444
  0
SEQEND
  0
POLYLINE
  8
Default_Layer
 66
   1
 39
0.000000
 70
    1
  0
VERTEX
  8
0
 10
4.27777778
 20
5.18055556
  0
VERTEX
  8
0
 10
4.27777778
 20
5.09722222
  0
VERTEX
  8
0
 10
4.30277469
 20
5.11027501
  0
VERTEX
  8
0
 10
4.31475095
 20
5.13644556
  0
VERTEX
  8
0
 10
4.32560173
 20
5.16383777
  0
VERTEX
  8
0
 10
4.34722222
 20
5.18055556
  0
VERTEX
  8
0
 10
4.40669413
 20
5.17752747
  0
VERTEX
  8
0
 10
4.45284956
 20
5.16118289
  0
VERTEX
  8
0
 10
4.54166667
 20
5.12500000
  0
VERTEX
  8
0
 10
4.55727636
 20
5.13382462
  0
VERTEX
  8
0
 10
4.55219001
 20
5.14640737
  0
VERTEX
  8
0
 10
4.54184198
 20
5.16217532
  0
VERTEX
  8
0
 10
4.54166667
 20
5.18055556
  0
VERTEX
  8
0
 10
4.59863294
 20
5.16489357
  0
VERTEX
  8
0
 10
4.65179470
 20
5.13288983
  0
VERTEX
  8
0
 10
4.75000000
 20
5.05555556
  0
VERTEX
  8
0
 10
4.84690355
 20
4.99208150
  0
VERTEX
  8
0
 10
4.87933157
 20
4.94813263
  0
VERTEX
  8
0
 10
4.87500000
 20
4.88888889
  0
VERTEX
  8
0
 10
4.61972768
 20
4.90444990
  0
VERTEX
  8
0
 10
4.51172669
 20
4.93186362
  0
VERTEX
  8
0
 10
4.43055556
 20
4.98611111
  0
VERTEX
  8
0
 10
4.30555556
 20
4.93055556
  0
VERTEX
  8
0
 10
4.22053495
 20
4.96359507
  0
VERTEX
  8
0
 10
4.15824799
 20
5.01936431
  0
VERTEX
  8
0
 10
4.10364259
 20
5.08281251
  0
VERTEX
  8
0
 10
4.04166667
 20
5.13888889
  0
VERTEX
  8
0
 10
3.97858315
 20
5.12198823
  0
VERTEX
  8
0
 10
3.91809539
 20
5.13178879
  0
VERTEX
  8
0
 10
3.84994882
 20
5.14513940
  0
VERTEX
  8
0
 10
3.76388889
 20
5.13888889
  0
VERTEX
  8
0
 10
3.80318939
 20
5.18013750
  0
VERTEX
  8
0
 10
3.85916989
 20
5.20932267
  0
VERTEX
  8
0
 10
4.00205980
 20
5.23503515
  0
VERTEX
  8
0
 10
4.15433647
 20
5.22309116
  0
VERTEX
  8
0
 10
4.27777778
 20
5.18055556
  0
SEQEND
  0
POLYLINE
  8
Default_Layer
 66
   1
 39
0.000000
 70
    1
  0
VERTEX
  8
0
 10
4.83333333
 20
5.22222222
  0
VERTEX
  8
0
 10
4.87361141
 20
5.22199209
  0
VERTEX
  8
0
 10
4.91527247
 20
5.19648011
  0
VERTEX
  8
0
 10
4.97222222
 20
5.11111111
  0
VERTEX
  8
0
 10
4.92282545
 20
5.12421434
  0
VERTEX
  8
0
 10
4.89107195
 20
5.15496084
  0
VERTEX
  8
0
 10
4.83333333
 20
5.22222222
  0
SEQEND
  0
POLYLINE
  8
Default_Layer
 66
   1
 39
0.000000
 70
    1
  0
VERTEX
  8
0
 10
4.12500000
 20
4.84722222
  0
VERTEX
  8
0
 10
4.18331844
 20
4.83609491
  0
VERTEX
  8
0
 10
4.23166622
 20
4.81499956
  0
VERTEX
  8
0
 10
4.28223645
 20
4.79612664
  0
VERTEX
  8
0
 10
4.34722222
 20
4.79166667
  0
VERTEX
  8
0
 10
4.32690611
 20
4.76635803
  0
VERTEX
  8
0
 10
4.29722004
 20
4.75347430
  0
VERTEX
  8
0
 10
4.22421414
 20
4.75856206
  0
VERTEX
  8
0
 10
4.15715672
 20
4.79409101
  0
VERTEX
  8
0
 10
4.12500000
 20
4.84722222
  0
SEQEND
  0
POLYLINE
  8
Default_Layer
 66
   1
 39
0.000000
 70
    1
  0
VERTEX
  8
0
 10
3.86111111
 20
4.76388889
  0
VERTEX
  8
0
 10
3.94253645
 20
4.74461751
  0
VERTEX
  8
0
 10
4.00563671
 20
4.70702299
  0
VERTEX
  8
0
 10
4.12500000
 20
4.62500000
  0
VERTEX
  8
0
 10
4.34021414
 20
4.62786223
  0
VERTEX
  8
0
 10
4.43672083
 20
4.62813391
  0
VERTEX
  8
0
 10
4.51388889
 20
4.61111111
  0
VERTEX
  8
0
 10
4.46301184
 20
4.57764494
  0
VERTEX
  8
0
 10
4.39512560
 20
4.56167647
  0
VERTEX
  8
0
 10
4.25000000
 20
4.55555556
  0
VERTEX
  8
0
 10
4.12979385
 20
4.56559897
  0
VERTEX
  8
0
 10
4.01418410
 20
4.60197265
  0
VERTEX
  8
0
 10
3.91926008
 20
4.66722111
  0
VERTEX
  8
0
 10
3.86111111
 20
4.76388889
  0
SEQEND
  0
POLYLINE
  8
Default_Layer
 66
   1
 39
0.000000
 70
    1
  0
VERTEX
  8
0
 10
5.91666667
 20
4.34722222
  0
VERTEX
  8
0
 10
5.86592985
 20
4.35898541
  0
VERTEX
  8
0
 10
5.82740650
 20
4.38296206
  0
VERTEX
  8
0
 10
5.77777778
 20
4.45833333
  0
VERTEX
  8
0
 10
5.82474609
 20
4.45778953
  0
VERTEX
  8
0
 10
5.87974400
 20
4.43608289
  0
VERTEX
  8
0
 10
5.91848103
 20
4.39772369
  0
VERTEX
  8
0
 10
5.91666667
 20
4.34722222
  0
SEQEND
  0
POLYLINE
  8
Default_Layer
 66
   1
 39
0.000000
 70
    1
  0
VERTEX
  8
0
 10
8.77777778
 20
3.65277778
  0
VERTEX
  8
0
 10
8.77777778
 20
0.01388889
  0
VERTEX
  8
0
 10
6.70833333
 20
0.01388889
  0
VERTEX
  8
0
 10
6.79914713
 20
0.10378358
  0
VERTEX
  8
0
 10
6.90277778
 20
0.18055556
  0
VERTEX
  8
0
 10
7.09722222
 20
0.34722222
  0
VERTEX
  8
0
 10
7.13733341
 20
0.43814728
  0
VERTEX
  8
0
 10
7.18902942
 20
0.52183931
  0
VERTEX
  8
0
 10
7.30555556
 20
0.68055556
  0
VERTEX
  8
0
 10
7.52979869
 20
1.01036258
  0
VERTEX
  8
0
 10
7.63137462
 20
1.18606603
  0
VERTEX
  8
0
 10
7.72222222
 20
1.37500000
  0
VERTEX
  8
0
 10
7.79291249
 20
1.53636892
  0
VERTEX
  8
0
 10
7.84889435
 20
1.70189296
  0
VERTEX
  8
0
 10
7.86159883
 20
1.78483591
  0
VERTEX
  8
0
 10
7.85890125
 20
1.86716497
  0
VERTEX
  8
0
 10
7.83689330
 20
1.94832922
  0
VERTEX
  8
0
 10
7.79166667
 20
2.02777778
  0
VERTEX
  8
0
 10
7.69576234
 20
2.12176692
  0
VERTEX
  8
0
 10
7.57445598
 20
2.20269088
  0
VERTEX
  8
0
 10
7.44369941
 20
2.28296384
  0
VERTEX
  8
0
 10
7.31944444
 20
2.37500000
  0
VERTEX
  8
0
 10
7.19444444
 20
2.52777778
  0
VERTEX
  8
0
 10
7.11359504
 20
2.59878931
  0
VERTEX
  8
0
 10
7.04166667
 20
2.66666667
  0
VERTEX
  8
0
 10
6.95034993
 20
2.82410722
  0
VERTEX
  8
0
 10
6.87855042
 20
2.97400459
  0
VERTEX
  8
0
 10
6.83680533
 20
3.03952278
  0
VERTEX
  8
0
 10
6.78414238
 20
3.09523300
  0
VERTEX
  8
0
 10
6.71529584
 20
3.13849454
  0
VERTEX
  8
0
 10
6.62500000
 20
3.16666667
  0
VERTEX
  8
0
 10
6.60598721
 20
3.13534027
  0
VERTEX
  8
0
 10
6.60239650
 20
3.10216499
  0
VERTEX
  8
0
 10
6.62546987
 20
3.03202508
  0
VERTEX
  8
0
 10
6.66219719
 20
2.95976152
  0
VERTEX
  8
0
 10
6.68055556
 20
2.88888889
  0
VERTEX
  8
0
 10
6.66932271
 20
2.83584342
  0
VERTEX
  8
0
 10
6.64405008
 20
2.79512716
  0
VERTEX
  8
0
 10
6.58333333
 20
2.70833333
  0
VERTEX
  8
0
 10
6.60320685
 20
2.63793363
  0
VERTEX
  8
0
 10
6.63746831
 20
2.58191796
  0
VERTEX
  8
0
 10
6.66896783
 20
2.52313775
  0
VERTEX
  8
0
 10
6.68055556
 20
2.44444444
  0
VERTEX
  8
0
 10
6.61564317
 20
2.46305955
  0
VERTEX
  8
0
 10
6.57238215
 20
2.50594357
  0
VERTEX
  8
0
 10
6.54822795
 20
2.56698329
  0
VERTEX
  8
0
 10
6.54063601
 20
2.64006553
  0
VERTEX
  8
0
 10
6.56496076
 20
2.79790472
  0
VERTEX
  8
0
 10
6.62500000
 20
2.93055556
  0
VERTEX
  8
0
 10
6.58327924
 20
3.02693341
  0
VERTEX
  8
0
 10
6.56362727
 20
3.07194923
  0
VERTEX
  8
0
 10
6.55555556
 20
3.12500000
  0
VERTEX
  8
0
 10
6.57435850
 20
3.21243769
  0
VERTEX
  8
0
 10
6.62036136
 20
3.29262334
  0
VERTEX
  8
0
 10
6.73611111
 20
3.41666667
  0
VERTEX
  8
0
 10
6.85933330
 20
3.41411925
  0
VERTEX
  8
0
 10
6.95260023
 20
3.43913200
  0
VERTEX
  8
0
 10
7.02147088
 20
3.48696931
  0
VERTEX
  8
0
 10
7.07150424
 20
3.55289556
  0
VERTEX
  8
0
 10
7.13729502
 20
3.72007245
  0
VERTEX
  8
0
 10
7.19444444
 20
3.90277778
  0
VERTEX
  8
0
 10
7.31686622
 20
4.18015563
  0
VERTEX
  8
0
 10
7.44444444
 20
4.38888889
  0
VERTEX
  8
0
 10
7.53509357
 20
4.36147790
  0
VERTEX
  8
0
 10
7.61458845
 20
4.32291657
  0
VERTEX
  8
0
 10
7.69928910
 20
4.28956362
  0
VERTEX
  8
0
 10
7.80555556
 20
4.27777778
  0
VERTEX
  8
0
 10
8.03913806
 20
4.11205798
  0
VERTEX
  8
0
 10
8.29306553
 20
3.96668185
  0
VERTEX
  8
0
 10
8.54629357
 20
3.82060368
  0
VERTEX
  8
0
 10
8.77777778
 20
3.65277778
  0
SEQEND
  0
POLYLINE
  8
Default_Layer
 66
   1
 39
0.000000
 70
    1
  0
VERTEX
  8
0
 10
4.27777778
 20
4.16666667
  0
VERTEX
  8
0
 10
4.27517846
 20
4.12040446
  0
VERTEX
  8
0
 10
4.24288949
 20
4.07938983
  0
VERTEX
  8
0
 10
4.13888889
 20
4.02777778
  0
VERTEX
  8
0
 10
4.04744405
 20
3.93377736
  0
VERTEX
  8
0
 10
3.93647803
 20
3.85625251
  0
VERTEX
  8
0
 10
3.82602300
 20
3.77768474
  0
VERTEX
  8
0
 10
3.73611111
 20
3.68055556
  0
VERTEX
  8
0
 10
3.70211032
 20
3.57690980
  0
VERTEX
  8
0
 10
3.68206553
 20
3.52700666
  0
VERTEX
  8
0
 10
3.63888889
 20
3.48611111
  0
VERTEX
  8
0
 10
3.60034368
 20
3.52873031
  0
VERTEX
  8
0
 10
3.59564904
 20
3.58930633
  0
VERTEX
  8
0
 10
3.62500000
 20
3.69444444
  0
VERTEX
  8
0
 10
3.66716797
 20
3.77302171
  0
VERTEX
  8
0
 10
3.72672256
 20
3.84642128
  0
VERTEX
  8
0
 10
3.88277317
 20
3.97687160
  0
VERTEX
  8
0
 10
4.06271497
 20
4.08416390
  0
VERTEX
  8
0
 10
4.23611111
 20
4.16666667
  0
VERTEX
  8
0
 10
4.27777778
 20
4.16666667
  0
SEQEND
  0
POLYLINE
  8
Default_Layer
 66
   1
 39
0.000000
 70
    1
  0
VERTEX
  8
0
 10
2.95833333
 20
4.09722222
  0
VERTEX
  8
0
 10
2.97222222
 20
4.08333333
  0
VERTEX
  8
0
 10
3.00000000
 20
4.06944444
  0
VERTEX
  8
0
 10
2.98547855
 20
4.01432855
  0
VERTEX
  8
0
 10
2.95833333
 20
3.97222222
  0
VERTEX
  8
0
 10
2.96075190
 20
3.94339274
  0
VERTEX
  8
0
 10
2.98315581
 20
3.93454470
  0
VERTEX
  8
0
 10
3.00703736
 20
3.92717430
  0
VERTEX
  8
0
 10
3.01388889
 20
3.90277778
  0
VERTEX
  8
0
 10
2.90806251
 20
3.71805190
  0
VERTEX
  8
0
 10
2.81705077
 20
3.49690303
  0
VERTEX
  8
0
 10
2.74112475
 20
3.25646931
  0
VERTEX
  8
0
 10
2.68055556
 20
3.01388889
  0
VERTEX
  8
0
 10
2.64346833
 20
2.83913172
  0
VERTEX
  8
0
 10
2.61306813
 20
2.63332004
  0
VERTEX
  8
0
 10
2.60946720
 20
2.41987612
  0
VERTEX
  8
0
 10
2.62400154
 20
2.31761153
  0
VERTEX
  8
0
 10
2.65277778
 20
2.22222222
  0
VERTEX
  8
0
 10
2.67934630
 20
2.26301911
  0
VERTEX
  8
0
 10
2.68468740
 20
2.30963688
  0
VERTEX
  8
0
 10
2.68055556
 20
2.40277778
  0
VERTEX
  8
0
 10
2.72222222
 20
2.62500000
  0
VERTEX
  8
0
 10
2.79172643
 20
2.89651833
  0
VERTEX
  8
0
 10
2.87630372
 20
3.15825285
  0
VERTEX
  8
0
 10
3.08333333
 20
3.65277778
  0
VERTEX
  8
0
 10
3.12938354
 20
3.57630978
  0
VERTEX
  8
0
 10
3.14429643
 20
3.48805772
  0
VERTEX
  8
0
 10
3.13888889
 20
3.30555556
  0
VERTEX
  8
0
 10
3.13884730
 20
2.40139435
  0
VERTEX
  8
0
 10
3.16622202
 20
1.96981466
  0
VERTEX
  8
0
 10
3.19471552
 20
1.76946337
  0
VERTEX
  8
0
 10
3.23611111
 20
1.58333333
  0
VERTEX
  8
0
 10
3.31944444
 20
1.34722222
  0
VERTEX
  8
0
 10
3.35347490
 20
1.21197838
  0
VERTEX
  8
0
 10
3.38888889
 20
1.09722222
  0
VERTEX
  8
0
 10
3.45194956
 20
1.01333983
  0
VERTEX
  8
0
 10
3.48377690
 20
0.97138875
  0
VERTEX
  8
0
 10
3.50000000
 20
0.93055556
  0
VERTEX
  8
0
 10
3.48614654
 20
0.84339274
  0
VERTEX
  8
0
 10
3.43905147
 20
0.76867699
  0
VERTEX
  8
0
 10
3.33333333
 20
0.65277778
  0
VERTEX
  8
0
 10
3.27116464
 20
0.67676640
  0
VERTEX
  8
0
 10
3.20337438
 20
0.72094088
  0
VERTEX
  8
0
 10
3.12764693
 20
0.76575603
  0
VERTEX
  8
0
 10
3.04166667
 20
0.79166667
  0
VERTEX
  8
0
 10
2.97607386
 20
0.90725288
  0
VERTEX
  8
0
 10
2.88354817
 20
1.02025529
  0
VERTEX
  8
0
 10
2.78327616
 20
1.13701894
  0
VERTEX
  8
0
 10
2.69444444
 20
1.26388889
  0
VERTEX
  8
0
 10
2.63888889
 20
1.40277778
  0
VERTEX
  8
0
 10
2.53014678
 20
1.52346987
  0
VERTEX
  8
0
 10
2.47441089
 20
1.58776013
  0
VERTEX
  8
0
 10
2.44444444
 20
1.65277778
  0
VERTEX
  8
0
 10
2.44713940
 20
1.72307582
  0
VERTEX
  8
0
 10
2.46827699
 20
1.79827560
  0
VERTEX
  8
0
 10
2.51388889
 20
1.94444444
  0
VERTEX
  8
0
 10
2.53617738
 20
2.16429498
  0
VERTEX
  8
0
 10
2.54416136
 20
2.39562369
  0
VERTEX
  8
0
 10
2.55089800
 20
2.62358500
  0
VERTEX
  8
0
 10
2.56944444
 20
2.83333333
  0
VERTEX
  8
0
 10
2.60445060
 20
3.10050806
  0
VERTEX
  8
0
 10
2.65277778
 20
3.36111111
  0
VERTEX
  8
0
 10
2.72222222
 20
3.59722222
  0
VERTEX
  8
0
 10
2.79910650
 20
3.85838324
  0
VERTEX
  8
0
 10
2.85188406
 20
3.97160047
  0
VERTEX
  8
0
 10
2.93055556
 20
4.06944444
  0
VERTEX
  8
0
 10
2.94557664
 20
4.08201084
  0
VERTEX
  8
0
 10
2.95833333
 20
4.09722222
  0
SEQEND
  0
POLYLINE
  8
Default_Layer
 66
   1
 39
0.000000
 70
    1
  0
VERTEX
  8
0
 10
2.72222222
 20
4.02777778
  0
VERTEX
  8
0
 10
2.66644635
 20
3.92760778
  0
VERTEX
  8
0
 10
2.59837560
 20
3.83540008
  0
VERTEX
  8
0
 10
2.45833333
 20
3.65277778
  0
VERTEX
  8
0
 10
2.34162994
 20
3.45915598
  0
VERTEX
  8
0
 10
2.27583912
 20
3.36846872
  0
VERTEX
  8
0
 10
2.19444444
 20
3.29166667
  0
VERTEX
  8
0
 10
2.10977089
 20
3.15744183
  0
VERTEX
  8
0
 10
2.01328931
 20
3.03512421
  0
VERTEX
  8
0
 10
1.79166667
 20
2.81944444
  0
VERTEX
  8
0
 10
1.87761725
 20
3.00070867
  0
VERTEX
  8
0
 10
1.94771084
 20
3.19792699
  0
VERTEX
  8
0
 10
2.08333333
 20
3.59722222
  0
VERTEX
  8
0
 10
2.02020424
 20
3.72853758
  0
VERTEX
  8
0
 10
1.98107467
 20
3.78662957
  0
VERTEX
  8
0
 10
1.93055556
 20
3.83333333
  0
VERTEX
  8
0
 10
1.96597153
 20
3.88078843
  0
VERTEX
  8
0
 10
2.01385509
 20
3.91421358
  0
VERTEX
  8
0
 10
2.13756640
 20
3.95082942
  0
VERTEX
  8
0
 10
2.43055556
 20
3.98611111
  0
VERTEX
  8
0
 10
2.56075129
 20
4.01517456
  0
VERTEX
  8
0
 10
2.72222222
 20
4.02777778
  0
SEQEND
  0
POLYLINE
  8
Default_Layer
 66
   1
 39
0.000000
 70
    1
  0
VERTEX
  8
0
 10
3.34722222
 20
3.97222222
  0
VERTEX
  8
0
 10
3.36971379
 20
3.96693601
  0
VERTEX
  8
0
 10
3.38888889
 20
3.95833333
  0
VERTEX
  8
0
 10
3.37221206
 20
3.74114001
  0
VERTEX
  8
0
 10
3.37500000
 20
3.50000000
  0
VERTEX
  8
0
 10
3.39416219
 20
3.34359906
  0
VERTEX
  8
0
 10
3.42522351
 20
3.19624660
  0
VERTEX
  8
0
 10
3.47222222
 20
2.94444444
  0
VERTEX
  8
0
 10
3.42413550
 20
2.93235929
  0
VERTEX
  8
0
 10
3.38846896
 20
2.93924925
  0
VERTEX
  8
0
 10
3.34512942
 20
2.99676726
  0
VERTEX
  8
0
 10
3.30555556
 20
3.19444444
  0
VERTEX
  8
0
 10
3.26922508
 20
3.34974035
  0
VERTEX
  8
0
 10
3.25000000
 20
3.54166667
  0
VERTEX
  8
0
 10
3.26609487
 20
3.63586101
  0
VERTEX
  8
0
 10
3.27149993
 20
3.67866210
  0
VERTEX
  8
0
 10
3.26388889
 20
3.72222222
  0
VERTEX
  8
0
 10
3.30875233
 20
3.84382994
  0
VERTEX
  8
0
 10
3.34722222
 20
3.97222222
  0
SEQEND
  0
POLYLINE
  8
Default_Layer
 66
   1
 39
0.000000
 70
    1
  0
VERTEX
  8
0
 10
4.51388889
 20
3.52777778
  0
VERTEX
  8
0
 10
4.44973315
 20
3.54233641
  0
VERTEX
  8
0
 10
4.38150858
 20
3.58998115
  0
VERTEX
  8
0
 10
4.26388889
 20
3.72222222
  0
VERTEX
  8
0
 10
4.21231779
 20
3.81430910
  0
VERTEX
  8
0
 10
4.20833333
 20
3.93055556
  0
VERTEX
  8
0
 10
4.26388889
 20
3.97222222
  0
VERTEX
  8
0
 10
4.30555556
 20
3.95833333
  0
VERTEX
  8
0
 10
4.31598373
 20
3.88890210
  0
VERTEX
  8
0
 10
4.33814565
 20
3.83120446
  0
VERTEX
  8
0
 10
4.40312525
 20
3.73646379
  0
VERTEX
  8
0
 10
4.47140333
 20
3.64501900
  0
VERTEX
  8
0
 10
4.51388889
 20
3.52777778
  0
SEQEND
  0
POLYLINE
  8
Default_Layer
 66
   1
 39
0.000000
 70
    1
  0
VERTEX
  8
0
 10
2.48611111
 20
3.06944444
  0
VERTEX
  8
0
 10
2.51388889
 20
3.05555556
  0
VERTEX
  8
0
 10
2.46213552
 20
2.89360284
  0
VERTEX
  8
0
 10
2.43043272
 20
2.72224938
  0
VERTEX
  8
0
 10
2.40277778
 20
2.36111111
  0
VERTEX
  8
0
 10
2.39418098
 20
1.97529973
  0
VERTEX
  8
0
 10
2.41666667
 20
1.58333333
  0
VERTEX
  8
0
 10
2.45529214
 20
1.44228921
  0
VERTEX
  8
0
 10
2.51247560
 20
1.29491883
  0
VERTEX
  8
0
 10
2.54606015
 20
1.14939459
  0
VERTEX
  8
0
 10
2.54082880
 20
1.07987865
  0
VERTEX
  8
0
 10
2.51388889
 20
1.01388889
  0
VERTEX
  8
0
 10
2.47775978
 20
1.03626679
  0
VERTEX
  8
0
 10
2.45665077
 20
1.07555789
  0
VERTEX
  8
0
 10
2.43055556
 20
1.16666667
  0
VERTEX
  8
0
 10
2.36552602
 20
1.38268476
  0
VERTEX
  8
0
 10
2.32239678
 20
1.61923187
  0
VERTEX
  8
0
 10
2.30049968
 20
1.86916194
  0
VERTEX
  8
0
 10
2.29916657
 20
2.12532890
  0
VERTEX
  8
0
 10
2.31772931
 20
2.38058669
  0
VERTEX
  8
0
 10
2.35551974
 20
2.62778925
  0
VERTEX
  8
0
 10
2.41186973
 20
2.85979052
  0
VERTEX
  8
0
 10
2.48611111
 20
3.06944444
  0
SEQEND
  0
POLYLINE
  8
Default_Layer
 66
   1
 39
0.000000
 70
    1
  0
VERTEX
  8
0
 10
2.04166667
 20
2.95833333
  0
VERTEX
  8
0
 10
2.06944444
 20
2.93055556
  0
VERTEX
  8
0
 10
2.01692404
 20
2.65264244
  0
VERTEX
  8
0
 10
1.94444444
 20
2.38888889
  0
VERTEX
  8
0
 10
1.92554608
 20
2.30045095
  0
VERTEX
  8
0
 10
1.90835394
 20
2.26121128
  0
VERTEX
  8
0
 10
1.87500000
 20
2.23611111
  0
VERTEX
  8
0
 10
1.86773094
 20
2.29710989
  0
VERTEX
  8
0
 10
1.87220164
 20
2.36399713
  0
VERTEX
  8
0
 10
1.87112708
 20
2.43291358
  0
VERTEX
  8
0
 10
1.84722222
 20
2.50000000
  0
VERTEX
  8
0
 10
1.93673393
 20
2.73668428
  0
VERTEX
  8
0
 10
2.04166667
 20
2.95833333
  0
SEQEND
  0
POLYLINE
  8
Default_Layer
 66
   1
 39
0.000000
 70
    1
  0
VERTEX
  8
0
 10
2.29166667
 20
2.88888889
  0
VERTEX
  8
0
 10
2.31944444
 20
2.87500000
  0
VERTEX
  8
0
 10
2.26186570
 20
2.42217022
  0
VERTEX
  8
0
 10
2.23801898
 20
2.19058430
  0
VERTEX
  8
0
 10
2.23611111
 20
1.95833333
  0
VERTEX
  8
0
 10
2.26208623
 20
1.73517825
  0
VERTEX
  8
0
 10
2.30244851
 20
1.52279678
  0
VERTEX
  8
0
 10
2.34089209
 20
1.31985025
  0
VERTEX
  8
0
 10
2.36111111
 20
1.12500000
  0
VERTEX
  8
0
 10
2.26855151
 20
1.30097910
  0
VERTEX
  8
0
 10
2.20306308
 20
1.50765952
  0
VERTEX
  8
0
 10
2.16309295
 20
1.73604874
  0
VERTEX
  8
0
 10
2.14708827
 20
1.97715424
  0
VERTEX
  8
0
 10
2.15349617
 20
2.22198353
  0
VERTEX
  8
0
 10
2.18076377
 20
2.46154407
  0
VERTEX
  8
0
 10
2.22733823
 20
2.68684336
  0
VERTEX
  8
0
 10
2.29166667
 20
2.88888889
  0
SEQEND
  0
POLYLINE
  8
Default_Layer
 66
   1
 39
0.000000
 70
    1
  0
VERTEX
  8
0
 10
6.19444444
 20
0.01388889
  0
VERTEX
  8
0
 10
5.87500000
 20
0.01388889
  0
VERTEX
  8
0
 10
5.94118992
 20
0.04477326
  0
VERTEX
  8
0
 10
5.98951414
 20
0.09362108
  0
VERTEX
  8
0
 10
6.03613684
 20
0.14426948
  0
VERTEX
  8
0
 10
6.09722222
 20
0.18055556
  0
VERTEX
  8
0
 10
6.24276067
 20
0.50704122
  0
VERTEX
  8
0
 10
6.38888889
 20
0.83333333
  0
VERTEX
  8
0
 10
6.46914272
 20
0.83372280
  0
VERTEX
  8
0
 10
6.53025181
 20
0.81496883
  0
VERTEX
  8
0
 10
6.63888889
 20
0.76388889
  0
VERTEX
  8
0
 10
6.62149474
 20
0.86454899
  0
VERTEX
  8
0
 10
6.57254400
 20
0.93365511
  0
VERTEX
  8
0
 10
6.43055556
 20
1.02777778
  0
VERTEX
  8
0
 10
6.55562358
 20
1.19496082
  0
VERTEX
  8
0
 10
6.70146015
 20
1.35026084
  0
VERTEX
  8
0
 10
6.78868616
 20
1.41150241
  0
VERTEX
  8
0
 10
6.88892775
 20
1.45543044
  0
VERTEX
  8
0
 10
7.00479272
 20
1.47726402
  0
VERTEX
  8
0
 10
7.13888889
 20
1.47222222
  0
VERTEX
  8
0
 10
6.99117734
 20
1.28645577
  0
VERTEX
  8
0
 10
6.86736726
 20
1.07688428
  0
VERTEX
  8
0
 10
6.76126245
 20
0.84970399
  0
VERTEX
  8
0
 10
6.66666667
 20
0.61111111
  0
VERTEX
  8
0
 10
6.45617004
 20
0.42558150
  0
VERTEX
  8
0
 10
6.23611111
 20
0.25000000
  0
VERTEX
  8
0
 10
6.16825233
 20
0.14405476
  0
VERTEX
  8
0
 10
6.08333333
 20
0.05555556
  0
VERTEX
  8
0
 10
6.09713519
 20
0.03116167
  0
VERTEX
  8
0
 10
6.13237317
 20
0.02820650
  0
VERTEX
  8
0
 10
6.17086900
 20
0.02850919
  0
VERTEX
  8
0
 10
6.19444444
 20
0.01388889
  0
SEQEND
  0
POLYLINE
  8
Default_Layer
 66
   1
 39
0.000000
 70
    1
  0
VERTEX
  8
0
 10
5.65277778
 20
0.01388889
  0
VERTEX
  8
0
 10
5.48611111
 20
0.01388889
  0
VERTEX
  8
0
 10
5.43986360
 20
0.03708888
  0
VERTEX
  8
0
 10
5.37952056
 20
0.04619192
  0
VERTEX
  8
0
 10
5.25000000
 20
0.05555556
  0
VERTEX
  8
0
 10
5.31766620
 20
0.17871560
  0
VERTEX
  8
0
 10
5.39423688
 20
0.29307022
  0
VERTEX
  8
0
 10
5.54166667
 20
0.52777778
  0
VERTEX
  8
0
 10
5.49799507
 20
0.52141994
  0
VERTEX
  8
0
 10
5.45897091
 20
0.49712126
  0
VERTEX
  8
0
 10
5.38888889
 20
0.43055556
  0
VERTEX
  8
0
 10
5.18517247
 20
0.23552785
  0
VERTEX
  8
0
 10
5.00000000
 20
0.01388889
  0
VERTEX
  8
0
 10
4.83333333
 20
0.01388889
  0
VERTEX
  8
0
 10
4.87262267
 20
0.08209168
  0
VERTEX
  8
0
 10
4.92371049
 20
0.13859452
  0
VERTEX
  8
0
 10
5.05555556
 20
0.22222222
  0
VERTEX
  8
0
 10
5.30302438
 20
0.46067160
  0
VERTEX
  8
0
 10
5.56944444
 20
0.68055556
  0
VERTEX
  8
0
 10
5.59656499
 20
0.67989702
  0
VERTEX
  8
0
 10
5.61261501
 20
0.66817056
  0
VERTEX
  8
0
 10
5.63888889
 20
0.63888889
  0
VERTEX
  8
0
 10
5.70161373
 20
0.69771288
  0
VERTEX
  8
0
 10
5.74529695
 20
0.76980268
  0
VERTEX
  8
0
 10
5.78438725
 20
0.84588003
  0
VERTEX
  8
0
 10
5.83333333
 20
0.91666667
  0
VERTEX
  8
0
 10
5.97798167
 20
1.03514973
  0
VERTEX
  8
0
 10
6.12500000
 20
1.15277778
  0
VERTEX
  8
0
 10
6.12593812
 20
1.12054550
  0
VERTEX
  8
0
 10
6.11152473
 20
1.09166848
  0
VERTEX
  8
0
 10
6.06944444
 20
1.04166667
  0
VERTEX
  8
0
 10
5.81944444
 20
0.69444444
  0
VERTEX
  8
0
 10
5.66947612
 20
0.43606605
  0
VERTEX
  8
0
 10
5.60879711
 20
0.29289242
  0
VERTEX
  8
0
 10
5.56944444
 20
0.13888889
  0
VERTEX
  8
0
 10
5.62787881
 20
0.17208406
  0
VERTEX
  8
0
 10
5.66907456
 20
0.22553879
  0
VERTEX
  8
0
 10
5.73611111
 20
0.34722222
  0
VERTEX
  8
0
 10
5.91666667
 20
0.56944444
  0
VERTEX
  8
0
 10
6.05278020
 20
0.76994886
  0
VERTEX
  8
0
 10
6.18074053
 20
0.98000268
  0
VERTEX
  8
0
 10
6.32249726
 20
1.17227738
  0
VERTEX
  8
0
 10
6.40540853
 20
1.25320740
  0
VERTEX
  8
0
 10
6.50000000
 20
1.31944444
  0
VERTEX
  8
0
 10
6.38107976
 20
1.18122733
  0
VERTEX
  8
0
 10
6.26388889
 20
1.04166667
  0
VERTEX
  8
0
 10
6.22938185
 20
0.86162508
  0
VERTEX
  8
0
 10
6.16666667
 20
0.72222222
  0
VERTEX
  8
0
 10
6.02424799
 20
0.56411240
  0
VERTEX
  8
0
 10
5.88888889
 20
0.40277778
  0
VERTEX
  8
0
 10
5.77347681
 20
0.22024053
  0
VERTEX
  8
0
 10
5.71263100
 20
0.13332673
  0
VERTEX
  8
0
 10
5.63888889
 20
0.05555556
  0
VERTEX
  8
0
 10
5.64183532
 20
0.03767386
  0
VERTEX
  8
0
 10
5.65277778
 20
0.02777778
  0
VERTEX
  8
0
 10
5.65277778
 20
0.01388889
  0
SEQEND
  0
POLYLINE
  8
Default_Layer
 66
   1
 39
0.000000
 70
    1
  0
VERTEX
  8
0
 10
5.48611111
 20
0.01388889
  0
VERTEX
  8
0
 10
5.00000000
 20
0.01388889
  0
VERTEX
  8
0
 10
5.18517247
 20
0.23552785
  0
VERTEX
  8
0
 10
5.38888889
 20
0.43055556
  0
VERTEX
  8
0
 10
5.45897091
 20
0.49712126
  0
VERTEX
  8
0
 10
5.49799507
 20
0.52141994
  0
VERTEX
  8
0
 10
5.54166667
 20
0.52777778
  0
VERTEX
  8
0
 10
5.39423688
 20
0.29307022
  0
VERTEX
  8
0
 10
5.31766620
 20
0.17871560
  0
VERTEX
  8
0
 10
5.25000000
 20
0.05555556
  0
VERTEX
  8
0
 10
5.37952056
 20
0.04619192
  0
VERTEX
  8
0
 10
5.43986360
 20
0.03708888
  0
VERTEX
  8
0
 10
5.48611111
 20
0.01388889
  0
SEQEND
  0
POLYLINE
  8
Default_Layer
 66
   1
 39
0.000000
 70
    1
  0
VERTEX
  8
0
 10
4.04166667
 20
0.01388889
  0
VERTEX
  8
0
 10
3.98611111
 20
0.01388889
  0
VERTEX
  8
0
 10
3.97612070
 20
0.04021636
  0
VERTEX
  8
0
 10
4.00101067
 20
0.05406067
  0
VERTEX
  8
0
 10
4.03233975
 20
0.04781909
  0
VERTEX
  8
0
 10
4.04166667
 20
0.01388889
  0
SEQEND
  0
POLYLINE
  8
Default_Layer
 66
   1
 39
0.000000
 70
    1
  0
VERTEX
  8
0
 10
8.77777778
 20
3.88888889
  0
VERTEX
  8
0
 10
8.74833862
 20
3.91066327
  0
VERTEX
  8
0
 10
8.73869450
 20
3.91348999
  0
VERTEX
  8
0
 10
8.73611111
 20
3.88888889
  0
VERTEX
  8
0
 10
8.70050210
 20
3.91577988
  0
VERTEX
  8
0
 10
8.68366501
 20
3.96144279
  0
VERTEX
  8
0
 10
8.66874541
 20
4.00902319
  0
VERTEX
  8
0
 10
8.63888889
 20
4.04166667
  0
VERTEX
  8
0
 10
8.62455774
 20
4.02113222
  0
VERTEX
  8
0
 10
8.62325216
 20
3.98766605
  0
VERTEX
  8
0
 10
8.62500000
 20
3.91666667
  0
VERTEX
  8
0
 10
8.58186249
 20
3.93447699
  0
VERTEX
  8
0
 10
8.56252595
 20
3.97385546
  0
VERTEX
  8
0
 10
8.54166667
 20
4.06944444
  0
VERTEX
  8
0
 10
8.38888889
 20
4.37500000
  0
VERTEX
  8
0
 10
8.31573306
 20
4.49748740
  0
VERTEX
  8
0
 10
8.29775952
 20
4.55760754
  0
VERTEX
  8
0
 10
8.30555556
 20
4.62500000
  0
VERTEX
  8
0
 10
8.19880138
 20
4.89324778
  0
VERTEX
  8
0
 10
8.05743254
 20
5.12687699
  0
VERTEX
  8
0
 10
7.88387521
 20
5.32831770
  0
VERTEX
  8
0
 10
7.68055556
 20
5.50000000
  0
VERTEX
  8
0
 10
7.68612745
 20
5.51169214
  0
VERTEX
  8
0
 10
7.70459522
 20
5.50320164
  0
VERTEX
  8
0
 10
7.72493205
 20
5.49658254
  0
VERTEX
  8
0
 10
7.73611111
 20
5.51388889
  0
VERTEX
  8
0
 10
7.76021171
 20
5.69443445
  0
VERTEX
  8
0
 10
7.76798311
 20
5.78518843
  0
VERTEX
  8
0
 10
7.75000000
 20
5.87500000
  0
VERTEX
  8
0
 10
7.71257194
 20
5.86894060
  0
VERTEX
  8
0
 10
7.69110976
 20
5.84694034
  0
VERTEX
  8
0
 10
7.67958636
 20
5.77161223
  0
VERTEX
  8
0
 10
7.68243645
 20
5.68200579
  0
VERTEX
  8
0
 10
7.66666667
 20
5.61111111
  0
VERTEX
  8
0
 10
7.60376275
 20
5.59535668
  0
VERTEX
  8
0
 10
7.55185928
 20
5.61638810
  0
VERTEX
  8
0
 10
7.45833333
 20
5.69444444
  0
VERTEX
  8
0
 10
7.23611111
 20
5.81944444
  0
VERTEX
  8
0
 10
7.27338337
 20
5.83001581
  0
VERTEX
  8
0
 10
7.31151518
 20
5.81491952
  0
VERTEX
  8
0
 10
7.35361162
 20
5.79514125
  0
VERTEX
  8
0
 10
7.40277778
 20
5.79166667
  0
VERTEX
  8
0
 10
7.42853111
 20
5.85257408
  0
VERTEX
  8
0
 10
7.43061692
 20
5.93724365
  0
VERTEX
  8
0
 10
7.43267204
 20
6.02204140
  0
VERTEX
  8
0
 10
7.45833333
 20
6.08333333
  0
VERTEX
  8
0
 10
7.42084435
 20
6.30449678
  0
VERTEX
  8
0
 10
7.38888889
 20
6.54166667
  0
VERTEX
  8
0
 10
7.33859435
 20
6.69561761
  0
VERTEX
  8
0
 10
7.29166667
 20
6.87500000
  0
VERTEX
  8
0
 10
7.24749435
 20
6.96277213
  0
VERTEX
  8
0
 10
7.22222222
 20
7.06944444
  0
VERTEX
  8
0
 10
7.17133035
 20
7.14702350
  0
VERTEX
  8
0
 10
7.10966848
 20
7.21383515
  0
VERTEX
  8
0
 10
6.97222222
 20
7.33333333
  0
VERTEX
  8
0
 10
6.91493914
 20
7.32792351
  0
VERTEX
  8
0
 10
6.87500000
 20
7.30555556
  0
VERTEX
  8
0
 10
6.85157443
 20
7.32726562
  0
VERTEX
  8
0
 10
6.84407247
 20
7.36490060
  0
VERTEX
  8
0
 10
6.83467317
 20
7.40064083
  0
VERTEX
  8
0
 10
6.80555556
 20
7.41666667
  0
VERTEX
  8
0
 10
6.78836857
 20
7.37218684
  0
VERTEX
  8
0
 10
6.80070338
 20
7.32848115
  0
VERTEX
  8
0
 10
6.81546427
 20
7.28720156
  0
VERTEX
  8
0
 10
6.80555556
 20
7.25000000
  0
VERTEX
  8
0
 10
6.74801336
 20
7.23286254
  0
VERTEX
  8
0
 10
6.69787421
 20
7.25188046
  0
VERTEX
  8
0
 10
6.59722222
 20
7.31944444
  0
VERTEX
  8
0
 10
6.30555556
 20
7.40277778
  0
VERTEX
  8
0
 10
6.07533619
 20
7.43546813
  0
VERTEX
  8
0
 10
5.95506525
 20
7.42683044
  0
VERTEX
  8
0
 10
5.84722222
 20
7.38888889
  0
VERTEX
  8
0
 10
5.86764487
 20
7.35028539
  0
VERTEX
  8
0
 10
5.90938150
 20
7.33299522
  0
VERTEX
  8
0
 10
6.01388889
 20
7.31944444
  0
VERTEX
  8
0
 10
6.09486427
 20
7.28031434
  0
VERTEX
  8
0
 10
6.15491067
 20
7.22198480
  0
VERTEX
  8
0
 10
6.21736284
 20
7.15682953
  0
VERTEX
  8
0
 10
6.30555556
 20
7.09722222
  0
VERTEX
  8
0
 10
6.44243971
 20
7.05631067
  0
VERTEX
  8
0
 10
6.61894435
 20
7.03165372
  0
VERTEX
  8
0
 10
6.95833333
 20
7.00000000
  0
VERTEX
  8
0
 10
7.05336154
 20
6.94945910
  0
VERTEX
  8
0
 10
7.13888889
 20
6.86111111
  0
VERTEX
  8
0
 10
7.16666667
 20
6.76388889
  0
VERTEX
  8
0
 10
7.19663706
 20
6.74010251
  0
VERTEX
  8
0
 10
7.22222222
 20
6.69444444
  0
VERTEX
  8
0
 10
7.20522261
 20
6.59345188
  0
VERTEX
  8
0
 10
7.14969713
 20
6.51517369
  0
VERTEX
  8
0
 10
7.07835086
 20
6.44666976
  0
VERTEX
  8
0
 10
7.01388889
 20
6.37500000
  0
VERTEX
  8
0
 10
6.97224939
 20
6.37849711
  0
VERTEX
  8
0
 10
6.94628949
 20
6.39767577
  0
VERTEX
  8
0
 10
6.90277778
 20
6.44444444
  0
VERTEX
  8
0
 10
6.80029615
 20
6.41136844
  0
VERTEX
  8
0
 10
6.70674973
 20
6.36945095
  0
VERTEX
  8
0
 10
6.63135622
 20
6.30947465
  0
VERTEX
  8
0
 10
6.58333333
 20
6.22222222
  0
VERTEX
  8
0
 10
6.51734765
 20
6.23957247
  0
VERTEX
  8
0
 10
6.44444444
 20
6.25000000
  0
VERTEX
  8
0
 10
6.44444444
 20
6.18055556
  0
VERTEX
  8
0
 10
6.47061241
 20
6.14769639
  0
VERTEX
  8
0
 10
6.51334851
 20
6.13140407
  0
VERTEX
  8
0
 10
6.61111111
 20
6.11111111
  0
VERTEX
  8
0
 10
6.64394917
 20
6.07103543
  0
VERTEX
  8
0
 10
6.68629990
 20
6.04046917
  0
VERTEX
  8
0
 10
6.72925069
 20
6.01050166
  0
VERTEX
  8
0
 10
6.76388889
 20
5.97222222
  0
VERTEX
  8
0
 10
6.85826944
 20
5.94260446
  0
VERTEX
  8
0
 10
6.94458532
 20
5.89349157
  0
VERTEX
  8
0
 10
7.11111111
 20
5.77777778
  0
VERTEX
  8
0
 10
7.23611111
 20
5.72222222
  0
VERTEX
  8
0
 10
7.29166667
 20
5.65277778
  0
VERTEX
  8
0
 10
7.39370772
 20
5.59400372
  0
VERTEX
  8
0
 10
7.50000000
 20
5.52777778
  0
VERTEX
  8
0
 10
7.66666667
 20
5.36111111
  0
VERTEX
  8
0
 10
7.84722222
 20
5.22222222
  0
VERTEX
  8
0
 10
8.03868983
 20
4.95535390
  0
VERTEX
  8
0
 10
8.11911297
 20
4.80661199
  0
VERTEX
  8
0
 10
8.18055556
 20
4.63888889
  0
VERTEX
  8
0
 10
8.15612758
 20
4.61456505
  0
VERTEX
  8
0
 10
8.12319938
 20
4.59883463
  0
VERTEX
  8
0
 10
8.09117150
 20
4.58229800
  0
VERTEX
  8
0
 10
8.06944444
 20
4.55555556
  0
VERTEX
  8
0
 10
8.07948090
 20
4.50656879
  0
VERTEX
  8
0
 10
8.11636518
 20
4.48442595
  0
VERTEX
  8
0
 10
8.16103910
 20
4.47007013
  0
VERTEX
  8
0
 10
8.19444444
 20
4.44444444
  0
VERTEX
  8
0
 10
8.17881829
 20
4.42048550
  0
VERTEX
  8
0
 10
8.15583170
 20
4.41288241
  0
VERTEX
  8
0
 10
8.09456223
 20
4.42573879
  0
VERTEX
  8
0
 10
8.02420609
 20
4.44100355
  0
VERTEX
  8
0
 10
7.98986116
 20
4.43641094
  0
VERTEX
  8
0
 10
7.95833333
 20
4.41666667
  0
VERTEX
  8
0
 10
7.76388889
 20
4.45833333
  0
VERTEX
  8
0
 10
7.76537894
 20
4.51190672
  0
VERTEX
  8
0
 10
7.74962907
 20
4.54824018
  0
VERTEX
  8
0
 10
7.69444444
 20
4.59722222
  0
VERTEX
  8
0
 10
7.57355045
 20
4.58317061
  0
VERTEX
  8
0
 10
7.46304660
 20
4.59980303
  0
VERTEX
  8
0
 10
7.37796390
 20
4.64986727
  0
VERTEX
  8
0
 10
7.34965267
 20
4.68829500
  0
VERTEX
  8
0
 10
7.33333333
 20
4.73611111
  0
VERTEX
  8
0
 10
7.35631759
 20
4.74770290
  0
VERTEX
  8
0
 10
7.38877508
 20
4.74992039
  0
VERTEX
  8
0
 10
7.41781725
 20
4.75564991
  0
VERTEX
  8
0
 10
7.43055556
 20
4.77777778
  0
VERTEX
  8
0
 10
7.27202386
 20
4.84146310
  0
VERTEX
  8
0
 10
7.20599787
 20
4.88655017
  0
VERTEX
  8
0
 10
7.15277778
 20
4.94444444
  0
VERTEX
  8
0
 10
7.08790507
 20
4.94666204
  0
VERTEX
  8
0
 10
7.03957004
 20
4.96645702
  0
VERTEX
  8
0
 10
6.98881110
 20
4.98913461
  0
VERTEX
  8
0
 10
6.91666667
 20
5.00000000
  0
VERTEX
  8
0
 10
6.88552139
 20
5.05565800
  0
VERTEX
  8
0
 10
6.83138879
 20
5.08833063
  0
VERTEX
  8
0
 10
6.77475624
 20
5.11850462
  0
VERTEX
  8
0
 10
6.73611111
 20
5.16666667
  0
VERTEX
  8
0
 10
6.68598966
 20
5.17438997
  0
VERTEX
  8
0
 10
6.64019782
 20
5.19933845
  0
VERTEX
  8
0
 10
6.55555556
 20
5.25000000
  0
VERTEX
  8
0
 10
6.50875008
 20
5.24818949
  0
VERTEX
  8
0
 10
6.45833333
 20
5.25000000
  0
VERTEX
  8
0
 10
6.40277778
 20
5.30555556
  0
VERTEX
  8
0
 10
6.31944444
 20
5.33333333
  0
VERTEX
  8
0
 10
6.19289678
 20
5.37745285
  0
VERTEX
  8
0
 10
6.05555556
 20
5.40277778
  0
VERTEX
  8
0
 10
5.89724904
 20
5.45053636
  0
VERTEX
  8
0
 10
5.70833333
 20
5.51388889
  0
VERTEX
  8
0
 10
5.52117091
 20
5.55315494
  0
VERTEX
  8
0
 10
5.34722222
 20
5.59722222
  0
VERTEX
  8
0
 10
5.26377213
 20
5.64439157
  0
VERTEX
  8
0
 10
5.18055556
 20
5.69444444
  0
VERTEX
  8
0
 10
4.98611111
 20
5.75000000
  0
VERTEX
  8
0
 10
4.92297039
 20
5.79782039
  0
VERTEX
  8
0
 10
4.86111111
 20
5.84722222
  0
VERTEX
  8
0
 10
4.54166667
 20
6.00000000
  0
VERTEX
  8
0
 10
4.41666667
 20
6.02777778
  0
VERTEX
  8
0
 10
4.25000000
 20
6.11111111
  0
VERTEX
  8
0
 10
4.15145863
 20
6.16376870
  0
VERTEX
  8
0
 10
4.06732525
 20
6.22285511
  0
VERTEX
  8
0
 10
3.99814036
 20
6.29551397
  0
VERTEX
  8
0
 10
3.94444444
 20
6.38888889
  0
VERTEX
  8
0
 10
3.94792959
 20
6.45264209
  0
VERTEX
  8
0
 10
3.93055556
 20
6.52777778
  0
VERTEX
  8
0
 10
3.87449706
 20
6.55852647
  0
VERTEX
  8
0
 10
3.80671362
 20
6.57754956
  0
VERTEX
  8
0
 10
3.66666667
 20
6.61111111
  0
VERTEX
  8
0
 10
3.61445344
 20
6.65959461
  0
VERTEX
  8
0
 10
3.57279730
 20
6.71863324
  0
VERTEX
  8
0
 10
3.50000000
 20
6.84722222
  0
VERTEX
  8
0
 10
4.09722222
 20
6.86111111
  0
VERTEX
  8
0
 10
4.12296481
 20
6.86994379
  0
VERTEX
  8
0
 10
4.13563272
 20
6.89194956
  0
VERTEX
  8
0
 10
4.15277778
 20
6.94444444
  0
VERTEX
  8
0
 10
4.26388889
 20
6.94444444
  0
VERTEX
  8
0
 10
4.25029308
 20
7.01097496
  0
VERTEX
  8
0
 10
4.21887985
 20
7.06723736
  0
VERTEX
  8
0
 10
4.12021136
 20
7.15925442
  0
VERTEX
  8
0
 10
4.00310386
 20
7.24108871
  0
VERTEX
  8
0
 10
3.90277778
 20
7.33333333
  0
VERTEX
  8
0
 10
3.85071623
 20
7.41175550
  0
VERTEX
  8
0
 10
3.81151865
 20
7.50050963
  0
VERTEX
  8
0
 10
3.79364509
 20
7.59595338
  0
VERTEX
  8
0
 10
3.80555556
 20
7.69444444
  0
VERTEX
  8
0
 10
3.86006831
 20
7.78284470
  0
VERTEX
  8
0
 10
3.89221388
 20
7.82871722
  0
VERTEX
  8
0
 10
3.91666667
 20
7.88888889
  0
VERTEX
  8
0
 10
3.86929044
 20
7.95088767
  0
VERTEX
  8
0
 10
3.80279322
 20
7.99376544
  0
VERTEX
  8
0
 10
3.63608324
 20
8.04580546
  0
VERTEX
  8
0
 10
3.46383163
 20
8.09230386
  0
VERTEX
  8
0
 10
3.39040739
 20
8.12825461
  0
VERTEX
  8
0
 10
3.33333333
 20
8.18055556
  0
VERTEX
  8
0
 10
3.16254650
 20
8.23907208
  0
VERTEX
  8
0
 10
2.96718029
 20
8.26900338
  0
VERTEX
  8
0
 10
2.55555556
 20
8.30555556
  0
VERTEX
  8
0
 10
2.41652091
 20
8.33312143
  0
VERTEX
  8
0
 10
2.35092580
 20
8.32931349
  0
VERTEX
  8
0
 10
2.29166667
 20
8.29166667
  0
VERTEX
  8
0
 10
2.34755516
 20
8.25033131
  0
VERTEX
  8
0
 10
2.42430060
 20
8.22985355
  0
VERTEX
  8
0
 10
2.59722222
 20
8.20833333
  0
VERTEX
  8
0
 10
2.61930876
 20
8.14014209
  0
VERTEX
  8
0
 10
2.65277778
 20
8.08333333
  0
VERTEX
  8
0
 10
2.85625004
 20
7.91527846
  0
VERTEX
  8
0
 10
3.08268706
 20
7.77018706
  0
VERTEX
  8
0
 10
3.56944444
 20
7.51388889
  0
VERTEX
  8
0
 10
3.54171291
 20
7.49286334
  0
VERTEX
  8
0
 10
3.50191501
 20
7.48400320
  0
VERTEX
  8
0
 10
3.46115961
 20
7.47619702
  0
VERTEX
  8
0
 10
3.43055556
 20
7.45833333
  0
VERTEX
  8
0
 10
3.40778288
 20
7.38932519
  0
VERTEX
  8
0
 10
3.40518341
 20
7.33047302
  0
VERTEX
  8
0
 10
3.44209921
 20
7.23160390
  0
VERTEX
  8
0
 10
3.50449318
 20
7.13846060
  0
VERTEX
  8
0
 10
3.55555556
 20
7.02777778
  0
VERTEX
  8
0
 10
3.67065754
 20
7.00517369
  0
VERTEX
  8
0
 10
3.80555556
 20
7.00000000
  0
VERTEX
  8
0
 10
3.79910995
 20
7.05605440
  0
VERTEX
  8
0
 10
3.76423549
 20
7.08367994
  0
VERTEX
  8
0
 10
3.66666667
 20
7.11111111
  0
VERTEX
  8
0
 10
3.66779858
 20
7.18515969
  0
VERTEX
  8
0
 10
3.65389695
 20
7.24417473
  0
VERTEX
  8
0
 10
3.63943573
 20
7.30263018
  0
VERTEX
  8
0
 10
3.63888889
 20
7.37500000
  0
VERTEX
  8
0
 10
3.67922896
 20
7.37020346
  0
VERTEX
  8
0
 10
3.70110737
 20
7.34694331
  0
VERTEX
  8
0
 10
3.70833333
 20
7.26388889
  0
VERTEX
  8
0
 10
3.81944444
 20
7.25000000
  0
VERTEX
  8
0
 10
3.84977230
 20
7.15532785
  0
VERTEX
  8
0
 10
3.87914281
 20
7.12219837
  0
VERTEX
  8
0
 10
3.93055556
 20
7.11111111
  0
VERTEX
  8
0
 10
3.91758306
 20
7.04055737
  0
VERTEX
  8
0
 10
3.88888889
 20
6.98611111
  0
VERTEX
  8
0
 10
3.95177924
 20
6.98650407
  0
VERTEX
  8
0
 10
4.00000000
 20
6.97222222
  0
VERTEX
  8
0
 10
3.90762143
 20
6.94328294
  0
VERTEX
  8
0
 10
3.81220492
 20
6.93115266
  0
VERTEX
  8
0
 10
3.61358202
 20
6.94222195
  0
VERTEX
  8
0
 10
3.40677922
 20
6.97523582
  0
VERTEX
  8
0
 10
3.19444444
 20
7.00000000
  0
VERTEX
  8
0
 10
2.94444444
 20
7.01388889
  0
VERTEX
  8
0
 10
2.72222222
 20
7.02777778
  0
VERTEX
  8
0
 10
2.68071067
 20
7.01181379
  0
VERTEX
  8
0
 10
2.63888889
 20
7.00000000
  0
VERTEX
  8
0
 10
2.57466814
 20
7.01531861
  0
VERTEX
  8
0
 10
2.51520824
 20
7.04157803
  0
VERTEX
  8
0
 10
2.40277778
 20
7.08333333
  0
VERTEX
  8
0
 10
2.55855926
 20
6.95439487
  0
VERTEX
  8
0
 10
2.73468272
 20
6.84579643
  0
VERTEX
  8
0
 10
3.09722222
 20
6.63888889
  0
VERTEX
  8
0
 10
3.00282712
 20
6.51098723
  0
VERTEX
  8
0
 10
2.91032178
 20
6.35823497
  0
VERTEX
  8
0
 10
2.87819944
 20
6.27424466
  0
VERTEX
  8
0
 10
2.86265555
 20
6.18608745
  0
VERTEX
  8
0
 10
2.86905877
 20
6.09444526
  0
VERTEX
  8
0
 10
2.90277778
 20
6.00000000
  0
VERTEX
  8
0
 10
2.91696425
 20
6.02039270
  0
VERTEX
  8
0
 10
2.91822160
 20
6.05381032
  0
VERTEX
  8
0
 10
2.91666667
 20
6.12500000
  0
VERTEX
  8
0
 10
2.98675861
 20
6.14406605
  0
VERTEX
  8
0
 10
3.04137035
 20
6.13526681
  0
VERTEX
  8
0
 10
3.08318916
 20
6.10410684
  0
VERTEX
  8
0
 10
3.11490233
 20
6.05609070
  0
VERTEX
  8
0
 10
3.15876093
 20
5.93150813
  0
VERTEX
  8
0
 10
3.19444444
 20
5.80555556
  0
VERTEX
  8
0
 10
3.16826234
 20
5.79915475
  0
VERTEX
  8
0
 10
3.14360737
 20
5.81498654
  0
VERTEX
  8
0
 10
3.11312093
 20
5.83304728
  0
VERTEX
  8
0
 10
3.06944444
 20
5.83333333
  0
VERTEX
  8
0
 10
3.05465060
 20
5.78160175
  0
VERTEX
  8
0
 10
3.05124678
 20
5.71036813
  0
VERTEX
  8
0
 10
3.05555556
 20
5.54166667
  0
VERTEX
  8
0
 10
3.05072108
 20
5.37762404
  0
VERTEX
  8
0
 10
3.06187169
 20
5.30900566
  0
VERTEX
  8
0
 10
3.09722222
 20
5.26388889
  0
VERTEX
  8
0
 10
3.11833691
 20
5.29998148
  0
VERTEX
  8
0
 10
3.12701484
 20
5.34853493
  0
VERTEX
  8
0
 10
3.12482872
 20
5.46525615
  0
VERTEX
  8
0
 10
3.12620047
 20
5.57851596
  0
VERTEX
  8
0
 10
3.13932573
 20
5.62274266
  0
VERTEX
  8
0
 10
3.16666667
 20
5.65277778
  0
VERTEX
  8
0
 10
3.19165846
 20
5.63610290
  0
VERTEX
  8
0
 10
3.19885511
 20
5.60163289
  0
VERTEX
  8
0
 10
3.20833333
 20
5.52777778
  0
VERTEX
  8
0
 10
3.25007031
 20
5.53977671
  0
VERTEX
  8
0
 10
3.28029331
 20
5.56331364
  0
VERTEX
  8
0
 10
3.31827247
 20
5.63292612
  0
VERTEX
  8
0
 10
3.34642096
 20
5.71246442
  0
VERTEX
  8
0
 10
3.38888889
 20
5.77777778
  0
VERTEX
  8
0
 10
3.60624643
 20
5.78435945
  0
VERTEX
  8
0
 10
3.87500000
 20
5.77777778
  0
VERTEX
  8
0
 10
3.97846501
 20
5.74630598
  0
VERTEX
  8
0
 10
4.08333333
 20
5.70833333
  0
VERTEX
  8
0
 10
4.39797317
 20
5.63551900
  0
VERTEX
  8
0
 10
4.55294557
 20
5.58939947
  0
VERTEX
  8
0
 10
4.69444444
 20
5.52777778
  0
VERTEX
  8
0
 10
4.77110303
 20
5.46580945
  0
VERTEX
  8
0
 10
4.84722222
 20
5.40277778
  0
VERTEX
  8
0
 10
5.09722222
 20
5.29166667
  0
VERTEX
  8
0
 10
5.20120598
 20
5.21926223
  0
VERTEX
  8
0
 10
5.30555556
 20
5.15277778
  0
VERTEX
  8
0
 10
5.45055963
 20
5.11719869
  0
VERTEX
  8
0
 10
5.59722222
 20
5.08333333
  0
VERTEX
  8
0
 10
5.64131709
 20
5.04369452
  0
VERTEX
  8
0
 10
5.66510692
 20
5.02702662
  0
VERTEX
  8
0
 10
5.69444444
 20
5.02777778
  0
VERTEX
  8
0
 10
5.71924129
 20
4.97618879
  0
VERTEX
  8
0
 10
5.75911501
 20
4.93967525
  0
VERTEX
  8
0
 10
5.84722222
 20
4.87500000
  0
VERTEX
  8
0
 10
5.84722222
 20
4.76388889
  0
VERTEX
  8
0
 10
5.97273445
 20
4.73662855
  0
VERTEX
  8
0
 10
6.08333333
 20
4.69444444
  0
VERTEX
  8
0
 10
6.07229528
 20
4.66367115
  0
VERTEX
  8
0
 10
6.04954869
 20
4.64470285
  0
VERTEX
  8
0
 10
6.02980553
 20
4.62282758
  0
VERTEX
  8
0
 10
6.02777778
 20
4.58333333
  0
VERTEX
  8
0
 10
6.00371238
 20
4.59398886
  0
VERTEX
  8
0
 10
5.99511188
 20
4.62011188
  0
VERTEX
  8
0
 10
5.98895544
 20
4.64867896
  0
VERTEX
  8
0
 10
5.97222222
 20
4.66666667
  0
VERTEX
  8
0
 10
5.83333333
 20
4.70833333
  0
VERTEX
  8
0
 10
5.79560203
 20
4.69036570
  0
VERTEX
  8
0
 10
5.76984851
 20
4.66051414
  0
VERTEX
  8
0
 10
5.72222222
 20
4.59722222
  0
VERTEX
  8
0
 10
5.77934956
 20
4.58490511
  0
VERTEX
  8
0
 10
5.83333333
 20
4.56944444
  0
VERTEX
  8
0
 10
5.87228652
 20
4.48339763
  0
VERTEX
  8
0
 10
5.94382230
 20
4.42993341
  0
VERTEX
  8
0
 10
6.04344693
 20
4.40455804
  0
VERTEX
  8
0
 10
6.16666667
 20
4.40277778
  0
VERTEX
  8
0
 10
6.13924305
 20
4.36061683
  0
VERTEX
  8
0
 10
6.08694122
 20
4.34342664
  0
VERTEX
  8
0
 10
6.02589101
 20
4.33507868
  0
VERTEX
  8
0
 10
5.97222222
 20
4.31944444
  0
VERTEX
  8
0
 10
5.94197126
 20
4.20366917
  0
VERTEX
  8
0
 10
5.90277778
 20
4.09722222
  0
VERTEX
  8
0
 10
5.94723802
 20
4.05725172
  0
VERTEX
  8
0
 10
6.00338743
 20
4.03470264
  0
VERTEX
  8
0
 10
6.13569973
 20
4.03085824
  0
VERTEX
  8
0
 10
6.26960661
 20
4.06366805
  0
VERTEX
  8
0
 10
6.37500000
 20
4.11111111
  0
VERTEX
  8
0
 10
6.34740998
 20
4.03791984
  0
VERTEX
  8
0
 10
6.30394277
 20
3.98063081
  0
VERTEX
  8
0
 10
6.18415876
 20
3.89897699
  0
VERTEX
  8
0
 10
6.04521204
 20
3.83658467
  0
VERTEX
  8
0
 10
5.91666667
 20
3.76388889
  0
VERTEX
  8
0
 10
5.93015696
 20
3.73571251
  0
VERTEX
  8
0
 10
5.95329313
 20
3.71718202
  0
VERTEX
  8
0
 10
6.00000000
 20
3.68055556
  0
VERTEX
  8
0
 10
5.97662152
 20
3.62437564
  0
VERTEX
  8
0
 10
5.96781275
 20
3.56875789
  0
VERTEX
  8
0
 10
5.94444444
 20
3.45833333
  0
VERTEX
  8
0
 10
5.90087736
 20
3.39444481
  0
VERTEX
  8
0
 10
5.85332751
 20
3.34583758
  0
VERTEX
  8
0
 10
5.81661390
 20
3.29445045
  0
VERTEX
  8
0
 10
5.80555556
 20
3.22222222
  0
VERTEX
  8
0
 10
5.83094333
 20
3.15024452
  0
VERTEX
  8
0
 10
5.87516813
 20
3.08920476
  0
VERTEX
  8
0
 10
5.90889220
 20
3.01828485
  0
VERTEX
  8
0
 10
5.90277778
 20
2.91666667
  0
VERTEX
  8
0
 10
5.82254659
 20
3.00310214
  0
VERTEX
  8
0
 10
5.75207195
 20
3.09929417
  0
VERTEX
  8
0
 10
5.61111111
 20
3.29166667
  0
VERTEX
  8
0
 10
5.61111111
 20
3.41666667
  0
VERTEX
  8
0
 10
5.48299209
 20
3.66247595
  0
VERTEX
  8
0
 10
5.43858995
 20
3.79980546
  0
VERTEX
  8
0
 10
5.43055556
 20
3.95833333
  0
VERTEX
  8
0
 10
5.46211761
 20
4.07634817
  0
VERTEX
  8
0
 10
5.48611111
 20
4.19444444
  0
VERTEX
  8
0
 10
5.45708220
 20
4.29282126
  0
VERTEX
  8
0
 10
5.43055556
 20
4.38888889
  0
VERTEX
  8
0
 10
5.45430429
 20
4.50263682
  0
VERTEX
  8
0
 10
5.51228497
 20
4.59831292
  0
VERTEX
  8
0
 10
5.58842873
 20
4.67608257
  0
VERTEX
  8
0
 10
5.66666667
 20
4.73611111
  0
VERTEX
  8
0
 10
5.61510991
 20
4.81302332
  0
VERTEX
  8
0
 10
5.53704487
 20
4.86342855
  0
VERTEX
  8
0
 10
5.45434628
 20
4.90920284
  0
VERTEX
  8
0
 10
5.38888889
 20
4.97222222
  0
VERTEX
  8
0
 10
5.34802666
 20
4.95288704
  0
VERTEX
  8
0
 10
5.31240355
 20
4.95929695
  0
VERTEX
  8
0
 10
5.23611111
 20
5.00000000
  0
VERTEX
  8
0
 10
5.13888889
 20
4.59722222
  0
VERTEX
  8
0
 10
5.09398254
 20
4.39658636
  0
VERTEX
  8
0
 10
5.05555556
 20
4.19444444
  0
VERTEX
  8
0
 10
5.04732356
 20
4.00754713
  0
VERTEX
  8
0
 10
5.05041206
 20
3.81877525
  0
VERTEX
  8
0
 10
5.04218341
 20
3.63381019
  0
VERTEX
  8
0
 10
5.00000000
 20
3.45833333
  0
VERTEX
  8
0
 10
4.88005331
 20
3.44259309
  0
VERTEX
  8
0
 10
4.76514209
 20
3.45653845
  0
VERTEX
  8
0
 10
4.54166667
 20
3.50000000
  0
VERTEX
  8
0
 10
4.52593241
 20
3.46444244
  0
VERTEX
  8
0
 10
4.52695511
 20
3.41923011
  0
VERTEX
  8
0
 10
4.54166667
 20
3.33333333
  0
VERTEX
  8
0
 10
4.63395720
 20
3.31103955
  0
VERTEX
  8
0
 10
4.69742942
 20
3.25992681
  0
VERTEX
  8
0
 10
4.74204804
 20
3.18996178
  0
VERTEX
  8
0
 10
4.77777778
 20
3.11111111
  0
VERTEX
  8
0
 10
4.83482143
 20
3.09871097
  0
VERTEX
  8
0
 10
4.90192178
 20
3.09636622
  0
VERTEX
  8
0
 10
4.96597790
 20
3.09097725
  0
VERTEX
  8
0
 10
5.01388889
 20
3.06944444
  0
VERTEX
  8
0
 10
4.99482506
 20
3.03441598
  0
VERTEX
  8
0
 10
4.96989841
 20
3.01653480
  0
VERTEX
  8
0
 10
4.90821084
 20
3.01793601
  0
VERTEX
  8
0
 10
4.77777778
 20
3.06944444
  0
VERTEX
  8
0
 10
4.70058567
 20
3.07510233
  0
VERTEX
  8
0
 10
4.62500000
 20
3.08333333
  0
VERTEX
  8
0
 10
4.54334261
 20
3.12993549
  0
VERTEX
  8
0
 10
4.45833333
 20
3.18055556
  0
VERTEX
  8
0
 10
4.22768862
 20
3.24332004
  0
VERTEX
  8
0
 10
4.01388889
 20
3.30555556
  0
VERTEX
  8
0
 10
3.96516264
 20
3.35057833
  0
VERTEX
  8
0
 10
3.90411952
 20
3.38328358
  0
VERTEX
  8
0
 10
3.76388889
 20
3.43055556
  0
VERTEX
  8
0
 10
3.75964665
 20
3.39728782
  0
VERTEX
  8
0
 10
3.76984678
 20
3.35582195
  0
VERTEX
  8
0
 10
3.78054018
 20
3.30658400
  0
VERTEX
  8
0
 10
3.77777778
 20
3.25000000
  0
VERTEX
  8
0
 10
3.80704157
 20
3.24876037
  0
VERTEX
  8
0
 10
3.83380581
 20
3.26948706
  0
VERTEX
  8
0
 10
3.86380603
 20
3.29435911
  0
VERTEX
  8
0
 10
3.90277778
 20
3.30555556
  0
VERTEX
  8
0
 10
3.97436712
 20
3.27085744
  0
VERTEX
  8
0
 10
4.07159765
 20
3.19418202
  0
VERTEX
  8
0
 10
4.25000000
 20
3.05555556
  0
VERTEX
  8
0
 10
4.47825233
 20
2.97235615
  0
VERTEX
  8
0
 10
4.69444444
 20
2.90277778
  0
VERTEX
  8
0
 10
4.90968289
 20
2.79501345
  0
VERTEX
  8
0
 10
5.02398597
 20
2.75930134
  0
VERTEX
  8
0
 10
5.15277778
 20
2.76388889
  0
VERTEX
  8
0
 10
5.09498758
 20
2.72330025
  0
VERTEX
  8
0
 10
5.06422146
 20
2.69667182
  0
VERTEX
  8
0
 10
5.02777778
 20
2.68055556
  0
VERTEX
  8
0
 10
4.94039851
 20
2.69431952
  0
VERTEX
  8
0
 10
4.81944444
 20
2.72222222
  0
VERTEX
  8
0
 10
4.58333333
 20
2.72222222
  0
VERTEX
  8
0
 10
4.47789435
 20
2.75751761
  0
VERTEX
  8
0
 10
4.43215611
 20
2.77440555
  0
VERTEX
  8
0
 10
4.38888889
 20
2.77777778
  0
VERTEX
  8
0
 10
4.39312022
 20
2.74427015
  0
VERTEX
  8
0
 10
4.41720095
 20
2.72398549
  0
VERTEX
  8
0
 10
4.48611111
 20
2.69444444
  0
VERTEX
  8
0
 10
4.59722222
 20
2.62500000
  0
VERTEX
  8
0
 10
4.82089782
 20
2.56470251
  0
VERTEX
  8
0
 10
4.90788758
 20
2.51477063
  0
VERTEX
  8
0
 10
4.93405766
 20
2.47338000
  0
VERTEX
  8
0
 10
4.94444444
 20
2.41666667
  0
VERTEX
  8
0
 10
4.93610208
 20
2.37558632
  0
VERTEX
  8
0
 10
4.91542421
 20
2.34797699
  0
VERTEX
  8
0
 10
4.87500000
 20
2.29166667
  0
VERTEX
  8
0
 10
4.87767803
 20
2.23999695
  0
VERTEX
  8
0
 10
4.87500000
 20
2.18055556
  0
VERTEX
  8
0
 10
4.77519314
 20
2.12680080
  0
VERTEX
  8
0
 10
4.65572421
 20
2.10141327
  0
VERTEX
  8
0
 10
4.52783762
 20
2.08434689
  0
VERTEX
  8
0
 10
4.40277778
 20
2.05555556
  0
VERTEX
  8
0
 10
4.31319678
 20
2.01022855
  0
VERTEX
  8
0
 10
4.26950368
 20
1.99136955
  0
VERTEX
  8
0
 10
4.22222222
 20
1.98611111
  0
VERTEX
  8
0
 10
4.19629151
 20
2.00009693
  0
VERTEX
  8
0
 10
4.20785042
 20
2.02269348
  0
VERTEX
  8
0
 10
4.23006746
 20
2.05130440
  0
VERTEX
  8
0
 10
4.23611111
 20
2.08333333
  0
VERTEX
  8
0
 10
4.19720726
 20
2.10452920
  0
VERTEX
  8
0
 10
4.15513029
 20
2.10934817
  0
VERTEX
  8
0
 10
4.06944444
 20
2.11111111
  0
VERTEX
  8
0
 10
3.93589073
 20
2.14755247
  0
VERTEX
  8
0
 10
3.81318341
 20
2.20217733
  0
VERTEX
  8
0
 10
3.70402328
 20
2.27724131
  0
VERTEX
  8
0
 10
3.61111111
 20
2.37500000
  0
VERTEX
  8
0
 10
3.54969834
 20
2.49006883
  0
VERTEX
  8
0
 10
3.51794698
 20
2.54744954
  0
VERTEX
  8
0
 10
3.47222222
 20
2.59722222
  0
VERTEX
  8
0
 10
3.49964498
 20
2.47234665
  0
VERTEX
  8
0
 10
3.55763445
 20
2.35904470
  0
VERTEX
  8
0
 10
3.70833333
 20
2.15277778
  0
VERTEX
  8
0
 10
4.01388889
 20
1.76388889
  0
VERTEX
  8
0
 10
3.92839105
 20
1.69835633
  0
VERTEX
  8
0
 10
3.81944444
 20
1.62500000
  0
VERTEX
  8
0
 10
3.65465997
 20
1.49091779
  0
VERTEX
  8
0
 10
3.58991800
 20
1.41249485
  0
VERTEX
  8
0
 10
3.52777778
 20
1.30555556
  0
VERTEX
  8
0
 10
3.48290017
 20
1.21875422
  0
VERTEX
  8
0
 10
3.45232872
 20
1.13702612
  0
VERTEX
  8
0
 10
3.45948181
 20
1.06317384
  0
VERTEX
  8
0
 10
3.48452328
 20
1.03007695
  0
VERTEX
  8
0
 10
3.52777778
 20
1.00000000
  0
VERTEX
  8
0
 10
3.66316039
 20
1.07023738
  0
VERTEX
  8
0
 10
3.83358445
 20
1.12598862
  0
VERTEX
  8
0
 10
4.01777185
 20
1.14305110
  0
VERTEX
  8
0
 10
4.10837738
 20
1.12951074
  0
VERTEX
  8
0
 10
4.19444444
 20
1.09722222
  0
VERTEX
  8
0
 10
4.10819980
 20
1.01711942
  0
VERTEX
  8
0
 10
4.00560077
 20
0.95632265
  0
VERTEX
  8
0
 10
3.79166667
 20
0.84722222
  0
VERTEX
  8
0
 10
3.60069695
 20
0.71559678
  0
VERTEX
  8
0
 10
3.43055556
 20
0.56944444
  0
VERTEX
  8
0
 10
3.88983949
 20
0.56615251
  0
VERTEX
  8
0
 10
4.11341818
 20
0.58767718
  0
VERTEX
  8
0
 10
4.31944444
 20
0.63888889
  0
VERTEX
  8
0
 10
4.46760559
 20
0.71236058
  0
VERTEX
  8
0
 10
4.60239504
 20
0.80349782
  0
VERTEX
  8
0
 10
4.73459808
 20
0.88871948
  0
VERTEX
  8
0
 10
4.87500000
 20
0.94444444
  0
VERTEX
  8
0
 10
4.81787562
 20
0.85211716
  0
VERTEX
  8
0
 10
4.73291119
 20
0.78772716
  0
VERTEX
  8
0
 10
4.64260227
 20
0.72877914
  0
VERTEX
  8
0
 10
4.56944444
 20
0.65277778
  0
VERTEX
  8
0
 10
4.62910515
 20
0.64780145
  0
VERTEX
  8
0
 10
4.67925234
 20
0.66068916
  0
VERTEX
  8
0
 10
4.76074296
 20
0.72205320
  0
VERTEX
  8
0
 10
4.83338988
 20
0.80086286
  0
VERTEX
  8
0
 10
4.91666667
 20
0.86111111
  0
VERTEX
  8
0
 10
4.95881702
 20
0.83860155
  0
VERTEX
  8
0
 10
5.01335791
 20
0.82736575
  0
VERTEX
  8
0
 10
5.14249035
 20
0.82109400
  0
VERTEX
  8
0
 10
5.26982206
 20
0.80705303
  0
VERTEX
  8
0
 10
5.32211204
 20
0.78610570
  0
VERTEX
  8
0
 10
5.36111111
 20
0.75000000
  0
VERTEX
  8
0
 10
5.32416833
 20
0.70577966
  0
VERTEX
  8
0
 10
5.27207612
 20
0.68117160
  0
VERTEX
  8
0
 10
5.15277778
 20
0.65277778
  0
VERTEX
  8
0
 10
4.50000000
 20
0.45833333
  0
VERTEX
  8
0
 10
4.23848098
 20
0.38136171
  0
VERTEX
  8
0
 10
3.94444444
 20
0.31944444
  0
VERTEX
  8
0
 10
3.76608559
 20
0.30251425
  0
VERTEX
  8
0
 10
3.58560867
 20
0.30830403
  0
VERTEX
  8
0
 10
3.40549501
 20
0.33332875
  0
VERTEX
  8
0
 10
3.22822595
 20
0.37410338
  0
VERTEX
  8
0
 10
2.89214691
 20
0.48896215
  0
VERTEX
  8
0
 10
2.59722222
 20
0.62500000
  0
VERTEX
  8
0
 10
2.59631249
 20
0.59151403
  0
VERTEX
  8
0
 10
2.61590789
 20
0.56596744
  0
VERTEX
  8
0
 10
2.66666667
 20
0.52777778
  0
VERTEX
  8
0
 10
2.85542430
 20
0.35186065
  0
VERTEX
  8
0
 10
2.96129585
 20
0.27718101
  0
VERTEX
  8
0
 10
3.07871726
 20
0.21383862
  0
VERTEX
  8
0
 10
3.21060458
 20
0.16369696
  0
VERTEX
  8
0
 10
3.35987382
 20
0.12861950
  0
VERTEX
  8
0
 10
3.52944102
 20
0.11046973
  0
VERTEX
  8
0
 10
3.72222222
 20
0.11111111
  0
VERTEX
  8
0
 10
3.93234686
 20
0.13060082
  0
VERTEX
  8
0
 10
4.13743689
 20
0.16590418
  0
VERTEX
  8
0
 10
4.52469365
 20
0.27590980
  0
VERTEX
  8
0
 10
4.86835360
 20
0.42504385
  0
VERTEX
  8
0
 10
5.15277778
 20
0.59722222
  0
VERTEX
  8
0
 10
5.13536336
 20
0.53273532
  0
VERTEX
  8
0
 10
5.08988428
 20
0.48148636
  0
VERTEX
  8
0
 10
4.97222222
 20
0.40277778
  0
VERTEX
  8
0
 10
4.79989413
 20
0.29053359
  0
VERTEX
  8
0
 10
4.60992351
 20
0.18255442
  0
VERTEX
  8
0
 10
4.39971336
 20
0.09440915
  0
VERTEX
  8
0
 10
4.16666667
 20
0.04166667
  0
VERTEX
  8
0
 10
4.17248074
 20
0.02664546
  0
VERTEX
  8
0
 10
4.19434799
 20
0.02768133
  0
VERTEX
  8
0
 10
4.21626347
 20
0.02876542
  0
VERTEX
  8
0
 10
4.22222222
 20
0.01388889
  0
VERTEX
  8
0
 10
4.04166667
 20
0.01388889
  0
VERTEX
  8
0
 10
4.03233975
 20
0.04781909
  0
VERTEX
  8
0
 10
4.00101067
 20
0.05406067
  0
VERTEX
  8
0
 10
3.97612070
 20
0.04021636
  0
VERTEX
  8
0
 10
3.98611111
 20
0.01388889
  0
VERTEX
  8
0
 10
2.52777778
 20
0.01388889
  0
VERTEX
  8
0
 10
2.55847465
 20
0.02818786
  0
VERTEX
  8
0
 10
2.60238601
 20
0.02936813
  0
VERTEX
  8
0
 10
2.69444444
 20
0.02777778
  0
VERTEX
  8
0
 10
2.65382560
 20
0.04965372
  0
VERTEX
  8
0
 10
2.61111111
 20
0.06944444
  0
VERTEX
  8
0
 10
2.62399140
 20
0.09803324
  0
VERTEX
  8
0
 10
2.62500000
 20
0.13888889
  0
VERTEX
  8
0
 10
2.51634928
 20
0.26468608
  0
VERTEX
  8
0
 10
2.42438792
 20
0.41308410
  0
VERTEX
  8
0
 10
2.35981594
 20
0.58063452
  0
VERTEX
  8
0
 10
2.33333333
 20
0.76388889
  0
VERTEX
  8
0
 10
2.26284863
 20
0.84768389
  0
VERTEX
  8
0
 10
2.22276813
 20
0.95793220
  0
VERTEX
  8
0
 10
2.16666667
 20
1.23611111
  0
VERTEX
  8
0
 10
2.12500000
 20
1.33333333
  0
VERTEX
  8
0
 10
2.08289589
 20
1.70608463
  0
VERTEX
  8
0
 10
2.08258584
 20
2.09579470
  0
VERTEX
  8
0
 10
2.11389954
 20
2.47927408
  0
VERTEX
  8
0
 10
2.16666667
 20
2.83333333
  0
VERTEX
  8
0
 10
2.13118192
 20
2.81282250
  0
VERTEX
  8
0
 10
2.11360633
 20
2.77609140
  0
VERTEX
  8
0
 10
2.09722222
 20
2.69444444
  0
VERTEX
  8
0
 10
2.04417612
 20
2.49711605
  0
VERTEX
  8
0
 10
2.00000000
 20
2.26388889
  0
VERTEX
  8
0
 10
1.96114713
 20
2.08475598
  0
VERTEX
  8
0
 10
1.94666419
 20
1.99334702
  0
VERTEX
  8
0
 10
1.94444444
 20
1.88888889
  0
VERTEX
  8
0
 10
1.96318274
 20
1.68388261
  0
VERTEX
  8
0
 10
1.99904244
 20
1.46952508
  0
VERTEX
  8
0
 10
2.05274203
 20
1.25304389
  0
VERTEX
  8
0
 10
2.12500000
 20
1.04166667
  0
VERTEX
  8
0
 10
2.21808955
 20
0.77784496
  0
VERTEX
  8
0
 10
2.29714035
 20
0.52594817
  0
VERTEX
  8
0
 10
2.38039876
 20
0.28885507
  0
VERTEX
  8
0
 10
2.48611111
 20
0.06944444
  0
VERTEX
  8
0
 10
2.45226640
 20
0.04254851
  0
VERTEX
  8
0
 10
2.50000000
 20
0.02777778
  0
VERTEX
  8
0
 10
2.50000000
 20
0.01388889
  0
VERTEX
  8
0
 10
1.22222222
 20
0.01388889
  0
VERTEX
  8
0
 10
1.22222222
 20
9.98611111
  0
VERTEX
  8
0
 10
8.77777778
 20
9.98611111
  0
VERTEX
  8
0
 10
8.77777778
 20
3.88888889
  0
SEQEND
  0
POLYLINE
  8
Default_Layer
 66
   1
 39
0.000000
 70
    1
  0
VERTEX
  8
0
 10
5.08333333
 20
9.79166667
  0
VERTEX
  8
0
 10
5.01487235
 20
9.76733932
  0
VERTEX
  8
0
 10
4.95507456
 20
9.72019470
  0
VERTEX
  8
0
 10
4.84722222
 20
9.58333333
  0
VERTEX
  8
0
 10
4.72333966
 20
9.38472838
  0
VERTEX
  8
0
 10
4.68372254
 20
9.27665455
  0
VERTEX
  8
0
 10
4.66666667
 20
9.15277778
  0
VERTEX
  8
0
 10
4.73069941
 20
9.15457323
  0
VERTEX
  8
0
 10
4.76867959
 20
9.18251640
  0
VERTEX
  8
0
 10
4.78690331
 20
9.23031247
  0
VERTEX
  8
0
 10
4.79166667
 20
9.29166667
  0
VERTEX
  8
0
 10
4.87074747
 20
9.40683740
  0
VERTEX
  8
0
 10
4.93055556
 20
9.54166667
  0
VERTEX
  8
0
 10
5.06389244
 20
9.65563480
  0
VERTEX
  8
0
 10
5.13751095
 20
9.69162245
  0
VERTEX
  8
0
 10
5.22222222
 20
9.70833333
  0
VERTEX
  8
0
 10
5.36364261
 20
9.70104209
  0
VERTEX
  8
0
 10
5.43346883
 20
9.71052389
  0
VERTEX
  8
0
 10
5.48611111
 20
9.75000000
  0
VERTEX
  8
0
 10
5.39494459
 20
9.78571581
  0
VERTEX
  8
0
 10
5.28761640
 20
9.80080667
  0
VERTEX
  8
0
 10
5.08333333
 20
9.79166667
  0
SEQEND
  0
POLYLINE
  8
Default_Layer
 66
   1
 39
0.000000
 70
    1
  0
VERTEX
  8
0
 10
5.56944444
 20
9.68055556
  0
VERTEX
  8
0
 10
5.64941917
 20
9.59036726
  0
VERTEX
  8
0
 10
5.76388889
 20
9.50000000
  0
VERTEX
  8
0
 10
5.99091952
 20
9.38434279
  0
VERTEX
  8
0
 10
6.22222222
 20
9.30555556
  0
VERTEX
  8
0
 10
6.25038983
 20
9.33969504
  0
VERTEX
  8
0
 10
6.26348758
 20
9.35789552
  0
VERTEX
  8
0
 10
6.26388889
 20
9.38888889
  0
VERTEX
  8
0
 10
6.24959008
 20
9.40236427
  0
VERTEX
  8
0
 10
6.22439105
 20
9.40494400
  0
VERTEX
  8
0
 10
6.20157983
 20
9.40991284
  0
VERTEX
  8
0
 10
6.19444444
 20
9.43055556
  0
VERTEX
  8
0
 10
6.21686345
 20
9.49821935
  0
VERTEX
  8
0
 10
6.22222222
 20
9.58333333
  0
VERTEX
  8
0
 10
6.07773756
 20
9.64371206
  0
VERTEX
  8
0
 10
5.91241674
 20
9.68325268
  0
VERTEX
  8
0
 10
5.74227645
 20
9.71797252
  0
VERTEX
  8
0
 10
5.58333333
 20
9.76388889
  0
VERTEX
  8
0
 10
5.56774765
 20
9.72152838
  0
VERTEX
  8
0
 10
5.56944444
 20
9.68055556
  0
SEQEND
  0
POLYLINE
  8
Default_Layer
 66
   1
 39
0.000000
 70
    1
  0
VERTEX
  8
0
 10
6.45833333
 20
9.41666667
  0
VERTEX
  8
0
 10
6.44601570
 20
9.44948702
  0
VERTEX
  8
0
 10
6.41795060
 20
9.46655858
  0
VERTEX
  8
0
 10
6.34722222
 20
9.48611111
  0
VERTEX
  8
0
 10
6.32735720
 20
9.53568792
  0
VERTEX
  8
0
 10
6.30858328
 20
9.55163721
  0
VERTEX
  8
0
 10
6.27777778
 20
9.55555556
  0
VERTEX
  8
0
 10
6.26498869
 20
9.51271333
  0
VERTEX
  8
0
 10
6.26931314
 20
9.47487909
  0
VERTEX
  8
0
 10
6.31528046
 20
9.41877924
  0
VERTEX
  8
0
 10
6.38763532
 20
9.39634533
  0
VERTEX
  8
0
 10
6.45833333
 20
9.41666667
  0
SEQEND
  0
POLYLINE
  8
Default_Layer
 66
   1
 39
0.000000
 70
    1
  0
VERTEX
  8
0
 10
6.48611111
 20
9.38888889
  0
VERTEX
  8
0
 10
6.49420681
 20
9.29540006
  0
VERTEX
  8
0
 10
6.52601831
 20
9.22629487
  0
VERTEX
  8
0
 10
6.54829287
 20
9.16209780
  0
VERTEX
  8
0
 10
6.52777778
 20
9.08333333
  0
VERTEX
  8
0
 10
6.64963497
 20
8.92047039
  0
VERTEX
  8
0
 10
6.70834118
 20
8.83681510
  0
VERTEX
  8
0
 10
6.77777778
 20
8.76388889
  0
VERTEX
  8
0
 10
6.89551466
 20
8.86174001
  0
VERTEX
  8
0
 10
6.93300739
 20
8.92212632
  0
VERTEX
  8
0
 10
6.94444444
 20
8.98611111
  0
VERTEX
  8
0
 10
6.93281618
 20
9.03240645
  0
VERTEX
  8
0
 10
6.90722261
 20
9.07332452
  0
VERTEX
  8
0
 10
6.82688949
 20
9.14118601
  0
VERTEX
  8
0
 10
6.63888889
 20
9.23611111
  0
VERTEX
  8
0
 10
6.62182315
 20
9.30731811
  0
VERTEX
  8
0
 10
6.58884209
 20
9.37048584
  0
VERTEX
  8
0
 10
6.54268999
 20
9.40466065
  0
VERTEX
  8
0
 10
6.48611111
 20
9.38888889
  0
SEQEND
  0
POLYLINE
  8
Default_Layer
 66
   1
 39
0.000000
 70
    1
  0
VERTEX
  8
0
 10
5.77777778
 20
9.09722222
  0
VERTEX
  8
0
 10
5.77656379
 20
9.00573306
  0
VERTEX
  8
0
 10
5.79166667
 20
8.93055556
  0
VERTEX
  8
0
 10
5.83469311
 20
8.91108177
  0
VERTEX
  8
0
 10
5.86345260
 20
8.87734070
  0
VERTEX
  8
0
 10
5.89402282
 20
8.78290963
  0
VERTEX
  8
0
 10
5.91508163
 20
8.67896818
  0
VERTEX
  8
0
 10
5.95833333
 20
8.59722222
  0
VERTEX
  8
0
 10
6.00391600
 20
8.62053252
  0
VERTEX
  8
0
 10
6.03939301
 20
8.65434896
  0
VERTEX
  8
0
 10
6.08219294
 20
8.74540242
  0
VERTEX
  8
0
 10
6.09105883
 20
8.85418685
  0
VERTEX
  8
0
 10
6.07031640
 20
8.96450650
  0
VERTEX
  8
0
 10
6.02429136
 20
9.06016561
  0
VERTEX
  8
0
 10
5.95730943
 20
9.12496844
  0
VERTEX
  8
0
 10
5.87369633
 20
9.14271923
  0
VERTEX
  8
0
 10
5.82700488
 20
9.12888893
  0
VERTEX
  8
0
 10
5.77777778
 20
9.09722222
  0
SEQEND
  0
POLYLINE
  8
Default_Layer
 66
   1
 39
0.000000
 70
    1
  0
VERTEX
  8
0
 10
8.08333333
 20
8.54166667
  0
VERTEX
  8
0
 10
8.02161015
 20
8.57717091
  0
VERTEX
  8
0
 10
7.94444444
 20
8.59722222
  0
VERTEX
  8
0
 10
7.85309843
 20
8.66510253
  0
VERTEX
  8
0
 10
7.75911275
 20
8.74381154
  0
VERTEX
  8
0
 10
7.65709847
 20
8.79783699
  0
VERTEX
  8
0
 10
7.60139657
 20
8.80449582
  0
VERTEX
  8
0
 10
7.54166667
 20
8.79166667
  0
VERTEX
  8
0
 10
7.54774979
 20
8.74913783
  0
VERTEX
  8
0
 10
7.56651358
 20
8.71928973
  0
VERTEX
  8
0
 10
7.62713463
 20
8.68268758
  0
VERTEX
  8
0
 10
7.69363281
 20
8.65196386
  0
VERTEX
  8
0
 10
7.71974301
 20
8.62946380
  0
VERTEX
  8
0
 10
7.73611111
 20
8.59722222
  0
VERTEX
  8
0
 10
7.82235260
 20
8.55846273
  0
VERTEX
  8
0
 10
7.89861379
 20
8.50972230
  0
VERTEX
  8
0
 10
7.98042920
 20
8.46653738
  0
VERTEX
  8
0
 10
8.08333333
 20
8.44444444
  0
VERTEX
  8
0
 10
8.09152751
 20
8.49038827
  0
VERTEX
  8
0
 10
8.08333333
 20
8.54166667
  0
SEQEND
  0
POLYLINE
  8
Default_Layer
 66
   1
 39
0.000000
 70
    1
  0
VERTEX
  8
0
 10
5.97222222
 20
8.52777778
  0
VERTEX
  8
0
 10
5.95559878
 20
8.47892452
  0
VERTEX
  8
0
 10
5.97345338
 20
8.44146414
  0
VERTEX
  8
0
 10
6.00110906
 20
8.40549392
  0
VERTEX
  8
0
 10
6.01388889
 20
8.36111111
  0
VERTEX
  8
0
 10
5.89875683
 20
8.31637562
  0
VERTEX
  8
0
 10
5.77268654
 20
8.28267612
  0
VERTEX
  8
0
 10
5.64916186
 20
8.24652745
  0
VERTEX
  8
0
 10
5.54166667
 20
8.19444444
  0
VERTEX
  8
0
 10
5.53703376
 20
8.13638758
  0
VERTEX
  8
0
 10
5.54166667
 20
8.06944444
  0
VERTEX
  8
0
 10
5.64516234
 20
8.08339244
  0
VERTEX
  8
0
 10
5.74790285
 20
8.08286900
  0
VERTEX
  8
0
 10
5.94444444
 20
8.08333333
  0
VERTEX
  8
0
 10
6.08333333
 20
8.12500000
  0
VERTEX
  8
0
 10
6.16968808
 20
8.12078968
  0
VERTEX
  8
0
 10
6.24768584
 20
8.10093827
  0
VERTEX
  8
0
 10
6.32684068
 20
8.07922883
  0
VERTEX
  8
0
 10
6.41666667
 20
8.06944444
  0
VERTEX
  8
0
 10
6.44380590
 20
8.13591445
  0
VERTEX
  8
0
 10
6.48305650
 20
8.19036692
  0
VERTEX
  8
0
 10
6.56944444
 20
8.29166667
  0
VERTEX
  8
0
 10
6.54166667
 20
8.40277778
  0
VERTEX
  8
0
 10
6.41159149
 20
8.45036403
  0
VERTEX
  8
0
 10
6.27961414
 20
8.50522508
  0
VERTEX
  8
0
 10
6.13630195
 20
8.54011247
  0
VERTEX
  8
0
 10
6.05744757
 20
8.54155091
  0
VERTEX
  8
0
 10
5.97222222
 20
8.52777778
  0
SEQEND
  0
POLYLINE
  8
Default_Layer
 66
   1
 39
0.000000
 70
    1
  0
VERTEX
  8
0
 10
7.02777778
 20
8.16666667
  0
VERTEX
  8
0
 10
7.12532247
 20
8.06405320
  0
VERTEX
  8
0
 10
7.18307634
 20
8.02698769
  0
VERTEX
  8
0
 10
7.23611111
 20
8.01388889
  0
VERTEX
  8
0
 10
7.23517489
 20
8.11711933
  0
VERTEX
  8
0
 10
7.21764934
 20
8.20376045
  0
VERTEX
  8
0
 10
7.18551446
 20
8.27579224
  0
VERTEX
  8
0
 10
7.14075025
 20
8.33519470
  0
VERTEX
  8
0
 10
7.02125381
 20
8.42403159
  0
VERTEX
  8
0
 10
6.87500000
 20
8.48611111
  0
VERTEX
  8
0
 10
6.94792525
 20
8.32688983
  0
VERTEX
  8
0
 10
7.02777778
 20
8.16666667
  0
SEQEND
  0
POLYLINE
  8
Default_Layer
 66
   1
 39
0.000000
 70
    1
  0
VERTEX
  8
0
 10
7.58333333
 20
8.44444444
  0
VERTEX
  8
0
 10
7.53987299
 20
8.21984799
  0
VERTEX
  8
0
 10
7.47222222
 20
8.02777778
  0
VERTEX
  8
0
 10
7.37362178
 20
7.87160077
  0
VERTEX
  8
0
 10
7.33259695
 20
7.79432224
  0
VERTEX
  8
0
 10
7.31944444
 20
7.70833333
  0
VERTEX
  8
0
 10
7.36551720
 20
7.68023847
  0
VERTEX
  8
0
 10
7.42317751
 20
7.67670459
  0
VERTEX
  8
0
 10
7.48799906
 20
7.67856842
  0
VERTEX
  8
0
 10
7.55555556
 20
7.66666667
  0
VERTEX
  8
0
 10
7.71108011
 20
7.40056917
  0
VERTEX
  8
0
 10
7.86111111
 20
7.12500000
  0
VERTEX
  8
0
 10
7.90359522
 20
7.01385772
  0
VERTEX
  8
0
 10
7.93075830
 20
6.96054368
  0
VERTEX
  8
0
 10
7.97222222
 20
6.91666667
  0
VERTEX
  8
0
 10
8.02521731
 20
7.00900067
  0
VERTEX
  8
0
 10
8.06607768
 20
7.11402820
  0
VERTEX
  8
0
 10
8.12500000
 20
7.34722222
  0
VERTEX
  8
0
 10
8.19614556
 20
7.78140945
  0
VERTEX
  8
0
 10
8.20848508
 20
8.01244051
  0
VERTEX
  8
0
 10
8.19444444
 20
8.25000000
  0
VERTEX
  8
0
 10
8.06230540
 20
8.31925147
  0
VERTEX
  8
0
 10
7.91535285
 20
8.37368879
  0
VERTEX
  8
0
 10
7.76558500
 20
8.42530950
  0
VERTEX
  8
0
 10
7.62500000
 20
8.48611111
  0
VERTEX
  8
0
 10
7.58333333
 20
8.48611111
  0
VERTEX
  8
0
 10
7.58333333
 20
8.44444444
  0
SEQEND
  0
POLYLINE
  8
Default_Layer
 66
   1
 39
0.000000
 70
    1
  0
VERTEX
  8
0
 10
1.44444444
 20
8.15277778
  0
VERTEX
  8
0
 10
1.44226779
 20
8.01281883
  0
VERTEX
  8
0
 10
1.44444444
 20
7.86111111
  0
VERTEX
  8
0
 10
1.52973827
 20
7.71723827
  0
VERTEX
  8
0
 10
1.58549711
 20
7.65841377
  0
VERTEX
  8
0
 10
1.66666667
 20
7.62500000
  0
VERTEX
  8
0
 10
1.75575945
 20
7.51645546
  0
VERTEX
  8
0
 10
1.81175878
 20
7.47801536
  0
VERTEX
  8
0
 10
1.84704989
 20
7.47455964
  0
VERTEX
  8
0
 10
1.88888889
 20
7.48611111
  0
VERTEX
  8
0
 10
1.87765437
 20
7.54485271
  0
VERTEX
  8
0
 10
1.85019439
 20
7.59348675
  0
VERTEX
  8
0
 10
1.76364331
 20
7.67089018
  0
VERTEX
  8
0
 10
1.66332612
 20
7.73923741
  0
VERTEX
  8
0
 10
1.58333333
 20
7.81944444
  0
VERTEX
  8
0
 10
1.58333333
 20
7.87500000
  0
VERTEX
  8
0
 10
1.55096275
 20
7.93296692
  0
VERTEX
  8
0
 10
1.52777778
 20
7.98611111
  0
VERTEX
  8
0
 10
1.54417091
 20
8.09164122
  0
VERTEX
  8
0
 10
1.61111111
 20
8.19444444
  0
VERTEX
  8
0
 10
1.69834417
 20
8.22507404
  0
VERTEX
  8
0
 10
1.76388889
 20
8.27777778
  0
VERTEX
  8
0
 10
1.72422392
 20
8.31237643
  0
VERTEX
  8
0
 10
1.67760863
 20
8.32407673
  0
VERTEX
  8
0
 10
1.57727595
 20
8.29587976
  0
VERTEX
  8
0
 10
1.49038862
 20
8.22738181
  0
VERTEX
  8
0
 10
1.44444444
 20
8.15277778
  0
SEQEND
  0
POLYLINE
  8
Default_Layer
 66
   1
 39
0.000000
 70
    1
  0
VERTEX
  8
0
 10
7.01388889
 20
7.63888889
  0
VERTEX
  8
0
 10
7.10930425
 20
7.67874845
  0
VERTEX
  8
0
 10
7.18625233
 20
7.73716848
  0
VERTEX
  8
0
 10
7.23951870
 20
7.81936538
  0
VERTEX
  8
0
 10
7.26388889
 20
7.93055556
  0
VERTEX
  8
0
 10
7.23740233
 20
7.95412086
  0
VERTEX
  8
0
 10
7.20420127
 20
7.96245752
  0
VERTEX
  8
0
 10
7.12637855
 20
7.95440459
  0
VERTEX
  8
0
 10
7.04786655
 20
7.94831603
  0
VERTEX
  8
0
 10
7.01380390
 20
7.95910816
  0
VERTEX
  8
0
 10
6.98611111
 20
7.98611111
  0
VERTEX
  8
0
 10
6.97749858
 20
8.00870064
  0
VERTEX
  8
0
 10
6.98644001
 20
8.03243358
  0
VERTEX
  8
0
 10
7.01388889
 20
8.08333333
  0
VERTEX
  8
0
 10
6.91666667
 20
8.08333333
  0
VERTEX
  8
0
 10
6.94486030
 20
7.97610737
  0
VERTEX
  8
0
 10
6.98714904
 20
7.88297976
  0
VERTEX
  8
0
 10
7.01850214
 20
7.77891783
  0
VERTEX
  8
0
 10
7.01388889
 20
7.63888889
  0
SEQEND
  0
POLYLINE
  8
Default_Layer
 66
   1
 39
0.000000
 70
    1
  0
VERTEX
  8
0
 10
6.33333333
 20
6.37500000
  0
VERTEX
  8
0
 10
6.28476666
 20
6.41664207
  0
VERTEX
  8
0
 10
6.22710199
 20
6.43908862
  0
VERTEX
  8
0
 10
6.08333333
 20
6.47222222
  0
VERTEX
  8
0
 10
5.93461829
 20
6.52982682
  0
VERTEX
  8
0
 10
5.79170772
 20
6.60054226
  0
VERTEX
  8
0
 10
5.64877662
 20
6.66612547
  0
VERTEX
  8
0
 10
5.50000000
 20
6.70833333
  0
VERTEX
  8
0
 10
5.42233743
 20
6.75658879
  0
VERTEX
  8
0
 10
5.32517588
 20
6.79550917
  0
VERTEX
  8
0
 10
5.09224035
 20
6.85132126
  0
VERTEX
  8
0
 10
4.61111111
 20
6.91666667
  0
VERTEX
  8
0
 10
4.55555556
 20
6.90277778
  0
VERTEX
  8
0
 10
4.53479574
 20
6.88861987
  0
VERTEX
  8
0
 10
4.52777778
 20
6.86111111
  0
VERTEX
  8
0
 10
4.59115739
 20
6.81150290
  0
VERTEX
  8
0
 10
4.65126258
 20
6.79687456
  0
VERTEX
  8
0
 10
4.71212536
 20
6.79353116
  0
VERTEX
  8
0
 10
4.77777778
 20
6.77777778
  0
VERTEX
  8
0
 10
4.85495249
 20
6.71986358
  0
VERTEX
  8
0
 10
4.90847542
 20
6.64014122
  0
VERTEX
  8
0
 10
4.95567731
 20
6.55632048
  0
VERTEX
  8
0
 10
5.01388889
 20
6.48611111
  0
VERTEX
  8
0
 10
5.13205285
 20
6.42279660
  0
VERTEX
  8
0
 10
5.26388889
 20
6.37500000
  0
VERTEX
  8
0
 10
5.39358532
 20
6.33287160
  0
VERTEX
  8
0
 10
5.52777778
 20
6.27777778
  0
VERTEX
  8
0
 10
5.63465212
 20
6.01307573
  0
VERTEX
  8
0
 10
5.69174119
 20
5.87693992
  0
VERTEX
  8
0
 10
5.76006726
 20
5.75013011
  0
VERTEX
  8
0
 10
5.84623216
 20
5.64153321
  0
VERTEX
  8
0
 10
5.95683767
 20
5.56003610
  0
VERTEX
  8
0
 10
6.09848561
 20
5.51452570
  0
VERTEX
  8
0
 10
6.27777778
 20
5.51388889
  0
VERTEX
  8
0
 10
6.26643428
 20
5.76343758
  0
VERTEX
  8
0
 10
6.25807907
 20
5.87382983
  0
VERTEX
  8
0
 10
6.26388889
 20
5.95833333
  0
VERTEX
  8
0
 10
6.29079548
 20
5.97989546
  0
VERTEX
  8
0
 10
6.32769782
 20
5.99155633
  0
VERTEX
  8
0
 10
6.40277778
 20
6.01388889
  0
VERTEX
  8
0
 10
6.41002584
 20
6.11158665
  0
VERTEX
  8
0
 10
6.40050598
 20
6.21055529
  0
VERTEX
  8
0
 10
6.37476091
 20
6.30146850
  0
VERTEX
  8
0
 10
6.33333333
 20
6.37500000
  0
SEQEND
  0
POLYLINE
  8
Default_Layer
 66
   1
 39
0.000000
 70
    1
  0
VERTEX
  8
0
 10
7.90277778
 20
6.41666667
  0
VERTEX
  8
0
 10
7.96303845
 20
6.50314626
  0
VERTEX
  8
0
 10
8.01388889
 20
6.58333333
  0
VERTEX
  8
0
 10
8.01556049
 20
6.69954643
  0
VERTEX
  8
0
 10
8.00000000
 20
6.80555556
  0
VERTEX
  8
0
 10
7.98082490
 20
6.81415563
  0
VERTEX
  8
0
 10
7.95833333
 20
6.81944444
  0
VERTEX
  8
0
 10
7.87877790
 20
6.67316141
  0
VERTEX
  8
0
 10
7.81498567
 20
6.51121032
  0
VERTEX
  8
0
 10
7.77772838
 20
6.32282074
  0
VERTEX
  8
0
 10
7.77777778
 20
6.09722222
  0
VERTEX
  8
0
 10
7.82235447
 20
6.10317169
  0
VERTEX
  8
0
 10
7.85135603
 20
6.12661757
  0
VERTEX
  8
0
 10
7.87724018
 20
6.21042351
  0
VERTEX
  8
0
 10
7.88464314
 20
6.31748992
  0
VERTEX
  8
0
 10
7.90277778
 20
6.41666667
  0
SEQEND
  0
POLYLINE
  8
Default_Layer
 66
   1
 39
0.000000
 70
    1
  0
VERTEX
  8
0
 10
4.52777778
 20
5.54166667
  0
VERTEX
  8
0
 10
4.50085258
 20
5.53719719
  0
VERTEX
  8
0
 10
4.48601466
 20
5.52073688
  0
VERTEX
  8
0
 10
4.47122497
 20
5.50432480
  0
VERTEX
  8
0
 10
4.44444444
 20
5.50000000
  0
VERTEX
  8
0
 10
4.40868341
 20
5.52673897
  0
VERTEX
  8
0
 10
4.36111111
 20
5.54166667
  0
VERTEX
  8
0
 10
4.20605388
 20
5.54980225
  0
VERTEX
  8
0
 10
4.06769487
 20
5.57463671
  0
VERTEX
  8
0
 10
3.93021065
 20
5.60034726
  0
VERTEX
  8
0
 10
3.77777778
 20
5.61111111
  0
VERTEX
  8
0
 10
3.74752703
 20
5.56830051
  0
VERTEX
  8
0
 10
3.73078428
 20
5.51207838
  0
VERTEX
  8
0
 10
3.72222222
 20
5.37500000
  0
VERTEX
  8
0
 10
3.79772785
 20
5.42871831
  0
VERTEX
  8
0
 10
3.83741082
 20
5.45772981
  0
VERTEX
  8
0
 10
3.88888889
 20
5.47222222
  0
VERTEX
  8
0
 10
3.94823046
 20
5.44958966
  0
VERTEX
  8
0
 10
4.01388889
 20
5.41666667
  0
VERTEX
  8
0
 10
4.19085025
 20
5.39207924
  0
VERTEX
  8
0
 10
4.34722222
 20
5.38888889
  0
VERTEX
  8
0
 10
4.42988202
 20
5.36707160
  0
VERTEX
  8
0
 10
4.51388889
 20
5.34722222
  0
VERTEX
  8
0
 10
4.63235772
 20
5.34160615
  0
VERTEX
  8
0
 10
4.73611111
 20
5.31944444
  0
VERTEX
  8
0
 10
4.65646310
 20
5.45507681
  0
VERTEX
  8
0
 10
4.60118077
 20
5.50743304
  0
VERTEX
  8
0
 10
4.52777778
 20
5.54166667
  0
SEQEND
  0
POLYLINE
  8
Default_Layer
 66
   1
 39
0.000000
 70
    1
  0
VERTEX
  8
0
 10
3.08333333
 20
5.04166667
  0
VERTEX
  8
0
 10
3.08099112
 20
5.10164604
  0
VERTEX
  8
0
 10
3.05108202
 20
5.15370372
  0
VERTEX
  8
0
 10
3.01299303
 20
5.20529843
  0
VERTEX
  8
0
 10
2.98611111
 20
5.26388889
  0
VERTEX
  8
0
 10
2.98091432
 20
5.34793309
  0
VERTEX
  8
0
 10
2.98879817
 20
5.43474452
  0
VERTEX
  8
0
 10
2.98839405
 20
5.51946147
  0
VERTEX
  8
0
 10
2.95833333
 20
5.59722222
  0
VERTEX
  8
0
 10
2.91881119
 20
5.43203710
  0
VERTEX
  8
0
 10
2.91281136
 20
5.26256726
  0
VERTEX
  8
0
 10
2.92878503
 20
5.18645161
  0
VERTEX
  8
0
 10
2.96082252
 20
5.12153602
  0
VERTEX
  8
0
 10
3.01148493
 20
5.07191090
  0
VERTEX
  8
0
 10
3.08333333
 20
5.04166667
  0
SEQEND
  0
POLYLINE
  8
Default_Layer
 66
   1
 39
0.000000
 70
    1
  0
VERTEX
  8
0
 10
3.76388889
 20
5.13888889
  0
VERTEX
  8
0
 10
3.84994882
 20
5.14513940
  0
VERTEX
  8
0
 10
3.91809539
 20
5.13178879
  0
VERTEX
  8
0
 10
3.97858315
 20
5.12198823
  0
VERTEX
  8
0
 10
4.04166667
 20
5.13888889
  0
VERTEX
  8
0
 10
4.10364259
 20
5.08281251
  0
VERTEX
  8
0
 10
4.15824799
 20
5.01936431
  0
VERTEX
  8
0
 10
4.22053495
 20
4.96359507
  0
VERTEX
  8
0
 10
4.30555556
 20
4.93055556
  0
VERTEX
  8
0
 10
4.43055556
 20
4.98611111
  0
VERTEX
  8
0
 10
4.51172669
 20
4.93186362
  0
VERTEX
  8
0
 10
4.61972768
 20
4.90444990
  0
VERTEX
  8
0
 10
4.87500000
 20
4.88888889
  0
VERTEX
  8
0
 10
4.87933157
 20
4.94813263
  0
VERTEX
  8
0
 10
4.84690355
 20
4.99208150
  0
VERTEX
  8
0
 10
4.75000000
 20
5.05555556
  0
VERTEX
  8
0
 10
4.65179470
 20
5.13288983
  0
VERTEX
  8
0
 10
4.59863294
 20
5.16489357
  0
VERTEX
  8
0
 10
4.54166667
 20
5.18055556
  0
VERTEX
  8
0
 10
4.54184198
 20
5.16217532
  0
VERTEX
  8
0
 10
4.55219001
 20
5.14640737
  0
VERTEX
  8
0
 10
4.55727636
 20
5.13382462
  0
VERTEX
  8
0
 10
4.54166667
 20
5.12500000
  0
VERTEX
  8
0
 10
4.45284956
 20
5.16118289
  0
VERTEX
  8
0
 10
4.40669413
 20
5.17752747
  0
VERTEX
  8
0
 10
4.34722222
 20
5.18055556
  0
VERTEX
  8
0
 10
4.32560173
 20
5.16383777
  0
VERTEX
  8
0
 10
4.31475095
 20
5.13644556
  0
VERTEX
  8
0
 10
4.30277469
 20
5.11027501
  0
VERTEX
  8
0
 10
4.27777778
 20
5.09722222
  0
VERTEX
  8
0
 10
4.27777778
 20
5.18055556
  0
VERTEX
  8
0
 10
4.15433647
 20
5.22309116
  0
VERTEX
  8
0
 10
4.00205980
 20
5.23503515
  0
VERTEX
  8
0
 10
3.85916989
 20
5.20932267
  0
VERTEX
  8
0
 10
3.80318939
 20
5.18013750
  0
VERTEX
  8
0
 10
3.76388889
 20
5.13888889
  0
SEQEND
  0
POLYLINE
  8
Default_Layer
 66
   1
 39
0.000000
 70
    1
  0
VERTEX
  8
0
 10
4.97222222
 20
5.11111111
  0
VERTEX
  8
0
 10
4.91527247
 20
5.19648011
  0
VERTEX
  8
0
 10
4.87361141
 20
5.22199209
  0
VERTEX
  8
0
 10
4.83333333
 20
5.22222222
  0
VERTEX
  8
0
 10
4.89107195
 20
5.15496084
  0
VERTEX
  8
0
 10
4.92282545
 20
5.12421434
  0
VERTEX
  8
0
 10
4.97222222
 20
5.11111111
  0
SEQEND
  0
POLYLINE
  8
Default_Layer
 66
   1
 39
0.000000
 70
    1
  0
VERTEX
  8
0
 10
2.84722222
 20
4.93055556
  0
VERTEX
  8
0
 10
2.84722222
 20
4.83333333
  0
VERTEX
  8
0
 10
2.88037386
 20
4.81787647
  0
VERTEX
  8
0
 10
2.90277778
 20
4.79166667
  0
VERTEX
  8
0
 10
2.95021813
 20
4.65855407
  0
VERTEX
  8
0
 10
3.01388889
 20
4.54166667
  0
VERTEX
  8
0
 10
3.02092577
 20
4.50075476
  0
VERTEX
  8
0
 10
3.02703139
 20
4.48231015
  0
VERTEX
  8
0
 10
3.05555556
 20
4.47222222
  0
VERTEX
  8
0
 10
3.08979813
 20
4.57529344
  0
VERTEX
  8
0
 10
3.07603567
 20
4.66723983
  0
VERTEX
  8
0
 10
3.03119982
 20
4.75542742
  0
VERTEX
  8
0
 10
2.97222222
 20
4.84722222
  0
VERTEX
  8
0
 10
2.84722222
 20
5.01388889
  0
VERTEX
  8
0
 10
2.80777022
 20
5.07913133
  0
VERTEX
  8
0
 10
2.77777778
 20
5.12500000
  0
VERTEX
  8
0
 10
2.76767664
 20
5.05430998
  0
VERTEX
  8
0
 10
2.78495824
 20
4.96793289
  0
VERTEX
  8
0
 10
2.81601071
 20
4.91147825
  0
VERTEX
  8
0
 10
2.83244733
 20
4.90872481
  0
VERTEX
  8
0
 10
2.84722222
 20
4.93055556
  0
SEQEND
  0
POLYLINE
  8
Default_Layer
 66
   1
 39
0.000000
 70
    1
  0
VERTEX
  8
0
 10
4.34722222
 20
4.79166667
  0
VERTEX
  8
0
 10
4.28223645
 20
4.79612664
  0
VERTEX
  8
0
 10
4.23166622
 20
4.81499956
  0
VERTEX
  8
0
 10
4.18331844
 20
4.83609491
  0
VERTEX
  8
0
 10
4.12500000
 20
4.84722222
  0
VERTEX
  8
0
 10
4.15715672
 20
4.79409101
  0
VERTEX
  8
0
 10
4.22421414
 20
4.75856206
  0
VERTEX
  8
0
 10
4.29722004
 20
4.75347430
  0
VERTEX
  8
0
 10
4.32690611
 20
4.76635803
  0
VERTEX
  8
0
 10
4.34722222
 20
4.79166667
  0
SEQEND
  0
POLYLINE
  8
Default_Layer
 66
   1
 39
0.000000
 70
    1
  0
VERTEX
  8
0
 10
4.25000000
 20
4.55555556
  0
VERTEX
  8
0
 10
4.39512560
 20
4.56167647
  0
VERTEX
  8
0
 10
4.46301184
 20
4.57764494
  0
VERTEX
  8
0
 10
4.51388889
 20
4.61111111
  0
VERTEX
  8
0
 10
4.43672083
 20
4.62813391
  0
VERTEX
  8
0
 10
4.34021414
 20
4.62786223
  0
VERTEX
  8
0
 10
4.12500000
 20
4.62500000
  0
VERTEX
  8
0
 10
4.00563671
 20
4.70702299
  0
VERTEX
  8
0
 10
3.94253645
 20
4.74461751
  0
VERTEX
  8
0
 10
3.86111111
 20
4.76388889
  0
VERTEX
  8
0
 10
3.91926008
 20
4.66722111
  0
VERTEX
  8
0
 10
4.01418410
 20
4.60197265
  0
VERTEX
  8
0
 10
4.12979385
 20
4.56559897
  0
VERTEX
  8
0
 10
4.25000000
 20
4.55555556
  0
SEQEND
  0
POLYLINE
  8
Default_Layer
 66
   1
 39
0.000000
 70
    1
  0
VERTEX
  8
0
 10
5.77777778
 20
4.45833333
  0
VERTEX
  8
0
 10
5.82740650
 20
4.38296206
  0
VERTEX
  8
0
 10
5.86592985
 20
4.35898541
  0
VERTEX
  8
0
 10
5.91666667
 20
4.34722222
  0
VERTEX
  8
0
 10
5.91848103
 20
4.39772369
  0
VERTEX
  8
0
 10
5.87974400
 20
4.43608289
  0
VERTEX
  8
0
 10
5.82474609
 20
4.45778953
  0
VERTEX
  8
0
 10
5.77777778
 20
4.45833333
  0
SEQEND
  0
POLYLINE
  8
Default_Layer
 66
   1
 39
0.000000
 70
    1
  0
VERTEX
  8
0
 10
4.23611111
 20
4.16666667
  0
VERTEX
  8
0
 10
4.06271497
 20
4.08416390
  0
VERTEX
  8
0
 10
3.88277317
 20
3.97687160
  0
VERTEX
  8
0
 10
3.72672256
 20
3.84642128
  0
VERTEX
  8
0
 10
3.66716797
 20
3.77302171
  0
VERTEX
  8
0
 10
3.62500000
 20
3.69444444
  0
VERTEX
  8
0
 10
3.59564904
 20
3.58930633
  0
VERTEX
  8
0
 10
3.60034368
 20
3.52873031
  0
VERTEX
  8
0
 10
3.63888889
 20
3.48611111
  0
VERTEX
  8
0
 10
3.68206553
 20
3.52700666
  0
VERTEX
  8
0
 10
3.70211032
 20
3.57690980
  0
VERTEX
  8
0
 10
3.73611111
 20
3.68055556
  0
VERTEX
  8
0
 10
3.82602300
 20
3.77768474
  0
VERTEX
  8
0
 10
3.93647803
 20
3.85625251
  0
VERTEX
  8
0
 10
4.04744405
 20
3.93377736
  0
VERTEX
  8
0
 10
4.13888889
 20
4.02777778
  0
VERTEX
  8
0
 10
4.24288949
 20
4.07938983
  0
VERTEX
  8
0
 10
4.27517846
 20
4.12040446
  0
VERTEX
  8
0
 10
4.27777778
 20
4.16666667
  0
VERTEX
  8
0
 10
4.23611111
 20
4.16666667
  0
SEQEND
  0
POLYLINE
  8
Default_Layer
 66
   1
 39
0.000000
 70
    1
  0
VERTEX
  8
0
 10
2.93055556
 20
4.06944444
  0
VERTEX
  8
0
 10
2.85188406
 20
3.97160047
  0
VERTEX
  8
0
 10
2.79910650
 20
3.85838324
  0
VERTEX
  8
0
 10
2.72222222
 20
3.59722222
  0
VERTEX
  8
0
 10
2.65277778
 20
3.36111111
  0
VERTEX
  8
0
 10
2.60445060
 20
3.10050806
  0
VERTEX
  8
0
 10
2.56944444
 20
2.83333333
  0
VERTEX
  8
0
 10
2.55089800
 20
2.62358500
  0
VERTEX
  8
0
 10
2.54416136
 20
2.39562369
  0
VERTEX
  8
0
 10
2.53617738
 20
2.16429498
  0
VERTEX
  8
0
 10
2.51388889
 20
1.94444444
  0
VERTEX
  8
0
 10
2.46827699
 20
1.79827560
  0
VERTEX
  8
0
 10
2.44713940
 20
1.72307582
  0
VERTEX
  8
0
 10
2.44444444
 20
1.65277778
  0
VERTEX
  8
0
 10
2.47441089
 20
1.58776013
  0
VERTEX
  8
0
 10
2.53014678
 20
1.52346987
  0
VERTEX
  8
0
 10
2.63888889
 20
1.40277778
  0
VERTEX
  8
0
 10
2.69444444
 20
1.26388889
  0
VERTEX
  8
0
 10
2.78327616
 20
1.13701894
  0
VERTEX
  8
0
 10
2.88354817
 20
1.02025529
  0
VERTEX
  8
0
 10
2.97607386
 20
0.90725288
  0
VERTEX
  8
0
 10
3.04166667
 20
0.79166667
  0
VERTEX
  8
0
 10
3.12764693
 20
0.76575603
  0
VERTEX
  8
0
 10
3.20337438
 20
0.72094088
  0
VERTEX
  8
0
 10
3.27116464
 20
0.67676640
  0
VERTEX
  8
0
 10
3.33333333
 20
0.65277778
  0
VERTEX
  8
0
 10
3.43905147
 20
0.76867699
  0
VERTEX
  8
0
 10
3.48614654
 20
0.84339274
  0
VERTEX
  8
0
 10
3.50000000
 20
0.93055556
  0
VERTEX
  8
0
 10
3.48377690
 20
0.97138875
  0
VERTEX
  8
0
 10
3.45194956
 20
1.01333983
  0
VERTEX
  8
0
 10
3.38888889
 20
1.09722222
  0
VERTEX
  8
0
 10
3.35347490
 20
1.21197838
  0
VERTEX
  8
0
 10
3.31944444
 20
1.34722222
  0
VERTEX
  8
0
 10
3.23611111
 20
1.58333333
  0
VERTEX
  8
0
 10
3.19471552
 20
1.76946337
  0
VERTEX
  8
0
 10
3.16622202
 20
1.96981466
  0
VERTEX
  8
0
 10
3.13884730
 20
2.40139435
  0
VERTEX
  8
0
 10
3.13888889
 20
3.30555556
  0
VERTEX
  8
0
 10
3.14429643
 20
3.48805772
  0
VERTEX
  8
0
 10
3.12938354
 20
3.57630978
  0
VERTEX
  8
0
 10
3.08333333
 20
3.65277778
  0
VERTEX
  8
0
 10
2.87630372
 20
3.15825285
  0
VERTEX
  8
0
 10
2.79172643
 20
2.89651833
  0
VERTEX
  8
0
 10
2.72222222
 20
2.62500000
  0
VERTEX
  8
0
 10
2.68055556
 20
2.40277778
  0
VERTEX
  8
0
 10
2.68468740
 20
2.30963688
  0
VERTEX
  8
0
 10
2.67934630
 20
2.26301911
  0
VERTEX
  8
0
 10
2.65277778
 20
2.22222222
  0
VERTEX
  8
0
 10
2.62400154
 20
2.31761153
  0
VERTEX
  8
0
 10
2.60946720
 20
2.41987612
  0
VERTEX
  8
0
 10
2.61306813
 20
2.63332004
  0
VERTEX
  8
0
 10
2.64346833
 20
2.83913172
  0
VERTEX
  8
0
 10
2.68055556
 20
3.01388889
  0
VERTEX
  8
0
 10
2.74112475
 20
3.25646931
  0
VERTEX
  8
0
 10
2.81705077
 20
3.49690303
  0
VERTEX
  8
0
 10
2.90806251
 20
3.71805190
  0
VERTEX
  8
0
 10
3.01388889
 20
3.90277778
  0
VERTEX
  8
0
 10
3.00703736
 20
3.92717430
  0
VERTEX
  8
0
 10
2.98315581
 20
3.93454470
  0
VERTEX
  8
0
 10
2.96075190
 20
3.94339274
  0
VERTEX
  8
0
 10
2.95833333
 20
3.97222222
  0
VERTEX
  8
0
 10
2.98547855
 20
4.01432855
  0
VERTEX
  8
0
 10
3.00000000
 20
4.06944444
  0
VERTEX
  8
0
 10
2.97222222
 20
4.08333333
  0
VERTEX
  8
0
 10
2.95833333
 20
4.09722222
  0
VERTEX
  8
0
 10
2.94557664
 20
4.08201084
  0
VERTEX
  8
0
 10
2.93055556
 20
4.06944444
  0
SEQEND
  0
POLYLINE
  8
Default_Layer
 66
   1
 39
0.000000
 70
    1
  0
VERTEX
  8
0
 10
2.43055556
 20
3.98611111
  0
VERTEX
  8
0
 10
2.13756640
 20
3.95082942
  0
VERTEX
  8
0
 10
2.01385509
 20
3.91421358
  0
VERTEX
  8
0
 10
1.96597153
 20
3.88078843
  0
VERTEX
  8
0
 10
1.93055556
 20
3.83333333
  0
VERTEX
  8
0
 10
1.98107467
 20
3.78662957
  0
VERTEX
  8
0
 10
2.02020424
 20
3.72853758
  0
VERTEX
  8
0
 10
2.08333333
 20
3.59722222
  0
VERTEX
  8
0
 10
1.94771084
 20
3.19792699
  0
VERTEX
  8
0
 10
1.87761725
 20
3.00070867
  0
VERTEX
  8
0
 10
1.79166667
 20
2.81944444
  0
VERTEX
  8
0
 10
2.01328931
 20
3.03512421
  0
VERTEX
  8
0
 10
2.10977089
 20
3.15744183
  0
VERTEX
  8
0
 10
2.19444444
 20
3.29166667
  0
VERTEX
  8
0
 10
2.27583912
 20
3.36846872
  0
VERTEX
  8
0
 10
2.34162994
 20
3.45915598
  0
VERTEX
  8
0
 10
2.45833333
 20
3.65277778
  0
VERTEX
  8
0
 10
2.59837560
 20
3.83540008
  0
VERTEX
  8
0
 10
2.66644635
 20
3.92760778
  0
VERTEX
  8
0
 10
2.72222222
 20
4.02777778
  0
VERTEX
  8
0
 10
2.56075129
 20
4.01517456
  0
VERTEX
  8
0
 10
2.43055556
 20
3.98611111
  0
SEQEND
  0
POLYLINE
  8
Default_Layer
 66
   1
 39
0.000000
 70
    1
  0
VERTEX
  8
0
 10
3.26388889
 20
3.72222222
  0
VERTEX
  8
0
 10
3.27149993
 20
3.67866210
  0
VERTEX
  8
0
 10
3.26609487
 20
3.63586101
  0
VERTEX
  8
0
 10
3.25000000
 20
3.54166667
  0
VERTEX
  8
0
 10
3.26922508
 20
3.34974035
  0
VERTEX
  8
0
 10
3.30555556
 20
3.19444444
  0
VERTEX
  8
0
 10
3.34512942
 20
2.99676726
  0
VERTEX
  8
0
 10
3.38846896
 20
2.93924925
  0
VERTEX
  8
0
 10
3.42413550
 20
2.93235929
  0
VERTEX
  8
0
 10
3.47222222
 20
2.94444444
  0
VERTEX
  8
0
 10
3.42522351
 20
3.19624660
  0
VERTEX
  8
0
 10
3.39416219
 20
3.34359906
  0
VERTEX
  8
0
 10
3.37500000
 20
3.50000000
  0
VERTEX
  8
0
 10
3.37221206
 20
3.74114001
  0
VERTEX
  8
0
 10
3.38888889
 20
3.95833333
  0
VERTEX
  8
0
 10
3.36971379
 20
3.96693601
  0
VERTEX
  8
0
 10
3.34722222
 20
3.97222222
  0
VERTEX
  8
0
 10
3.30875233
 20
3.84382994
  0
VERTEX
  8
0
 10
3.26388889
 20
3.72222222
  0
SEQEND
  0
POLYLINE
  8
Default_Layer
 66
   1
 39
0.000000
 70
    1
  0
VERTEX
  8
0
 10
4.30555556
 20
3.95833333
  0
VERTEX
  8
0
 10
4.26388889
 20
3.97222222
  0
VERTEX
  8
0
 10
4.20833333
 20
3.93055556
  0
VERTEX
  8
0
 10
4.21231779
 20
3.81430910
  0
VERTEX
  8
0
 10
4.26388889
 20
3.72222222
  0
VERTEX
  8
0
 10
4.38150858
 20
3.58998115
  0
VERTEX
  8
0
 10
4.44973315
 20
3.54233641
  0
VERTEX
  8
0
 10
4.51388889
 20
3.52777778
  0
VERTEX
  8
0
 10
4.47140333
 20
3.64501900
  0
VERTEX
  8
0
 10
4.40312525
 20
3.73646379
  0
VERTEX
  8
0
 10
4.33814565
 20
3.83120446
  0
VERTEX
  8
0
 10
4.31598373
 20
3.88890210
  0
VERTEX
  8
0
 10
4.30555556
 20
3.95833333
  0
SEQEND
  0
POLYLINE
  8
Default_Layer
 66
   1
 39
0.000000
 70
    1
  0
VERTEX
  8
0
 10
2.43055556
 20
1.16666667
  0
VERTEX
  8
0
 10
2.45665077
 20
1.07555789
  0
VERTEX
  8
0
 10
2.47775978
 20
1.03626679
  0
VERTEX
  8
0
 10
2.51388889
 20
1.01388889
  0
VERTEX
  8
0
 10
2.54082880
 20
1.07987865
  0
VERTEX
  8
0
 10
2.54606015
 20
1.14939459
  0
VERTEX
  8
0
 10
2.51247560
 20
1.29491883
  0
VERTEX
  8
0
 10
2.45529214
 20
1.44228921
  0
VERTEX
  8
0
 10
2.41666667
 20
1.58333333
  0
VERTEX
  8
0
 10
2.39418098
 20
1.97529973
  0
VERTEX
  8
0
 10
2.40277778
 20
2.36111111
  0
VERTEX
  8
0
 10
2.43043272
 20
2.72224938
  0
VERTEX
  8
0
 10
2.46213552
 20
2.89360284
  0
VERTEX
  8
0
 10
2.51388889
 20
3.05555556
  0
VERTEX
  8
0
 10
2.48611111
 20
3.06944444
  0
VERTEX
  8
0
 10
2.41186973
 20
2.85979052
  0
VERTEX
  8
0
 10
2.35551974
 20
2.62778925
  0
VERTEX
  8
0
 10
2.31772931
 20
2.38058669
  0
VERTEX
  8
0
 10
2.29916657
 20
2.12532890
  0
VERTEX
  8
0
 10
2.30049968
 20
1.86916194
  0
VERTEX
  8
0
 10
2.32239678
 20
1.61923187
  0
VERTEX
  8
0
 10
2.36552602
 20
1.38268476
  0
VERTEX
  8
0
 10
2.43055556
 20
1.16666667
  0
SEQEND
  0
POLYLINE
  8
Default_Layer
 66
   1
 39
0.000000
 70
    1
  0
VERTEX
  8
0
 10
1.84722222
 20
2.50000000
  0
VERTEX
  8
0
 10
1.87112708
 20
2.43291358
  0
VERTEX
  8
0
 10
1.87220164
 20
2.36399713
  0
VERTEX
  8
0
 10
1.86773094
 20
2.29710989
  0
VERTEX
  8
0
 10
1.87500000
 20
2.23611111
  0
VERTEX
  8
0
 10
1.90835394
 20
2.26121128
  0
VERTEX
  8
0
 10
1.92554608
 20
2.30045095
  0
VERTEX
  8
0
 10
1.94444444
 20
2.38888889
  0
VERTEX
  8
0
 10
2.01692404
 20
2.65264244
  0
VERTEX
  8
0
 10
2.06944444
 20
2.93055556
  0
VERTEX
  8
0
 10
2.04166667
 20
2.95833333
  0
VERTEX
  8
0
 10
1.93673393
 20
2.73668428
  0
VERTEX
  8
0
 10
1.84722222
 20
2.50000000
  0
SEQEND
  0
POLYLINE
  8
Default_Layer
 66
   1
 39
0.000000
 70
    1
  0
VERTEX
  8
0
 10
2.36111111
 20
1.12500000
  0
VERTEX
  8
0
 10
2.34089209
 20
1.31985025
  0
VERTEX
  8
0
 10
2.30244851
 20
1.52279678
  0
VERTEX
  8
0
 10
2.26208623
 20
1.73517825
  0
VERTEX
  8
0
 10
2.23611111
 20
1.95833333
  0
VERTEX
  8
0
 10
2.23801898
 20
2.19058430
  0
VERTEX
  8
0
 10
2.26186570
 20
2.42217022
  0
VERTEX
  8
0
 10
2.31944444
 20
2.87500000
  0
VERTEX
  8
0
 10
2.29166667
 20
2.88888889
  0
VERTEX
  8
0
 10
2.22733823
 20
2.68684336
  0
VERTEX
  8
0
 10
2.18076377
 20
2.46154407
  0
VERTEX
  8
0
 10
2.15349617
 20
2.22198353
  0
VERTEX
  8
0
 10
2.14708827
 20
1.97715424
  0
VERTEX
  8
0
 10
2.16309295
 20
1.73604874
  0
VERTEX
  8
0
 10
2.20306308
 20
1.50765952
  0
VERTEX
  8
0
 10
2.26855151
 20
1.30097910
  0
VERTEX
  8
0
 10
2.36111111
 20
1.12500000
  0
SEQEND
  0
POLYLINE
  8
Default_Layer
 66
   1
 39
0.000000
 70
    1
  0
VERTEX
  8
0
 10
2.50000000
 20
0.01388889
  0
VERTEX
  8
0
 10
2.50000000
 20
0.02777778
  0
VERTEX
  8
0
 10
2.45226640
 20
0.04254851
  0
VERTEX
  8
0
 10
2.48611111
 20
0.06944444
  0
VERTEX
  8
0
 10
2.38039876
 20
0.28885507
  0
VERTEX
  8
0
 10
2.29714035
 20
0.52594817
  0
VERTEX
  8
0
 10
2.21808955
 20
0.77784496
  0
VERTEX
  8
0
 10
2.12500000
 20
1.04166667
  0
VERTEX
  8
0
 10
2.05274203
 20
1.25304389
  0
VERTEX
  8
0
 10
1.99904244
 20
1.46952508
  0
VERTEX
  8
0
 10
1.96318274
 20
1.68388261
  0
VERTEX
  8
0
 10
1.94444444
 20
1.88888889
  0
VERTEX
  8
0
 10
1.94666419
 20
1.99334702
  0
VERTEX
  8
0
 10
1.96114713
 20
2.08475598
  0
VERTEX
  8
0
 10
2.00000000
 20
2.26388889
  0
VERTEX
  8
0
 10
2.04417612
 20
2.49711605
  0
VERTEX
  8
0
 10
2.09722222
 20
2.69444444
  0
VERTEX
  8
0
 10
2.11360633
 20
2.77609140
  0
VERTEX
  8
0
 10
2.13118192
 20
2.81282250
  0
VERTEX
  8
0
 10
2.16666667
 20
2.83333333
  0
VERTEX
  8
0
 10
2.11389954
 20
2.47927408
  0
VERTEX
  8
0
 10
2.08258584
 20
2.09579470
  0
VERTEX
  8
0
 10
2.08289589
 20
1.70608463
  0
VERTEX
  8
0
 10
2.12500000
 20
1.33333333
  0
VERTEX
  8
0
 10
2.16666667
 20
1.23611111
  0
VERTEX
  8
0
 10
2.22276813
 20
0.95793220
  0
VERTEX
  8
0
 10
2.26284863
 20
0.84768389
  0
VERTEX
  8
0
 10
2.33333333
 20
0.76388889
  0
VERTEX
  8
0
 10
2.35981594
 20
0.58063452
  0
VERTEX
  8
0
 10
2.42438792
 20
0.41308410
  0
VERTEX
  8
0
 10
2.51634928
 20
0.26468608
  0
VERTEX
  8
0
 10
2.62500000
 20
0.13888889
  0
VERTEX
  8
0
 10
2.62399140
 20
0.09803324
  0
VERTEX
  8
0
 10
2.61111111
 20
0.06944444
  0
VERTEX
  8
0
 10
2.65382560
 20
0.04965372
  0
VERTEX
  8
0
 10
2.69444444
 20
0.02777778
  0
VERTEX
  8
0
 10
2.60238601
 20
0.02936813
  0
VERTEX
  8
0
 10
2.55847465
 20
0.02818786
  0
VERTEX
  8
0
 10
2.52777778
 20
0.01388889
  0
VERTEX
  8
0
 10
2.50000000
 20
0.01388889
  0
SEQEND
  0
POLYLINE
  8
Default_Layer
 66
   1
 39
0.000000
 70
    1
  0
VERTEX
  8
0
 10
4.22222222
 20
0.01388889
  0
VERTEX
  8
0
 10
4.21626347
 20
0.02876542
  0
VERTEX
  8
0
 10
4.19434799
 20
0.02768133
  0
VERTEX
  8
0
 10
4.17248074
 20
0.02664546
  0
VERTEX
  8
0
 10
4.16666667
 20
0.04166667
  0
VERTEX
  8
0
 10
4.39971336
 20
0.09440915
  0
VERTEX
  8
0
 10
4.60992351
 20
0.18255442
  0
VERTEX
  8
0
 10
4.79989413
 20
0.29053359
  0
VERTEX
  8
0
 10
4.97222222
 20
0.40277778
  0
VERTEX
  8
0
 10
5.08988428
 20
0.48148636
  0
VERTEX
  8
0
 10
5.13536336
 20
0.53273532
  0
VERTEX
  8
0
 10
5.15277778
 20
0.59722222
  0
VERTEX
  8
0
 10
4.86835360
 20
0.42504385
  0
VERTEX
  8
0
 10
4.52469365
 20
0.27590980
  0
VERTEX
  8
0
 10
4.13743689
 20
0.16590418
  0
VERTEX
  8
0
 10
3.93234686
 20
0.13060082
  0
VERTEX
  8
0
 10
3.72222222
 20
0.11111111
  0
VERTEX
  8
0
 10
3.52944102
 20
0.11046973
  0
VERTEX
  8
0
 10
3.35987382
 20
0.12861950
  0
VERTEX
  8
0
 10
3.21060458
 20
0.16369696
  0
VERTEX
  8
0
 10
3.07871726
 20
0.21383862
  0
VERTEX
  8
0
 10
2.96129585
 20
0.27718101
  0
VERTEX
  8
0
 10
2.85542430
 20
0.35186065
  0
VERTEX
  8
0
 10
2.66666667
 20
0.52777778
  0
VERTEX
  8
0
 10
2.61590789
 20
0.56596744
  0
VERTEX
  8
0
 10
2.59631249
 20
0.59151403
  0
VERTEX
  8
0
 10
2.59722222
 20
0.62500000
  0
VERTEX
  8
0
 10
2.89214691
 20
0.48896215
  0
VERTEX
  8
0
 10
3.22822595
 20
0.37410338
  0
VERTEX
  8
0
 10
3.40549501
 20
0.33332875
  0
VERTEX
  8
0
 10
3.58560867
 20
0.30830403
  0
VERTEX
  8
0
 10
3.76608559
 20
0.30251425
  0
VERTEX
  8
0
 10
3.94444444
 20
0.31944444
  0
VERTEX
  8
0
 10
4.23848098
 20
0.38136171
  0
VERTEX
  8
0
 10
4.50000000
 20
0.45833333
  0
VERTEX
  8
0
 10
5.15277778
 20
0.65277778
  0
VERTEX
  8
0
 10
5.27207612
 20
0.68117160
  0
VERTEX
  8
0
 10
5.32416833
 20
0.70577966
  0
VERTEX
  8
0
 10
5.36111111
 20
0.75000000
  0
VERTEX
  8
0
 10
5.32211204
 20
0.78610570
  0
VERTEX
  8
0
 10
5.26982206
 20
0.80705303
  0
VERTEX
  8
0
 10
5.14249035
 20
0.82109400
  0
VERTEX
  8
0
 10
5.01335791
 20
0.82736575
  0
VERTEX
  8
0
 10
4.95881702
 20
0.83860155
  0
VERTEX
  8
0
 10
4.91666667
 20
0.86111111
  0
VERTEX
  8
0
 10
4.83338988
 20
0.80086286
  0
VERTEX
  8
0
 10
4.76074296
 20
0.72205320
  0
VERTEX
  8
0
 10
4.67925234
 20
0.66068916
  0
VERTEX
  8
0
 10
4.62910515
 20
0.64780145
  0
VERTEX
  8
0
 10
4.56944444
 20
0.65277778
  0
VERTEX
  8
0
 10
4.64260227
 20
0.72877914
  0
VERTEX
  8
0
 10
4.73291119
 20
0.78772716
  0
VERTEX
  8
0
 10
4.81787562
 20
0.85211716
  0
VERTEX
  8
0
 10
4.87500000
 20
0.94444444
  0
VERTEX
  8
0
 10
4.73459808
 20
0.88871948
  0
VERTEX
  8
0
 10
4.60239504
 20
0.80349782
  0
VERTEX
  8
0
 10
4.46760559
 20
0.71236058
  0
VERTEX
  8
0
 10
4.31944444
 20
0.63888889
  0
VERTEX
  8
0
 10
4.11341818
 20
0.58767718
  0
VERTEX
  8
0
 10
3.88983949
 20
0.56615251
  0
VERTEX
  8
0
 10
3.43055556
 20
0.56944444
  0
VERTEX
  8
0
 10
3.60069695
 20
0.71559678
  0
VERTEX
  8
0
 10
3.79166667
 20
0.84722222
  0
VERTEX
  8
0
 10
4.00560077
 20
0.95632265
  0
VERTEX
  8
0
 10
4.10819980
 20
1.01711942
  0
VERTEX
  8
0
 10
4.19444444
 20
1.09722222
  0
VERTEX
  8
0
 10
4.10837738
 20
1.12951074
  0
VERTEX
  8
0
 10
4.01777185
 20
1.14305110
  0
VERTEX
  8
0
 10
3.83358445
 20
1.12598862
  0
VERTEX
  8
0
 10
3.66316039
 20
1.07023738
  0
VERTEX
  8
0
 10
3.52777778
 20
1.00000000
  0
VERTEX
  8
0
 10
3.48452328
 20
1.03007695
  0
VERTEX
  8
0
 10
3.45948181
 20
1.06317384
  0
VERTEX
  8
0
 10
3.45232872
 20
1.13702612
  0
VERTEX
  8
0
 10
3.48290017
 20
1.21875422
  0
VERTEX
  8
0
 10
3.52777778
 20
1.30555556
  0
VERTEX
  8
0
 10
3.58991800
 20
1.41249485
  0
VERTEX
  8
0
 10
3.65465997
 20
1.49091779
  0
VERTEX
  8
0
 10
3.81944444
 20
1.62500000
  0
VERTEX
  8
0
 10
3.92839105
 20
1.69835633
  0
VERTEX
  8
0
 10
4.01388889
 20
1.76388889
  0
VERTEX
  8
0
 10
3.70833333
 20
2.15277778
  0
VERTEX
  8
0
 10
3.55763445
 20
2.35904470
  0
VERTEX
  8
0
 10
3.49964498
 20
2.47234665
  0
VERTEX
  8
0
 10
3.47222222
 20
2.59722222
  0
VERTEX
  8
0
 10
3.51794698
 20
2.54744954
  0
VERTEX
  8
0
 10
3.54969834
 20
2.49006883
  0
VERTEX
  8
0
 10
3.61111111
 20
2.37500000
  0
VERTEX
  8
0
 10
3.70402328
 20
2.27724131
  0
VERTEX
  8
0
 10
3.81318341
 20
2.20217733
  0
VERTEX
  8
0
 10
3.93589073
 20
2.14755247
  0
VERTEX
  8
0
 10
4.06944444
 20
2.11111111
  0
VERTEX
  8
0
 10
4.15513029
 20
2.10934817
  0
VERTEX
  8
0
 10
4.19720726
 20
2.10452920
  0
VERTEX
  8
0
 10
4.23611111
 20
2.08333333
  0
VERTEX
  8
0
 10
4.23006746
 20
2.05130440
  0
VERTEX
  8
0
 10
4.20785042
 20
2.02269348
  0
VERTEX
  8
0
 10
4.19629151
 20
2.00009693
  0
VERTEX
  8
0
 10
4.22222222
 20
1.98611111
  0
VERTEX
  8
0
 10
4.26950368
 20
1.99136955
  0
VERTEX
  8
0
 10
4.31319678
 20
2.01022855
  0
VERTEX
  8
0
 10
4.40277778
 20
2.05555556
  0
VERTEX
  8
0
 10
4.52783762
 20
2.08434689
  0
VERTEX
  8
0
 10
4.65572421
 20
2.10141327
  0
VERTEX
  8
0
 10
4.77519314
 20
2.12680080
  0
VERTEX
  8
0
 10
4.87500000
 20
2.18055556
  0
VERTEX
  8
0
 10
4.87767803
 20
2.23999695
  0
VERTEX
  8
0
 10
4.87500000
 20
2.29166667
  0
VERTEX
  8
0
 10
4.91542421
 20
2.34797699
  0
VERTEX
  8
0
 10
4.93610208
 20
2.37558632
  0
VERTEX
  8
0
 10
4.94444444
 20
2.41666667
  0
VERTEX
  8
0
 10
4.93405766
 20
2.47338000
  0
VERTEX
  8
0
 10
4.90788758
 20
2.51477063
  0
VERTEX
  8
0
 10
4.82089782
 20
2.56470251
  0
VERTEX
  8
0
 10
4.59722222
 20
2.62500000
  0
VERTEX
  8
0
 10
4.48611111
 20
2.69444444
  0
VERTEX
  8
0
 10
4.41720095
 20
2.72398549
  0
VERTEX
  8
0
 10
4.39312022
 20
2.74427015
  0
VERTEX
  8
0
 10
4.38888889
 20
2.77777778
  0
VERTEX
  8
0
 10
4.43215611
 20
2.77440555
  0
VERTEX
  8
0
 10
4.47789435
 20
2.75751761
  0
VERTEX
  8
0
 10
4.58333333
 20
2.72222222
  0
VERTEX
  8
0
 10
4.81944444
 20
2.72222222
  0
VERTEX
  8
0
 10
4.94039851
 20
2.69431952
  0
VERTEX
  8
0
 10
5.02777778
 20
2.68055556
  0
VERTEX
  8
0
 10
5.06422146
 20
2.69667182
  0
VERTEX
  8
0
 10
5.09498758
 20
2.72330025
  0
VERTEX
  8
0
 10
5.15277778
 20
2.76388889
  0
VERTEX
  8
0
 10
5.02398597
 20
2.75930134
  0
VERTEX
  8
0
 10
4.90968289
 20
2.79501345
  0
VERTEX
  8
0
 10
4.69444444
 20
2.90277778
  0
VERTEX
  8
0
 10
4.47825233
 20
2.97235615
  0
VERTEX
  8
0
 10
4.25000000
 20
3.05555556
  0
VERTEX
  8
0
 10
4.07159765
 20
3.19418202
  0
VERTEX
  8
0
 10
3.97436712
 20
3.27085744
  0
VERTEX
  8
0
 10
3.90277778
 20
3.30555556
  0
VERTEX
  8
0
 10
3.86380603
 20
3.29435911
  0
VERTEX
  8
0
 10
3.83380581
 20
3.26948706
  0
VERTEX
  8
0
 10
3.80704157
 20
3.24876037
  0
VERTEX
  8
0
 10
3.77777778
 20
3.25000000
  0
VERTEX
  8
0
 10
3.78054018
 20
3.30658400
  0
VERTEX
  8
0
 10
3.76984678
 20
3.35582195
  0
VERTEX
  8
0
 10
3.75964665
 20
3.39728782
  0
VERTEX
  8
0
 10
3.76388889
 20
3.43055556
  0
VERTEX
  8
0
 10
3.90411952
 20
3.38328358
  0
VERTEX
  8
0
 10
3.96516264
 20
3.35057833
  0
VERTEX
  8
0
 10
4.01388889
 20
3.30555556
  0
VERTEX
  8
0
 10
4.22768862
 20
3.24332004
  0
VERTEX
  8
0
 10
4.45833333
 20
3.18055556
  0
VERTEX
  8
0
 10
4.54334261
 20
3.12993549
  0
VERTEX
  8
0
 10
4.62500000
 20
3.08333333
  0
VERTEX
  8
0
 10
4.70058567
 20
3.07510233
  0
VERTEX
  8
0
 10
4.77777778
 20
3.06944444
  0
VERTEX
  8
0
 10
4.90821084
 20
3.01793601
  0
VERTEX
  8
0
 10
4.96989841
 20
3.01653480
  0
VERTEX
  8
0
 10
4.99482506
 20
3.03441598
  0
VERTEX
  8
0
 10
5.01388889
 20
3.06944444
  0
VERTEX
  8
0
 10
4.96597790
 20
3.09097725
  0
VERTEX
  8
0
 10
4.90192178
 20
3.09636622
  0
VERTEX
  8
0
 10
4.83482143
 20
3.09871097
  0
VERTEX
  8
0
 10
4.77777778
 20
3.11111111
  0
VERTEX
  8
0
 10
4.74204804
 20
3.18996178
  0
VERTEX
  8
0
 10
4.69742942
 20
3.25992681
  0
VERTEX
  8
0
 10
4.63395720
 20
3.31103955
  0
VERTEX
  8
0
 10
4.54166667
 20
3.33333333
  0
VERTEX
  8
0
 10
4.52695511
 20
3.41923011
  0
VERTEX
  8
0
 10
4.52593241
 20
3.46444244
  0
VERTEX
  8
0
 10
4.54166667
 20
3.50000000
  0
VERTEX
  8
0
 10
4.76514209
 20
3.45653845
  0
VERTEX
  8
0
 10
4.88005331
 20
3.44259309
  0
VERTEX
  8
0
 10
5.00000000
 20
3.45833333
  0
VERTEX
  8
0
 10
5.04218341
 20
3.63381019
  0
VERTEX
  8
0
 10
5.05041206
 20
3.81877525
  0
VERTEX
  8
0
 10
5.04732356
 20
4.00754713
  0
VERTEX
  8
0
 10
5.05555556
 20
4.19444444
  0
VERTEX
  8
0
 10
5.09398254
 20
4.39658636
  0
VERTEX
  8
0
 10
5.13888889
 20
4.59722222
  0
VERTEX
  8
0
 10
5.23611111
 20
5.00000000
  0
VERTEX
  8
0
 10
5.31240355
 20
4.95929695
  0
VERTEX
  8
0
 10
5.34802666
 20
4.95288704
  0
VERTEX
  8
0
 10
5.38888889
 20
4.97222222
  0
VERTEX
  8
0
 10
5.45434628
 20
4.90920284
  0
VERTEX
  8
0
 10
5.53704487
 20
4.86342855
  0
VERTEX
  8
0
 10
5.61510991
 20
4.81302332
  0
VERTEX
  8
0
 10
5.66666667
 20
4.73611111
  0
VERTEX
  8
0
 10
5.58842873
 20
4.67608257
  0
VERTEX
  8
0
 10
5.51228497
 20
4.59831292
  0
VERTEX
  8
0
 10
5.45430429
 20
4.50263682
  0
VERTEX
  8
0
 10
5.43055556
 20
4.38888889
  0
VERTEX
  8
0
 10
5.45708220
 20
4.29282126
  0
VERTEX
  8
0
 10
5.48611111
 20
4.19444444
  0
VERTEX
  8
0
 10
5.46211761
 20
4.07634817
  0
VERTEX
  8
0
 10
5.43055556
 20
3.95833333
  0
VERTEX
  8
0
 10
5.43858995
 20
3.79980546
  0
VERTEX
  8
0
 10
5.48299209
 20
3.66247595
  0
VERTEX
  8
0
 10
5.61111111
 20
3.41666667
  0
VERTEX
  8
0
 10
5.61111111
 20
3.29166667
  0
VERTEX
  8
0
 10
5.75207195
 20
3.09929417
  0
VERTEX
  8
0
 10
5.82254659
 20
3.00310214
  0
VERTEX
  8
0
 10
5.90277778
 20
2.91666667
  0
VERTEX
  8
0
 10
5.90889220
 20
3.01828485
  0
VERTEX
  8
0
 10
5.87516813
 20
3.08920476
  0
VERTEX
  8
0
 10
5.83094333
 20
3.15024452
  0
VERTEX
  8
0
 10
5.80555556
 20
3.22222222
  0
VERTEX
  8
0
 10
5.81661390
 20
3.29445045
  0
VERTEX
  8
0
 10
5.85332751
 20
3.34583758
  0
VERTEX
  8
0
 10
5.90087736
 20
3.39444481
  0
VERTEX
  8
0
 10
5.94444444
 20
3.45833333
  0
VERTEX
  8
0
 10
5.96781275
 20
3.56875789
  0
VERTEX
  8
0
 10
5.97662152
 20
3.62437564
  0
VERTEX
  8
0
 10
6.00000000
 20
3.68055556
  0
VERTEX
  8
0
 10
5.95329313
 20
3.71718202
  0
VERTEX
  8
0
 10
5.93015696
 20
3.73571251
  0
VERTEX
  8
0
 10
5.91666667
 20
3.76388889
  0
VERTEX
  8
0
 10
6.04521204
 20
3.83658467
  0
VERTEX
  8
0
 10
6.18415876
 20
3.89897699
  0
VERTEX
  8
0
 10
6.30394277
 20
3.98063081
  0
VERTEX
  8
0
 10
6.34740998
 20
4.03791984
  0
VERTEX
  8
0
 10
6.37500000
 20
4.11111111
  0
VERTEX
  8
0
 10
6.26960661
 20
4.06366805
  0
VERTEX
  8
0
 10
6.13569973
 20
4.03085824
  0
VERTEX
  8
0
 10
6.00338743
 20
4.03470264
  0
VERTEX
  8
0
 10
5.94723802
 20
4.05725172
  0
VERTEX
  8
0
 10
5.90277778
 20
4.09722222
  0
VERTEX
  8
0
 10
5.94197126
 20
4.20366917
  0
VERTEX
  8
0
 10
5.97222222
 20
4.31944444
  0
VERTEX
  8
0
 10
6.02589101
 20
4.33507868
  0
VERTEX
  8
0
 10
6.08694122
 20
4.34342664
  0
VERTEX
  8
0
 10
6.13924305
 20
4.36061683
  0
VERTEX
  8
0
 10
6.16666667
 20
4.40277778
  0
VERTEX
  8
0
 10
6.04344693
 20
4.40455804
  0
VERTEX
  8
0
 10
5.94382230
 20
4.42993341
  0
VERTEX
  8
0
 10
5.87228652
 20
4.48339763
  0
VERTEX
  8
0
 10
5.83333333
 20
4.56944444
  0
VERTEX
  8
0
 10
5.77934956
 20
4.58490511
  0
VERTEX
  8
0
 10
5.72222222
 20
4.59722222
  0
VERTEX
  8
0
 10
5.76984851
 20
4.66051414
  0
VERTEX
  8
0
 10
5.79560203
 20
4.69036570
  0
VERTEX
  8
0
 10
5.83333333
 20
4.70833333
  0
VERTEX
  8
0
 10
5.97222222
 20
4.66666667
  0
VERTEX
  8
0
 10
5.98895544
 20
4.64867896
  0
VERTEX
  8
0
 10
5.99511188
 20
4.62011188
  0
VERTEX
  8
0
 10
6.00371238
 20
4.59398886
  0
VERTEX
  8
0
 10
6.02777778
 20
4.58333333
  0
VERTEX
  8
0
 10
6.02980553
 20
4.62282758
  0
VERTEX
  8
0
 10
6.04954869
 20
4.64470285
  0
VERTEX
  8
0
 10
6.07229528
 20
4.66367115
  0
VERTEX
  8
0
 10
6.08333333
 20
4.69444444
  0
VERTEX
  8
0
 10
5.97273445
 20
4.73662855
  0
VERTEX
  8
0
 10
5.84722222
 20
4.76388889
  0
VERTEX
  8
0
 10
5.84722222
 20
4.87500000
  0
VERTEX
  8
0
 10
5.75911501
 20
4.93967525
  0
VERTEX
  8
0
 10
5.71924129
 20
4.97618879
  0
VERTEX
  8
0
 10
5.69444444
 20
5.02777778
  0
VERTEX
  8
0
 10
5.66510692
 20
5.02702662
  0
VERTEX
  8
0
 10
5.64131709
 20
5.04369452
  0
VERTEX
  8
0
 10
5.59722222
 20
5.08333333
  0
VERTEX
  8
0
 10
5.45055963
 20
5.11719869
  0
VERTEX
  8
0
 10
5.30555556
 20
5.15277778
  0
VERTEX
  8
0
 10
5.20120598
 20
5.21926223
  0
VERTEX
  8
0
 10
5.09722222
 20
5.29166667
  0
VERTEX
  8
0
 10
4.84722222
 20
5.40277778
  0
VERTEX
  8
0
 10
4.77110303
 20
5.46580945
  0
VERTEX
  8
0
 10
4.69444444
 20
5.52777778
  0
VERTEX
  8
0
 10
4.55294557
 20
5.58939947
  0
VERTEX
  8
0
 10
4.39797317
 20
5.63551900
  0
VERTEX
  8
0
 10
4.08333333
 20
5.70833333
  0
VERTEX
  8
0
 10
3.97846501
 20
5.74630598
  0
VERTEX
  8
0
 10
3.87500000
 20
5.77777778
  0
VERTEX
  8
0
 10
3.60624643
 20
5.78435945
  0
VERTEX
  8
0
 10
3.38888889
 20
5.77777778
  0
VERTEX
  8
0
 10
3.34642096
 20
5.71246442
  0
VERTEX
  8
0
 10
3.31827247
 20
5.63292612
  0
VERTEX
  8
0
 10
3.28029331
 20
5.56331364
  0
VERTEX
  8
0
 10
3.25007031
 20
5.53977671
  0
VERTEX
  8
0
 10
3.20833333
 20
5.52777778
  0
VERTEX
  8
0
 10
3.19885511
 20
5.60163289
  0
VERTEX
  8
0
 10
3.19165846
 20
5.63610290
  0
VERTEX
  8
0
 10
3.16666667
 20
5.65277778
  0
VERTEX
  8
0
 10
3.13932573
 20
5.62274266
  0
VERTEX
  8
0
 10
3.12620047
 20
5.57851596
  0
VERTEX
  8
0
 10
3.12482872
 20
5.46525615
  0
VERTEX
  8
0
 10
3.12701484
 20
5.34853493
  0
VERTEX
  8
0
 10
3.11833691
 20
5.29998148
  0
VERTEX
  8
0
 10
3.09722222
 20
5.26388889
  0
VERTEX
  8
0
 10
3.06187169
 20
5.30900566
  0
VERTEX
  8
0
 10
3.05072108
 20
5.37762404
  0
VERTEX
  8
0
 10
3.05555556
 20
5.54166667
  0
VERTEX
  8
0
 10
3.05124678
 20
5.71036813
  0
VERTEX
  8
0
 10
3.05465060
 20
5.78160175
  0
VERTEX
  8
0
 10
3.06944444
 20
5.83333333
  0
VERTEX
  8
0
 10
3.11312093
 20
5.83304728
  0
VERTEX
  8
0
 10
3.14360737
 20
5.81498654
  0
VERTEX
  8
0
 10
3.16826234
 20
5.79915475
  0
VERTEX
  8
0
 10
3.19444444
 20
5.80555556
  0
VERTEX
  8
0
 10
3.15876093
 20
5.93150813
  0
VERTEX
  8
0
 10
3.11490233
 20
6.05609070
  0
VERTEX
  8
0
 10
3.08318916
 20
6.10410684
  0
VERTEX
  8
0
 10
3.04137035
 20
6.13526681
  0
VERTEX
  8
0
 10
2.98675861
 20
6.14406605
  0
VERTEX
  8
0
 10
2.91666667
 20
6.12500000
  0
VERTEX
  8
0
 10
2.91822160
 20
6.05381032
  0
VERTEX
  8
0
 10
2.91696425
 20
6.02039270
  0
VERTEX
  8
0
 10
2.90277778
 20
6.00000000
  0
VERTEX
  8
0
 10
2.86905877
 20
6.09444526
  0
VERTEX
  8
0
 10
2.86265555
 20
6.18608745
  0
VERTEX
  8
0
 10
2.87819944
 20
6.27424466
  0
VERTEX
  8
0
 10
2.91032178
 20
6.35823497
  0
VERTEX
  8
0
 10
3.00282712
 20
6.51098723
  0
VERTEX
  8
0
 10
3.09722222
 20
6.63888889
  0
VERTEX
  8
0
 10
2.73468272
 20
6.84579643
  0
VERTEX
  8
0
 10
2.55855926
 20
6.95439487
  0
VERTEX
  8
0
 10
2.40277778
 20
7.08333333
  0
VERTEX
  8
0
 10
2.51520824
 20
7.04157803
  0
VERTEX
  8
0
 10
2.57466814
 20
7.01531861
  0
VERTEX
  8
0
 10
2.63888889
 20
7.00000000
  0
VERTEX
  8
0
 10
2.68071067
 20
7.01181379
  0
VERTEX
  8
0
 10
2.72222222
 20
7.02777778
  0
VERTEX
  8
0
 10
2.94444444
 20
7.01388889
  0
VERTEX
  8
0
 10
3.19444444
 20
7.00000000
  0
VERTEX
  8
0
 10
3.40677922
 20
6.97523582
  0
VERTEX
  8
0
 10
3.61358202
 20
6.94222195
  0
VERTEX
  8
0
 10
3.81220492
 20
6.93115266
  0
VERTEX
  8
0
 10
3.90762143
 20
6.94328294
  0
VERTEX
  8
0
 10
4.00000000
 20
6.97222222
  0
VERTEX
  8
0
 10
3.95177924
 20
6.98650407
  0
VERTEX
  8
0
 10
3.88888889
 20
6.98611111
  0
VERTEX
  8
0
 10
3.91758306
 20
7.04055737
  0
VERTEX
  8
0
 10
3.93055556
 20
7.11111111
  0
VERTEX
  8
0
 10
3.87914281
 20
7.12219837
  0
VERTEX
  8
0
 10
3.84977230
 20
7.15532785
  0
VERTEX
  8
0
 10
3.81944444
 20
7.25000000
  0
VERTEX
  8
0
 10
3.70833333
 20
7.26388889
  0
VERTEX
  8
0
 10
3.70110737
 20
7.34694331
  0
VERTEX
  8
0
 10
3.67922896
 20
7.37020346
  0
VERTEX
  8
0
 10
3.63888889
 20
7.37500000
  0
VERTEX
  8
0
 10
3.63943573
 20
7.30263018
  0
VERTEX
  8
0
 10
3.65389695
 20
7.24417473
  0
VERTEX
  8
0
 10
3.66779858
 20
7.18515969
  0
VERTEX
  8
0
 10
3.66666667
 20
7.11111111
  0
VERTEX
  8
0
 10
3.76423549
 20
7.08367994
  0
VERTEX
  8
0
 10
3.79910995
 20
7.05605440
  0
VERTEX
  8
0
 10
3.80555556
 20
7.00000000
  0
VERTEX
  8
0
 10
3.67065754
 20
7.00517369
  0
VERTEX
  8
0
 10
3.55555556
 20
7.02777778
  0
VERTEX
  8
0
 10
3.50449318
 20
7.13846060
  0
VERTEX
  8
0
 10
3.44209921
 20
7.23160390
  0
VERTEX
  8
0
 10
3.40518341
 20
7.33047302
  0
VERTEX
  8
0
 10
3.40778288
 20
7.38932519
  0
VERTEX
  8
0
 10
3.43055556
 20
7.45833333
  0
VERTEX
  8
0
 10
3.46115961
 20
7.47619702
  0
VERTEX
  8
0
 10
3.50191501
 20
7.48400320
  0
VERTEX
  8
0
 10
3.54171291
 20
7.49286334
  0
VERTEX
  8
0
 10
3.56944444
 20
7.51388889
  0
VERTEX
  8
0
 10
3.08268706
 20
7.77018706
  0
VERTEX
  8
0
 10
2.85625004
 20
7.91527846
  0
VERTEX
  8
0
 10
2.65277778
 20
8.08333333
  0
VERTEX
  8
0
 10
2.61930876
 20
8.14014209
  0
VERTEX
  8
0
 10
2.59722222
 20
8.20833333
  0
VERTEX
  8
0
 10
2.42430060
 20
8.22985355
  0
VERTEX
  8
0
 10
2.34755516
 20
8.25033131
  0
VERTEX
  8
0
 10
2.29166667
 20
8.29166667
  0
VERTEX
  8
0
 10
2.35092580
 20
8.32931349
  0
VERTEX
  8
0
 10
2.41652091
 20
8.33312143
  0
VERTEX
  8
0
 10
2.55555556
 20
8.30555556
  0
VERTEX
  8
0
 10
2.96718029
 20
8.26900338
  0
VERTEX
  8
0
 10
3.16254650
 20
8.23907208
  0
VERTEX
  8
0
 10
3.33333333
 20
8.18055556
  0
VERTEX
  8
0
 10
3.39040739
 20
8.12825461
  0
VERTEX
  8
0
 10
3.46383163
 20
8.09230386
  0
VERTEX
  8
0
 10
3.63608324
 20
8.04580546
  0
VERTEX
  8
0
 10
3.80279322
 20
7.99376544
  0
VERTEX
  8
0
 10
3.86929044
 20
7.95088767
  0
VERTEX
  8
0
 10
3.91666667
 20
7.88888889
  0
VERTEX
  8
0
 10
3.89221388
 20
7.82871722
  0
VERTEX
  8
0
 10
3.86006831
 20
7.78284470
  0
VERTEX
  8
0
 10
3.80555556
 20
7.69444444
  0
VERTEX
  8
0
 10
3.79364509
 20
7.59595338
  0
VERTEX
  8
0
 10
3.81151865
 20
7.50050963
  0
VERTEX
  8
0
 10
3.85071623
 20
7.41175550
  0
VERTEX
  8
0
 10
3.90277778
 20
7.33333333
  0
VERTEX
  8
0
 10
4.00310386
 20
7.24108871
  0
VERTEX
  8
0
 10
4.12021136
 20
7.15925442
  0
VERTEX
  8
0
 10
4.21887985
 20
7.06723736
  0
VERTEX
  8
0
 10
4.25029308
 20
7.01097496
  0
VERTEX
  8
0
 10
4.26388889
 20
6.94444444
  0
VERTEX
  8
0
 10
4.15277778
 20
6.94444444
  0
VERTEX
  8
0
 10
4.13563272
 20
6.89194956
  0
VERTEX
  8
0
 10
4.12296481
 20
6.86994379
  0
VERTEX
  8
0
 10
4.09722222
 20
6.86111111
  0
VERTEX
  8
0
 10
3.50000000
 20
6.84722222
  0
VERTEX
  8
0
 10
3.57279730
 20
6.71863324
  0
VERTEX
  8
0
 10
3.61445344
 20
6.65959461
  0
VERTEX
  8
0
 10
3.66666667
 20
6.61111111
  0
VERTEX
  8
0
 10
3.80671362
 20
6.57754956
  0
VERTEX
  8
0
 10
3.87449706
 20
6.55852647
  0
VERTEX
  8
0
 10
3.93055556
 20
6.52777778
  0
VERTEX
  8
0
 10
3.94792959
 20
6.45264209
  0
VERTEX
  8
0
 10
3.94444444
 20
6.38888889
  0
VERTEX
  8
0
 10
3.99814036
 20
6.29551397
  0
VERTEX
  8
0
 10
4.06732525
 20
6.22285511
  0
VERTEX
  8
0
 10
4.15145863
 20
6.16376870
  0
VERTEX
  8
0
 10
4.25000000
 20
6.11111111
  0
VERTEX
  8
0
 10
4.41666667
 20
6.02777778
  0
VERTEX
  8
0
 10
4.54166667
 20
6.00000000
  0
VERTEX
  8
0
 10
4.86111111
 20
5.84722222
  0
VERTEX
  8
0
 10
4.92297039
 20
5.79782039
  0
VERTEX
  8
0
 10
4.98611111
 20
5.75000000
  0
VERTEX
  8
0
 10
5.18055556
 20
5.69444444
  0
VERTEX
  8
0
 10
5.26377213
 20
5.64439157
  0
VERTEX
  8
0
 10
5.34722222
 20
5.59722222
  0
VERTEX
  8
0
 10
5.52117091
 20
5.55315494
  0
VERTEX
  8
0
 10
5.70833333
 20
5.51388889
  0
VERTEX
  8
0
 10
5.89724904
 20
5.45053636
  0
VERTEX
  8
0
 10
6.05555556
 20
5.40277778
  0
VERTEX
  8
0
 10
6.19289678
 20
5.37745285
  0
VERTEX
  8
0
 10
6.31944444
 20
5.33333333
  0
VERTEX
  8
0
 10
6.40277778
 20
5.30555556
  0
VERTEX
  8
0
 10
6.45833333
 20
5.25000000
  0
VERTEX
  8
0
 10
6.50875008
 20
5.24818949
  0
VERTEX
  8
0
 10
6.55555556
 20
5.25000000
  0
VERTEX
  8
0
 10
6.64019782
 20
5.19933845
  0
VERTEX
  8
0
 10
6.68598966
 20
5.17438997
  0
VERTEX
  8
0
 10
6.73611111
 20
5.16666667
  0
VERTEX
  8
0
 10
6.77475624
 20
5.11850462
  0
VERTEX
  8
0
 10
6.83138879
 20
5.08833063
  0
VERTEX
  8
0
 10
6.88552139
 20
5.05565800
  0
VERTEX
  8
0
 10
6.91666667
 20
5.00000000
  0
VERTEX
  8
0
 10
6.98881110
 20
4.98913461
  0
VERTEX
  8
0
 10
7.03957004
 20
4.96645702
  0
VERTEX
  8
0
 10
7.08790507
 20
4.94666204
  0
VERTEX
  8
0
 10
7.15277778
 20
4.94444444
  0
VERTEX
  8
0
 10
7.20599787
 20
4.88655017
  0
VERTEX
  8
0
 10
7.27202386
 20
4.84146310
  0
VERTEX
  8
0
 10
7.43055556
 20
4.77777778
  0
VERTEX
  8
0
 10
7.41781725
 20
4.75564991
  0
VERTEX
  8
0
 10
7.38877508
 20
4.74992039
  0
VERTEX
  8
0
 10
7.35631759
 20
4.74770290
  0
VERTEX
  8
0
 10
7.33333333
 20
4.73611111
  0
VERTEX
  8
0
 10
7.34965267
 20
4.68829500
  0
VERTEX
  8
0
 10
7.37796390
 20
4.64986727
  0
VERTEX
  8
0
 10
7.46304660
 20
4.59980303
  0
VERTEX
  8
0
 10
7.57355045
 20
4.58317061
  0
VERTEX
  8
0
 10
7.69444444
 20
4.59722222
  0
VERTEX
  8
0
 10
7.74962907
 20
4.54824018
  0
VERTEX
  8
0
 10
7.76537894
 20
4.51190672
  0
VERTEX
  8
0
 10
7.76388889
 20
4.45833333
  0
VERTEX
  8
0
 10
7.95833333
 20
4.41666667
  0
VERTEX
  8
0
 10
7.98986116
 20
4.43641094
  0
VERTEX
  8
0
 10
8.02420609
 20
4.44100355
  0
VERTEX
  8
0
 10
8.09456223
 20
4.42573879
  0
VERTEX
  8
0
 10
8.15583170
 20
4.41288241
  0
VERTEX
  8
0
 10
8.17881829
 20
4.42048550
  0
VERTEX
  8
0
 10
8.19444444
 20
4.44444444
  0
VERTEX
  8
0
 10
8.16103910
 20
4.47007013
  0
VERTEX
  8
0
 10
8.11636518
 20
4.48442595
  0
VERTEX
  8
0
 10
8.07948090
 20
4.50656879
  0
VERTEX
  8
0
 10
8.06944444
 20
4.55555556
  0
VERTEX
  8
0
 10
8.09117150
 20
4.58229800
  0
VERTEX
  8
0
 10
8.12319938
 20
4.59883463
  0
VERTEX
  8
0
 10
8.15612758
 20
4.61456505
  0
VERTEX
  8
0
 10
8.18055556
 20
4.63888889
  0
VERTEX
  8
0
 10
8.11911297
 20
4.80661199
  0
VERTEX
  8
0
 10
8.03868983
 20
4.95535390
  0
VERTEX
  8
0
 10
7.84722222
 20
5.22222222
  0
VERTEX
  8
0
 10
7.66666667
 20
5.36111111
  0
VERTEX
  8
0
 10
7.50000000
 20
5.52777778
  0
VERTEX
  8
0
 10
7.39370772
 20
5.59400372
  0
VERTEX
  8
0
 10
7.29166667
 20
5.65277778
  0
VERTEX
  8
0
 10
7.23611111
 20
5.72222222
  0
VERTEX
  8
0
 10
7.11111111
 20
5.77777778
  0
VERTEX
  8
0
 10
6.94458532
 20
5.89349157
  0
VERTEX
  8
0
 10
6.85826944
 20
5.94260446
  0
VERTEX
  8
0
 10
6.76388889
 20
5.97222222
  0
VERTEX
  8
0
 10
6.72925069
 20
6.01050166
  0
VERTEX
  8
0
 10
6.68629990
 20
6.04046917
  0
VERTEX
  8
0
 10
6.64394917
 20
6.07103543
  0
VERTEX
  8
0
 10
6.61111111
 20
6.11111111
  0
VERTEX
  8
0
 10
6.51334851
 20
6.13140407
  0
VERTEX
  8
0
 10
6.47061241
 20
6.14769639
  0
VERTEX
  8
0
 10
6.44444444
 20
6.18055556
  0
VERTEX
  8
0
 10
6.44444444
 20
6.25000000
  0
VERTEX
  8
0
 10
6.51734765
 20
6.23957247
  0
VERTEX
  8
0
 10
6.58333333
 20
6.22222222
  0
VERTEX
  8
0
 10
6.63135622
 20
6.30947465
  0
VERTEX
  8
0
 10
6.70674973
 20
6.36945095
  0
VERTEX
  8
0
 10
6.80029615
 20
6.41136844
  0
VERTEX
  8
0
 10
6.90277778
 20
6.44444444
  0
VERTEX
  8
0
 10
6.94628949
 20
6.39767577
  0
VERTEX
  8
0
 10
6.97224939
 20
6.37849711
  0
VERTEX
  8
0
 10
7.01388889
 20
6.37500000
  0
VERTEX
  8
0
 10
7.07835086
 20
6.44666976
  0
VERTEX
  8
0
 10
7.14969713
 20
6.51517369
  0
VERTEX
  8
0
 10
7.20522261
 20
6.59345188
  0
VERTEX
  8
0
 10
7.22222222
 20
6.69444444
  0
VERTEX
  8
0
 10
7.19663706
 20
6.74010251
  0
VERTEX
  8
0
 10
7.16666667
 20
6.76388889
  0
VERTEX
  8
0
 10
7.13888889
 20
6.86111111
  0
VERTEX
  8
0
 10
7.05336154
 20
6.94945910
  0
VERTEX
  8
0
 10
6.95833333
 20
7.00000000
  0
VERTEX
  8
0
 10
6.61894435
 20
7.03165372
  0
VERTEX
  8
0
 10
6.44243971
 20
7.05631067
  0
VERTEX
  8
0
 10
6.30555556
 20
7.09722222
  0
VERTEX
  8
0
 10
6.21736284
 20
7.15682953
  0
VERTEX
  8
0
 10
6.15491067
 20
7.22198480
  0
VERTEX
  8
0
 10
6.09486427
 20
7.28031434
  0
VERTEX
  8
0
 10
6.01388889
 20
7.31944444
  0
VERTEX
  8
0
 10
5.90938150
 20
7.33299522
  0
VERTEX
  8
0
 10
5.86764487
 20
7.35028539
  0
VERTEX
  8
0
 10
5.84722222
 20
7.38888889
  0
VERTEX
  8
0
 10
5.95506525
 20
7.42683044
  0
VERTEX
  8
0
 10
6.07533619
 20
7.43546813
  0
VERTEX
  8
0
 10
6.30555556
 20
7.40277778
  0
VERTEX
  8
0
 10
6.59722222
 20
7.31944444
  0
VERTEX
  8
0
 10
6.69787421
 20
7.25188046
  0
VERTEX
  8
0
 10
6.74801336
 20
7.23286254
  0
VERTEX
  8
0
 10
6.80555556
 20
7.25000000
  0
VERTEX
  8
0
 10
6.81546427
 20
7.28720156
  0
VERTEX
  8
0
 10
6.80070338
 20
7.32848115
  0
VERTEX
  8
0
 10
6.78836857
 20
7.37218684
  0
VERTEX
  8
0
 10
6.80555556
 20
7.41666667
  0
VERTEX
  8
0
 10
6.83467317
 20
7.40064083
  0
VERTEX
  8
0
 10
6.84407247
 20
7.36490060
  0
VERTEX
  8
0
 10
6.85157443
 20
7.32726562
  0
VERTEX
  8
0
 10
6.87500000
 20
7.30555556
  0
VERTEX
  8
0
 10
6.91493914
 20
7.32792351
  0
VERTEX
  8
0
 10
6.97222222
 20
7.33333333
  0
VERTEX
  8
0
 10
7.10966848
 20
7.21383515
  0
VERTEX
  8
0
 10
7.17133035
 20
7.14702350
  0
VERTEX
  8
0
 10
7.22222222
 20
7.06944444
  0
VERTEX
  8
0
 10
7.24749435
 20
6.96277213
  0
VERTEX
  8
0
 10
7.29166667
 20
6.87500000
  0
VERTEX
  8
0
 10
7.33859435
 20
6.69561761
  0
VERTEX
  8
0
 10
7.38888889
 20
6.54166667
  0
VERTEX
  8
0
 10
7.42084435
 20
6.30449678
  0
VERTEX
  8
0
 10
7.45833333
 20
6.08333333
  0
VERTEX
  8
0
 10
7.43267204
 20
6.02204140
  0
VERTEX
  8
0
 10
7.43061692
 20
5.93724365
  0
VERTEX
  8
0
 10
7.42853111
 20
5.85257408
  0
VERTEX
  8
0
 10
7.40277778
 20
5.79166667
  0
VERTEX
  8
0
 10
7.35361162
 20
5.79514125
  0
VERTEX
  8
0
 10
7.31151518
 20
5.81491952
  0
VERTEX
  8
0
 10
7.27338337
 20
5.83001581
  0
VERTEX
  8
0
 10
7.23611111
 20
5.81944444
  0
VERTEX
  8
0
 10
7.45833333
 20
5.69444444
  0
VERTEX
  8
0
 10
7.55185928
 20
5.61638810
  0
VERTEX
  8
0
 10
7.60376275
 20
5.59535668
  0
VERTEX
  8
0
 10
7.66666667
 20
5.61111111
  0
VERTEX
  8
0
 10
7.68243645
 20
5.68200579
  0
VERTEX
  8
0
 10
7.67958636
 20
5.77161223
  0
VERTEX
  8
0
 10
7.69110976
 20
5.84694034
  0
VERTEX
  8
0
 10
7.71257194
 20
5.86894060
  0
VERTEX
  8
0
 10
7.75000000
 20
5.87500000
  0
VERTEX
  8
0
 10
7.76798311
 20
5.78518843
  0
VERTEX
  8
0
 10
7.76021171
 20
5.69443445
  0
VERTEX
  8
0
 10
7.73611111
 20
5.51388889
  0
VERTEX
  8
0
 10
7.72493205
 20
5.49658254
  0
VERTEX
  8
0
 10
7.70459522
 20
5.50320164
  0
VERTEX
  8
0
 10
7.68612745
 20
5.51169214
  0
VERTEX
  8
0
 10
7.68055556
 20
5.50000000
  0
VERTEX
  8
0
 10
7.88387521
 20
5.32831770
  0
VERTEX
  8
0
 10
8.05743254
 20
5.12687699
  0
VERTEX
  8
0
 10
8.19880138
 20
4.89324778
  0
VERTEX
  8
0
 10
8.30555556
 20
4.62500000
  0
VERTEX
  8
0
 10
8.29775952
 20
4.55760754
  0
VERTEX
  8
0
 10
8.31573306
 20
4.49748740
  0
VERTEX
  8
0
 10
8.38888889
 20
4.37500000
  0
VERTEX
  8
0
 10
8.54166667
 20
4.06944444
  0
VERTEX
  8
0
 10
8.56252595
 20
3.97385546
  0
VERTEX
  8
0
 10
8.58186249
 20
3.93447699
  0
VERTEX
  8
0
 10
8.62500000
 20
3.91666667
  0
VERTEX
  8
0
 10
8.62325216
 20
3.98766605
  0
VERTEX
  8
0
 10
8.62455774
 20
4.02113222
  0
VERTEX
  8
0
 10
8.63888889
 20
4.04166667
  0
VERTEX
  8
0
 10
8.66874541
 20
4.00902319
  0
VERTEX
  8
0
 10
8.68366501
 20
3.96144279
  0
VERTEX
  8
0
 10
8.70050210
 20
3.91577988
  0
VERTEX
  8
0
 10
8.73611111
 20
3.88888889
  0
VERTEX
  8
0
 10
8.73869450
 20
3.91348999
  0
VERTEX
  8
0
 10
8.74833862
 20
3.91066327
  0
VERTEX
  8
0
 10
8.77777778
 20
3.88888889
  0
VERTEX
  8
0
 10
8.77777778
 20
3.65277778
  0
VERTEX
  8
0
 10
8.54629357
 20
3.82060368
  0
VERTEX
  8
0
 10
8.29306553
 20
3.96668185
  0
VERTEX
  8
0
 10
8.03913806
 20
4.11205798
  0
VERTEX
  8
0
 10
7.80555556
 20
4.27777778
  0
VERTEX
  8
0
 10
7.69928910
 20
4.28956362
  0
VERTEX
  8
0
 10
7.61458845
 20
4.32291657
  0
VERTEX
  8
0
 10
7.53509357
 20
4.36147790
  0
VERTEX
  8
0
 10
7.44444444
 20
4.38888889
  0
VERTEX
  8
0
 10
7.31686622
 20
4.18015563
  0
VERTEX
  8
0
 10
7.19444444
 20
3.90277778
  0
VERTEX
  8
0
 10
7.13729502
 20
3.72007245
  0
VERTEX
  8
0
 10
7.07150424
 20
3.55289556
  0
VERTEX
  8
0
 10
7.02147088
 20
3.48696931
  0
VERTEX
  8
0
 10
6.95260023
 20
3.43913200
  0
VERTEX
  8
0
 10
6.85933330
 20
3.41411925
  0
VERTEX
  8
0
 10
6.73611111
 20
3.41666667
  0
VERTEX
  8
0
 10
6.62036136
 20
3.29262334
  0
VERTEX
  8
0
 10
6.57435850
 20
3.21243769
  0
VERTEX
  8
0
 10
6.55555556
 20
3.12500000
  0
VERTEX
  8
0
 10
6.56362727
 20
3.07194923
  0
VERTEX
  8
0
 10
6.58327924
 20
3.02693341
  0
VERTEX
  8
0
 10
6.62500000
 20
2.93055556
  0
VERTEX
  8
0
 10
6.56496076
 20
2.79790472
  0
VERTEX
  8
0
 10
6.54063601
 20
2.64006553
  0
VERTEX
  8
0
 10
6.54822795
 20
2.56698329
  0
VERTEX
  8
0
 10
6.57238215
 20
2.50594357
  0
VERTEX
  8
0
 10
6.61564317
 20
2.46305955
  0
VERTEX
  8
0
 10
6.68055556
 20
2.44444444
  0
VERTEX
  8
0
 10
6.66896783
 20
2.52313775
  0
VERTEX
  8
0
 10
6.63746831
 20
2.58191796
  0
VERTEX
  8
0
 10
6.60320685
 20
2.63793363
  0
VERTEX
  8
0
 10
6.58333333
 20
2.70833333
  0
VERTEX
  8
0
 10
6.64405008
 20
2.79512716
  0
VERTEX
  8
0
 10
6.66932271
 20
2.83584342
  0
VERTEX
  8
0
 10
6.68055556
 20
2.88888889
  0
VERTEX
  8
0
 10
6.66219719
 20
2.95976152
  0
VERTEX
  8
0
 10
6.62546987
 20
3.03202508
  0
VERTEX
  8
0
 10
6.60239650
 20
3.10216499
  0
VERTEX
  8
0
 10
6.60598721
 20
3.13534027
  0
VERTEX
  8
0
 10
6.62500000
 20
3.16666667
  0
VERTEX
  8
0
 10
6.71529584
 20
3.13849454
  0
VERTEX
  8
0
 10
6.78414238
 20
3.09523300
  0
VERTEX
  8
0
 10
6.83680533
 20
3.03952278
  0
VERTEX
  8
0
 10
6.87855042
 20
2.97400459
  0
VERTEX
  8
0
 10
6.95034993
 20
2.82410722
  0
VERTEX
  8
0
 10
7.04166667
 20
2.66666667
  0
VERTEX
  8
0
 10
7.11359504
 20
2.59878931
  0
VERTEX
  8
0
 10
7.19444444
 20
2.52777778
  0
VERTEX
  8
0
 10
7.31944444
 20
2.37500000
  0
VERTEX
  8
0
 10
7.44369941
 20
2.28296384
  0
VERTEX
  8
0
 10
7.57445598
 20
2.20269088
  0
VERTEX
  8
0
 10
7.69576234
 20
2.12176692
  0
VERTEX
  8
0
 10
7.79166667
 20
2.02777778
  0
VERTEX
  8
0
 10
7.83689330
 20
1.94832922
  0
VERTEX
  8
0
 10
7.85890125
 20
1.86716497
  0
VERTEX
  8
0
 10
7.86159883
 20
1.78483591
  0
VERTEX
  8
0
 10
7.84889435
 20
1.70189296
  0
VERTEX
  8
0
 10
7.79291249
 20
1.53636892
  0
VERTEX
  8
0
 10
7.72222222
 20
1.37500000
  0
VERTEX
  8
0
 10
7.63137462
 20
1.18606603
  0
VERTEX
  8
0
 10
7.52979869
 20
1.01036258
  0
VERTEX
  8
0
 10
7.30555556
 20
0.68055556
  0
VERTEX
  8
0
 10
7.18902942
 20
0.52183931
  0
VERTEX
  8
0
 10
7.13733341
 20
0.43814728
  0
VERTEX
  8
0
 10
7.09722222
 20
0.34722222
  0
VERTEX
  8
0
 10
6.90277778
 20
0.18055556
  0
VERTEX
  8
0
 10
6.79914713
 20
0.10378358
  0
VERTEX
  8
0
 10
6.70833333
 20
0.01388889
  0
VERTEX
  8
0
 10
6.19444444
 20
0.01388889
  0
VERTEX
  8
0
 10
6.17086900
 20
0.02850919
  0
VERTEX
  8
0
 10
6.13237317
 20
0.02820650
  0
VERTEX
  8
0
 10
6.09713519
 20
0.03116167
  0
VERTEX
  8
0
 10
6.08333333
 20
0.05555556
  0
VERTEX
  8
0
 10
6.16825233
 20
0.14405476
  0
VERTEX
  8
0
 10
6.23611111
 20
0.25000000
  0
VERTEX
  8
0
 10
6.45617004
 20
0.42558150
  0
VERTEX
  8
0
 10
6.66666667
 20
0.61111111
  0
VERTEX
  8
0
 10
6.76126245
 20
0.84970399
  0
VERTEX
  8
0
 10
6.86736726
 20
1.07688428
  0
VERTEX
  8
0
 10
6.99117734
 20
1.28645577
  0
VERTEX
  8
0
 10
7.13888889
 20
1.47222222
  0
VERTEX
  8
0
 10
7.00479272
 20
1.47726402
  0
VERTEX
  8
0
 10
6.88892775
 20
1.45543044
  0
VERTEX
  8
0
 10
6.78868616
 20
1.41150241
  0
VERTEX
  8
0
 10
6.70146015
 20
1.35026084
  0
VERTEX
  8
0
 10
6.55562358
 20
1.19496082
  0
VERTEX
  8
0
 10
6.43055556
 20
1.02777778
  0
VERTEX
  8
0
 10
6.57254400
 20
0.93365511
  0
VERTEX
  8
0
 10
6.62149474
 20
0.86454899
  0
VERTEX
  8
0
 10
6.63888889
 20
0.76388889
  0
VERTEX
  8
0
 10
6.53025181
 20
0.81496883
  0
VERTEX
  8
0
 10
6.46914272
 20
0.83372280
  0
VERTEX
  8
0
 10
6.38888889
 20
0.83333333
  0
VERTEX
  8
0
 10
6.24276067
 20
0.50704122
  0
VERTEX
  8
0
 10
6.09722222
 20
0.18055556
  0
VERTEX
  8
0
 10
6.03613684
 20
0.14426948
  0
VERTEX
  8
0
 10
5.98951414
 20
0.09362108
  0
VERTEX
  8
0
 10
5.94118992
 20
0.04477326
  0
VERTEX
  8
0
 10
5.87500000
 20
0.01388889
  0
VERTEX
  8
0
 10
5.65277778
 20
0.01388889
  0
VERTEX
  8
0
 10
5.65277778
 20
0.02777778
  0
VERTEX
  8
0
 10
5.64183532
 20
0.03767386
  0
VERTEX
  8
0
 10
5.63888889
 20
0.05555556
  0
VERTEX
  8
0
 10
5.71263100
 20
0.13332673
  0
VERTEX
  8
0
 10
5.77347681
 20
0.22024053
  0
VERTEX
  8
0
 10
5.88888889
 20
0.40277778
  0
VERTEX
  8
0
 10
6.02424799
 20
0.56411240
  0
VERTEX
  8
0
 10
6.16666667
 20
0.72222222
  0
VERTEX
  8
0
 10
6.22938185
 20
0.86162508
  0
VERTEX
  8
0
 10
6.26388889
 20
1.04166667
  0
VERTEX
  8
0
 10
6.38107976
 20
1.18122733
  0
VERTEX
  8
0
 10
6.50000000
 20
1.31944444
  0
VERTEX
  8
0
 10
6.40540853
 20
1.25320740
  0
VERTEX
  8
0
 10
6.32249726
 20
1.17227738
  0
VERTEX
  8
0
 10
6.18074053
 20
0.98000268
  0
VERTEX
  8
0
 10
6.05278020
 20
0.76994886
  0
VERTEX
  8
0
 10
5.91666667
 20
0.56944444
  0
VERTEX
  8
0
 10
5.73611111
 20
0.34722222
  0
VERTEX
  8
0
 10
5.66907456
 20
0.22553879
  0
VERTEX
  8
0
 10
5.62787881
 20
0.17208406
  0
VERTEX
  8
0
 10
5.56944444
 20
0.13888889
  0
VERTEX
  8
0
 10
5.60879711
 20
0.29289242
  0
VERTEX
  8
0
 10
5.66947612
 20
0.43606605
  0
VERTEX
  8
0
 10
5.81944444
 20
0.69444444
  0
VERTEX
  8
0
 10
6.06944444
 20
1.04166667
  0
VERTEX
  8
0
 10
6.11152473
 20
1.09166848
  0
VERTEX
  8
0
 10
6.12593812
 20
1.12054550
  0
VERTEX
  8
0
 10
6.12500000
 20
1.15277778
  0
VERTEX
  8
0
 10
5.97798167
 20
1.03514973
  0
VERTEX
  8
0
 10
5.83333333
 20
0.91666667
  0
VERTEX
  8
0
 10
5.78438725
 20
0.84588003
  0
VERTEX
  8
0
 10
5.74529695
 20
0.76980268
  0
VERTEX
  8
0
 10
5.70161373
 20
0.69771288
  0
VERTEX
  8
0
 10
5.63888889
 20
0.63888889
  0
VERTEX
  8
0
 10
5.61261501
 20
0.66817056
  0
VERTEX
  8
0
 10
5.59656499
 20
0.67989702
  0
VERTEX
  8
0
 10
5.56944444
 20
0.68055556
  0
VERTEX
  8
0
 10
5.30302438
 20
0.46067160
  0
VERTEX
  8
0
 10
5.05555556
 20
0.22222222
  0
VERTEX
  8
0
 10
4.92371049
 20
0.13859452
  0
VERTEX
  8
0
 10
4.87262267
 20
0.08209168
  0
VERTEX
  8
0
 10
4.83333333
 20
0.01388889
  0
VERTEX
  8
0
 10
4.22222222
 20
0.01388889
  0
SEQEND
  0
POLYLINE
  8
Default_Layer
 66
   1
 39
0.000000
 70
    1
  0
VERTEX
  8
0
 10
2.95833333
 20
5.59722222
  0
VERTEX
  8
0
 10
2.98839405
 20
5.51946147
  0
VERTEX
  8
0
 10
2.98879817
 20
5.43474452
  0
VERTEX
  8
0
 10
2.98091432
 20
5.34793309
  0
VERTEX
  8
0
 10
2.98611111
 20
5.26388889
  0
VERTEX
  8
0
 10
3.01299303
 20
5.20529843
  0
VERTEX
  8
0
 10
3.05108202
 20
5.15370372
  0
VERTEX
  8
0
 10
3.08099112
 20
5.10164604
  0
VERTEX
  8
0
 10
3.08333333
 20
5.04166667
  0
VERTEX
  8
0
 10
3.01148493
 20
5.07191090
  0
VERTEX
  8
0
 10
2.96082252
 20
5.12153602
  0
VERTEX
  8
0
 10
2.92878503
 20
5.18645161
  0
VERTEX
  8
0
 10
2.91281136
 20
5.26256726
  0
VERTEX
  8
0
 10
2.91881119
 20
5.43203710
  0
VERTEX
  8
0
 10
2.95833333
 20
5.59722222
  0
SEQEND
  0
POLYLINE
  8
Default_Layer
 66
   1
 39
0.000000
 70
    1
  0
VERTEX
  8
0
 10
2.77777778
 20
5.12500000
  0
VERTEX
  8
0
 10
2.80777022
 20
5.07913133
  0
VERTEX
  8
0
 10
2.84722222
 20
5.01388889
  0
VERTEX
  8
0
 10
2.97222222
 20
4.84722222
  0
VERTEX
  8
0
 10
3.03119982
 20
4.75542742
  0
VERTEX
  8
0
 10
3.07603567
 20
4.66723983
  0
VERTEX
  8
0
 10
3.08979813
 20
4.57529344
  0
VERTEX
  8
0
 10
3.05555556
 20
4.47222222
  0
VERTEX
  8
0
 10
3.02703139
 20
4.48231015
  0
VERTEX
  8
0
 10
3.02092577
 20
4.50075476
  0
VERTEX
  8
0
 10
3.01388889
 20
4.54166667
  0
VERTEX
  8
0
 10
2.95021813
 20
4.65855407
  0
VERTEX
  8
0
 10
2.90277778
 20
4.79166667
  0
VERTEX
  8
0
 10
2.88037386
 20
4.81787647
  0
VERTEX
  8
0
 10
2.84722222
 20
4.83333333
  0
VERTEX
  8
0
 10
2.84722222
 20
4.93055556
  0
VERTEX
  8
0
 10
2.83244733
 20
4.90872481
  0
VERTEX
  8
0
 10
2.81601071
 20
4.91147825
  0
VERTEX
  8
0
 10
2.78495824
 20
4.96793289
  0
VERTEX
  8
0
 10
2.76767664
 20
5.05430998
  0
VERTEX
  8
0
 10
2.77777778
 20
5.12500000
  0
SEQEND
  0
ENDSEC
  0
EOF
