999
"DXF R12 Output" (www.mydxf.blogspot.com)
 0 
SECTION
 2 
HEADER
 9 
$ACADVER
 1 
AC1009
 9 
$EXTMIN
 10 
 0 
 20 
 0 
 9 
$EXTMAX
 10 
 8.5 
 20 
 11 
 0 
ENDSEC
 0 
SECTION
 2 
ENTITIES
0
LINE
8
Layer 1
10
103.023371
20
56.888674
11
102.777063
21
57.648612
0
LINE
8
Layer 1
10
102.777063
20
57.648612
11
102.334695
21
58.406497
0
LINE
8
Layer 1
10
102.334695
20
58.406497
11
101.765307
21
59.076816
0
LINE
8
Layer 1
10
101.765307
20
59.076816
11
101.137937
21
59.574057
0
LINE
8
Layer 1
10
101.137937
20
59.574057
11
100.777284
21
60.948362
0
LINE
8
Layer 1
10
100.777284
20
60.948362
11
100.111817
21
62.192364
0
LINE
8
Layer 1
10
100.111817
20
62.192364
11
99.175926
21
63.246043
0
LINE
8
Layer 1
10
99.175926
20
63.246043
11
98.004003
21
64.049374
0
LINE
8
Layer 1
10
98.004003
20
64.049374
11
96.789951
21
77.730813
0
LINE
8
Layer 1
10
96.789951
20
77.730813
11
92.442792
21
78.434164
0
LINE
8
Layer 1
10
92.442792
20
78.434164
11
91.835077
21
78.594015
0
LINE
8
Layer 1
10
91.835077
20
78.594015
11
91.418910
21
78.945830
0
LINE
8
Layer 1
10
91.418910
20
78.945830
11
90.940179
21
79.264846
0
LINE
8
Layer 1
10
90.940179
20
79.264846
11
90.460347
21
79.552856
0
LINE
8
Layer 1
10
90.460347
20
79.552856
11
89.948820
21
79.809171
0
LINE
8
Layer 1
10
89.948820
20
79.809171
11
89.405595
21
80.032276
0
LINE
8
Layer 1
10
89.405595
20
80.032276
11
88.894895
21
80.192404
0
LINE
8
Layer 1
10
88.894895
20
80.192404
11
88.318876
21
80.320011
0
LINE
8
Layer 1
10
88.318876
20
80.320011
11
87.775378
21
80.416198
0
LINE
8
Layer 1
10
87.775378
20
80.416198
11
87.200461
21
80.480000
0
LINE
8
Layer 1
10
87.200461
20
80.480000
11
86.624993
21
80.480000
0
LINE
8
Layer 1
10
86.624993
20
80.480000
11
86.081768
21
80.447753
0
LINE
8
Layer 1
10
86.081768
20
80.447753
11
85.505473
21
80.352393
0
LINE
8
Layer 1
10
85.505473
20
80.352393
11
84.961976
21
80.256482
0
LINE
8
Layer 1
10
84.961976
20
80.256482
11
84.418478
21
80.096078
0
LINE
8
Layer 1
10
84.418478
20
80.096078
11
84.387058
21
80.064381
0
LINE
8
Layer 1
10
84.387058
20
80.064381
11
82.183919
21
79.076726
0
LINE
8
Layer 1
10
82.183919
20
79.076726
11
79.848075
21
78.466411
0
LINE
8
Layer 1
10
79.848075
20
78.466411
11
78.566276
21
79.192324
0
LINE
8
Layer 1
10
78.566276
20
79.192324
11
77.133065
21
79.546360
0
LINE
8
Layer 1
10
77.133065
20
79.546360
11
75.658719
21
79.512178
0
LINE
8
Layer 1
10
75.658719
20
79.512178
11
74.253516
21
79.073434
0
LINE
8
Layer 1
10
74.253516
20
79.073434
11
74.253516
21
79.105269
0
LINE
8
Layer 1
10
74.253516
20
79.105269
11
72.250679
21
78.910773
0
LINE
8
Layer 1
10
72.250679
20
78.910773
11
70.256343
21
79.173188
0
LINE
8
Layer 1
10
70.256343
20
79.173188
11
68.366549
21
79.865319
0
LINE
8
Layer 1
10
68.366549
20
79.865319
11
66.677337
21
80.959972
0
LINE
8
Layer 1
10
66.677337
20
80.959972
11
66.677337
21
80.927311
0
LINE
8
Layer 1
10
66.677337
20
80.927311
11
64.864076
21
80.775445
0
LINE
8
Layer 1
10
64.864076
20
80.775445
11
63.048308
21
80.905074
0
LINE
8
Layer 1
10
63.048308
20
80.905074
11
61.272899
21
81.309750
0
LINE
8
Layer 1
10
61.272899
20
81.309750
11
59.580715
21
81.983028
0
LINE
8
Layer 1
10
59.580715
20
81.983028
11
59.005797
21
82.301628
0
LINE
8
Layer 1
10
59.005797
20
82.301628
11
58.781453
21
82.589501
0
LINE
8
Layer 1
10
58.781453
20
82.589501
11
58.493719
21
82.844991
0
LINE
8
Layer 1
10
58.493719
20
82.844991
11
58.174565
21
83.004980
0
LINE
8
Layer 1
10
58.174565
20
83.004980
11
57.730730
21
83.150477
0
LINE
8
Layer 1
10
57.730730
20
83.150477
11
57.269299
21
83.143386
0
LINE
8
Layer 1
10
57.269299
20
83.143386
11
56.416742
21
82.781875
0
LINE
8
Layer 1
10
56.416742
20
82.781875
11
56.416742
21
82.813571
0
LINE
8
Layer 1
10
56.416742
20
82.813571
11
54.846965
21
83.650349
0
LINE
8
Layer 1
10
54.846965
20
83.650349
11
53.982954
21
83.862420
0
LINE
8
Layer 1
10
53.982954
20
83.862420
11
53.092085
21
83.900290
0
LINE
8
Layer 1
10
53.092085
20
83.900290
11
52.356628
21
100.331192
0
LINE
8
Layer 1
10
52.356628
20
100.331192
11
31.035207
21
99.979103
0
LINE
8
Layer 1
10
31.035207
20
99.979103
11
31.035207
21
61.428345
0
LINE
8
Layer 1
10
31.035207
20
61.428345
11
5.238057
21
61.812128
0
LINE
8
Layer 1
10
5.238057
20
61.812128
11
5.551121
21
60.419434
0
LINE
8
Layer 1
10
5.551121
20
60.419434
11
6.042776
21
59.081718
0
LINE
8
Layer 1
10
6.042776
20
59.081718
11
6.698884
21
57.815754
0
LINE
8
Layer 1
10
6.698884
20
57.815754
11
7.505309
21
56.638318
0
LINE
8
Layer 1
10
7.505309
20
56.638318
11
8.447915
21
55.566187
0
LINE
8
Layer 1
10
8.447915
20
55.566187
11
9.512564
21
54.616134
0
LINE
8
Layer 1
10
9.512564
20
54.616134
11
10.685120
21
53.804936
0
LINE
8
Layer 1
10
10.685120
20
53.804936
11
11.951446
21
53.149367
0
LINE
8
Layer 1
10
11.951446
20
53.149367
11
11.919337
21
53.117121
0
LINE
8
Layer 1
10
11.919337
20
53.117121
11
13.379022
21
52.378811
0
LINE
8
Layer 1
10
13.379022
20
52.378811
11
14.775753
21
51.346204
0
LINE
8
Layer 1
10
14.775753
20
51.346204
11
16.006938
21
50.120327
0
LINE
8
Layer 1
10
16.006938
20
50.120327
11
16.969986
21
48.802208
0
LINE
8
Layer 1
10
16.969986
20
48.802208
11
17.890292
21
47.082623
0
LINE
8
Layer 1
10
17.890292
20
47.082623
11
18.504570
21
45.221237
0
LINE
8
Layer 1
10
18.504570
20
45.221237
11
18.979734
21
43.058683
0
LINE
8
Layer 1
10
18.979734
20
43.058683
11
19.879161
21
41.033381
0
LINE
8
Layer 1
10
19.879161
20
41.033381
11
20.972992
21
39.432565
0
LINE
8
Layer 1
10
20.972992
20
39.432565
11
22.334171
21
38.059850
0
LINE
8
Layer 1
10
22.334171
20
38.059850
11
23.914303
21
36.943242
0
LINE
8
Layer 1
10
23.914303
20
36.943242
11
25.664993
21
36.110751
0
LINE
8
Layer 1
10
25.664993
20
36.110751
11
26.176521
21
35.951727
0
LINE
8
Layer 1
10
26.176521
20
35.951727
11
26.687499
21
35.471619
0
LINE
8
Layer 1
10
26.687499
20
35.471619
11
27.262967
21
35.088522
0
LINE
8
Layer 1
10
27.262967
20
35.088522
11
27.870543
21
34.801065
0
LINE
8
Layer 1
10
27.870543
20
34.801065
11
28.542336
21
34.640385
0
LINE
8
Layer 1
10
28.542336
20
34.640385
11
29.245134
21
34.577271
0
LINE
8
Layer 1
10
29.245134
20
34.577271
11
29.916377
21
34.640385
0
LINE
8
Layer 1
10
29.916377
20
34.640385
11
30.587758
21
34.801065
0
LINE
8
Layer 1
10
30.587758
20
34.801065
11
31.227028
21
35.056002
0
LINE
8
Layer 1
10
31.227028
20
35.056002
11
31.802084
21
35.439646
0
LINE
8
Layer 1
10
31.802084
20
35.439646
11
32.314439
21
35.887510
0
LINE
8
Layer 1
10
32.314439
20
35.887510
11
32.729503
21
36.430732
0
LINE
8
Layer 1
10
32.729503
20
36.430732
11
32.761611
21
36.430732
0
LINE
8
Layer 1
10
32.761611
20
36.430732
11
33.005919
21
38.086496
0
LINE
8
Layer 1
10
33.005919
20
38.086496
11
33.670342
21
39.575140
0
LINE
8
Layer 1
10
33.670342
20
39.575140
11
34.719418
21
40.818217
0
LINE
8
Layer 1
10
34.719418
20
40.818217
11
36.117685
21
41.737283
0
LINE
8
Layer 1
10
36.117685
20
41.737283
11
36.085715
21
41.737283
0
LINE
8
Layer 1
10
36.085715
20
41.737283
11
37.804825
21
41.976467
0
LINE
8
Layer 1
10
37.804825
20
41.976467
11
39.530691
21
41.944453
0
LINE
8
Layer 1
10
39.530691
20
41.944453
11
41.228987
21
41.654187
0
LINE
8
Layer 1
10
41.228987
20
41.654187
11
42.865389
21
41.118612
0
LINE
8
Layer 1
10
42.865389
20
41.118612
11
44.405568
21
40.350674
0
LINE
8
Layer 1
10
44.405568
20
40.350674
11
45.815200
21
39.363318
0
LINE
8
Layer 1
10
45.815200
20
39.363318
11
47.059959
21
38.169489
0
LINE
8
Layer 1
10
47.059959
20
38.169489
11
48.105517
21
36.782132
0
LINE
8
Layer 1
10
48.105517
20
36.782132
11
48.137764
21
36.814102
0
LINE
8
Layer 1
10
48.137764
20
36.814102
11
50.099517
21
32.835246
0
LINE
8
Layer 1
10
50.099517
20
32.835246
11
52.476412
21
28.995011
0
LINE
8
Layer 1
10
52.476412
20
28.995011
11
55.193184
21
25.380343
0
LINE
8
Layer 1
10
55.193184
20
25.380343
11
58.174565
21
22.078188
0
LINE
8
Layer 1
10
58.174565
20
22.078188
11
58.143146
21
22.078188
0
LINE
8
Layer 1
10
58.143146
20
22.078188
11
58.837992
21
19.402172
0
LINE
8
Layer 1
10
58.837992
20
19.402172
11
59.789798
21
16.919399
0
LINE
8
Layer 1
10
59.789798
20
16.919399
11
61.037039
21
14.570623
0
LINE
8
Layer 1
10
61.037039
20
14.570623
11
62.618188
21
12.296597
0
LINE
8
Layer 1
10
62.618188
20
12.296597
11
64.420735
21
11.910919
0
LINE
8
Layer 1
10
64.420735
20
11.910919
11
66.248732
21
11.274921
0
LINE
8
Layer 1
10
66.248732
20
11.274921
11
67.995650
21
10.438417
0
LINE
8
Layer 1
10
67.995650
20
10.438417
11
69.554956
21
9.451224
0
LINE
8
Layer 1
10
69.554956
20
9.451224
11
70.979572
21
9.681599
0
LINE
8
Layer 1
10
70.979572
20
9.681599
11
72.376490
21
9.602948
0
LINE
8
Layer 1
10
72.376490
20
9.602948
11
73.728966
21
9.232635
0
LINE
8
Layer 1
10
73.728966
20
9.232635
11
75.020257
21
8.588022
0
LINE
8
Layer 1
10
75.020257
20
8.588022
11
75.020257
21
8.619716
0
LINE
8
Layer 1
10
75.020257
20
8.619716
11
75.558087
21
8.247035
0
LINE
8
Layer 1
10
75.558087
20
8.247035
11
76.149038
21
8.065870
0
LINE
8
Layer 1
10
76.149038
20
8.065870
11
76.755950
21
8.060541
0
LINE
8
Layer 1
10
76.755950
20
8.060541
11
77.341665
21
8.215366
0
LINE
8
Layer 1
10
77.341665
20
8.215366
11
77.869024
21
8.514666
0
LINE
8
Layer 1
10
77.869024
20
8.514666
11
78.300869
21
8.942760
0
LINE
8
Layer 1
10
78.300869
20
8.942760
11
78.600042
21
9.483966
0
LINE
8
Layer 1
10
78.600042
20
9.483966
11
78.729383
21
10.122606
0
LINE
8
Layer 1
10
78.729383
20
10.122606
11
78.696586
21
10.090359
0
LINE
8
Layer 1
10
78.696586
20
10.090359
11
77.539980
21
11.750737
0
LINE
8
Layer 1
10
77.539980
20
11.750737
11
76.636217
21
13.524064
0
LINE
8
Layer 1
10
76.636217
20
13.524064
11
75.988724
21
15.384382
0
LINE
8
Layer 1
10
75.988724
20
15.384382
11
75.600927
21
17.305733
0
LINE
8
Layer 1
10
75.600927
20
17.305733
11
75.476254
21
19.262159
0
LINE
8
Layer 1
10
75.476254
20
19.262159
11
75.618130
21
21.227704
0
LINE
8
Layer 1
10
75.618130
20
21.227704
11
76.029984
21
23.176408
0
LINE
8
Layer 1
10
76.029984
20
23.176408
11
76.715242
21
25.082314
0
LINE
8
Layer 1
10
76.715242
20
25.082314
11
77.752698
21
26.971706
0
LINE
8
Layer 1
10
77.752698
20
26.971706
11
79.048537
21
28.694702
0
LINE
8
Layer 1
10
79.048537
20
28.694702
11
80.256318
21
29.858972
0
LINE
8
Layer 1
10
80.256318
20
29.858972
11
81.670392
21
30.741089
0
LINE
8
Layer 1
10
81.670392
20
30.741089
11
90.748632
21
36.303125
0
LINE
8
Layer 1
10
90.748632
20
36.303125
11
90.716388
21
36.303125
0
LINE
8
Layer 1
10
90.716388
20
36.303125
11
91.236838
21
36.365089
0
LINE
8
Layer 1
10
91.236838
20
36.365089
11
91.683494
21
36.569810
0
LINE
8
Layer 1
10
91.683494
20
36.569810
11
92.303749
21
37.289801
0
LINE
8
Layer 1
10
92.303749
20
37.289801
11
92.473799
21
38.227660
0
LINE
8
Layer 1
10
92.473799
20
38.227660
11
92.357699
21
38.704715
0
LINE
8
Layer 1
10
92.357699
20
38.704715
11
92.090291
21
39.147948
0
LINE
8
Layer 1
10
92.090291
20
39.147948
11
92.123364
21
39.147948
0
LINE
8
Layer 1
10
92.123364
20
39.147948
11
91.739717
21
39.595535
0
LINE
8
Layer 1
10
91.739717
20
39.595535
11
91.611837
21
40.171003
0
LINE
8
Layer 1
10
91.611837
20
40.171003
11
91.739717
21
40.745921
0
LINE
8
Layer 1
10
91.739717
20
40.745921
11
92.090291
21
41.226305
0
LINE
8
Layer 1
10
92.090291
20
41.226305
11
92.634065
21
41.481519
0
LINE
8
Layer 1
10
92.634065
20
41.481519
11
93.209810
21
41.449549
0
LINE
8
Layer 1
10
93.209810
20
41.449549
11
93.753031
21
41.193785
0
LINE
8
Layer 1
10
93.753031
20
41.193785
11
94.104432
21
40.714227
0
LINE
8
Layer 1
10
94.104432
20
40.714227
11
94.200619
21
40.139033
0
LINE
8
Layer 1
10
94.200619
20
40.139033
11
97.531198
21
42.461097
0
LINE
8
Layer 1
10
97.531198
20
42.461097
11
101.137937
21
44.326342
0
LINE
8
Layer 1
10
101.137937
20
44.326342
11
101.137937
21
44.358585
0
LINE
8
Layer 1
10
101.137937
20
44.358585
11
101.393151
21
44.901810
0
LINE
8
Layer 1
10
101.393151
20
44.901810
11
101.648915
21
45.477001
0
LINE
8
Layer 1
10
101.648915
20
45.477001
11
102.032562
21
46.627940
0
LINE
8
Layer 1
10
102.032562
20
46.627940
11
102.192413
21
47.234828
0
LINE
8
Layer 1
10
102.192413
20
47.234828
11
102.319743
21
47.842543
0
LINE
8
Layer 1
10
102.319743
20
47.842543
11
102.512393
21
49.057145
0
LINE
8
Layer 1
10
102.512393
20
49.057145
11
102.127922
21
50.847216
0
LINE
8
Layer 1
10
102.127922
20
50.847216
11
102.000866
21
51.295080
0
LINE
8
Layer 1
10
102.000866
20
51.295080
11
101.903575
21
51.742667
0
LINE
8
Layer 1
10
101.903575
20
51.742667
11
101.648915
21
52.637840
0
LINE
8
Layer 1
10
101.648915
20
52.637840
11
102.420539
21
53.535371
0
LINE
8
Layer 1
10
102.420539
20
53.535371
11
102.921947
21
54.575413
0
LINE
8
Layer 1
10
102.921947
20
54.575413
11
103.130453
21
55.709377
0
LINE
8
Layer 1
10
103.130453
20
55.709377
11
103.023371
21
56.888674
0
LINE
8
Layer 1
10
103.023371
20
56.888674
11
103.023371
21
56.888674
 0 
ENDSEC
 0 
EOF
