  0
SECTION
  2
HEADER
  9
$ACADVER
  1
AC1009
  9
$EXTMAX
 10
12.8579359054565
 20
2.9216639995575
 30
0.0
  9
$EXTMIN
 10
-3.0
 20
-2.9263174533844
 30
0.0
  9
$INSUNITS
 70
     4
  9
$LUNITS
 70
     2
  9
$LUPREC
 70
     4
  9
$MEASUREMENT
 70
     1
  0
ENDSEC
  0
SECTION
  2
TABLES
  0
TABLE
  2
LAYER
 70
     1
  0
LAYER
  2
0
 70
     0
 62
     7
  6
Continuous
  0
ENDTAB
  0
TABLE
  2
APPID
 70
     1
  0
APPID
  2
ACAD
 70
     0
  0
ENDTAB
  0
ENDSEC
  0
SECTION
  2
ENTITIES
  0
POLYLINE
  8
0
 66
     1
 10
0.0
 20
0.0
 30
0.0
 70
     1
  0
VERTEX
  8
0
 10
-2.960023
 20
0.493032
 42
0.0
  0
VERTEX
  8
0
 10
-2.960023
 20
0.506358
 42
0.0
  0
VERTEX
  8
0
 10
-2.980011
 20
0.53301
 42
0.0
  0
VERTEX
  8
0
 10
-3.0
 20
0.599639
 42
0.0
  0
VERTEX
  8
0
 10
-3.0
 20
0.616296
 42
0.0
  0
VERTEX
  8
0
 10
-2.653528
 20
0.57965
 42
0.0
  0
VERTEX
  8
0
 10
-2.207113
 20
0.543004
 42
0.0
  0
VERTEX
  8
0
 10
-1.81067
 20
0.509736
 42
0.0
  0
VERTEX
  8
0
 10
-1.410895
 20
0.483038
 42
0.0
  0
VERTEX
  8
0
 10
-1.394238
 20
0.483038
 42
0.0
  0
VERTEX
  8
0
 10
-1.364255
 20
0.516353
 42
0.0
  0
VERTEX
  8
0
 10
-1.327609
 20
1.079369
 42
0.0
  0
VERTEX
  8
0
 10
-1.2843
 20
1.572424
 42
0.0
  0
VERTEX
  8
0
 10
-1.204345
 20
2.878356
 42
0.0
  0
VERTEX
  8
0
 10
-1.201013
 20
2.915002
 42
0.0
  0
VERTEX
  8
0
 10
-1.181025
 20
2.921664
 42
0.0
  0
VERTEX
  8
0
 10
-0.59131
 20
2.88835
 42
0.0
  0
VERTEX
  8
0
 10
-0.148227
 20
2.868361
 42
0.0
  0
VERTEX
  8
0
 10
0.031672
 20
2.86503
 42
0.0
  0
VERTEX
  8
0
 10
0.068318
 20
2.861698
 42
0.0
  0
VERTEX
  8
0
 10
0.108295
 20
2.84171
 42
0.0
  0
VERTEX
  8
0
 10
0.078312
 20
1.875587
 42
0.0
  0
VERTEX
  8
0
 10
0.074981
 20
1.815621
 42
0.0
  0
VERTEX
  8
0
 10
0.108295
 20
1.812289
 42
0.0
  0
VERTEX
  8
0
 10
0.144942
 20
1.785638
 42
0.0
  0
VERTEX
  8
0
 10
0.204908
 20
1.719009
 42
0.0
  0
VERTEX
  8
0
 10
0.234891
 20
1.702351
 42
0.0
  0
VERTEX
  8
0
 10
0.271537
 20
1.719009
 42
0.0
  0
VERTEX
  8
0
 10
0.308183
 20
1.705683
 42
0.0
  0
VERTEX
  8
0
 10
0.341497
 20
1.709014
 42
0.0
  0
VERTEX
  8
0
 10
0.358155
 20
1.74566
 42
0.0
  0
VERTEX
  8
0
 10
0.368149
 20
1.725671
 42
0.0
  0
VERTEX
  8
0
 10
0.401464
 20
1.709014
 42
0.0
  0
VERTEX
  8
0
 10
0.424784
 20
1.6757
 42
0.0
  0
VERTEX
  8
0
 10
0.424784
 20
1.642385
 42
0.0
  0
VERTEX
  8
0
 10
0.434778
 20
1.605739
 42
0.0
  0
VERTEX
  8
0
 10
0.471424
 20
1.605739
 42
0.0
  0
VERTEX
  8
0
 10
0.488082
 20
1.599076
 42
0.0
  0
VERTEX
  8
0
 10
0.521396
 20
1.609071
 42
0.0
  0
VERTEX
  8
0
 10
0.558042
 20
1.58575
 42
0.0
  0
VERTEX
  8
0
 10
0.628003
 20
1.56243
 42
0.0
  0
VERTEX
  8
0
 10
0.661317
 20
1.569093
 42
0.0
  0
VERTEX
  8
0
 10
0.697963
 20
1.569093
 42
0.0
  0
VERTEX
  8
0
 10
0.714621
 20
1.545773
 42
0.0
  0
VERTEX
  8
0
 10
0.741272
 20
1.522453
 42
0.0
  0
VERTEX
  8
0
 10
0.777918
 20
1.532447
 42
0.0
  0
VERTEX
  8
0
 10
0.811233
 20
1.559099
 42
0.0
  0
VERTEX
  8
0
 10
0.881193
 20
1.552436
 42
0.0
  0
VERTEX
  8
0
 10
0.917839
 20
1.555767
 42
0.0
  0
VERTEX
  8
0
 10
0.914508
 20
1.519121
 42
0.0
  0
VERTEX
  8
0
 10
0.934497
 20
1.485807
 42
0.0
  0
VERTEX
  8
0
 10
0.971143
 20
1.479144
 42
0.0
  0
VERTEX
  8
0
 10
0.977806
 20
1.459155
 42
0.0
  0
VERTEX
  8
0
 10
0.981137
 20
1.412515
 42
0.0
  0
VERTEX
  8
0
 10
1.014452
 20
1.405852
 42
0.0
  0
VERTEX
  8
0
 10
1.047766
 20
1.419177
 42
0.0
  0
VERTEX
  8
0
 10
1.10107
 20
1.472481
 42
0.0
  0
VERTEX
  8
0
 10
1.137716
 20
1.459155
 42
0.0
  0
VERTEX
  8
0
 10
1.151041
 20
1.42584
 42
0.0
  0
VERTEX
  8
0
 10
1.184356
 20
1.42584
 42
0.0
  0
VERTEX
  8
0
 10
1.197682
 20
1.392526
 42
0.0
  0
VERTEX
  8
0
 10
1.230996
 20
1.385863
 42
0.0
  0
VERTEX
  8
0
 10
1.287631
 20
1.412515
 42
0.0
  0
VERTEX
  8
0
 10
1.320946
 20
1.409183
 42
0.0
  0
VERTEX
  8
0
 10
1.30762
 20
1.375869
 42
0.0
  0
VERTEX
  8
0
 10
1.320946
 20
1.339223
 42
0.0
  0
VERTEX
  8
0
 10
1.33094
 20
1.33256
 42
0.0
  0
VERTEX
  8
0
 10
1.35426
 20
1.335891
 42
0.0
  0
VERTEX
  8
0
 10
1.367586
 20
1.40252
 42
0.0
  0
VERTEX
  8
0
 10
1.404232
 20
1.42584
 42
0.0
  0
VERTEX
  8
0
 10
1.407564
 20
1.449161
 42
0.0
  0
VERTEX
  8
0
 10
1.417558
 20
1.455823
 42
0.0
  0
VERTEX
  8
0
 10
1.450873
 20
1.442498
 42
0.0
  0
VERTEX
  8
0
 10
1.480856
 20
1.409183
 42
0.0
  0
VERTEX
  8
0
 10
1.51417
 20
1.395857
 42
0.0
  0
VERTEX
  8
0
 10
1.547485
 20
1.422509
 42
0.0
  0
VERTEX
  8
0
 10
1.580799
 20
1.419177
 42
0.0
  0
VERTEX
  8
0
 10
1.60412
 20
1.382531
 42
0.0
  0
VERTEX
  8
0
 10
1.637434
 20
1.362543
 42
0.0
  0
VERTEX
  8
0
 10
1.67408
 20
1.349217
 42
0.0
  0
VERTEX
  8
0
 10
1.707395
 20
1.319234
 42
0.0
  0
VERTEX
  8
0
 10
1.724052
 20
1.352548
 42
0.0
  0
VERTEX
  8
0
 10
1.760698
 20
1.352548
 42
0.0
  0
VERTEX
  8
0
 10
1.800676
 20
1.395857
 42
0.0
  0
VERTEX
  8
0
 10
1.837322
 20
1.399189
 42
0.0
  0
VERTEX
  8
0
 10
1.870636
 20
1.42584
 42
0.0
  0
VERTEX
  8
0
 10
1.903951
 20
1.40252
 42
0.0
  0
VERTEX
  8
0
 10
1.940597
 20
1.40252
 42
0.0
  0
VERTEX
  8
0
 10
1.97058
 20
1.42584
 42
0.0
  0
VERTEX
  8
0
 10
2.037209
 20
1.452492
 42
0.0
  0
VERTEX
  8
0
 10
2.073855
 20
1.419177
 42
0.0
  0
VERTEX
  8
0
 10
2.097175
 20
1.412515
 42
0.0
  0
VERTEX
  8
0
 10
2.133821
 20
1.412515
 42
0.0
  0
VERTEX
  8
0
 10
2.157141
 20
1.42584
 42
0.0
  0
VERTEX
  8
0
 10
2.17713
 20
1.459155
 42
0.0
  0
VERTEX
  8
0
 10
2.210445
 20
1.459155
 42
0.0
  0
VERTEX
  8
0
 10
2.2904
 20
1.409183
 42
0.0
  0
VERTEX
  8
0
 10
2.357029
 20
1.35588
 42
0.0
  0
VERTEX
  8
0
 10
2.390343
 20
1.345885
 42
0.0
  0
VERTEX
  8
0
 10
2.426989
 20
1.322565
 42
0.0
  0
VERTEX
  8
0
 10
2.523602
 20
1.302576
 42
0.0
  0
VERTEX
  8
0
 10
2.536928
 20
1.292582
 42
0.0
  0
VERTEX
  8
0
 10
2.540259
 20
1.279256
 42
0.0
  0
VERTEX
  8
0
 10
2.573574
 20
1.252605
 42
0.0
  0
VERTEX
  8
0
 10
2.61022
 20
1.275925
 42
0.0
  0
VERTEX
  8
0
 10
2.720158
 20
1.255936
 42
0.0
  0
VERTEX
  8
0
 10
2.730152
 20
0.962768
 42
0.0
  0
VERTEX
  8
0
 10
2.746809
 20
0.413078
 42
0.0
  0
VERTEX
  8
0
 10
2.806776
 20
0.359774
 42
0.0
  0
VERTEX
  8
0
 10
2.830096
 20
0.32646
 42
0.0
  0
VERTEX
  8
0
 10
2.856747
 20
0.256499
 42
0.0
  0
VERTEX
  8
0
 10
2.850084
 20
0.203196
 42
0.0
  0
VERTEX
  8
0
 10
2.876736
 20
0.169881
 42
0.0
  0
VERTEX
  8
0
 10
2.893393
 20
0.133235
 42
0.0
  0
VERTEX
  8
0
 10
2.906719
 20
0.126572
 42
0.0
  0
VERTEX
  8
0
 10
2.923376
 20
0.093304
 42
0.0
  0
VERTEX
  8
0
 10
2.923376
 20
0.056612
 42
0.0
  0
VERTEX
  8
0
 10
2.980011
 20
-0.013349
 42
0.0
  0
VERTEX
  8
0
 10
2.993337
 20
-0.01668
 42
0.0
  0
VERTEX
  8
0
 10
2.990006
 20
-0.049949
 42
0.0
  0
VERTEX
  8
0
 10
3.0
 20
-0.086595
 42
0.0
  0
VERTEX
  8
0
 10
2.983343
 20
-0.113293
 42
0.0
  0
VERTEX
  8
0
 10
2.996669
 20
-0.146607
 42
0.0
  0
VERTEX
  8
0
 10
2.983343
 20
-0.179922
 42
0.0
  0
VERTEX
  8
0
 10
2.990006
 20
-0.216568
 42
0.0
  0
VERTEX
  8
0
 10
2.970017
 20
-0.249882
 42
0.0
  0
VERTEX
  8
0
 10
2.963354
 20
-0.286528
 42
0.0
  0
VERTEX
  8
0
 10
2.936702
 20
-0.319843
 42
0.0
  0
VERTEX
  8
0
 10
2.920045
 20
-0.356489
 42
0.0
  0
VERTEX
  8
0
 10
2.930039
 20
-0.423118
 42
0.0
  0
VERTEX
  8
0
 10
2.906719
 20
-0.459718
 42
0.0
  0
VERTEX
  8
0
 10
2.923376
 20
-0.503027
 42
0.0
  0
VERTEX
  8
0
 10
2.940034
 20
-0.58636
 42
0.0
  0
VERTEX
  8
0
 10
2.930039
 20
-0.626337
 42
0.0
  0
VERTEX
  8
0
 10
2.896725
 20
-0.662983
 42
0.0
  0
VERTEX
  8
0
 10
2.893393
 20
-0.666314
 42
0.0
  0
VERTEX
  8
0
 10
2.86341
 20
-0.69292
 42
0.0
  0
VERTEX
  8
0
 10
2.823433
 20
-0.762927
 42
0.0
  0
VERTEX
  8
0
 10
2.873405
 20
-0.836219
 42
0.0
  0
VERTEX
  8
0
 10
2.770129
 20
-0.846213
 42
0.0
  0
VERTEX
  8
0
 10
2.660191
 20
-0.896139
 42
0.0
  0
VERTEX
  8
0
 10
2.560248
 20
-0.949488
 42
0.0
  0
VERTEX
  8
0
 10
2.523602
 20
-0.962768
 42
0.0
  0
VERTEX
  8
0
 10
2.490287
 20
-0.982803
 42
0.0
  0
VERTEX
  8
0
 10
2.453641
 20
-1.019403
 42
0.0
  0
VERTEX
  8
0
 10
2.443647
 20
-1.019403
 42
0.0
  0
VERTEX
  8
0
 10
2.463635
 20
-0.982803
 42
0.0
  0
VERTEX
  8
0
 10
2.540259
 20
-0.929453
 42
0.0
  0
VERTEX
  8
0
 10
2.576905
 20
-0.922837
 42
0.0
  0
VERTEX
  8
0
 10
2.583568
 20
-0.912842
 42
0.0
  0
VERTEX
  8
0
 10
2.516939
 20
-0.912842
 42
0.0
  0
VERTEX
  8
0
 10
2.443647
 20
-0.932831
 42
0.0
  0
VERTEX
  8
0
 10
2.470298
 20
-0.862824
 42
0.0
  0
VERTEX
  8
0
 10
2.470298
 20
-0.806189
 42
0.0
  0
VERTEX
  8
0
 10
2.436984
 20
-0.799573
 42
0.0
  0
VERTEX
  8
0
 10
2.403669
 20
-0.826178
 42
0.0
  0
VERTEX
  8
0
 10
2.38368
 20
-0.862824
 42
0.0
  0
VERTEX
  8
0
 10
2.333709
 20
-0.832887
 42
0.0
  0
VERTEX
  8
0
 10
2.317051
 20
-0.846213
 42
0.0
  0
VERTEX
  8
0
 10
2.333709
 20
-0.882813
 42
0.0
  0
VERTEX
  8
0
 10
2.330377
 20
-0.916174
 42
0.0
  0
VERTEX
  8
0
 10
2.363692
 20
-0.942779
 42
0.0
  0
VERTEX
  8
0
 10
2.363692
 20
-0.992797
 42
0.0
  0
VERTEX
  8
0
 10
2.400338
 20
-1.006077
 42
0.0
  0
VERTEX
  8
0
 10
2.38368
 20
-1.049432
 42
0.0
  0
VERTEX
  8
0
 10
2.350366
 20
-1.066089
 42
0.0
  0
VERTEX
  8
0
 10
2.327046
 20
-1.099358
 42
0.0
  0
VERTEX
  8
0
 10
2.270411
 20
-1.139381
 42
0.0
  0
VERTEX
  8
0
 10
2.263748
 20
-1.199301
 42
0.0
  0
VERTEX
  8
0
 10
2.197119
 20
-1.262599
 42
0.0
  0
VERTEX
  8
0
 10
2.163804
 20
-1.289251
 42
0.0
  0
VERTEX
  8
0
 10
2.113832
 20
-1.312571
 42
0.0
  0
VERTEX
  8
0
 10
2.047203
 20
-1.359211
 42
0.0
  0
VERTEX
  8
0
 10
1.980574
 20
-1.365874
 42
0.0
  0
VERTEX
  8
0
 10
1.910614
 20
-1.389194
 42
0.0
  0
VERTEX
  8
0
 10
1.917277
 20
-1.422509
 42
0.0
  0
VERTEX
  8
0
 10
1.950591
 20
-1.399189
 42
0.0
  0
VERTEX
  8
0
 10
1.987237
 20
-1.392526
 42
0.0
  0
VERTEX
  8
0
 10
1.94726
 20
-1.419177
 42
0.0
  0
VERTEX
  8
0
 10
1.877299
 20
-1.445829
 42
0.0
  0
VERTEX
  8
0
 10
1.774024
 20
-1.502464
 42
0.0
  0
VERTEX
  8
0
 10
1.777355
 20
-1.49247
 42
0.0
  0
VERTEX
  8
0
 10
1.847316
 20
-1.452492
 42
0.0
  0
VERTEX
  8
0
 10
1.85731
 20
-1.419177
 42
0.0
  0
VERTEX
  8
0
 10
1.78735
 20
-1.449161
 42
0.0
  0
VERTEX
  8
0
 10
1.807338
 20
-1.42584
 42
0.0
  0
VERTEX
  8
0
 10
1.774024
 20
-1.429172
 42
0.0
  0
VERTEX
  8
0
 10
1.760698
 20
-1.395857
 42
0.0
  0
VERTEX
  8
0
 10
1.724052
 20
-1.419177
 42
0.0
  0
VERTEX
  8
0
 10
1.690737
 20
-1.40252
 42
0.0
  0
VERTEX
  8
0
 10
1.670749
 20
-1.365874
 42
0.0
  0
VERTEX
  8
0
 10
1.664086
 20
-1.369206
 42
0.0
  0
VERTEX
  8
0
 10
1.694069
 20
-1.435835
 42
0.0
  0
VERTEX
  8
0
 10
1.660754
 20
-1.449161
 42
0.0
  0
VERTEX
  8
0
 10
1.607451
 20
-1.405852
 42
0.0
  0
VERTEX
  8
0
 10
1.600788
 20
-1.382531
 42
0.0
  0
VERTEX
  8
0
 10
1.564142
 20
-1.385863
 42
0.0
  0
VERTEX
  8
0
 10
1.600788
 20
-1.455823
 42
0.0
  0
VERTEX
  8
0
 10
1.634103
 20
-1.479144
 42
0.0
  0
VERTEX
  8
0
 10
1.614114
 20
-1.512458
 42
0.0
  0
VERTEX
  8
0
 10
1.65076
 20
-1.502464
 42
0.0
  0
VERTEX
  8
0
 10
1.684075
 20
-1.522453
 42
0.0
  0
VERTEX
  8
0
 10
1.677412
 20
-1.535778
 42
0.0
  0
VERTEX
  8
0
 10
1.574136
 20
-1.592413
 42
0.0
  0
VERTEX
  8
0
 10
1.540822
 20
-1.579087
 42
0.0
  0
VERTEX
  8
0
 10
1.494182
 20
-1.512458
 42
0.0
  0
VERTEX
  8
0
 10
1.500844
 20
-1.525784
 42
0.0
  0
VERTEX
  8
0
 10
1.484187
 20
-1.56243
 42
0.0
  0
VERTEX
  8
0
 10
1.500844
 20
-1.595745
 42
0.0
  0
VERTEX
  8
0
 10
1.500844
 20
-1.632391
 42
0.0
  0
VERTEX
  8
0
 10
1.460867
 20
-1.679031
 42
0.0
  0
VERTEX
  8
0
 10
1.427552
 20
-1.695688
 42
0.0
  0
VERTEX
  8
0
 10
1.440878
 20
-1.662374
 42
0.0
  0
VERTEX
  8
0
 10
1.437547
 20
-1.629059
 42
0.0
  0
VERTEX
  8
0
 10
1.427552
 20
-1.662374
 42
0.0
  0
VERTEX
  8
0
 10
1.394238
 20
-1.695688
 42
0.0
  0
VERTEX
  8
0
 10
1.384243
 20
-1.669037
 42
0.0
  0
VERTEX
  8
0
 10
1.350929
 20
-1.685694
 42
0.0
  0
VERTEX
  8
0
 10
1.314283
 20
-1.682363
 42
0.0
  0
VERTEX
  8
0
 10
1.324277
 20
-1.69902
 42
0.0
  0
VERTEX
  8
0
 10
1.304288
 20
-1.732334
 42
0.0
  0
VERTEX
  8
0
 10
1.337603
 20
-1.762318
 42
0.0
  0
VERTEX
  8
0
 10
1.35426
 20
-1.729003
 42
0.0
  0
VERTEX
  8
0
 10
1.387575
 20
-1.705683
 42
0.0
  0
VERTEX
  8
0
 10
1.387575
 20
-1.735666
 42
0.0
  0
VERTEX
  8
0
 10
1.367586
 20
-1.772312
 42
0.0
  0
VERTEX
  8
0
 10
1.300957
 20
-1.865593
 42
0.0
  0
VERTEX
  8
0
 10
1.267642
 20
-1.832278
 42
0.0
  0
VERTEX
  8
0
 10
1.19435
 20
-1.838941
 42
0.0
  0
VERTEX
  8
0
 10
1.157704
 20
-1.848935
 42
0.0
  0
VERTEX
  8
0
 10
1.177693
 20
-1.862261
 42
0.0
  0
VERTEX
  8
0
 10
1.211008
 20
-1.852267
 42
0.0
  0
VERTEX
  8
0
 10
1.211008
 20
-1.878919
 42
0.0
  0
VERTEX
  8
0
 10
1.237659
 20
-1.912233
 42
0.0
  0
VERTEX
  8
0
 10
1.254317
 20
-1.922227
 42
0.0
  0
VERTEX
  8
0
 10
1.264311
 20
-1.955542
 42
0.0
  0
VERTEX
  8
0
 10
1.19435
 20
-2.128778
 42
0.0
  0
VERTEX
  8
0
 10
1.144379
 20
-2.145435
 42
0.0
  0
VERTEX
  8
0
 10
1.177693
 20
-2.118783
 42
0.0
  0
VERTEX
  8
0
 10
1.144379
 20
-2.108789
 42
0.0
  0
VERTEX
  8
0
 10
1.121058
 20
-2.118783
 42
0.0
  0
VERTEX
  8
0
 10
1.087744
 20
-2.122115
 42
0.0
  0
VERTEX
  8
0
 10
1.061092
 20
-2.0888
 42
0.0
  0
VERTEX
  8
0
 10
1.027778
 20
-2.062149
 42
0.0
  0
VERTEX
  8
0
 10
1.044435
 20
-2.098795
 42
0.0
  0
VERTEX
  8
0
 10
1.064424
 20
-2.118783
 42
0.0
  0
VERTEX
  8
0
 10
1.057761
 20
-2.155429
 42
0.0
  0
VERTEX
  8
0
 10
1.127721
 20
-2.175418
 42
0.0
  0
VERTEX
  8
0
 10
1.19435
 20
-2.158761
 42
0.0
  0
VERTEX
  8
0
 10
1.184356
 20
-2.192075
 42
0.0
  0
VERTEX
  8
0
 10
1.184356
 20
-2.228721
 42
0.0
  0
VERTEX
  8
0
 10
1.167699
 20
-2.262036
 42
0.0
  0
VERTEX
  8
0
 10
1.164367
 20
-2.298682
 42
0.0
  0
VERTEX
  8
0
 10
1.131053
 20
-2.298682
 42
0.0
  0
VERTEX
  8
0
 10
1.127721
 20
-2.331997
 42
0.0
  0
VERTEX
  8
0
 10
1.164367
 20
-2.375306
 42
0.0
  0
VERTEX
  8
0
 10
1.131053
 20
-2.36198
 42
0.0
  0
VERTEX
  8
0
 10
1.131053
 20
-2.395294
 42
0.0
  0
VERTEX
  8
0
 10
1.164367
 20
-2.428609
 42
0.0
  0
VERTEX
  8
0
 10
1.191019
 20
-2.548541
 42
0.0
  0
VERTEX
  8
0
 10
1.187687
 20
-2.585187
 42
0.0
  0
VERTEX
  8
0
 10
1.244322
 20
-2.701788
 42
0.0
  0
VERTEX
  8
0
 10
1.254317
 20
-2.771749
 42
0.0
  0
VERTEX
  8
0
 10
1.277637
 20
-2.805064
 42
0.0
  0
VERTEX
  8
0
 10
1.240991
 20
-2.805064
 42
0.0
  0
VERTEX
  8
0
 10
1.267642
 20
-2.851704
 42
0.0
  0
VERTEX
  8
0
 10
1.294294
 20
-2.815058
 42
0.0
  0
VERTEX
  8
0
 10
1.2843
 20
-2.851704
 42
0.0
  0
VERTEX
  8
0
 10
1.324277
 20
-2.818389
 42
0.0
  0
VERTEX
  8
0
 10
1.33094
 20
-2.858367
 42
0.0
  0
VERTEX
  8
0
 10
1.314283
 20
-2.861698
 42
0.0
  0
VERTEX
  8
0
 10
1.227665
 20
-2.885018
 42
0.0
  0
VERTEX
  8
0
 10
1.227665
 20
-2.918333
 42
0.0
  0
VERTEX
  8
0
 10
1.19435
 20
-2.921664
 42
0.0
  0
VERTEX
  8
0
 10
1.157704
 20
-2.895013
 42
0.0
  0
VERTEX
  8
0
 10
1.151041
 20
-2.895013
 42
0.0
  0
VERTEX
  8
0
 10
1.084412
 20
-2.828384
 42
0.0
  0
VERTEX
  8
0
 10
1.051098
 20
-2.821721
 42
0.0
  0
VERTEX
  8
0
 10
1.017783
 20
-2.805064
 42
0.0
  0
VERTEX
  8
0
 10
0.937828
 20
-2.808395
 42
0.0
  0
VERTEX
  8
0
 10
0.797907
 20
-2.795069
 42
0.0
  0
VERTEX
  8
0
 10
0.767924
 20
-2.781743
 42
0.0
  0
VERTEX
  8
0
 10
0.701295
 20
-2.718446
 42
0.0
  0
VERTEX
  8
0
 10
0.664649
 20
-2.715114
 42
0.0
  0
VERTEX
  8
0
 10
0.631334
 20
-2.698457
 42
0.0
  0
VERTEX
  8
0
 10
0.594688
 20
-2.70512
 42
0.0
  0
VERTEX
  8
0
 10
0.574699
 20
-2.691794
 42
0.0
  0
VERTEX
  8
0
 10
0.551379
 20
-2.658479
 42
0.0
  0
VERTEX
  8
0
 10
0.518065
 20
-2.635159
 42
0.0
  0
VERTEX
  8
0
 10
0.498076
 20
-2.638491
 42
0.0
  0
VERTEX
  8
0
 10
0.464761
 20
-2.621833
 42
0.0
  0
VERTEX
  8
0
 10
0.394801
 20
-2.61517
 42
0.0
  0
VERTEX
  8
0
 10
0.374812
 20
-2.605176
 42
0.0
  0
VERTEX
  8
0
 10
0.381475
 20
-2.571862
 42
0.0
  0
VERTEX
  8
0
 10
0.344829
 20
-2.538547
 42
0.0
  0
VERTEX
  8
0
 10
0.334835
 20
-2.465255
 42
0.0
  0
VERTEX
  8
0
 10
0.308183
 20
-2.391963
 42
0.0
  0
VERTEX
  8
0
 10
0.281531
 20
-2.355317
 42
0.0
  0
VERTEX
  8
0
 10
0.244885
 20
-2.288688
 42
0.0
  0
VERTEX
  8
0
 10
0.218234
 20
-2.255373
 42
0.0
  0
VERTEX
  8
0
 10
0.214902
 20
-2.222059
 42
0.0
  0
VERTEX
  8
0
 10
0.221565
 20
-2.188744
 42
0.0
  0
VERTEX
  8
0
 10
0.221565
 20
-2.152098
 42
0.0
  0
VERTEX
  8
0
 10
0.184919
 20
-2.125446
 42
0.0
  0
VERTEX
  8
0
 10
0.201576
 20
-2.0888
 42
0.0
  0
VERTEX
  8
0
 10
0.204908
 20
-2.052154
 42
0.0
  0
VERTEX
  8
0
 10
0.191582
 20
-2.01884
 42
0.0
  0
VERTEX
  8
0
 10
0.194913
 20
-1.985525
 42
0.0
  0
VERTEX
  8
0
 10
0.184919
 20
-1.968868
 42
0.0
  0
VERTEX
  8
0
 10
0.151604
 20
-1.942216
 42
0.0
  0
VERTEX
  8
0
 10
0.09497
 20
-1.925559
 42
0.0
  0
VERTEX
  8
0
 10
0.028341
 20
-1.832278
 42
0.0
  0
VERTEX
  8
0
 10
0.021678
 20
-1.798964
 42
0.0
  0
VERTEX
  8
0
 10
-0.004974
 20
-1.762318
 42
0.0
  0
VERTEX
  8
0
 10
-0.034957
 20
-1.738997
 42
0.0
  0
VERTEX
  8
0
 10
-0.044952
 20
-1.705683
 42
0.0
  0
VERTEX
  8
0
 10
-0.074935
 20
-1.655711
 42
0.0
  0
VERTEX
  8
0
 10
-0.108249
 20
-1.642385
 42
0.0
  0
VERTEX
  8
0
 10
-0.144895
 20
-1.612402
 42
0.0
  0
VERTEX
  8
0
 10
-0.17821
 20
-1.542441
 42
0.0
  0
VERTEX
  8
0
 10
-0.194867
 20
-1.472481
 42
0.0
  0
VERTEX
  8
0
 10
-0.184873
 20
-1.462486
 42
0.0
  0
VERTEX
  8
0
 10
-0.214856
 20
-1.42584
 42
0.0
  0
VERTEX
  8
0
 10
-0.231513
 20
-1.392526
 42
0.0
  0
VERTEX
  8
0
 10
-0.254833
 20
-1.362543
 42
0.0
  0
VERTEX
  8
0
 10
-0.254833
 20
-1.349217
 42
0.0
  0
VERTEX
  8
0
 10
-0.268159
 20
-1.315902
 42
0.0
  0
VERTEX
  8
0
 10
-0.308137
 20
-1.24261
 42
0.0
  0
VERTEX
  8
0
 10
-0.328125
 20
-1.152707
 42
0.0
  0
VERTEX
  8
0
 10
-0.354777
 20
-1.119393
 42
0.0
  0
VERTEX
  8
0
 10
-0.394754
 20
-1.049432
 42
0.0
  0
VERTEX
  8
0
 10
-0.494698
 20
-0.972762
 42
0.0
  0
VERTEX
  8
0
 10
-0.49803
 20
-0.942779
 42
0.0
  0
VERTEX
  8
0
 10
-0.531344
 20
-0.926168
 42
0.0
  0
VERTEX
  8
0
 10
-0.56799
 20
-0.896139
 42
0.0
  0
VERTEX
  8
0
 10
-0.581362
 20
-0.862824
 42
0.0
  0
VERTEX
  8
0
 10
-0.614677
 20
-0.869533
 42
0.0
  0
VERTEX
  8
0
 10
-0.621294
 20
-0.842882
 42
0.0
  0
VERTEX
  8
0
 10
-0.647991
 20
-0.812899
 42
0.0
  0
VERTEX
  8
0
 10
-0.661317
 20
-0.779584
 42
0.0
  0
VERTEX
  8
0
 10
-0.694632
 20
-0.752932
 42
0.0
  0
VERTEX
  8
0
 10
-0.727946
 20
-0.73956
 42
0.0
  0
VERTEX
  8
0
 10
-0.764592
 20
-0.762927
 42
0.0
  0
VERTEX
  8
0
 10
-0.857873
 20
-0.736275
 42
0.0
  0
VERTEX
  8
0
 10
-0.894519
 20
-0.736275
 42
0.0
  0
VERTEX
  8
0
 10
-0.927834
 20
-0.729566
 42
0.0
  0
VERTEX
  8
0
 10
-0.96448
 20
-0.736275
 42
0.0
  0
VERTEX
  8
0
 10
-0.997794
 20
-0.726281
 42
0.0
  0
VERTEX
  8
0
 10
-1.057761
 20
-0.69292
 42
0.0
  0
VERTEX
  8
0
 10
-1.091075
 20
-0.69292
 42
0.0
  0
VERTEX
  8
0
 10
-1.111018
 20
-0.726281
 42
0.0
  0
VERTEX
  8
0
 10
-1.144332
 20
-0.736275
 42
0.0
  0
VERTEX
  8
0
 10
-1.177647
 20
-0.732944
 42
0.0
  0
VERTEX
  8
0
 10
-1.214339
 20
-0.749555
 42
0.0
  0
VERTEX
  8
0
 10
-1.247654
 20
-0.752932
 42
0.0
  0
VERTEX
  8
0
 10
-1.264311
 20
-0.769543
 42
0.0
  0
VERTEX
  8
0
 10
-1.294294
 20
-0.812899
 42
0.0
  0
VERTEX
  8
0
 10
-1.350929
 20
-0.952774
 42
0.0
  0
VERTEX
  8
0
 10
-1.370918
 20
-0.966146
 42
0.0
  0
VERTEX
  8
0
 10
-1.377581
 20
-1.002745
 42
0.0
  0
VERTEX
  8
0
 10
-1.390906
 20
-1.03606
 42
0.0
  0
VERTEX
  8
0
 10
-1.424221
 20
-1.049432
 42
0.0
  0
VERTEX
  8
0
 10
-1.44421
 20
-1.082747
 42
0.0
  0
VERTEX
  8
0
 10
-1.480856
 20
-1.106021
 42
0.0
  0
VERTEX
  8
0
 10
-1.49085
 20
-1.13605
 42
0.0
  0
VERTEX
  8
0
 10
-1.547485
 20
-1.13605
 42
0.0
  0
VERTEX
  8
0
 10
-1.580799
 20
-1.129341
 42
0.0
  0
VERTEX
  8
0
 10
-1.584131
 20
-1.116015
 42
0.0
  0
VERTEX
  8
0
 10
-1.617445
 20
-1.112683
 42
0.0
  0
VERTEX
  8
0
 10
-1.65076
 20
-1.086078
 42
0.0
  0
VERTEX
  8
0
 10
-1.684075
 20
-1.049432
 42
0.0
  0
VERTEX
  8
0
 10
-1.777355
 20
-1.006077
 42
0.0
  0
VERTEX
  8
0
 10
-1.794013
 20
-0.969477
 42
0.0
  0
VERTEX
  8
0
 10
-1.863973
 20
-0.952774
 42
0.0
  0
VERTEX
  8
0
 10
-1.897288
 20
-0.939448
 42
0.0
  0
VERTEX
  8
0
 10
-1.977243
 20
-0.866202
 42
0.0
  0
VERTEX
  8
0
 10
-2.000563
 20
-0.832887
 42
0.0
  0
VERTEX
  8
0
 10
-2.033878
 20
-0.809567
 42
0.0
  0
VERTEX
  8
0
 10
-2.067192
 20
-0.796195
 42
0.0
  0
VERTEX
  8
0
 10
-2.113832
 20
-0.749555
 42
0.0
  0
VERTEX
  8
0
 10
-2.187125
 20
-0.576365
 42
0.0
  0
VERTEX
  8
0
 10
-2.190456
 20
-0.509736
 42
0.0
  0
VERTEX
  8
0
 10
-2.180462
 20
-0.47309
 42
0.0
  0
VERTEX
  8
0
 10
-2.180462
 20
-0.439775
 42
0.0
  0
VERTEX
  8
0
 10
-2.20045
 20
-0.406461
 42
0.0
  0
VERTEX
  8
0
 10
-2.230433
 20
-0.3365
 42
0.0
  0
VERTEX
  8
0
 10
-2.247091
 20
-0.323128
 42
0.0
  0
VERTEX
  8
0
 10
-2.257085
 20
-0.253214
 42
0.0
  0
VERTEX
  8
0
 10
-2.270411
 20
-0.219899
 42
0.0
  0
VERTEX
  8
0
 10
-2.297063
 20
-0.203242
 42
0.0
  0
VERTEX
  8
0
 10
-2.303726
 20
-0.169927
 42
0.0
  0
VERTEX
  8
0
 10
-2.33704
 20
-0.153224
 42
0.0
  0
VERTEX
  8
0
 10
-2.407001
 20
-0.089972
 42
0.0
  0
VERTEX
  8
0
 10
-2.440315
 20
-0.0766
 42
0.0
  0
VERTEX
  8
0
 10
-2.476961
 20
-0.049949
 42
0.0
  0
VERTEX
  8
0
 10
-2.536928
 20
0.019966
 42
0.0
  0
VERTEX
  8
0
 10
-2.553585
 20
0.056612
 42
0.0
  0
VERTEX
  8
0
 10
-2.620214
 20
0.123241
 42
0.0
  0
VERTEX
  8
0
 10
-2.686843
 20
0.21319
 42
0.0
  0
VERTEX
  8
0
 10
-2.720158
 20
0.246505
 42
0.0
  0
VERTEX
  8
0
 10
-2.786787
 20
0.283151
 42
0.0
  0
VERTEX
  8
0
 10
-2.820101
 20
0.309849
 42
0.0
  0
VERTEX
  8
0
 10
-2.850084
 20
0.376478
 42
0.0
  0
VERTEX
  8
0
 10
-2.856747
 20
0.409746
 42
0.0
  0
VERTEX
  8
0
 10
-2.876736
 20
0.443061
 42
0.0
  0
VERTEX
  8
0
 10
-2.910051
 20
0.469712
 42
0.0
  0
VERTEX
  8
0
 10
-2.926708
 20
0.473044
 42
0.0
  0
VERTEX
  8
0
 10
-2.930039
 20
0.476375
 42
0.0
  0
SEQEND
  0
POLYLINE
  8
0
 66
     1
 10
0.0
 20
0.0
 30
0.0
 70
     0
  0
VERTEX
  8
0
 10
11.9361915023213
 20
1.7361162477227
 42
0.0
  0
VERTEX
  8
0
 10
12.0846712024098
 20
1.9637850397321
 42
0.0
  0
VERTEX
  8
0
 10
12.0252794654255
 20
2.1716565662118
 42
0.0
  0
VERTEX
  8
0
 10
11.9361915023213
 20
2.2013524943086
 42
0.0
  0
VERTEX
  8
0
 10
11.7481173903828
 20
2.1221633427831
 42
0.0
  0
VERTEX
  8
0
 10
12.0153808028584
 20
2.0330755584928
 42
0.0
  0
VERTEX
  8
0
 10
11.9262928397541
 20
1.845001327345
 42
0.0
  0
VERTEX
  8
0
 10
11.7778133780842
 20
2.0825687819215
 42
0.0
  0
VERTEX
  8
0
 10
11.6689283282642
 20
2.0924674146863
 42
0.0
  0
VERTEX
  8
0
 10
11.5006513030415
 20
1.9934809678289
 42
0.0
  0
VERTEX
  8
0
 10
11.2630838782673
 20
1.8054067515823
 42
0.0
  0
VERTEX
  8
0
 10
11.2333878905659
 20
1.6470284522566
 42
0.0
  0
VERTEX
  8
0
 10
11.3620702655201
 20
1.4688528501483
 42
0.0
  0
VERTEX
  8
0
 10
11.7976107032185
 20
1.142197566578
 42
0.0
  0
VERTEX
  8
0
 10
11.9361915023213
 20
1.2807786040994
 42
0.0
  0
VERTEX
  8
0
 10
11.3422729403858
 20
1.7856094637009
 42
0.0
  0
VERTEX
  8
0
 10
11.312577191103
 20
1.7361162477227
 42
0.0
  0
VERTEX
  8
0
 10
11.8174077899342
 20
1.2609813385698
 42
0.0
  0
VERTEX
  8
0
 10
11.7679147155171
 20
1.0927043729516
 42
0.0
  0
VERTEX
  8
0
 10
11.6392323405628
 20
0.9442247324678
 42
0.0
  0
VERTEX
  8
0
 10
11.4709553153401
 20
0.8056436949464
 42
0.0
  0
VERTEX
  8
0
 10
11.2927798659687
 20
0.7561504417153
 42
0.0
  0
VERTEX
  8
0
 10
11.1443001658802
 20
0.7759477668496
 42
0.0
  0
VERTEX
  8
0
 10
11.0255164534931
 20
0.9046301418038
 42
0.0
  0
VERTEX
  8
0
 10
11.0849081904774
 20
1.0927043729516
 42
0.0
  0
VERTEX
  8
0
 10
11.1640974910145
 20
1.2015894525739
 42
0.0
  0
VERTEX
  8
0
 10
11.1937934787159
 20
0.9640219979974
 42
0.0
  0
VERTEX
  8
0
 10
11.4016649157887
 20
0.8749342137071
 42
0.0
  0
VERTEX
  8
0
 10
11.4907526404743
 20
0.8551368885728
 42
0.0
  0
VERTEX
  8
0
 10
11.352171602953
 20
0.8452382856103
 42
0.0
  0
VERTEX
  8
0
 10
11.1739961535816
 20
0.9145287447663
 42
0.0
  0
VERTEX
  8
0
 10
11.0057191283589
 20
1.0234138541909
 42
0.0
  0
SEQEND
  0
POLYLINE
  8
0
 66
     1
 10
0.0
 20
0.0
 30
0.0
 70
     0
  0
VERTEX
  8
0
 10
10.6196721227055
 20
1.0630084448548
 42
0.0
  0
VERTEX
  8
0
 10
10.2831183106785
 20
0.8056436949464
 42
0.0
  0
VERTEX
  8
0
 10
10.1742331416493
 20
0.7957450323793
 42
0.0
  0
VERTEX
  8
0
 10
10.1247399480229
 20
1.0135151916238
 42
0.0
  0
VERTEX
  8
0
 10
10.5602802665119
 20
2.1518592708799
 42
0.0
  0
VERTEX
  8
0
 10
10.4315978915577
 20
2.0825687819215
 42
0.0
  0
VERTEX
  8
0
 10
10.3821046979313
 20
2.2211497598382
 42
0.0
  0
VERTEX
  8
0
 10
10.2435236604099
 20
2.1122647100183
 42
0.0
  0
VERTEX
  8
0
 10
10.6196721227055
 20
1.8944945507737
 42
0.0
  0
VERTEX
  8
0
 10
10.223726454485
 20
0.9739206605645
 42
0.0
  0
VERTEX
  8
0
 10
10.3722060353642
 20
0.9244274073335
 42
0.0
  0
VERTEX
  8
0
 10
10.3227128417378
 20
1.2213867479058
 42
0.0
  0
VERTEX
  8
0
 10
10.1148412854557
 20
1.1224003010484
 42
0.0
  0
VERTEX
  8
0
 10
9.7881861359959
 20
0.8848328166696
 42
0.0
  0
VERTEX
  8
0
 10
9.5407200486546
 20
0.7264545136186
 42
0.0
  0
VERTEX
  8
0
 10
9.4417336614018
 20
1.0234138541909
 42
0.0
  0
VERTEX
  8
0
 10
9.5407200486546
 20
1.3500691228601
 42
0.0
  0
VERTEX
  8
0
 10
9.6891997487431
 20
1.6470284522566
 42
0.0
  0
VERTEX
  8
0
 10
9.9861590297108
 20
1.9637850397321
 42
0.0
  0
VERTEX
  8
0
 10
10.1544359357243
 20
2.0726701193544
 42
0.0
  0
VERTEX
  8
0
 10
9.8772738606815
 20
1.845001327345
 42
0.0
  0
VERTEX
  8
0
 10
9.8079834611302
 20
1.7262176037821
 42
0.0
  0
VERTEX
  8
0
 10
9.5902133018856
 20
1.3203731947633
 42
0.0
  0
VERTEX
  8
0
 10
9.5407200486546
 20
0.9640219979974
 42
0.0
  0
VERTEX
  8
0
 10
9.6990983517056
 20
0.9046301418038
 42
0.0
  0
VERTEX
  8
0
 10
9.6496051580792
 20
1.3302718275281
 42
0.0
  0
VERTEX
  8
0
 10
9.4318349988346
 20
1.1817921572419
 42
0.0
  0
SEQEND
  0
POLYLINE
  8
0
 66
     1
 10
0.0
 20
0.0
 30
0.0
 70
     0
  0
VERTEX
  8
0
 10
8.9072069407587
 20
0.9541233354303
 42
0.0
  0
VERTEX
  8
0
 10
8.5607544363623
 20
0.7660491042825
 42
0.0
  0
VERTEX
  8
0
 10
8.461768004406
 20
1.0036165886613
 42
0.0
  0
VERTEX
  8
0
 10
8.4518693716412
 20
1.3896636837217
 42
0.0
  0
VERTEX
  8
0
 10
8.4716666371708
 20
1.7559135356041
 42
0.0
  0
VERTEX
  8
0
 10
8.4914639325028
 20
2.0330755584928
 42
0.0
  0
VERTEX
  8
0
 10
8.4815652997379
 20
2.1023660474511
 42
0.0
  0
VERTEX
  8
0
 10
8.4023761482124
 20
2.0528728538247
 42
0.0
  0
VERTEX
  8
0
 10
8.6498422281032
 20
2.161757933447
 42
0.0
  0
VERTEX
  8
0
 10
8.600349012125
 20
1.7955081113669
 42
0.0
  0
VERTEX
  8
0
 10
8.600349012125
 20
1.7163189598414
 42
0.0
  0
VERTEX
  8
0
 10
9.3823418052082
 20
2.2112511568757
 42
0.0
  0
VERTEX
  8
0
 10
9.4318349988346
 20
2.2112511568757
 42
0.0
  0
VERTEX
  8
0
 10
8.6498422281032
 20
1.6866230280193
 42
0.0
  0
VERTEX
  8
0
 10
8.600349012125
 20
1.4292582743856
 42
0.0
  0
VERTEX
  8
0
 10
8.6399435878878
 20
1.0630084448548
 42
0.0
  0
VERTEX
  8
0
 10
8.7884232358222
 20
0.9145287447663
 42
0.0
  0
VERTEX
  8
0
 10
8.6300449476724
 20
0.8650355511399
 42
0.0
  0
VERTEX
  8
0
 10
8.5310585082655
 20
1.6569270961972
 42
0.0
  0
VERTEX
  8
0
 10
8.323186996687
 20
1.4292582743856
 42
0.0
  0
VERTEX
  8
0
 10
7.9371399314289
 20
1.0135151916238
 42
0.0
  0
VERTEX
  8
0
 10
7.8084575564747
 20
0.8551368885728
 42
0.0
  0
VERTEX
  8
0
 10
7.7589643628483
 20
0.7264545136186
 42
0.0
  0
VERTEX
  8
0
 10
7.9767344624882
 20
0.9541233354303
 42
0.0
  0
VERTEX
  8
0
 10
7.9866331250553
 20
1.1520962291452
 42
0.0
  0
SEQEND
  0
POLYLINE
  8
0
 66
     1
 10
0.0
 20
0.0
 30
0.0
 70
     0
  0
VERTEX
  8
0
 10
7.3333227069264
 20
1.1322989636155
 42
0.0
  0
VERTEX
  8
0
 10
6.8977823884373
 20
0.8056436949464
 42
0.0
  0
VERTEX
  8
0
 10
6.6899108321552
 20
0.8056436949464
 42
0.0
  0
VERTEX
  8
0
 10
6.5018364817982
 20
0.9640219979974
 42
0.0
  0
VERTEX
  8
0
 10
6.5513297946339
 20
1.2213867479058
 42
0.0
  0
VERTEX
  8
0
 10
6.6602148444538
 20
1.5480420016738
 42
0.0
  0
VERTEX
  8
0
 10
6.8878837258701
 20
1.7460148916634
 42
0.0
  0
VERTEX
  8
0
 10
7.1551471383457
 20
1.9736837022992
 42
0.0
  0
VERTEX
  8
0
 10
7.4125117690449
 20
2.1023660474511
 42
0.0
  0
VERTEX
  8
0
 10
7.5708901317005
 20
2.1320620053502
 42
0.0
  0
VERTEX
  8
0
 10
7.6797751815205
 20
2.0627714865895
 42
0.0
  0
VERTEX
  8
0
 10
7.6302819878941
 20
1.9043931835385
 42
0.0
  0
VERTEX
  8
0
 10
7.511498275507
 20
2.0528728538247
 42
0.0
  0
VERTEX
  8
0
 10
7.5510928065663
 20
1.835102679679
 42
0.0
  0
VERTEX
  8
0
 10
7.4719036252384
 20
1.7757108234855
 42
0.0
  0
VERTEX
  8
0
 10
7.4719036252384
 20
1.9934809678289
 42
0.0
  0
VERTEX
  8
0
 10
7.4917009503727
 20
1.7559135356041
 42
0.0
  0
VERTEX
  8
0
 10
7.3234240443592
 20
1.6470284522566
 42
0.0
  0
VERTEX
  8
0
 10
7.1848430068379
 20
1.5579406493398
 42
0.0
  0
VERTEX
  8
0
 10
6.8482891948109
 20
1.4490555697175
 42
0.0
  0
VERTEX
  8
0
 10
6.8086945445423
 20
1.4490555697175
 42
0.0
  0
VERTEX
  8
0
 10
6.7987958819752
 20
1.6767243840786
 42
0.0
  0
VERTEX
  8
0
 10
6.6998094947224
 20
1.2015894525739
 42
0.0
  0
VERTEX
  8
0
 10
6.7493026883488
 20
0.9640219979974
 42
0.0
  0
VERTEX
  8
0
 10
6.986870113123
 20
0.9244274073335
 42
0.0
  0
VERTEX
  8
0
 10
6.8878837258701
 20
0.8551368885728
 42
0.0
  0
VERTEX
  8
0
 10
6.6206201941853
 20
1.0828057103845
 42
0.0
  0
VERTEX
  8
0
 10
6.5018364817982
 20
1.0927043729516
 42
0.0
  0
SEQEND
  0
POLYLINE
  8
0
 66
     1
 10
0.0
 20
0.0
 30
0.0
 70
     0
  0
VERTEX
  8
0
 10
5.2645062835102
 20
0.8848328166696
 42
0.0
  0
VERTEX
  8
0
 10
4.9279522330647
 20
0.7561504417153
 42
0.0
  0
VERTEX
  8
0
 10
6.0563976199513
 20
2.7556765251847
 42
0.0
  0
VERTEX
  8
0
 10
6.7592013509159
 20
2.7556765251847
 42
0.0
  0
VERTEX
  8
0
 10
6.6206201941853
 20
2.6269941502305
 42
0.0
  0
VERTEX
  8
0
 10
5.8485261828785
 20
2.6071968847009
 42
0.0
  0
VERTEX
  8
0
 10
5.3041006953602
 20
2.4884131723138
 42
0.0
  0
VERTEX
  8
0
 10
5.4921750457173
 20
2.6764874034616
 42
0.0
  0
VERTEX
  8
0
 10
5.9772085578327
 20
2.7457778626176
 42
0.0
  0
VERTEX
  8
0
 10
6.6602148444538
 20
2.6566900783273
 42
0.0
  0
VERTEX
  8
0
 10
5.4624790580158
 20
2.5972982221337
 42
0.0
  0
VERTEX
  8
0
 10
6.1454853446369
 20
2.6764874034616
 42
0.0
  0
VERTEX
  8
0
 10
5.1259252459889
 20
0.8155423575135
 42
0.0
  0
SEQEND
  0
POLYLINE
  8
0
 66
     1
 10
0.0
 20
0.0
 30
0.0
 70
     0
  0
VERTEX
  8
0
 10
10.6642773183429
 20
-2.8394548144281
 42
0.0
  0
VERTEX
  8
0
 10
10.5252056153858
 20
-2.7576477971018
 42
0.0
  0
VERTEX
  8
0
 10
10.8442528279865
 20
-1.5469045486391
 42
0.0
  0
VERTEX
  8
0
 10
10.7869877847278
 20
-1.5550852265299
 42
0.0
  0
VERTEX
  8
0
 10
10.5824704202259
 20
-2.3404322113931
 42
0.0
  0
VERTEX
  8
0
 10
10.4515793355548
 20
-2.3158901181162
 42
0.0
  0
VERTEX
  8
0
 10
10.3534109624469
 20
-2.3404322113931
 42
0.0
  0
VERTEX
  8
0
 10
10.2388812335575
 20
-2.3976971354425
 42
0.0
  0
VERTEX
  8
0
 10
10.148893597945
 20
-2.5040461268366
 42
0.0
  0
VERTEX
  8
0
 10
10.0916286738956
 20
-2.6758407797754
 42
0.0
  0
VERTEX
  8
0
 10
10.1161707671726
 20
-2.7985512461603
 42
0.0
  0
VERTEX
  8
0
 10
10.279784682616
 20
-2.8394548144281
 42
0.0
  0
VERTEX
  8
0
 10
10.4270372422779
 20
-2.7821898903787
 42
0.0
  0
VERTEX
  8
0
 10
10.5579283269489
 20
-2.6676601614893
 42
0.0
  0
VERTEX
  8
0
 10
10.6642773183429
 20
-2.3158901181162
 42
0.0
  0
VERTEX
  8
0
 10
10.279784682616
 20
-2.3322514738977
 42
0.0
  0
SEQEND
  0
POLYLINE
  8
0
 66
     1
 10
0.0
 20
0.0
 30
0.0
 70
     0
  0
VERTEX
  8
0
 10
9.6825938256824
 20
-2.8230933394373
 42
0.0
  0
VERTEX
  8
0
 10
9.5189799698436
 20
-2.7576477971018
 42
0.0
  0
VERTEX
  8
0
 10
9.6171482833469
 20
-2.6185759749353
 42
0.0
  0
VERTEX
  8
0
 10
9.7153166564548
 20
-2.4713234152734
 42
0.0
  0
VERTEX
  8
0
 10
9.6744132073963
 20
-2.3322514738977
 42
0.0
  0
VERTEX
  8
0
 10
9.5598834785068
 20
-2.2749866690576
 42
0.0
  0
VERTEX
  8
0
 10
9.4617151053989
 20
-2.3404322113931
 42
0.0
  0
VERTEX
  8
0
 10
9.3308239611232
 20
-2.438600584501
 42
0.0
  0
VERTEX
  8
0
 10
9.2981011899555
 20
-2.2995287623346
 42
0.0
  0
VERTEX
  8
0
 10
9.1999328168476
 20
-2.8639969077051
 42
0.0
  0
VERTEX
  8
0
 10
9.1672100456798
 20
-2.8639969077051
 42
0.0
  0
SEQEND
  0
POLYLINE
  8
0
 66
     1
 10
0.0
 20
0.0
 30
0.0
 70
     0
  0
VERTEX
  8
0
 10
8.9626926215732
 20
-2.8476354327142
 42
0.0
  0
VERTEX
  8
0
 10
8.8481628628814
 20
-2.7821898903787
 42
0.0
  0
VERTEX
  8
0
 10
8.9136084350193
 20
-2.2831672873438
 42
0.0
  0
SEQEND
  0
POLYLINE
  8
0
 66
     1
 10
0.0
 20
0.0
 30
0.0
 70
     0
  0
VERTEX
  8
0
 10
8.3409596862638
 20
-2.8639969077051
 42
0.0
  0
VERTEX
  8
0
 10
8.2755140992248
 20
-2.8639969077051
 42
0.0
  0
VERTEX
  8
0
 10
8.2018878491962
 20
-2.6512986864984
 42
0.0
  0
VERTEX
  8
0
 10
8.1855264636123
 20
-2.5040461268366
 42
0.0
  0
VERTEX
  8
0
 10
8.1855264636123
 20
-2.3158901181162
 42
0.0
  0
VERTEX
  8
0
 10
8.234610620364
 20
-2.0868305411279
 42
0.0
  0
VERTEX
  8
0
 10
8.2755140992248
 20
-1.7268798794687
 42
0.0
  0
VERTEX
  8
0
 10
8.3082369001949
 20
-1.595988735193
 42
0.0
  0
VERTEX
  8
0
 10
8.0219125183666
 20
-1.9968429055155
 42
0.0
  0
VERTEX
  8
0
 10
7.6946846278751
 20
-2.8476354327142
 42
0.0
  0
VERTEX
  8
0
 10
7.7110460432613
 20
-2.7331057038248
 42
0.0
  0
VERTEX
  8
0
 10
7.7192267211521
 20
-2.3077093806207
 42
0.0
  0
VERTEX
  8
0
 10
7.7110460432613
 20
-1.7923254814089
 42
0.0
  0
VERTEX
  8
0
 10
7.7110460432613
 20
-1.595988735193
 42
0.0
  0
VERTEX
  8
0
 10
7.6210583480442
 20
-1.6287115063608
 42
0.0
  0
VERTEX
  8
0
 10
7.4738057883823
 20
-2.1849989142358
 42
0.0
  0
VERTEX
  8
0
 10
7.3265532287204
 20
-2.4795040335596
 42
0.0
  0
VERTEX
  8
0
 10
7.1220358642185
 20
-2.7167443480432
 42
0.0
  0
VERTEX
  8
0
 10
6.8029886516178
 20
-2.8067319836557
 42
0.0
  0
VERTEX
  8
0
 10
6.5166642697895
 20
-2.8394548144281
 42
0.0
  0
VERTEX
  8
0
 10
6.3203275235736
 20
-2.7740091528833
 42
0.0
  0
VERTEX
  8
0
 10
6.2303397687519
 20
-2.7003828730524
 42
0.0
  0
VERTEX
  8
0
 10
6.2221591504657
 20
-2.5531303133905
 42
0.0
  0
VERTEX
  8
0
 10
6.2957854302967
 20
-2.4304198470056
 42
0.0
  0
VERTEX
  8
0
 10
6.5248448880756
 20
-2.3322514738977
 42
0.0
  0
VERTEX
  8
0
 10
6.7375431092823
 20
-2.2913480248392
 42
0.0
  0
VERTEX
  8
0
 10
7.0484095843875
 20
-2.2586251940668
 42
0.0
  0
VERTEX
  8
0
 10
6.7702659400547
 20
-2.2259024825037
 42
0.0
  0
SEQEND
  0
POLYLINE
  8
0
 66
     1
 10
0.0
 20
0.0
 30
0.0
 70
     0
  0
VERTEX
  8
0
 10
12.2022483380878
 20
-1.5387238111437
 42
0.0
  0
VERTEX
  8
0
 10
12.4313077958667
 20
-0.4834138598383
 42
0.0
  0
VERTEX
  8
0
 10
12.2922360929096
 20
-0.4834138598383
 42
0.0
  0
VERTEX
  8
0
 10
12.5949215921009
 20
-0.4752331819475
 42
0.0
  0
VERTEX
  8
0
 10
12.4558498891437
 20
-0.4506910886705
 42
0.0
  0
VERTEX
  8
0
 10
12.4885726007068
 20
-0.1643666472376
 42
0.0
  0
VERTEX
  8
0
 10
12.5376567872608
 20
0.1055963788092
 42
0.0
  0
VERTEX
  8
0
 10
12.6358251603687
 20
0.2201261076987
 42
0.0
  0
VERTEX
  8
0
 10
12.8239812882984
 20
0.2692102942526
 42
0.0
  0
SEQEND
  0
POLYLINE
  8
0
 66
     1
 10
0.0
 20
0.0
 30
0.0
 70
     0
  0
VERTEX
  8
0
 10
11.695045235976
 20
-0.4670524444521
 42
0.0
  0
VERTEX
  8
0
 10
11.850478413924
 20
-0.4997752752245
 42
0.0
  0
VERTEX
  8
0
 10
11.8586590322101
 20
-0.671569898361
 42
0.0
  0
VERTEX
  8
0
 10
11.8995626004779
 20
-0.6306663896978
 42
0.0
  0
VERTEX
  8
0
 10
11.8668398889148
 20
-0.8433645214975
 42
0.0
  0
VERTEX
  8
0
 10
11.7114064725482
 20
-0.9824363790542
 42
0.0
  0
VERTEX
  8
0
 10
11.5396118196094
 20
-1.0069784704685
 42
0.0
  0
VERTEX
  8
0
 10
11.4332628282154
 20
-0.9578942876399
 42
0.0
  0
VERTEX
  8
0
 10
11.3678174050891
 20
-0.8433645214975
 42
0.0
  0
VERTEX
  8
0
 10
11.3923594983661
 20
-0.6388470973909
 42
0.0
  0
VERTEX
  8
0
 10
11.4823470147693
 20
-0.5243173386991
 42
0.0
  0
VERTEX
  8
0
 10
11.6377801927173
 20
-0.4834138598383
 42
0.0
  0
VERTEX
  8
0
 10
11.7441294225299
 20
-0.4506910886705
 42
0.0
  0
VERTEX
  8
0
 10
11.4578049214923
 20
-0.4588717665613
 42
0.0
  0
SEQEND
  0
POLYLINE
  8
0
 66
     1
 10
0.0
 20
0.0
 30
0.0
 70
     0
  0
VERTEX
  8
0
 10
10.32886886917
 20
-0.9660749841571
 42
0.0
  0
VERTEX
  8
0
 10
10.1079900296772
 20
-0.9742556806743
 42
0.0
  0
VERTEX
  8
0
 10
10.0098217757785
 20
-0.9415328908801
 42
0.0
  0
VERTEX
  8
0
 10
9.9607375892246
 20
-0.8270031359136
 42
0.0
  0
VERTEX
  8
0
 10
9.9770989450061
 20
-0.696111991638
 42
0.0
  0
VERTEX
  8
0
 10
10.0589059623325
 20
-0.5815822031438
 42
0.0
  0
VERTEX
  8
0
 10
10.1652549537265
 20
-0.491594537729
 42
0.0
  0
VERTEX
  8
0
 10
10.3534109624469
 20
-0.4588717665613
 42
0.0
  0
VERTEX
  8
0
 10
10.4188565047824
 20
-0.4997752752245
 42
0.0
  0
VERTEX
  8
0
 10
10.3861337932193
 20
-0.622485711807
 42
0.0
  0
VERTEX
  8
0
 10
10.2388812335575
 20
-0.7042926695287
 42
0.0
  0
VERTEX
  8
0
 10
10.075267318114
 20
-0.7451961781919
 42
0.0
  0
VERTEX
  8
0
 10
9.9198340209568
 20
-0.7533768560827
 42
0.0
  0
SEQEND
  0
POLYLINE
  8
0
 66
     1
 10
0.0
 20
0.0
 30
0.0
 70
     0
  0
VERTEX
  8
0
 10
9.6580517324054
 20
-0.9742556806743
 42
0.0
  0
VERTEX
  8
0
 10
9.4617151053989
 20
-0.9578942876399
 42
0.0
  0
VERTEX
  8
0
 10
9.5189799698436
 20
-0.491594537729
 42
0.0
  0
VERTEX
  8
0
 10
9.7398587497318
 20
-0.4834138598383
 42
0.0
  0
VERTEX
  8
0
 10
9.4289923342311
 20
-0.4670524444521
 42
0.0
  0
VERTEX
  8
0
 10
9.5517027410114
 20
-0.4506910886705
 42
0.0
  0
VERTEX
  8
0
 10
9.6498711141193
 20
-0.123463198179
 42
0.0
  0
VERTEX
  8
0
 10
9.6171482833469
 20
-0.123463198179
 42
0.0
  0
VERTEX
  8
0
 10
9.5107992919529
 20
-0.4588717665613
 42
0.0
  0
VERTEX
  8
0
 10
9.4126309188449
 20
-0.516136631006
 42
0.0
  0
SEQEND
  0
POLYLINE
  8
0
 66
     1
 10
0.0
 20
0.0
 30
0.0
 70
     0
  0
VERTEX
  8
0
 10
9.1590293081844
 20
-0.4752331819475
 42
0.0
  0
VERTEX
  8
0
 10
9.0117768081272
 20
-0.8597259219825
 42
0.0
  0
VERTEX
  8
0
 10
9.1263065370166
 20
-0.9497135911226
 42
0.0
  0
VERTEX
  8
0
 10
9.1017644437397
 20
-1.0233398653656
 42
0.0
  0
VERTEX
  8
0
 10
8.9545119138801
 20
-0.8760873224676
 42
0.0
  0
VERTEX
  8
0
 10
8.8318014772976
 20
-0.9497135911226
 42
0.0
  0
VERTEX
  8
0
 10
8.6518261613691
 20
-0.9824363790542
 42
0.0
  0
VERTEX
  8
0
 10
8.6109226825082
 20
-0.8188224431217
 42
0.0
  0
VERTEX
  8
0
 10
8.7009103330219
 20
-0.6552084829748
 42
0.0
  0
VERTEX
  8
0
 10
8.8563435705745
 20
-0.491594537729
 42
0.0
  0
VERTEX
  8
0
 10
9.1753907235706
 20
-0.4670524444521
 42
0.0
  0
VERTEX
  8
0
 10
8.8399821849907
 20
-0.4670524444521
 42
0.0
  0
SEQEND
  0
POLYLINE
  8
0
 66
     1
 10
0.0
 20
0.0
 30
0.0
 70
     0
  0
VERTEX
  8
0
 10
8.3736824723327
 20
-0.491594537729
 42
0.0
  0
VERTEX
  8
0
 10
8.0628159972274
 20
-0.491594537729
 42
0.0
  0
VERTEX
  8
0
 10
8.1855264636123
 20
-0.4425103511751
 42
0.0
  0
VERTEX
  8
0
 10
8.2509720357502
 20
-0.1152824606836
 42
0.0
  0
VERTEX
  8
0
 10
8.1200808914745
 20
-0.9660749841571
 42
0.0
  0
VERTEX
  8
0
 10
8.316417607888
 20
-0.9742556806743
 42
0.0
  0
VERTEX
  8
0
 10
8.0628159972274
 20
-0.900629408294
 42
0.0
  0
SEQEND
  0
POLYLINE
  8
0
 66
     1
 10
0.0
 20
0.0
 30
0.0
 70
     0
  0
VERTEX
  8
0
 10
7.7110460432613
 20
-0.0580175962389
 42
0.0
  0
VERTEX
  8
0
 10
7.7274074586475
 20
0.0401507172644
 42
0.0
  0
VERTEX
  8
0
 10
7.7274074586475
 20
0.1219577345908
 42
0.0
  0
VERTEX
  8
0
 10
7.6701425345981
 20
0.1874032769263
 42
0.0
  0
VERTEX
  8
0
 10
7.5965163143718
 20
0.2283067259848
 42
0.0
  0
VERTEX
  8
0
 10
7.4492636951053
 20
0.2283067259848
 42
0.0
  0
VERTEX
  8
0
 10
7.3265532287204
 20
0.1792226586401
 42
0.0
  0
VERTEX
  8
0
 10
7.2529269488895
 20
0.1137769970953
 42
0.0
  0
VERTEX
  8
0
 10
7.2202042373264
 20
-0.0089334096849
 42
0.0
  0
VERTEX
  8
0
 10
7.2611076863849
 20
-0.1152824606836
 42
0.0
  0
VERTEX
  8
0
 10
7.4001795085514
 20
-0.3279806222856
 42
0.0
  0
VERTEX
  8
0
 10
7.6128776701534
 20
-0.59794361853
 42
0.0
  0
VERTEX
  8
0
 10
7.5965163143718
 20
-0.7451961781919
 42
0.0
  0
VERTEX
  8
0
 10
7.5310707124317
 20
-0.8597259219825
 42
0.0
  0
VERTEX
  8
0
 10
7.2447463306034
 20
-0.9497135911226
 42
0.0
  0
VERTEX
  8
0
 10
6.982964042052
 20
-0.99879777302
 42
0.0
  0
VERTEX
  8
0
 10
6.7620852025592
 20
-0.9333521943629
 42
0.0
  0
VERTEX
  8
0
 10
6.6311941178882
 20
-0.8924487080515
 42
0.0
  0
VERTEX
  8
0
 10
6.5412063630664
 20
-0.8188224431217
 42
0.0
  0
VERTEX
  8
0
 10
6.5412063630664
 20
-0.6879312839449
 42
0.0
  0
VERTEX
  8
0
 10
6.6475554736698
 20
-0.5570401396692
 42
0.0
  0
VERTEX
  8
0
 10
6.9911446603382
 20
-0.5079559531152
 42
0.0
  0
VERTEX
  8
0
 10
7.007506135329
 20
-0.4343296732843
 42
0.0
  0
VERTEX
  8
0
 10
6.5739291938388
 20
-0.5243173386991
 42
0.0
  0
SEQEND
  0
POLYLINE
  8
0
 66
     1
 10
0.0
 20
0.0
 30
0.0
 70
     0
  0
VERTEX
  8
0
 10
5.5349804117007
 20
-0.4752331920562
 42
0.0
  0
VERTEX
  8
0
 10
4.1033585025592
 20
-0.4915946074424
 42
0.0
  0
VERTEX
  8
0
 10
3.8415762140079
 20
-0.6061243363319
 42
0.0
  0
VERTEX
  8
0
 10
3.7352271034045
 20
-0.7697383113799
 42
0.0
  0
VERTEX
  8
0
 10
3.8415762140079
 20
-0.9251716085372
 42
0.0
  0
VERTEX
  8
0
 10
4.037912900619
 20
-0.9987978883681
 42
0.0
  0
VERTEX
  8
0
 10
4.3733214988036
 20
-0.9906171508727
 42
0.0
  0
VERTEX
  8
0
 10
4.5614775224252
 20
-0.9006295152602
 42
0.0
  0
VERTEX
  8
0
 10
4.7823563321157
 20
-0.7042927690444
 42
0.0
  0
VERTEX
  8
0
 10
4.9377895547671
 20
-0.2952578612266
 42
0.0
  0
VERTEX
  8
0
 10
5.0114158345981
 20
-0.0907403775153
 42
0.0
  0
VERTEX
  8
0
 10
5.1586683644576
 20
0.1137770465913
 42
0.0
  0
VERTEX
  8
0
 10
5.3713664366527
 20
0.2201261273923
 42
0.0
  0
VERTEX
  8
0
 10
5.5186189963145
 20
0.2201261273923
 42
0.0
  0
VERTEX
  8
0
 10
5.1750297500415
 20
-1.0315205999313
 42
0.0
  0
SEQEND
  0
POLYLINE
  8
0
 66
     1
 10
0.0
 20
0.0
 30
0.0
 70
     1
  0
VERTEX
  8
0
 10
4.8701174011231
 20
0.7405773925781
 42
0.0
  0
VERTEX
  8
0
 10
4.8547536315918
 20
0.7405773925781
 42
-0.077985843449
  0
VERTEX
  8
0
 10
4.8516808776856
 20
0.763623046875
 42
-0.2326767071001
  0
VERTEX
  8
0
 10
4.8701174011231
 20
0.788205078125
 42
-0.1019249648009
  0
VERTEX
  8
0
 10
4.8762629089356
 20
0.8235417480469
 42
0.0
  0
VERTEX
  8
0
 10
4.8977721862793
 20
0.8696330566406
 42
0.0912680204588
  0
VERTEX
  8
0
 10
4.9008449401856
 20
0.8957514648438
 42
0.0
  0
VERTEX
  8
0
 10
4.9115995788574
 20
0.8957514648438
 42
0.0
  0
VERTEX
  8
0
 10
4.9146723327637
 20
0.9080424804688
 42
0.0
  0
VERTEX
  8
0
 10
4.9115995788574
 20
0.9141879882813
 42
0.0
  0
VERTEX
  8
0
 10
4.9607636413574
 20
0.9264790039063
 42
0.0
  0
VERTEX
  8
0
 10
4.9607636413574
 20
0.935697265625
 42
0.0
  0
VERTEX
  8
0
 10
4.9361816101074
 20
0.935697265625
 42
0.0
  0
VERTEX
  8
0
 10
4.9361816101074
 20
0.9587429199219
 42
0.0
  0
VERTEX
  8
0
 10
4.9484726257324
 20
0.9587429199219
 42
0.0
  0
VERTEX
  8
0
 10
4.9546181335449
 20
0.9648884277344
 42
-0.096441754437
  0
VERTEX
  8
0
 10
4.9576908874512
 20
0.9894704589844
 42
0.0
  0
VERTEX
  8
0
 10
4.9745910339356
 20
1.0079069824219
 42
0.0824189123784
  0
VERTEX
  8
0
 10
4.9776637878418
 20
1.0370981445313
 42
0.0
  0
VERTEX
  8
0
 10
4.9899548034668
 20
1.0370981445313
 42
0.0
  0
VERTEX
  8
0
 10
5.0022458190918
 20
1.04631640625
 42
0.0
  0
VERTEX
  8
0
 10
5.0206823425293
 20
1.0432436523438
 42
0.0
  0
VERTEX
  8
0
 10
5.0206823425293
 20
1.058607421875
 42
0.0
  0
VERTEX
  8
0
 10
5.0022458190918
 20
1.058607421875
 42
0.0
  0
VERTEX
  8
0
 10
5.0206823425293
 20
1.0939440917969
 42
0.0
  0
VERTEX
  8
0
 10
5.0652372741699
 20
1.0970168457031
 42
0.2663774557547
  0
VERTEX
  8
0
 10
5.0329733581543
 20
1.1154533691406
 42
0.0
  0
VERTEX
  8
0
 10
5.0237550964356
 20
1.1154533691406
 42
0.0
  0
VERTEX
  8
0
 10
5.0237550964356
 20
1.1246716308594
 42
0.1849749345569
  0
VERTEX
  8
0
 10
5.0498735046387
 20
1.1630810546875
 42
0.0
  0
VERTEX
  8
0
 10
5.0652372741699
 20
1.1753720703125
 42
0.0
  0
VERTEX
  8
0
 10
5.0652372741699
 20
1.1876630859375
 42
0.0
  0
VERTEX
  8
0
 10
5.0806010437012
 20
1.1999541015625
 42
0.0
  0
VERTEX
  8
0
 10
5.0775282897949
 20
1.2030268554688
 42
0.0
  0
VERTEX
  8
0
 10
5.0775282897949
 20
1.2091723632813
 42
0.0
  0
VERTEX
  8
0
 10
5.0836737976074
 20
1.2091723632813
 42
0.1731311288326
  0
VERTEX
  8
0
 10
5.0928920593262
 20
1.2291452636719
 42
0.0964474860749
  0
VERTEX
  8
0
 10
5.0898193054199
 20
1.2383635253906
 42
0.0
  0
VERTEX
  8
0
 10
5.1036466979981
 20
1.2537272949219
 42
0.0
  0
VERTEX
  8
0
 10
5.1036466979981
 20
1.2598728027344
 42
0.0370799584918
  0
VERTEX
  8
0
 10
5.1497380065918
 20
1.3551281738281
 42
0.0
  0
VERTEX
  8
0
 10
5.1558835144043
 20
1.3704919433594
 42
0.0
  0
VERTEX
  8
0
 10
5.1666381530762
 20
1.3704919433594
 42
0.0
  0
VERTEX
  8
0
 10
5.1758564147949
 20
1.4181196289063
 42
0.0
  0
VERTEX
  8
0
 10
5.1912201843262
 20
1.4181196289063
 42
-0.0828801709962
  0
VERTEX
  8
0
 10
5.2158022155762
 20
1.4642109375
 42
-0.0776481659082
  0
VERTEX
  8
0
 10
5.2327023620606
 20
1.5056931152344
 42
0.0
  0
VERTEX
  8
0
 10
5.2388478698731
 20
1.5056931152344
 42
0.0
  0
VERTEX
  8
0
 10
5.2511388854981
 20
1.5179841308594
 42
0.0
  0
VERTEX
  8
0
 10
5.2449933776856
 20
1.5302751464844
 42
-0.021892191844
  0
VERTEX
  8
0
 10
5.2665026550293
 20
1.5656118164063
 42
0.0
  0
VERTEX
  8
0
 10
5.3172030944824
 20
1.6531853027344
 42
0.0522927715446
  0
VERTEX
  8
0
 10
5.3356396179199
 20
1.6823764648438
 42
0.0
  0
VERTEX
  8
0
 10
5.3540761413574
 20
1.7161767578125
 42
-0.0243001833103
  0
VERTEX
  8
0
 10
5.3985294873328
 20
1.800810877181
 42
-0.0030245707256
  0
VERTEX
  8
0
 10
5.4462587585449
 20
1.8836418457031
 42
0.0187959035267
  0
VERTEX
  8
0
 10
5.4800590515137
 20
1.943560546875
 42
0.0
  0
VERTEX
  8
0
 10
5.5000319519043
 20
1.9773608398438
 42
0.0
  0
VERTEX
  8
0
 10
5.5061774597168
 20
1.9773608398438
 42
0.0080181796607
  0
VERTEX
  8
0
 10
5.5553415222168
 20
2.0695434570313
 42
0.0
  0
VERTEX
  8
0
 10
5.6152602233887
 20
2.1540441894531
 42
0.0074761160774
  0
VERTEX
  8
0
 10
5.6782516784668
 20
2.2508359375
 42
0.0
  0
VERTEX
  8
0
 10
5.6843971862793
 20
2.2646633300781
 42
0.0064311427944
  0
VERTEX
  8
0
 10
5.7700141139097
 20
2.3899775928308
 42
0.0254323491993
  0
VERTEX
  8
0
 10
5.8487895202637
 20
2.5197019042969
 42
0.0809645102404
  0
VERTEX
  8
0
 10
5.8303529968262
 20
2.5227746582031
 42
0.0809420245409
  0
VERTEX
  8
0
 10
5.7950163269043
 20
2.5120200195313
 42
-0.0063895274346
  0
VERTEX
  8
0
 10
5.7963991532166
 20
2.5120041913478
 42
-0.0166376479384
  0
VERTEX
  8
0
 10
5.7979554587501
 20
2.5119184810105
 42
-0.7267841531548
  0
VERTEX
  8
0
 10
5.7986366904556
 20
2.5112598296172
 42
-0.0199487954054
  0
VERTEX
  8
0
 10
5.7473886413574
 20
2.5028017578125
 42
0.0
  0
VERTEX
  8
0
 10
5.7473886413574
 20
2.5258474121094
 42
-0.0596217826989
  0
VERTEX
  8
0
 10
5.6782516784668
 20
2.4935834960938
 42
0.018894476312
  0
VERTEX
  8
0
 10
5.6321603698731
 20
2.4782197265625
 42
-0.0669333283437
  0
VERTEX
  8
0
 10
5.5876054382324
 20
2.4659287109375
 42
0.0115504202104
  0
VERTEX
  8
0
 10
5.5522687683106
 20
2.47207421875
 42
0.0
  0
VERTEX
  8
0
 10
5.5522687683106
 20
2.4628559570313
 42
0.0
  0
VERTEX
  8
0
 10
5.5184684753418
 20
2.459783203125
 42
0.0
  0
VERTEX
  8
0
 10
5.5184684753418
 20
2.4521013183594
 42
0.0
  0
VERTEX
  8
0
 10
5.4800590515137
 20
2.4521013183594
 42
0.0
  0
VERTEX
  8
0
 10
5.4739135437012
 20
2.4459558105469
 42
0.0
  0
VERTEX
  8
0
 10
5.4401132507324
 20
2.4459558105469
 42
0.0
  0
VERTEX
  8
0
 10
5.2849391784668
 20
2.4213737792969
 42
0.0
  0
VERTEX
  8
0
 10
5.2327023620606
 20
2.4183010253906
 42
0.0
  0
VERTEX
  8
0
 10
5.2280932312012
 20
2.4305920410156
 42
0.0
  0
VERTEX
  8
0
 10
5.2004384460449
 20
2.4275192871094
 42
-0.1180365635582
  0
VERTEX
  8
0
 10
5.2434570007324
 20
2.5104836425781
 42
0.0063314006733
  0
VERTEX
  8
0
 10
5.3018393249512
 20
2.5734750976563
 42
0.0
  0
VERTEX
  8
0
 10
5.3571488952637
 20
2.6303210449219
 42
-0.0401954940447
  0
VERTEX
  8
0
 10
5.3955583190918
 20
2.6733395996094
 42
-0.0354952573473
  0
VERTEX
  8
0
 10
5.4232131042481
 20
2.705603515625
 42
0.0
  0
VERTEX
  8
0
 10
5.4401132507324
 20
2.705603515625
 42
0.0
  0
VERTEX
  8
0
 10
5.4401132507324
 20
2.71789453125
 42
0.0
  0
VERTEX
  8
0
 10
5.4646952819824
 20
2.730185546875
 42
0.0
  0
VERTEX
  8
0
 10
5.7135883483887
 20
2.7808859863281
 42
0.0
  0
VERTEX
  8
0
 10
5.7704342956543
 20
2.7870314941406
 42
-0.0128107129758
  0
VERTEX
  8
0
 10
5.7965527038574
 20
2.7947133789063
 42
-0.0063128622383
  0
VERTEX
  8
0
 10
5.8733715515137
 20
2.8131499023438
 42
0.0
  0
VERTEX
  8
0
 10
5.8733715515137
 20
2.7901042480469
 42
0.0
  0
VERTEX
  8
0
 10
5.9056354675293
 20
2.7962497558594
 42
-0.202596733602
  0
VERTEX
  8
0
 10
5.9271447448731
 20
2.81622265625
 42
0.0
  0
VERTEX
  8
0
 10
5.9332902526856
 20
2.8070043945313
 42
0.0
  0
VERTEX
  8
0
 10
5.9716996765137
 20
2.8192954101563
 42
0.0
  0
VERTEX
  8
0
 10
5.9716996765137
 20
2.8070043945313
 42
0.0
  0
VERTEX
  8
0
 10
5.9993544616699
 20
2.8023952636719
 42
0.0
  0
VERTEX
  8
0
 10
6.0085727233887
 20
2.8100771484375
 42
0.0
  0
VERTEX
  8
0
 10
6.0193273620606
 20
2.8100771484375
 42
0.0
  0
VERTEX
  8
0
 10
6.0254728698731
 20
2.81622265625
 42
0.0
  0
VERTEX
  8
0
 10
6.0254728698731
 20
2.828513671875
 42
0.0
  0
VERTEX
  8
0
 10
6.0500549011231
 20
2.828513671875
 42
0.0
  0
VERTEX
  8
0
 10
6.0500549011231
 20
2.8254409179688
 42
0.0
  0
VERTEX
  8
0
 10
6.0562004089356
 20
2.8177590332031
 42
0.0
  0
VERTEX
  8
0
 10
6.0623459167481
 20
2.8177590332031
 42
0.0
  0
VERTEX
  8
0
 10
6.0623459167481
 20
2.828513671875
 42
0.0
  0
VERTEX
  8
0
 10
6.1038280944824
 20
2.8116135253906
 42
0.0
  0
VERTEX
  8
0
 10
6.1038280944824
 20
2.8346591796875
 42
0.0
  0
VERTEX
  8
0
 10
6.1191918640137
 20
2.8346591796875
 42
-0.0551728033394
  0
VERTEX
  8
0
 10
6.1437738952637
 20
2.828513671875
 42
0.0
  0
VERTEX
  8
0
 10
6.1514557800293
 20
2.828513671875
 42
0.1622882569009
  0
VERTEX
  8
0
 10
6.1791105651856
 20
2.8408046875
 42
0.0963049701232
  0
VERTEX
  8
0
 10
6.2067653503418
 20
2.8315864257813
 42
0.0185606192049
  0
VERTEX
  8
0
 10
6.2359565124512
 20
2.8377319335938
 42
0.1791702916677
  0
VERTEX
  8
0
 10
6.2574657897949
 20
2.8254409179688
 42
0.5
  0
VERTEX
  8
0
 10
6.2697568054199
 20
2.8377319335938
 42
0.0
  0
VERTEX
  8
0
 10
6.2835841979981
 20
2.8408046875
 42
0.0
  0
VERTEX
  8
0
 10
6.3050934753418
 20
2.828513671875
 42
0.0
  0
VERTEX
  8
0
 10
6.3235299987793
 20
2.8438774414063
 42
0.0
  0
VERTEX
  8
0
 10
6.3327482604981
 20
2.8346591796875
 42
0.0
  0
VERTEX
  8
0
 10
6.3742304382324
 20
2.8377319335938
 42
0.0
  0
VERTEX
  8
0
 10
6.3834486999512
 20
2.8346591796875
 42
0.0
  0
VERTEX
  8
0
 10
6.3834486999512
 20
2.8438774414063
 42
0.0
  0
VERTEX
  8
0
 10
6.3895942077637
 20
2.8469501953125
 42
0.0
  0
VERTEX
  8
0
 10
6.4433674011231
 20
2.8331228027344
 42
0.0
  0
VERTEX
  8
0
 10
6.4787040710449
 20
2.8469501953125
 42
0.0
  0
VERTEX
  8
0
 10
6.4848495788574
 20
2.8408046875
 42
0.0
  0
VERTEX
  8
0
 10
6.5217226257324
 20
2.8408046875
 42
0.0030320996928
  0
VERTEX
  8
0
 10
6.5601320495606
 20
2.8346591796875
 42
0.0524389036338
  0
VERTEX
  8
0
 10
6.5785685729981
 20
2.8377319335938
 42
0.0
  0
VERTEX
  8
0
 10
6.5785685729981
 20
2.8208317871094
 42
0.0
  0
VERTEX
  8
0
 10
6.5877868347168
 20
2.8208317871094
 42
0.0
  0
VERTEX
  8
0
 10
6.5877868347168
 20
2.828513671875
 42
0.0
  0
VERTEX
  8
0
 10
6.5939323425293
 20
2.828513671875
 42
0.0
  0
VERTEX
  8
0
 10
6.6031506042481
 20
2.8408046875
 42
0.1342311079625
  0
VERTEX
  8
0
 10
6.6323417663574
 20
2.8254409179688
 42
-0.1319998754062
  0
VERTEX
  8
0
 10
6.6569237976074
 20
2.8346591796875
 42
0.0
  0
VERTEX
  8
0
 10
6.6569237976074
 20
2.8469501953125
 42
0.0
  0
VERTEX
  8
0
 10
6.6768966979981
 20
2.8469501953125
 42
0.0
  0
VERTEX
  8
0
 10
6.6768966979981
 20
2.8346591796875
 42
0.0
  0
VERTEX
  8
0
 10
6.6922604675293
 20
2.8192954101563
 42
0.0
  0
VERTEX
  8
0
 10
6.7076242370606
 20
2.8377319335938
 42
0.0
  0
VERTEX
  8
0
 10
6.7398881530762
 20
2.8377319335938
 42
0.0
  0
VERTEX
  8
0
 10
6.7398881530762
 20
2.828513671875
 42
0.0
  0
VERTEX
  8
0
 10
6.7613974304199
 20
2.8315864257813
 42
0.0
  0
VERTEX
  8
0
 10
6.7644701843262
 20
2.8223681640625
 42
0.0796937789507
  0
VERTEX
  8
0
 10
6.7859794616699
 20
2.8192954101563
 42
0.0
  0
VERTEX
  8
0
 10
6.8750893249512
 20
2.8223681640625
 42
-0.0683645648129
  0
VERTEX
  8
0
 10
6.9211806335449
 20
2.8023952636719
 42
0.2332777045356
  0
VERTEX
  8
0
 10
6.9411535339356
 20
2.7839587402344
 42
0.0
  0
VERTEX
  8
0
 10
6.9411535339356
 20
2.7931770019531
 42
0.0
  0
VERTEX
  8
0
 10
6.9503717956543
 20
2.7931770019531
 42
0.0
  0
VERTEX
  8
0
 10
6.9503717956543
 20
2.7685949707031
 42
0.0361726349646
  0
VERTEX
  8
0
 10
6.8996713562012
 20
2.7716677246094
 42
0.1625547073374
  0
VERTEX
  8
0
 10
6.8612619323731
 20
2.7593767089844
 42
0.0
  0
VERTEX
  8
0
 10
6.8612619323731
 20
2.7516948242188
 42
0.0
  0
VERTEX
  8
0
 10
6.8674074401856
 20
2.7486220703125
 42
0.0
  0
VERTEX
  8
0
 10
6.8720165710449
 20
2.7148217773438
 42
0.0
  0
VERTEX
  8
0
 10
6.8520436706543
 20
2.7148217773438
 42
0.0
  0
VERTEX
  8
0
 10
6.8520436706543
 20
2.7025307617188
 42
0.1589170433612
  0
VERTEX
  8
0
 10
6.7918818087312
 20
2.6733620328304
 42
0.0836526278438
  0
VERTEX
  8
0
 10
6.7521791687012
 20
2.61956640625
 42
0.0
  0
VERTEX
  8
0
 10
6.7429609069824
 20
2.6287846679688
 42
0.0
  0
VERTEX
  8
0
 10
6.7352790222168
 20
2.6287846679688
 42
0.0
  0
VERTEX
  8
0
 10
6.7291335144043
 20
2.6134208984375
 42
0.0
  0
VERTEX
  8
0
 10
6.7398881530762
 20
2.6134208984375
 42
0.0
  0
VERTEX
  8
0
 10
6.7398881530762
 20
2.607275390625
 42
0.0
  0
VERTEX
  8
0
 10
6.6953332214356
 20
2.5857661132813
 42
0.0
  0
VERTEX
  8
0
 10
6.6953332214356
 20
2.5765478515625
 42
0.0919034701027
  0
VERTEX
  8
0
 10
6.6569237976074
 20
2.5673295898438
 42
0.0
  0
VERTEX
  8
0
 10
6.6323417663574
 20
2.558111328125
 42
-0.0740923902122
  0
VERTEX
  8
0
 10
6.5816413269043
 20
2.5488930664063
 42
0.0
  0
VERTEX
  8
0
 10
6.3988124694824
 20
2.5611840820313
 42
0.0796937789507
  0
VERTEX
  8
0
 10
6.3773031921387
 20
2.5642568359375
 42
0.0
  0
VERTEX
  8
0
 10
6.3680849304199
 20
2.5642568359375
 42
-0.0108005889003
  0
VERTEX
  8
0
 10
6.3327482604981
 20
2.558111328125
 42
0.0
  0
VERTEX
  8
0
 10
6.2928024597168
 20
2.5611840820313
 42
0.1771716777399
  0
VERTEX
  8
0
 10
6.224003461787
 20
2.5452991810406
 42
0.1842667313137
  0
VERTEX
  8
0
 10
6.1883288269043
 20
2.484365234375
 42
0.0
  0
VERTEX
  8
0
 10
6.1791105651856
 20
2.4812924804688
 42
0.0
  0
VERTEX
  8
0
 10
6.1668195495606
 20
2.4567104492188
 42
0.0
  0
VERTEX
  8
0
 10
6.1576012878418
 20
2.4567104492188
 42
0.1981453252904
  0
VERTEX
  8
0
 10
6.1545285339356
 20
2.4505649414063
 42
0.1979342980412
  0
VERTEX
  8
0
 10
6.1576012878418
 20
2.4444194335938
 42
0.0
  0
VERTEX
  8
0
 10
6.1576012878418
 20
2.4413466796875
 42
0.0
  0
VERTEX
  8
0
 10
6.1545285339356
 20
2.4367375488281
 42
0.0376526554335
  0
VERTEX
  8
0
 10
6.1437738952637
 20
2.4213737792969
 42
-0.0350149682986
  0
VERTEX
  8
0
 10
6.0807824401856
 20
2.3107546386719
 42
0.0
  0
VERTEX
  8
0
 10
6.0684914245606
 20
2.3107546386719
 42
0.0
  0
VERTEX
  8
0
 10
6.0684914245606
 20
2.2984636230469
 42
0.0
  0
VERTEX
  8
0
 10
6.0746369323731
 20
2.2984636230469
 42
-0.134802892358
  0
VERTEX
  8
0
 10
6.0684914245606
 20
2.2830998535156
 42
0.0
  0
VERTEX
  8
0
 10
6.0531276550293
 20
2.2708088378906
 42
0.1936067177179
  0
VERTEX
  8
0
 10
6.0439093933106
 20
2.2416176757813
 42
0.0
  0
VERTEX
  8
0
 10
6.0439093933106
 20
2.2354721679688
 42
-0.0627889531676
  0
VERTEX
  8
0
 10
6.0285456237793
 20
2.2293266601563
 42
-0.1732096838095
  0
VERTEX
  8
0
 10
6.0085727233887
 20
2.238544921875
 42
0.0
  0
VERTEX
  8
0
 10
5.9993544616699
 20
2.238544921875
 42
0.0
  0
VERTEX
  8
0
 10
5.9993544616699
 20
2.2231811523438
 42
0.0
  0
VERTEX
  8
0
 10
6.0316183776856
 20
2.2047446289063
 42
0.0
  0
VERTEX
  8
0
 10
6.0316183776856
 20
2.201671875
 42
0.0
  0
VERTEX
  8
0
 10
6.0085727233887
 20
2.2078173828125
 42
0.0
  0
VERTEX
  8
0
 10
5.9962817077637
 20
2.1816989746094
 42
0.0
  0
VERTEX
  8
0
 10
5.9839906921387
 20
2.1816989746094
 42
0.0
  0
VERTEX
  8
0
 10
5.9901361999512
 20
2.1386804199219
 42
0.0
  0
VERTEX
  8
0
 10
5.9716996765137
 20
2.1325349121094
 42
-0.1980139030719
  0
VERTEX
  8
0
 10
5.9425085144043
 20
2.1002709960938
 42
0.0
  0
VERTEX
  8
0
 10
5.9425085144043
 20
2.0849072265625
 42
0.0
  0
VERTEX
  8
0
 10
5.9179264831543
 20
2.07876171875
 42
0.1614335567976
  0
VERTEX
  8
0
 10
5.9363630065918
 20
2.0495705566406
 42
0.2760624363229
  0
VERTEX
  8
0
 10
5.8933444519043
 20
1.9742880859375
 42
0.0
  0
VERTEX
  8
0
 10
5.8610805358887
 20
1.9773608398438
 42
0.0
  0
VERTEX
  8
0
 10
5.8580077819824
 20
1.9742880859375
 42
0.0
  0
VERTEX
  8
0
 10
5.8580077819824
 20
1.9589243164063
 42
0.0
  0
VERTEX
  8
0
 10
5.8610805358887
 20
1.9527788085938
 42
0.0
  0
VERTEX
  8
0
 10
5.8764443054199
 20
1.9527788085938
 42
0.0
  0
VERTEX
  8
0
 10
5.8764443054199
 20
1.9404877929688
 42
0.0
  0
VERTEX
  8
0
 10
5.8549350280762
 20
1.9343422851563
 42
0.0
  0
VERTEX
  8
0
 10
5.8518622741699
 20
1.9174421386719
 42
0.0
  0
VERTEX
  8
0
 10
5.8364985046387
 20
1.9205148925781
 42
0.0
  0
VERTEX
  8
0
 10
5.8303529968262
 20
1.9143693847656
 42
0.0
  0
VERTEX
  8
0
 10
5.8242074890137
 20
1.8897873535156
 42
0.0
  0
VERTEX
  8
0
 10
5.7888708190918
 20
1.8682780761719
 42
0.0
  0
VERTEX
  8
0
 10
5.8103800964356
 20
1.8483051757813
 42
0.0
  0
VERTEX
  8
0
 10
5.8195983581543
 20
1.8544506835938
 42
0.0
  0
VERTEX
  8
0
 10
5.8272802429199
 20
1.8544506835938
 42
0.0
  0
VERTEX
  8
0
 10
5.8011618347168
 20
1.8390869140625
 42
0.0
  0
VERTEX
  8
0
 10
5.8011618347168
 20
1.8298686523438
 42
0.1695360423076
  0
VERTEX
  8
0
 10
5.7535341491699
 20
1.8145048828125
 42
0.1194528090563
  0
VERTEX
  8
0
 10
5.7765798034668
 20
1.7853137207031
 42
0.0
  0
VERTEX
  8
0
 10
5.7857980651856
 20
1.7883864746094
 42
0.0
  0
VERTEX
  8
0
 10
5.7919435729981
 20
1.7822409667969
 42
0.0
  0
VERTEX
  8
0
 10
5.7980890808106
 20
1.7822409667969
 42
0.0
  0
VERTEX
  8
0
 10
5.7980890808106
 20
1.7730227050781
 42
-0.1591681374163
  0
VERTEX
  8
0
 10
5.7535341491699
 20
1.7576589355469
 42
0.0
  0
VERTEX
  8
0
 10
5.7535341491699
 20
1.7484406738281
 42
0.0
  0
VERTEX
  8
0
 10
5.7412431335449
 20
1.7453679199219
 42
0.0
  0
VERTEX
  8
0
 10
5.7412431335449
 20
1.7192495117188
 42
0.0
  0
VERTEX
  8
0
 10
5.7642887878418
 20
1.7161767578125
 42
0.0
  0
VERTEX
  8
0
 10
5.7642887878418
 20
1.71003125
 42
0.0
  0
VERTEX
  8
0
 10
5.7412431335449
 20
1.7161767578125
 42
0.0
  0
VERTEX
  8
0
 10
5.7320248718262
 20
1.7069584960938
 42
0.0
  0
VERTEX
  8
0
 10
5.7105155944824
 20
1.7131040039063
 42
0.0
  0
VERTEX
  8
0
 10
5.7074428405762
 20
1.7038857421875
 42
0.0
  0
VERTEX
  8
0
 10
5.7166611022949
 20
1.6946674804688
 42
0.3333333333333
  0
VERTEX
  8
0
 10
5.7350976257324
 20
1.6762309570313
 42
-0.075205462888
  0
VERTEX
  8
0
 10
5.7581432800293
 20
1.6685490722656
 42
0.0
  0
VERTEX
  8
0
 10
5.7581432800293
 20
1.6624035644531
 42
0.0
  0
VERTEX
  8
0
 10
5.7443158874512
 20
1.6593308105469
 42
0.0
  0
VERTEX
  8
0
 10
5.7443158874512
 20
1.6531853027344
 42
0.0
  0
VERTEX
  8
0
 10
5.7350976257324
 20
1.6501125488281
 42
0.0
  0
VERTEX
  8
0
 10
5.7105155944824
 20
1.6624035644531
 42
0.0
  0
VERTEX
  8
0
 10
5.6982245788574
 20
1.6562580566406
 42
0.0
  0
VERTEX
  8
0
 10
5.6982245788574
 20
1.6501125488281
 42
0.0
  0
VERTEX
  8
0
 10
5.6751789245606
 20
1.6439670410156
 42
0.0
  0
VERTEX
  8
0
 10
5.6751789245606
 20
1.6347487792969
 42
-0.0468695579531
  0
VERTEX
  8
0
 10
5.6968765335236
 20
1.6243837399205
 42
-0.1536679418042
  0
VERTEX
  8
0
 10
5.7135883483887
 20
1.6070939941406
 42
0.0
  0
VERTEX
  8
0
 10
5.7289521179199
 20
1.6101667480469
 42
0.0
  0
VERTEX
  8
0
 10
5.7289521179199
 20
1.599412109375
 42
0.0
  0
VERTEX
  8
0
 10
5.7228066101074
 20
1.5840483398438
 42
0.0
  0
VERTEX
  8
0
 10
5.6920790710449
 20
1.5932666015625
 42
0.1520441304968
  0
VERTEX
  8
0
 10
5.6751789245606
 20
1.5563935546875
 42
0.0
  0
VERTEX
  8
0
 10
5.6813244323731
 20
1.550248046875
 42
0.0
  0
VERTEX
  8
0
 10
5.6920790710449
 20
1.550248046875
 42
0.0
  0
VERTEX
  8
0
 10
5.6920790710449
 20
1.5410297851563
 42
0.0
  0
VERTEX
  8
0
 10
5.6659606628418
 20
1.5364206542969
 42
0.0
  0
VERTEX
  8
0
 10
5.6659606628418
 20
1.5471752929688
 42
0.0
  0
VERTEX
  8
0
 10
5.6567424011231
 20
1.5471752929688
 42
-0.0935275925809
  0
VERTEX
  8
0
 10
5.6352331237793
 20
1.5041567382813
 42
-0.1339024356909
  0
VERTEX
  8
0
 10
5.6214057312012
 20
1.4964748535156
 42
0.0
  0
VERTEX
  8
0
 10
5.6214057312012
 20
1.4841838378906
 42
0.198012293693
  0
VERTEX
  8
0
 10
5.6029692077637
 20
1.4749655761719
 42
0.0
  0
VERTEX
  8
0
 10
5.6029692077637
 20
1.4642109375
 42
0.0
  0
VERTEX
  8
0
 10
5.6214057312012
 20
1.4642109375
 42
0.0
  0
VERTEX
  8
0
 10
5.6121874694824
 20
1.4488471679688
 42
0.0
  0
VERTEX
  8
0
 10
5.5783871765137
 20
1.4488471679688
 42
0.0
  0
VERTEX
  8
0
 10
5.5691689147949
 20
1.43962890625
 42
0.0973397275693
  0
VERTEX
  8
0
 10
5.5906781921387
 20
1.4304106445313
 42
0.0797343568862
  0
VERTEX
  8
0
 10
5.6121874694824
 20
1.4334833984375
 42
0.0
  0
VERTEX
  8
0
 10
5.6121874694824
 20
1.4242651367188
 42
0.0
  0
VERTEX
  8
0
 10
5.6444513854981
 20
1.4304106445313
 42
0.0
  0
VERTEX
  8
0
 10
5.6444513854981
 20
1.4211923828125
 42
0.0
  0
VERTEX
  8
0
 10
5.6383058776856
 20
1.4211923828125
 42
-0.2010462110976
  0
VERTEX
  8
0
 10
5.6152602233887
 20
1.4073649902344
 42
0.0
  0
VERTEX
  8
0
 10
5.5968236999512
 20
1.4119741210938
 42
0.0
  0
VERTEX
  8
0
 10
5.5876054382324
 20
1.4042922363281
 42
0.0
  0
VERTEX
  8
0
 10
5.5814599304199
 20
1.4042922363281
 42
0.0
  0
VERTEX
  8
0
 10
5.5660961608887
 20
1.3920012207031
 42
0.0
  0
VERTEX
  8
0
 10
5.5630234069824
 20
1.3827829589844
 42
0.0
  0
VERTEX
  8
0
 10
5.5430505065918
 20
1.3797102050781
 42
0.0
  0
VERTEX
  8
0
 10
5.5430505065918
 20
1.3489826660156
 42
0.0
  0
VERTEX
  8
0
 10
5.5660961608887
 20
1.3489826660156
 42
0.0
  0
VERTEX
  8
0
 10
5.5660961608887
 20
1.3551281738281
 42
0.0
  0
VERTEX
  8
0
 10
5.5783871765137
 20
1.3520554199219
 42
0.0
  0
VERTEX
  8
0
 10
5.5660961608887
 20
1.3382280273438
 42
0.0764652058528
  0
VERTEX
  8
0
 10
5.5584142761231
 20
1.3213278808594
 42
-0.0732648628327
  0
VERTEX
  8
0
 10
5.5399777526856
 20
1.2829184570313
 42
0.0
  0
VERTEX
  8
0
 10
5.5092502136231
 20
1.29213671875
 42
0.0
  0
VERTEX
  8
0
 10
5.5061774597168
 20
1.2690910644531
 42
0.0
  0
VERTEX
  8
0
 10
5.5338322448731
 20
1.2629455566406
 42
0.0
  0
VERTEX
  8
0
 10
5.5338322448731
 20
1.2568000488281
 42
0.0759736629268
  0
VERTEX
  8
0
 10
5.5031047058106
 20
1.2506545410156
 42
0.0
  0
VERTEX
  8
0
 10
5.5031047058106
 20
1.2322180175781
 42
0.0
  0
VERTEX
  8
0
 10
5.5461232604981
 20
1.2199270019531
 42
0.0
  0
VERTEX
  8
0
 10
5.5522687683106
 20
1.2030268554688
 42
0.0
  0
VERTEX
  8
0
 10
5.5246139831543
 20
1.2030268554688
 42
0.0
  0
VERTEX
  8
0
 10
5.5153957214356
 20
1.2137814941406
 42
0.0
  0
VERTEX
  8
0
 10
5.5031047058106
 20
1.2137814941406
 42
0.0
  0
VERTEX
  8
0
 10
5.4938864440918
 20
1.2030268554688
 42
-0.0962775260111
  0
VERTEX
  8
0
 10
5.4969591979981
 20
1.181517578125
 42
-0.4675249433574
  0
VERTEX
  8
0
 10
5.4677680358887
 20
1.1600083007813
 42
0.0
  0
VERTEX
  8
0
 10
5.4493315124512
 20
1.1600083007813
 42
0.0
  0
VERTEX
  8
0
 10
5.4524042663574
 20
1.1215988769531
 42
0.0
  0
VERTEX
  8
0
 10
5.4938864440918
 20
1.1093078613281
 42
0.0
  0
VERTEX
  8
0
 10
5.4938864440918
 20
1.1000895996094
 42
0.0
  0
VERTEX
  8
0
 10
5.4739135437012
 20
1.0908713378906
 42
0.2235211683948
  0
VERTEX
  8
0
 10
5.4401132507324
 20
1.1123806152344
 42
0.0
  0
VERTEX
  8
0
 10
5.4232131042481
 20
1.0939440917969
 42
0.0
  0
VERTEX
  8
0
 10
5.4232131042481
 20
1.0847258300781
 42
0.0
  0
VERTEX
  8
0
 10
5.4677680358887
 20
1.0739711914063
 42
0.0
  0
VERTEX
  8
0
 10
5.4232131042481
 20
1.0678256835938
 42
0.0
  0
VERTEX
  8
0
 10
5.4232131042481
 20
1.0616801757813
 42
0.0
  0
VERTEX
  8
0
 10
5.4339677429199
 20
1.0493891601563
 42
0.0
  0
VERTEX
  8
0
 10
5.4585497741699
 20
1.058607421875
 42
-0.3722672538867
  0
VERTEX
  8
0
 10
5.4262858581543
 20
1.0370981445313
 42
0.0
  0
VERTEX
  8
0
 10
5.4078493347168
 20
1.0278798828125
 42
0.0
  0
VERTEX
  8
0
 10
5.4078493347168
 20
1.0186616210938
 42
0.1245732746575
  0
VERTEX
  8
0
 10
5.3787428397644
 20
1.0126593355083
 42
0.2883933751601
  0
VERTEX
  8
0
 10
5.3648307800293
 20
0.9863977050781
 42
0.0
  0
VERTEX
  8
0
 10
5.3894128112793
 20
0.9863977050781
 42
0.0
  0
VERTEX
  8
0
 10
5.3986310729981
 20
0.9802521972656
 42
0.0
  0
VERTEX
  8
0
 10
5.3863400573731
 20
0.9679611816406
 42
0.0842328996565
  0
VERTEX
  8
0
 10
5.3701014410146
 20
0.9656843128927
 42
0.3466788944334
  0
VERTEX
  8
0
 10
5.3602216491699
 20
0.9525974121094
 42
0.0461168230663
  0
VERTEX
  8
0
 10
5.3801945495606
 20
0.9018969726563
 42
0.0
  0
VERTEX
  8
0
 10
5.3602216491699
 20
0.8849968261719
 42
0.0
  0
VERTEX
  8
0
 10
5.3510033874512
 20
0.8849968261719
 42
0.0
  0
VERTEX
  8
0
 10
5.3448578796387
 20
0.8788513183594
 42
0.0
  0
VERTEX
  8
0
 10
5.3448578796387
 20
0.8665603027344
 42
0.0
  0
VERTEX
  8
0
 10
5.3571488952637
 20
0.8573420410156
 42
0.0
  0
VERTEX
  8
0
 10
5.3571488952637
 20
0.8450510253906
 42
0.0
  0
VERTEX
  8
0
 10
5.3448578796387
 20
0.8450510253906
 42
0.0
  0
VERTEX
  8
0
 10
5.3387123718262
 20
0.8419782714844
 42
0.0
  0
VERTEX
  8
0
 10
5.3387123718262
 20
0.812787109375
 42
0.0
  0
VERTEX
  8
0
 10
5.3110575866699
 20
0.8158598632813
 42
0.1159129795433
  0
VERTEX
  8
0
 10
5.2880119323731
 20
0.8327600097656
 42
0.1320665585753
  0
VERTEX
  8
0
 10
5.2695754089356
 20
0.8235417480469
 42
0.0
  0
VERTEX
  8
0
 10
5.2726481628418
 20
0.8035688476563
 42
0.0
  0
VERTEX
  8
0
 10
5.2603571472168
 20
0.8066416015625
 42
0.0
  0
VERTEX
  8
0
 10
5.2572843933106
 20
0.8158598632813
 42
0.0
  0
VERTEX
  8
0
 10
5.2449933776856
 20
0.8158598632813
 42
0.0
  0
VERTEX
  8
0
 10
5.2357751159668
 20
0.8066416015625
 42
0.0
  0
VERTEX
  8
0
 10
5.2280932312012
 20
0.8066416015625
 42
-0.1599173422748
  0
VERTEX
  8
0
 10
5.1973656921387
 20
0.7912778320313
 42
0.1068458388564
  0
VERTEX
  8
0
 10
5.1651017761231
 20
0.7789868164063
 42
-0.0566768578804
  0
VERTEX
  8
0
 10
5.1313014831543
 20
0.7605502929688
 42
-0.02672399115
  0
VERTEX
  8
0
 10
5.0176095886231
 20
0.7175317382813
 42
0.0
  0
VERTEX
  8
0
 10
4.9515453796387
 20
0.6960224609375
 42
-0.2407468575488
  0
VERTEX
  8
0
 10
4.9392543640137
 20
0.6914133300781
 42
-0.1456825796505
  0
VERTEX
  8
0
 10
4.895160241532
 20
0.702599993719
 42
-0.1927078939851
  0
SEQEND
  0
POLYLINE
  8
0
 66
     1
 10
0.0
 20
0.0
 30
0.0
 70
     1
  0
VERTEX
  8
0
 10
5.5430505065918
 20
1.2660183105469
 42
0.0
  0
VERTEX
  8
0
 10
5.5369049987793
 20
1.2629455566406
 42
-0.3596932921306
  0
VERTEX
  8
0
 10
5.5691689147949
 20
1.2829184570313
 42
0.0
  0
VERTEX
  8
0
 10
5.5691689147949
 20
1.2721638183594
 42
0.0
  0
VERTEX
  8
0
 10
5.5630234069824
 20
1.2721638183594
 42
0.0
  0
VERTEX
  8
0
 10
5.5630234069824
 20
1.2660183105469
 42
0.0
  0
SEQEND
  0
POLYLINE
  8
0
 66
     1
 10
0.0
 20
0.0
 30
0.0
 70
     1
  0
VERTEX
  8
0
 10
6.440125645752
 20
1.0002250976563
 42
0.0
  0
VERTEX
  8
0
 10
6.4493439074707
 20
1.0032978515625
 42
0.0961335830726
  0
VERTEX
  8
0
 10
6.452416661377
 20
1.0125161132813
 42
0.2341032727806
  0
VERTEX
  8
0
 10
6.4339801379395
 20
1.0417072753906
 42
0.0809645102404
  0
VERTEX
  8
0
 10
6.4370528918457
 20
1.0601437988281
 42
0.0
  0
VERTEX
  8
0
 10
6.4370528918457
 20
1.0755075683594
 42
-0.1694998031538
  0
VERTEX
  8
0
 10
6.4339801379395
 20
1.0877985839844
 42
-0.1252947698242
  0
VERTEX
  8
0
 10
6.4493439074707
 20
1.1384990234375
 42
0.0
  0
VERTEX
  8
0
 10
6.4370528918457
 20
1.1384990234375
 42
0.0
  0
VERTEX
  8
0
 10
6.4370528918457
 20
1.1507900390625
 42
0.0
  0
VERTEX
  8
0
 10
6.4462711535645
 20
1.1600083007813
 42
0.0
  0
VERTEX
  8
0
 10
6.4493439074707
 20
1.1830539550781
 42
0.0
  0
VERTEX
  8
0
 10
6.4616349230957
 20
1.1830539550781
 42
-0.0406212527072
  0
VERTEX
  8
0
 10
6.452416661377
 20
1.2260725097656
 42
-0.0630660088078
  0
VERTEX
  8
0
 10
6.4567301737359
 20
1.2644782311482
 42
-0.142387490188
  0
VERTEX
  8
0
 10
6.4754623156738
 20
1.2982822265625
 42
0.0
  0
VERTEX
  8
0
 10
6.4969715930176
 20
1.3336188964844
 42
-0.0549452161983
  0
VERTEX
  8
0
 10
6.5230900012207
 20
1.4104377441406
 42
0.0739199479772
  0
VERTEX
  8
0
 10
6.5415265246582
 20
1.4565290527344
 42
0.0
  0
VERTEX
  8
0
 10
6.5538175402832
 20
1.4565290527344
 42
0.0
  0
VERTEX
  8
0
 10
6.5568902941895
 20
1.4780383300781
 42
0.0522927715446
  0
VERTEX
  8
0
 10
6.575326817627
 20
1.5072294921875
 42
0.0478115535876
  0
VERTEX
  8
0
 10
6.5968360949707
 20
1.5441025390625
 42
-0.0994343561121
  0
VERTEX
  8
0
 10
7.0347035266113
 20
1.9619970703125
 42
0.0
  0
VERTEX
  8
0
 10
7.0347035266113
 20
1.9727517089844
 42
-0.0066714256039
  0
VERTEX
  8
0
 10
7.0731129504395
 20
1.9942609863281
 42
0.0077211070856
  0
VERTEX
  8
0
 10
7.2113868762207
 20
2.0818344726563
 42
0.0
  0
VERTEX
  8
0
 10
7.226750645752
 20
2.0879799804688
 42
-0.0377460904665
  0
VERTEX
  8
0
 10
7.3870992969137
 20
2.1818092302416
 42
-0.0378451759609
  0
VERTEX
  8
0
 10
7.4740884773026
 20
2.2158561733493
 42
-0.0716678807686
  0
VERTEX
  8
0
 10
7.5662899523926
 20
2.2308630371094
 42
-0.1982878754769
  0
VERTEX
  8
0
 10
7.6907364855957
 20
2.1816989746094
 42
-0.2159259389375
  0
VERTEX
  8
0
 10
7.742973302002
 20
2.0633979492188
 42
0.0
  0
VERTEX
  8
0
 10
7.742973302002
 20
2.041888671875
 42
0.0
  0
VERTEX
  8
0
 10
7.7337550402832
 20
2.041888671875
 42
0.0
  0
VERTEX
  8
0
 10
7.7368277941895
 20
2.0065520019531
 42
0.0
  0
VERTEX
  8
0
 10
7.7276095324707
 20
2.0065520019531
 42
0.0
  0
VERTEX
  8
0
 10
7.7276095324707
 20
2.0034792480469
 42
0.0
  0
VERTEX
  8
0
 10
7.730682286377
 20
1.9973337402344
 42
0.0
  0
VERTEX
  8
0
 10
7.7399005480957
 20
1.9973337402344
 42
0.0
  0
VERTEX
  8
0
 10
7.7245367785645
 20
1.9558515625
 42
0.0
  0
VERTEX
  8
0
 10
7.7137821398926
 20
1.9558515625
 42
-0.1523563142927
  0
VERTEX
  8
0
 10
7.7045638781738
 20
1.9343422851563
 42
0.0788312442642
  0
VERTEX
  8
0
 10
7.6861273547363
 20
1.8836418457031
 42
0.0
  0
VERTEX
  8
0
 10
7.6830546008301
 20
1.8836418457031
 42
0.0553288253075
  0
VERTEX
  8
0
 10
7.6707635852051
 20
1.8805690917969
 42
0.0
  0
VERTEX
  8
0
 10
7.6738363391113
 20
1.8682780761719
 42
0.0
  0
VERTEX
  8
0
 10
7.6553998156738
 20
1.8436960449219
 42
0.0428351327652
  0
VERTEX
  8
0
 10
7.6354269152832
 20
1.8114321289063
 42
0.0
  0
VERTEX
  8
0
 10
7.620063145752
 20
1.808359375
 42
0.0
  0
VERTEX
  8
0
 10
7.6139176379395
 20
1.78377734375
 42
0.0
  0
VERTEX
  8
0
 10
7.6046993762207
 20
1.78377734375
 42
0.0
  0
VERTEX
  8
0
 10
7.6016266223145
 20
1.7776318359375
 42
0.2013780613786
  0
VERTEX
  8
0
 10
7.5539989367676
 20
1.7330769042969
 42
0.0683159021257
  0
VERTEX
  8
0
 10
7.5263441516113
 20
1.7392224121094
 42
0.179174318833
  0
VERTEX
  8
0
 10
7.4940802355957
 20
1.7207858886719
 42
0.0
  0
VERTEX
  8
0
 10
7.5002257434082
 20
1.7084948730469
 42
0.0
  0
VERTEX
  8
0
 10
7.509444005127
 20
1.7146403808594
 42
0.0
  0
VERTEX
  8
0
 10
7.5155895129395
 20
1.7146403808594
 42
0.0
  0
VERTEX
  8
0
 10
7.5155895129395
 20
1.7023493652344
 42
0.0646738146665
  0
VERTEX
  8
0
 10
7.4694982043457
 20
1.6762309570313
 42
0.0
  0
VERTEX
  8
0
 10
7.4495253039551
 20
1.68544921875
 42
0.0
  0
VERTEX
  8
0
 10
7.4403070422363
 20
1.6823764648438
 42
0.0
  0
VERTEX
  8
0
 10
7.4464525500488
 20
1.6608671875
 42
-0.0936242973607
  0
VERTEX
  8
0
 10
7.3834610949707
 20
1.6455034179688
 42
-0.1653059681849
  0
VERTEX
  8
0
 10
7.3112513781738
 20
1.5917302246094
 42
0.0271731947222
  0
VERTEX
  8
0
 10
7.2451871691895
 20
1.5625390625
 42
0.0
  0
VERTEX
  8
0
 10
7.2175323840332
 20
1.5533208007813
 42
0.0
  0
VERTEX
  8
0
 10
7.1729774523926
 20
1.5318115234375
 42
-0.0146374520655
  0
VERTEX
  8
0
 10
7.1391771594238
 20
1.5225932617188
 42
0.0
  0
VERTEX
  8
0
 10
7.1361044055176
 20
1.5164477539063
 42
0.0
  0
VERTEX
  8
0
 10
7.116131505127
 20
1.513375
 42
0.0807798040414
  0
VERTEX
  8
0
 10
7.0347035266113
 20
1.4811110839844
 42
-0.0166436427126
  0
VERTEX
  8
0
 10
6.9471300402832
 20
1.43962890625
 42
0.0457432269969
  0
VERTEX
  8
0
 10
6.9210116320801
 20
1.427337890625
 42
-0.014122541765
  0
VERTEX
  8
0
 10
6.8749203234863
 20
1.415046875
 42
-0.0436325302121
  0
VERTEX
  8
0
 10
6.8610929309082
 20
1.4181196289063
 42
0.0384868464698
  0
VERTEX
  8
0
 10
6.833438145752
 20
1.3520554199219
 42
0.0
  0
VERTEX
  8
0
 10
6.845729161377
 20
1.3520554199219
 42
0.0
  0
VERTEX
  8
0
 10
6.845729161377
 20
1.3397644042969
 42
0.0
  0
VERTEX
  8
0
 10
6.8395836535645
 20
1.3397644042969
 42
0.0
  0
VERTEX
  8
0
 10
6.833438145752
 20
1.3459099121094
 42
0.0
  0
VERTEX
  8
0
 10
6.8180743762207
 20
1.3459099121094
 42
0.0
  0
VERTEX
  8
0
 10
6.8180743762207
 20
1.3274733886719
 42
0.0
  0
VERTEX
  8
0
 10
6.8395836535645
 20
1.3182551269531
 42
0.0
  0
VERTEX
  8
0
 10
6.8303653918457
 20
1.304427734375
 42
0.0
  0
VERTEX
  8
0
 10
6.8365108996582
 20
1.2952094726563
 42
0.0
  0
VERTEX
  8
0
 10
6.821147130127
 20
1.2952094726563
 42
0.0
  0
VERTEX
  8
0
 10
6.821147130127
 20
1.2767729492188
 42
-0.0962769993175
  0
VERTEX
  8
0
 10
6.8272926379395
 20
1.2445090332031
 42
-0.0213189501635
  0
VERTEX
  8
0
 10
6.8180743762207
 20
1.1753720703125
 42
0.1980902600012
  0
VERTEX
  8
0
 10
6.8150016223145
 20
1.1661538085938
 42
0.1230177937137
  0
VERTEX
  8
0
 10
6.8518746691895
 20
1.034025390625
 42
0.1681581008165
  0
VERTEX
  8
0
 10
6.9022194492116
 20
0.989092763767
 42
0.100803421961
  0
VERTEX
  8
0
 10
6.968639317627
 20
0.9771794433594
 42
0.0972107073847
  0
VERTEX
  8
0
 10
7.079218568017
 20
1.0051540679997
 42
0.0435184446818
  0
VERTEX
  8
0
 10
7.2275084772073
 20
1.0888113988029
 42
0.0190106900288
  0
VERTEX
  8
0
 10
7.3650245715332
 20
1.1891994628906
 42
0.0553288253075
  0
VERTEX
  8
0
 10
7.3773155871582
 20
1.1922722167969
 42
0.0
  0
VERTEX
  8
0
 10
7.3773155871582
 20
1.1984177246094
 42
0.0504635717485
  0
VERTEX
  8
0
 10
7.4218705187988
 20
1.2352907714844
 42
0.0
  0
VERTEX
  8
0
 10
7.472570958252
 20
1.2767729492188
 42
0.0
  0
VERTEX
  8
0
 10
7.5186622668457
 20
1.3121096191406
 42
0.0
  0
VERTEX
  8
0
 10
7.5570716906738
 20
1.3459099121094
 42
0.0
  0
VERTEX
  8
0
 10
7.5755082141113
 20
1.3520554199219
 42
-0.1666666666667
  0
VERTEX
  8
0
 10
7.5847264758301
 20
1.3244006347656
 42
-0.1946698355883
  0
VERTEX
  8
0
 10
7.5607885125234
 20
1.2817027381346
 42
-0.0475440651732
  0
VERTEX
  8
0
 10
7.521735020752
 20
1.2521909179688
 42
0.0108561684349
  0
VERTEX
  8
0
 10
7.4802528430176
 20
1.2229997558594
 42
0.0278087727258
  0
VERTEX
  8
0
 10
7.4464525500488
 20
1.1861267089844
 42
0.0
  0
VERTEX
  8
0
 10
7.4310887805176
 20
1.1861267089844
 42
0.0
  0
VERTEX
  8
0
 10
7.3942157336426
 20
1.1538627929688
 42
0.0
  0
VERTEX
  8
0
 10
7.3942157336426
 20
1.14464453125
 42
0.0
  0
VERTEX
  8
0
 10
7.3834610949707
 20
1.1384990234375
 42
0.0
  0
VERTEX
  8
0
 10
7.3773155871582
 20
1.1384990234375
 42
0.1538073133077
  0
VERTEX
  8
0
 10
7.3558063098145
 20
1.1062351074219
 42
0.0
  0
VERTEX
  8
0
 10
7.3435152941895
 20
1.1062351074219
 42
-0.0281324458964
  0
VERTEX
  8
0
 10
7.280345255208
 20
1.0418528459896
 42
-0.0033061864276
  0
VERTEX
  8
0
 10
7.214459630127
 20
0.9802521972656
 42
0.0
  0
VERTEX
  8
0
 10
7.0070487414551
 20
0.8235417480469
 42
0.0
  0
VERTEX
  8
0
 10
6.9901485949707
 20
0.8204689941406
 42
0.0
  0
VERTEX
  8
0
 10
6.9901485949707
 20
0.8051052246094
 42
0.0084539461203
  0
VERTEX
  8
0
 10
6.9302298937988
 20
0.7697685546875
 42
0.0
  0
VERTEX
  8
0
 10
6.9087206164551
 20
0.7544047851563
 42
0.0
  0
VERTEX
  8
0
 10
6.8964296008301
 20
0.7482592773438
 42
0.0
  0
VERTEX
  8
0
 10
6.8964296008301
 20
0.763623046875
 42
0.0
  0
VERTEX
  8
0
 10
6.8902840930176
 20
0.763623046875
 42
0.2152896473135
  0
VERTEX
  8
0
 10
6.8610929309082
 20
0.7482592773438
 42
0.0
  0
VERTEX
  8
0
 10
6.8641656848145
 20
0.7359682617188
 42
-0.0552165867918
  0
VERTEX
  8
0
 10
6.8395836535645
 20
0.7298227539063
 42
-0.0244203997683
  0
VERTEX
  8
0
 10
6.821147130127
 20
0.7328955078125
 42
0.0
  0
VERTEX
  8
0
 10
6.808856114502
 20
0.72675
 42
0.0
  0
VERTEX
  8
0
 10
6.7796649523926
 20
0.72675
 42
0.0
  0
VERTEX
  8
0
 10
6.7643011828613
 20
0.7083134765625
 42
0.0
  0
VERTEX
  8
0
 10
6.7520101672363
 20
0.714458984375
 42
0.0
  0
VERTEX
  8
0
 10
6.6828732043457
 20
0.7083134765625
 42
-0.0614303624241
  0
VERTEX
  8
0
 10
6.6690458117676
 20
0.7129226074219
 42
0.0766689898437
  0
VERTEX
  8
0
 10
6.6567547961426
 20
0.7175317382813
 42
0.0
  0
VERTEX
  8
0
 10
6.6475365344238
 20
0.7129226074219
 42
0.0
  0
VERTEX
  8
0
 10
6.6506092883301
 20
0.72675
 42
0.0
  0
VERTEX
  8
0
 10
6.6229545031738
 20
0.72675
 42
0.0
  0
VERTEX
  8
0
 10
6.563035802002
 20
0.7451865234375
 42
0.0
  0
VERTEX
  8
0
 10
6.563035802002
 20
0.7544047851563
 42
0.0
  0
VERTEX
  8
0
 10
6.5845450793457
 20
0.7605502929688
 42
-0.2359902660549
  0
VERTEX
  8
0
 10
6.5783995715332
 20
0.7666958007813
 42
0.0
  0
VERTEX
  8
0
 10
6.5445992785645
 20
0.763623046875
 42
-0.1736293308794
  0
VERTEX
  8
0
 10
6.5184808703613
 20
0.7789868164063
 42
-0.1128444580584
  0
VERTEX
  8
0
 10
6.5031171008301
 20
0.8020324707031
 42
0.0
  0
VERTEX
  8
0
 10
6.5031171008301
 20
0.8081779785156
 42
0.0
  0
VERTEX
  8
0
 10
6.5246263781738
 20
0.8081779785156
 42
0.0
  0
VERTEX
  8
0
 10
6.5154081164551
 20
0.8235417480469
 42
0.0
  0
VERTEX
  8
0
 10
6.4846805773926
 20
0.8204689941406
 42
-0.1154164602737
  0
VERTEX
  8
0
 10
6.4708531848145
 20
0.8650239257813
 42
-0.0873861197534
  0
VERTEX
  8
0
 10
6.4754623156738
 20
0.8957514648438
 42
0.0
  0
VERTEX
  8
0
 10
6.4585621691895
 20
0.8926787109375
 42
0.0
  0
VERTEX
  8
0
 10
6.4585621691895
 20
0.9065061035156
 42
0.0
  0
VERTEX
  8
0
 10
6.4708531848145
 20
0.9018969726563
 42
0.0
  0
VERTEX
  8
0
 10
6.4754623156738
 20
0.9187971191406
 42
0.0
  0
VERTEX
  8
0
 10
6.4462711535645
 20
0.9157243652344
 42
0.0
  0
VERTEX
  8
0
 10
6.4462711535645
 20
0.9187971191406
 42
-0.3242375524211
  0
VERTEX
  8
0
 10
6.4616349230957
 20
0.9372336425781
 42
0.0
  0
VERTEX
  8
0
 10
6.464707677002
 20
0.9556701660156
 42
0.185189085332
  0
SEQEND
  0
POLYLINE
  8
0
 66
     1
 10
0.0
 20
0.0
 30
0.0
 70
     1
  0
VERTEX
  8
0
 10
6.9025751086426
 20
1.5195205078125
 42
0.0
  0
VERTEX
  8
0
 10
6.9025751086426
 20
1.513375
 42
0.1272305076708
  0
VERTEX
  8
0
 10
6.8718475695801
 20
1.4934020996094
 42
0.0348902130534
  0
VERTEX
  8
0
 10
7.066967442627
 20
1.5441025390625
 42
0.0453260503405
  0
VERTEX
  8
0
 10
7.1827434065028
 20
1.5942640979211
 42
0.0744975488819
  0
VERTEX
  8
0
 10
7.2835965930176
 20
1.6700854492188
 42
0.0
  0
VERTEX
  8
0
 10
7.2897421008301
 20
1.6700854492188
 42
0.0873021872376
  0
VERTEX
  8
0
 10
7.3734020544998
 20
1.7699404341765
 42
0.1292619764522
  0
VERTEX
  8
0
 10
7.4065067492676
 20
1.8959328613281
 42
0.1060950905213
  0
VERTEX
  8
0
 10
7.3834610949707
 20
1.9666062011719
 42
0.0389508058837
  0
VERTEX
  8
0
 10
7.3513225298169
 20
1.9884767863247
 42
0.120758682828
  0
VERTEX
  8
0
 10
7.3143241320801
 20
2.0004064941406
 42
0.2674867806437
  0
VERTEX
  8
0
 10
7.2805238391113
 20
1.9819699707031
 42
0.0
  0
VERTEX
  8
0
 10
7.251332677002
 20
1.9819699707031
 42
0.1804444990126
  0
VERTEX
  8
0
 10
7.2620873156738
 20
1.9666062011719
 42
0.0
  0
VERTEX
  8
0
 10
7.2743783312988
 20
1.9727517089844
 42
0.0
  0
VERTEX
  8
0
 10
7.2805238391113
 20
1.9666062011719
 42
-0.013310264838
  0
VERTEX
  8
0
 10
7.1821957141113
 20
1.9036147460938
 42
-0.1551111457494
  0
VERTEX
  8
0
 10
7.1661570567574
 20
1.8778099868126
 42
-0.0442609776007
  0
VERTEX
  8
0
 10
7.1422499133301
 20
1.8590598144531
 42
0.0
  0
VERTEX
  8
0
 10
7.1422499133301
 20
1.8498415527344
 42
0.0
  0
VERTEX
  8
0
 10
7.0976949816895
 20
1.8267958984375
 42
0.0
  0
VERTEX
  8
0
 10
7.0976949816895
 20
1.8175776367188
 42
0.0
  0
VERTEX
  8
0
 10
7.1222770129395
 20
1.8175776367188
 42
0.0
  0
VERTEX
  8
0
 10
7.1192042590332
 20
1.8114321289063
 42
0.0
  0
VERTEX
  8
0
 10
7.0946222277832
 20
1.8114321289063
 42
0.0
  0
VERTEX
  8
0
 10
7.0823312121582
 20
1.8022138671875
 42
0.0
  0
VERTEX
  8
0
 10
7.0823312121582
 20
1.7929956054688
 42
0.0
  0
VERTEX
  8
0
 10
7.0592855578613
 20
1.7868500976563
 42
0.0
  0
VERTEX
  8
0
 10
7.0592855578613
 20
1.7807045898438
 42
0.0
  0
VERTEX
  8
0
 10
7.0500672961426
 20
1.771486328125
 42
0.0
  0
VERTEX
  8
0
 10
7.0377762805176
 20
1.771486328125
 42
0.0
  0
VERTEX
  8
0
 10
7.0316307727051
 20
1.7684135742188
 42
0.0
  0
VERTEX
  8
0
 10
7.0316307727051
 20
1.7607316894531
 42
0.3545587327817
  0
VERTEX
  8
0
 10
7.0423974531058
 20
1.7475404666894
 42
0.0770938889687
  0
VERTEX
  8
0
 10
7.0592855578613
 20
1.7453679199219
 42
0.1058049806313
  0
VERTEX
  8
0
 10
7.0377762805176
 20
1.7300041503906
 42
0.0
  0
VERTEX
  8
0
 10
7.0285580187988
 20
1.7300041503906
 42
0.0963798127993
  0
VERTEX
  8
0
 10
7.0009032336426
 20
1.7084948730469
 42
-0.0073067601955
  0
VERTEX
  8
0
 10
6.9870758410645
 20
1.697740234375
 42
0.0
  0
VERTEX
  8
0
 10
6.980930333252
 20
1.6608671875
 42
0.0
  0
VERTEX
  8
0
 10
6.9747848254395
 20
1.6608671875
 42
0.0
  0
VERTEX
  8
0
 10
6.9747848254395
 20
1.6455034179688
 42
0.0
  0
VERTEX
  8
0
 10
6.9624938098145
 20
1.6455034179688
 42
0.0075031215825
  0
VERTEX
  8
0
 10
6.9271571398926
 20
1.5978757324219
 42
0.0
  0
VERTEX
  8
0
 10
6.9379117785645
 20
1.5978757324219
 42
0.0
  0
VERTEX
  8
0
 10
6.9409845324707
 20
1.6101667480469
 42
0.0
  0
VERTEX
  8
0
 10
6.956348302002
 20
1.6101667480469
 42
0.0
  0
VERTEX
  8
0
 10
6.9409845324707
 20
1.5948029785156
 42
0.0
  0
VERTEX
  8
0
 10
6.9240843859863
 20
1.5917302246094
 42
0.0
  0
VERTEX
  8
0
 10
6.9240843859863
 20
1.5794392089844
 42
0.1499126620228
  0
VERTEX
  8
0
 10
6.8718475695801
 20
1.5625390625
 42
0.0
  0
VERTEX
  8
0
 10
6.8718475695801
 20
1.5533208007813
 42
0.0
  0
VERTEX
  8
0
 10
6.8810658312988
 20
1.5533208007813
 42
0.0
  0
VERTEX
  8
0
 10
6.8872113391113
 20
1.5594663085938
 42
0.0
  0
VERTEX
  8
0
 10
6.9148661242676
 20
1.5594663085938
 42
0.0
  0
VERTEX
  8
0
 10
6.9148661242676
 20
1.5533208007813
 42
0.0
  0
VERTEX
  8
0
 10
6.9087206164551
 20
1.5441025390625
 42
0.0
  0
VERTEX
  8
0
 10
6.8933568469238
 20
1.5441025390625
 42
0.0
  0
VERTEX
  8
0
 10
6.8933568469238
 20
1.5195205078125
 42
0.0
  0
SEQEND
  0
POLYLINE
  8
0
 66
     1
 10
0.0
 20
0.0
 30
0.0
 70
     1
  0
VERTEX
  8
0
 10
7.9411736108398
 20
1.1661538085938
 42
0.0
  0
VERTEX
  8
0
 10
7.9503918725586
 20
1.1661538085938
 42
0.0
  0
VERTEX
  8
0
 10
8.0886657983398
 20
1.3136459960938
 42
-0.0599019903589
  0
VERTEX
  8
0
 10
8.127075222168
 20
1.3520554199219
 42
0.0
  0
VERTEX
  8
0
 10
8.1992849389648
 20
1.4119741210938
 42
0.0
  0
VERTEX
  8
0
 10
8.3221950952148
 20
1.5348842773438
 42
-0.0628172095781
  0
VERTEX
  8
0
 10
8.3529226342773
 20
1.5625390625
 42
0.1148829179079
  0
VERTEX
  8
0
 10
8.3990139428711
 20
1.611703125
 42
0.0322156861329
  0
VERTEX
  8
0
 10
8.4189868432617
 20
1.7315405273438
 42
0.0334051317914
  0
VERTEX
  8
0
 10
8.4328142358398
 20
1.9143693847656
 42
0.0868350242613
  0
VERTEX
  8
0
 10
8.4233403634437
 20
1.9758530756428
 42
0.1670853911874
  0
VERTEX
  8
0
 10
8.385186550293
 20
2.0249885253906
 42
0.083750281864
  0
VERTEX
  8
0
 10
8.2837904797034
 20
1.9759645581625
 42
0.0376300991309
  0
VERTEX
  8
0
 10
8.1962121850586
 20
1.9051511230469
 42
0.0127358949636
  0
VERTEX
  8
0
 10
8.1009568139648
 20
1.820650390625
 42
0.0
  0
VERTEX
  8
0
 10
8.0825202905273
 20
1.8237231445313
 42
0.0
  0
VERTEX
  8
0
 10
8.0671565209961
 20
1.808359375
 42
0.0
  0
VERTEX
  8
0
 10
8.0579382592773
 20
1.808359375
 42
0.0
  0
VERTEX
  8
0
 10
8.0502563745117
 20
1.8114321289063
 42
-0.1008511223557
  0
VERTEX
  8
0
 10
8.0855930444336
 20
1.8682780761719
 42
0.0
  0
VERTEX
  8
0
 10
8.1040295678711
 20
1.8897873535156
 42
-0.0720721641443
  0
VERTEX
  8
0
 10
8.1900666772461
 20
1.9650698242188
 42
0.0118843135835
  0
VERTEX
  8
0
 10
8.2238669702148
 20
1.9865791015625
 42
0.0
  0
VERTEX
  8
0
 10
8.2807129174805
 20
2.0219157714844
 42
0.0292229959454
  0
VERTEX
  8
0
 10
8.3652136499023
 20
2.0818344726563
 42
-0.0438831040198
  0
VERTEX
  8
0
 10
8.5034288122438
 20
2.1714660686787
 42
-0.1158036722167
  0
VERTEX
  8
0
 10
8.6617344018555
 20
2.2170356445313
 42
-0.096168919984
  0
VERTEX
  8
0
 10
8.7124348413086
 20
2.2047446289063
 42
-0.1819642840955
  0
VERTEX
  8
0
 10
8.7585261499023
 20
2.0633979492188
 42
-0.0614419166301
  0
VERTEX
  8
0
 10
8.7554533959961
 20
2.0372795410156
 42
0.0291850419575
  0
VERTEX
  8
0
 10
8.7370168725586
 20
1.9558515625
 42
0.0
  0
VERTEX
  8
0
 10
8.7400896264648
 20
1.9020783691406
 42
-0.1267554640782
  0
VERTEX
  8
0
 10
8.7308713647461
 20
1.8836418457031
 42
0.1522983607403
  0
VERTEX
  8
0
 10
8.7216531030273
 20
1.8621325683594
 42
-0.0900397917992
  0
VERTEX
  8
0
 10
8.7277986108398
 20
1.8513779296875
 42
0.0605861291325
  0
VERTEX
  8
0
 10
8.7938628198242
 20
1.8959328613281
 42
0.1027970746851
  0
VERTEX
  8
0
 10
8.8414905053711
 20
1.9174421386719
 42
0.0009802017911
  0
VERTEX
  8
0
 10
9.0888471948242
 20
2.0971982421875
 42
0.0
  0
VERTEX
  8
0
 10
9.220975612793
 20
2.1724807128906
 42
0.0
  0
VERTEX
  8
0
 10
9.2686032983398
 20
2.2047446289063
 42
0.0
  0
VERTEX
  8
0
 10
9.356176784668
 20
2.2431540527344
 42
-0.0215360093435
  0
VERTEX
  8
0
 10
9.4160954858398
 20
2.2585178222656
 42
-0.0457230786464
  0
VERTEX
  8
0
 10
9.4852324487305
 20
2.2370085449219
 42
0.0
  0
VERTEX
  8
0
 10
9.4959870874023
 20
2.22625390625
 42
-0.1817096225099
  0
VERTEX
  8
0
 10
9.4760141870117
 20
2.1832353515625
 42
0.0
  0
VERTEX
  8
0
 10
9.4698686791992
 20
2.1863081054688
 42
0.0
  0
VERTEX
  8
0
 10
9.4637231713867
 20
2.1863081054688
 42
0.0
  0
VERTEX
  8
0
 10
9.4637231713867
 20
2.17708984375
 42
0.0726452130948
  0
VERTEX
  8
0
 10
9.4283865014648
 20
2.1632624511719
 42
0.0
  0
VERTEX
  8
0
 10
9.4099499780273
 20
2.1478986816406
 42
-0.0429004435927
  0
VERTEX
  8
0
 10
9.3623222924805
 20
2.1233166503906
 42
0.0699331809747
  0
VERTEX
  8
0
 10
9.3039399682617
 20
2.0879799804688
 42
0.0
  0
VERTEX
  8
0
 10
9.2501667749023
 20
2.0480341796875
 42
-0.0069801515717
  0
VERTEX
  8
0
 10
9.2025390893555
 20
2.0188430175781
 42
0.0654893022925
  0
VERTEX
  8
0
 10
9.1687387963867
 20
1.9942609863281
 42
-0.2458306022792
  0
VERTEX
  8
0
 10
9.1426203881836
 20
1.9850427246094
 42
-0.060045158323
  0
VERTEX
  8
0
 10
9.0581196557617
 20
1.9251240234375
 42
0.0
  0
VERTEX
  8
0
 10
9.0581196557617
 20
1.9159057617188
 42
0.0301185304493
  0
VERTEX
  8
0
 10
8.9736189233398
 20
1.8682780761719
 42
0.0077275781541
  0
VERTEX
  8
0
 10
8.8629997827148
 20
1.7868500976563
 42
0.0279049381829
  0
VERTEX
  8
0
 10
8.8184448510742
 20
1.7545861816406
 42
0.0
  0
VERTEX
  8
0
 10
8.7877173120117
 20
1.7300041503906
 42
0.0
  0
VERTEX
  8
0
 10
8.7462351342773
 20
1.697740234375
 42
0.0
  0
VERTEX
  8
0
 10
8.7216531030273
 20
1.6762309570313
 42
0.1058799415383
  0
VERTEX
  8
0
 10
8.7185803491211
 20
1.6577944335938
 42
0.0831189940464
  0
VERTEX
  8
0
 10
8.7155075952148
 20
1.6193850097656
 42
0.0782182706359
  0
VERTEX
  8
0
 10
8.7093620874023
 20
1.5625390625
 42
-0.1695479407125
  0
VERTEX
  8
0
 10
8.6909255639648
 20
1.5318115234375
 42
0.1179892877107
  0
VERTEX
  8
0
 10
8.6986074487305
 20
1.4995476074219
 42
-0.0796937789507
  0
VERTEX
  8
0
 10
8.7093620874023
 20
1.4626745605469
 42
0.0
  0
VERTEX
  8
0
 10
8.6847800561523
 20
1.4488471679688
 42
0.0
  0
VERTEX
  8
0
 10
8.6832436791992
 20
1.4365561523438
 42
-0.059841338281
  0
VERTEX
  8
0
 10
8.7014800747269
 20
1.4265718757184
 42
-0.2354397447674
  0
VERTEX
  8
0
 10
8.7124348413086
 20
1.4089013671875
 42
-0.1844768617007
  0
VERTEX
  8
0
 10
8.6909255639648
 20
1.3582009277344
 42
0.0
  0
VERTEX
  8
0
 10
8.6878528100586
 20
1.3612736816406
 42
0.0
  0
VERTEX
  8
0
 10
8.6817073022461
 20
1.3612736816406
 42
0.0899941257978
  0
VERTEX
  8
0
 10
8.6724890405273
 20
1.3274733886719
 42
0.0736957645684
  0
VERTEX
  8
0
 10
8.6755617944336
 20
1.3013549804688
 42
0.0
  0
VERTEX
  8
0
 10
8.6878528100586
 20
1.2982822265625
 42
0.0
  0
VERTEX
  8
0
 10
8.6878528100586
 20
1.3136459960938
 42
0.0
  0
VERTEX
  8
0
 10
8.6770981713867
 20
1.3197915039063
 42
0.0
  0
VERTEX
  8
0
 10
8.6770981713867
 20
1.3305461425781
 42
0.0
  0
VERTEX
  8
0
 10
8.6878528100586
 20
1.3397644042969
 42
0.0
  0
VERTEX
  8
0
 10
8.7185803491211
 20
1.3397644042969
 42
0.0
  0
VERTEX
  8
0
 10
8.7185803491211
 20
1.3244006347656
 42
0.0
  0
VERTEX
  8
0
 10
8.7062893334961
 20
1.3197915039063
 42
0.0
  0
VERTEX
  8
0
 10
8.7032165795898
 20
1.31671875
 42
0.0242358010995
  0
VERTEX
  8
0
 10
8.7155075952148
 20
1.279845703125
 42
0.0
  0
VERTEX
  8
0
 10
8.7001438256836
 20
1.2583364257813
 42
0.0
  0
VERTEX
  8
0
 10
8.7124348413086
 20
1.2168542480469
 42
0.0
  0
VERTEX
  8
0
 10
8.680170925293
 20
1.2260725097656
 42
-0.1824223896288
  0
VERTEX
  8
0
 10
8.6909255639648
 20
1.2014904785156
 42
-0.0353822801583
  0
VERTEX
  8
0
 10
8.6770981713867
 20
1.1722993164063
 42
0.3584492236829
  0
VERTEX
  8
0
 10
8.6909255639648
 20
1.1630810546875
 42
0.1267554640782
  0
VERTEX
  8
0
 10
8.7093620874023
 20
1.1722993164063
 42
0.0
  0
VERTEX
  8
0
 10
8.7093620874023
 20
1.181517578125
 42
0.0
  0
VERTEX
  8
0
 10
8.7185803491211
 20
1.181517578125
 42
0.0
  0
VERTEX
  8
0
 10
8.7185803491211
 20
1.1753720703125
 42
0.0
  0
VERTEX
  8
0
 10
8.7339441186523
 20
1.1753720703125
 42
0.0494814430836
  0
VERTEX
  8
0
 10
8.7308713647461
 20
1.14464453125
 42
-0.0547887039815
  0
VERTEX
  8
0
 10
8.7277986108398
 20
1.1154533691406
 42
0.0660346940434
  0
VERTEX
  8
0
 10
8.7155075952148
 20
1.0724348144531
 42
0.0964474860749
  0
VERTEX
  8
0
 10
8.7185803491211
 20
1.0632165527344
 42
0.0
  0
VERTEX
  8
0
 10
8.7247258569336
 20
1.0570710449219
 42
-0.2437265370652
  0
VERTEX
  8
0
 10
8.7431623803711
 20
1.034025390625
 42
0.0
  0
VERTEX
  8
0
 10
8.7493078881836
 20
1.034025390625
 42
0.0
  0
VERTEX
  8
0
 10
8.7569897729492
 20
1.0493891601563
 42
0.0
  0
VERTEX
  8
0
 10
8.7600625268555
 20
1.021734375
 42
-0.2008654894705
  0
VERTEX
  8
0
 10
8.7846445581055
 20
0.9710339355469
 42
0.0356289875357
  0
VERTEX
  8
0
 10
8.8261267358398
 20
0.9648884277344
 42
0.0928202429901
  0
VERTEX
  8
0
 10
8.8800828524982
 20
0.980499767903
 42
0.038831994972
  0
VERTEX
  8
0
 10
9.024319362793
 20
1.0662893066406
 42
0.0
  0
VERTEX
  8
0
 10
9.1810298120117
 20
1.1722993164063
 42
0.0
  0
VERTEX
  8
0
 10
9.1902480737305
 20
1.1661538085938
 42
0.0
  0
VERTEX
  8
0
 10
9.1994663354492
 20
1.1692265625
 42
-0.3072333483702
  0
VERTEX
  8
0
 10
9.1687387963867
 20
1.1354262695313
 42
0.0
  0
VERTEX
  8
0
 10
9.1687387963867
 20
1.1477172851563
 42
0.0
  0
VERTEX
  8
0
 10
9.1426203881836
 20
1.1384990234375
 42
0.0
  0
VERTEX
  8
0
 10
9.1426203881836
 20
1.1262080078125
 42
-0.192067184468
  0
VERTEX
  8
0
 10
9.1272566186523
 20
1.0970168457031
 42
0.1175278773146
  0
VERTEX
  8
0
 10
9.1149656030273
 20
1.1000895996094
 42
0.3782101861112
  0
VERTEX
  8
0
 10
9.0873108178711
 20
1.0693620605469
 42
0.0
  0
VERTEX
  8
0
 10
9.073483425293
 20
1.0693620605469
 42
0.0
  0
VERTEX
  8
0
 10
9.073483425293
 20
1.0601437988281
 42
0.0
  0
VERTEX
  8
0
 10
9.0550469018555
 20
1.0432436523438
 42
0.0
  0
VERTEX
  8
0
 10
9.0519741479492
 20
1.0493891601563
 42
0.0
  0
VERTEX
  8
0
 10
9.0304648706055
 20
1.0432436523438
 42
0.0
  0
VERTEX
  8
0
 10
9.0273921166992
 20
1.0155888671875
 42
-0.0056087534095
  0
VERTEX
  8
0
 10
8.9982009545898
 20
1.009443359375
 42
0.0
  0
VERTEX
  8
0
 10
8.9736189233398
 20
0.9833249511719
 42
0.0
  0
VERTEX
  8
0
 10
8.9167729760742
 20
0.9433791503906
 42
0.1115258325558
  0
VERTEX
  8
0
 10
8.8956622962293
 20
0.9277824602358
 42
0.0226830388208
  0
VERTEX
  8
0
 10
8.8783635522461
 20
0.9080424804688
 42
0.0
  0
VERTEX
  8
0
 10
8.8691452905273
 20
0.9080424804688
 42
0.0
  0
VERTEX
  8
0
 10
8.8384177514648
 20
0.8803876953125
 42
-0.0642477152661
  0
VERTEX
  8
0
 10
8.7692807885742
 20
0.8327600097656
 42
-0.1964382030327
  0
VERTEX
  8
0
 10
8.7247258569336
 20
0.8051052246094
 42
-0.2166265160782
  0
VERTEX
  8
0
 10
8.6832436791992
 20
0.7851323242188
 42
-0.1636105186556
  0
VERTEX
  8
0
 10
8.6589269634098
 20
0.7618865794199
 42
-0.0455846328649
  0
VERTEX
  8
0
 10
8.5664790307617
 20
0.7236772460938
 42
0.0
  0
VERTEX
  8
0
 10
8.5603335229492
 20
0.7298227539063
 42
0.0
  0
VERTEX
  8
0
 10
8.5388242456055
 20
0.72675
 42
0.0
  0
VERTEX
  8
0
 10
8.532678737793
 20
0.7328955078125
 42
-0.1849057275011
  0
VERTEX
  8
0
 10
8.4819782983398
 20
0.75133203125
 42
0.0
  0
VERTEX
  8
0
 10
8.4881238061523
 20
0.7697685546875
 42
0.0
  0
VERTEX
  8
0
 10
8.4666145288086
 20
0.7789868164063
 42
0.0
  0
VERTEX
  8
0
 10
8.4635417749023
 20
0.8081779785156
 42
0.0
  0
VERTEX
  8
0
 10
8.4481780053711
 20
0.8081779785156
 42
0.0877318105112
  0
VERTEX
  8
0
 10
8.4451052514648
 20
0.8342963867188
 42
0.1175278773146
  0
VERTEX
  8
0
 10
8.4404961206055
 20
0.8419782714844
 42
0.0
  0
VERTEX
  8
0
 10
8.4404961206055
 20
0.8511965332031
 42
0.2781988828396
  0
VERTEX
  8
0
 10
8.4312778588867
 20
0.8588784179688
 42
0.0
  0
VERTEX
  8
0
 10
8.434350612793
 20
0.8650239257813
 42
-0.133791843323
  0
VERTEX
  8
0
 10
8.4251323510742
 20
0.8880695800781
 42
0.0972714675502
  0
VERTEX
  8
0
 10
8.4159140893555
 20
0.9141879882813
 42
-0.0538576882687
  0
VERTEX
  8
0
 10
8.4036230737305
 20
0.9771794433594
 42
0.0295012049095
  0
VERTEX
  8
0
 10
8.397477565918
 20
1.0002250976563
 42
0.0
  0
VERTEX
  8
0
 10
8.3944048120117
 20
1.0278798828125
 42
0.0
  0
VERTEX
  8
0
 10
8.3805774194336
 20
1.1845903320313
 42
0.0
  0
VERTEX
  8
0
 10
8.385186550293
 20
1.2014904785156
 42
0.1021916019907
  0
VERTEX
  8
0
 10
8.3744319116211
 20
1.2352907714844
 42
-0.1980902600012
  0
VERTEX
  8
0
 10
8.3713591577148
 20
1.2445090332031
 42
-0.0627322508263
  0
VERTEX
  8
0
 10
8.3744319116211
 20
1.2614091796875
 42
0.0251694858392
  0
VERTEX
  8
0
 10
8.3821137963867
 20
1.2890639648438
 42
0.0
  0
VERTEX
  8
0
 10
8.3775046655273
 20
1.3704919433594
 42
0.0962775260111
  0
VERTEX
  8
0
 10
8.385186550293
 20
1.3935375976563
 42
0.0
  0
VERTEX
  8
0
 10
8.3775046655273
 20
1.3996831054688
 42
0.0
  0
VERTEX
  8
0
 10
8.3652136499023
 20
1.3996831054688
 42
0.0
  0
VERTEX
  8
0
 10
8.3652136499023
 20
1.39046484375
 42
0.3087868248004
  0
VERTEX
  8
0
 10
8.3314133569336
 20
1.3489826660156
 42
0.0733138549686
  0
VERTEX
  8
0
 10
8.305297614885
 20
1.341339139679
 42
0.2167415977212
  0
VERTEX
  8
0
 10
8.286858425293
 20
1.3213278808594
 42
0.0
  0
VERTEX
  8
0
 10
8.2592036401367
 20
1.2952094726563
 42
0.0
  0
VERTEX
  8
0
 10
8.2453762475586
 20
1.2952094726563
 42
0.0
  0
VERTEX
  8
0
 10
8.2392307397461
 20
1.2675546875
 42
0.2725512090818
  0
VERTEX
  8
0
 10
8.2023576928711
 20
1.2383635253906
 42
-0.1295866577292
  0
VERTEX
  8
0
 10
8.176239284668
 20
1.2137814941406
 42
0.0434132106613
  0
VERTEX
  8
0
 10
8.0855930444336
 20
1.0693620605469
 42
0.0
  0
VERTEX
  8
0
 10
8.0610110131836
 20
1.0370981445313
 42
-0.1086893787043
  0
VERTEX
  8
0
 10
8.0702292749023
 20
1.0248071289063
 42
0.0
  0
VERTEX
  8
0
 10
8.0702292749023
 20
1.009443359375
 42
0.1696406736034
  0
VERTEX
  8
0
 10
8.0441108666992
 20
0.9940795898438
 42
-0.1705000051125
  0
VERTEX
  8
0
 10
8.0548655053711
 20
0.9648884277344
 42
-0.0521895758998
  0
VERTEX
  8
0
 10
8.0226015893555
 20
0.9172607421875
 42
0.069624352613
  0
VERTEX
  8
0
 10
8.0057014428711
 20
0.8880695800781
 42
-0.0662072124455
  0
VERTEX
  8
0
 10
7.9780466577148
 20
0.8511965332031
 42
0.0322894391146
  0
VERTEX
  8
0
 10
7.9319553491211
 20
0.7989597167969
 42
-0.030132663299
  0
VERTEX
  8
0
 10
7.8529412725763
 20
0.7132279404977
 42
-0.0397881208352
  0
VERTEX
  8
0
 10
7.8072009145901
 20
0.6759353440135
 42
-0.1391591877457
  0
VERTEX
  8
0
 10
7.7521992456055
 20
0.6545402832031
 42
-0.0759736629268
  0
VERTEX
  8
0
 10
7.7368354760742
 20
0.6576130371094
 42
-0.0899693839778
  0
VERTEX
  8
0
 10
7.6939032534468
 20
0.6875966231988
 42
-0.1964755154118
  0
VERTEX
  8
0
 10
7.6738440209961
 20
0.7359682617188
 42
-0.0838744831721
  0
VERTEX
  8
0
 10
7.691270488522
 20
0.8065618292478
 42
-0.0238308775603
  0
VERTEX
  8
0
 10
7.721471706543
 20
0.8727058105469
 42
-0.066676672558
  0
VERTEX
  8
0
 10
7.8167270776367
 20
1.0232707519531
 42
0.0040281460251
  0
SEQEND
  0
POLYLINE
  8
0
 66
     1
 10
0.0
 20
0.0
 30
0.0
 70
     1
  0
VERTEX
  8
0
 10
9.3548247729492
 20
1.0662893066406
 42
0.0
  0
VERTEX
  8
0
 10
9.376334050293
 20
1.0816530761719
 42
0.0
  0
VERTEX
  8
0
 10
9.364043034668
 20
1.0908713378906
 42
0.0
  0
VERTEX
  8
0
 10
9.3671157885742
 20
1.1354262695313
 42
0.0809645102404
  0
VERTEX
  8
0
 10
9.3701885424805
 20
1.1538627929688
 42
0.0083307733082
  0
VERTEX
  8
0
 10
9.4116707202148
 20
1.2952094726563
 42
0.0
  0
VERTEX
  8
0
 10
9.4178162280273
 20
1.3182551269531
 42
0.130122553798
  0
VERTEX
  8
0
 10
9.4331799975586
 20
1.3520554199219
 42
0.0
  0
VERTEX
  8
0
 10
9.4393255053711
 20
1.3674191894531
 42
0.0086543198302
  0
VERTEX
  8
0
 10
9.4546892749023
 20
1.402755859375
 42
0.0
  0
VERTEX
  8
0
 10
9.462371159668
 20
1.4119741210938
 42
-0.0584600901731
  0
VERTEX
  8
0
 10
9.4961714526367
 20
1.4780383300781
 42
0.0188992627551
  0
VERTEX
  8
0
 10
9.511535222168
 20
1.5056931152344
 42
0.0
  0
VERTEX
  8
0
 10
9.5315081225586
 20
1.5410297851563
 42
-0.0317434219142
  0
VERTEX
  8
0
 10
9.5468718920898
 20
1.5732937011719
 42
0.0
  0
VERTEX
  8
0
 10
9.5560901538086
 20
1.5732937011719
 42
-0.0613377129857
  0
VERTEX
  8
0
 10
9.5806721850586
 20
1.6132395019531
 42
0.0160999126466
  0
VERTEX
  8
0
 10
9.6190816088867
 20
1.6670126953125
 42
0.0
  0
VERTEX
  8
0
 10
9.622154362793
 20
1.6762309570313
 42
-0.0337340888609
  0
VERTEX
  8
0
 10
9.659027409668
 20
1.7238586425781
 42
-0.0051411369913
  0
VERTEX
  8
0
 10
9.7481372729492
 20
1.8237231445313
 42
0.0
  0
VERTEX
  8
0
 10
9.7757920581055
 20
1.8559870605469
 42
0.0
  0
VERTEX
  8
0
 10
9.7988377124023
 20
1.8713508300781
 42
0.0
  0
VERTEX
  8
0
 10
9.8142014819336
 20
1.8897873535156
 42
-0.0235022146828
  0
VERTEX
  8
0
 10
9.9332253833977
 20
1.9910160889016
 42
-0.0055764502815
  0
VERTEX
  8
0
 10
10.0569490405273
 20
2.0864436035156
 42
0.0238011035781
  0
VERTEX
  8
0
 10
10.2520689135742
 20
2.2216447753906
 42
0.0
  0
VERTEX
  8
0
 10
10.2705054370117
 20
2.2339357910156
 42
-0.1501748096605
  0
VERTEX
  8
0
 10
10.4364341479492
 20
2.2784907226563
 42
-0.0803904888435
  0
VERTEX
  8
0
 10
10.4779163256836
 20
2.2723452148438
 42
0.0
  0
VERTEX
  8
0
 10
10.4809890795898
 20
2.2615905761719
 42
-0.2941452120357
  0
VERTEX
  8
0
 10
10.6346267749023
 20
2.1525078125
 42
0.0
  0
VERTEX
  8
0
 10
10.642308659668
 20
2.1525078125
 42
0.0353935178636
  0
VERTEX
  8
0
 10
10.6515269213867
 20
2.1171711425781
 42
0.0
  0
VERTEX
  8
0
 10
10.6638179370117
 20
2.0925891113281
 42
-0.1626709226616
  0
VERTEX
  8
0
 10
10.6699634448242
 20
2.066470703125
 42
0.0
  0
VERTEX
  8
0
 10
10.6822544604492
 20
2.066470703125
 42
-0.0545171856792
  0
VERTEX
  8
0
 10
10.6699634448242
 20
2.0234521484375
 42
0.1133236316044
  0
VERTEX
  8
0
 10
10.6638179370117
 20
2.0065520019531
 42
0.0964474860749
  0
VERTEX
  8
0
 10
10.666890690918
 20
1.9973337402344
 42
0.0
  0
VERTEX
  8
0
 10
10.6761089526367
 20
1.9973337402344
 42
0.0
  0
VERTEX
  8
0
 10
10.679181706543
 20
1.9788972167969
 42
0.0
  0
VERTEX
  8
0
 10
10.6883999682617
 20
1.9788972167969
 42
-0.0377850781279
  0
VERTEX
  8
0
 10
10.6945454760742
 20
1.9466333007813
 42
0.0
  0
VERTEX
  8
0
 10
10.7513914233398
 20
1.943560546875
 42
-0.018740156245
  0
VERTEX
  8
0
 10
10.7145183764648
 20
1.8621325683594
 42
-0.0511278280338
  0
VERTEX
  8
0
 10
10.7006909838867
 20
1.8436960449219
 42
0.0
  0
VERTEX
  8
0
 10
10.6853272143555
 20
1.8237231445313
 42
0.1384636273668
  0
VERTEX
  8
0
 10
10.6730361987305
 20
1.8022138671875
 42
-0.138443070827
  0
VERTEX
  8
0
 10
10.6607451831055
 20
1.7807045898438
 42
0.0
  0
VERTEX
  8
0
 10
10.6376995288086
 20
1.7576589355469
 42
0.0759736629268
  0
VERTEX
  8
0
 10
10.6254085131836
 20
1.7392224121094
 42
0.0
  0
VERTEX
  8
0
 10
10.6131174975586
 20
1.7054221191406
 42
0.0
  0
VERTEX
  8
0
 10
10.6008264819336
 20
1.6823764648438
 42
0.0
  0
VERTEX
  8
0
 10
10.5946809741211
 20
1.6639399414063
 42
-0.1066257341512
  0
VERTEX
  8
0
 10
10.5793172045898
 20
1.6316760253906
 42
0.0
  0
VERTEX
  8
0
 10
10.5762444506836
 20
1.6040212402344
 42
0.0
  0
VERTEX
  8
0
 10
10.5501260424805
 20
1.5594663085938
 42
0.1175278773146
  0
VERTEX
  8
0
 10
10.5470532885742
 20
1.5471752929688
 42
0.0
  0
VERTEX
  8
0
 10
10.5409077807617
 20
1.525666015625
 42
-0.1068887888952
  0
VERTEX
  8
0
 10
10.531689519043
 20
1.5056931152344
 42
0.0
  0
VERTEX
  8
0
 10
10.5255440112305
 20
1.5103022460938
 42
0.0
  0
VERTEX
  8
0
 10
10.5163257495117
 20
1.5103022460938
 42
0.0
  0
VERTEX
  8
0
 10
10.5163257495117
 20
1.4995476074219
 42
0.0
  0
VERTEX
  8
0
 10
10.5286167651367
 20
1.4841838378906
 42
0.0095007280934
  0
VERTEX
  8
0
 10
10.5117166186523
 20
1.4380925292969
 42
-0.0767005360382
  0
VERTEX
  8
0
 10
10.4963528491211
 20
1.402755859375
 42
0.0227184862015
  0
VERTEX
  8
0
 10
10.4902073413086
 20
1.3643464355469
 42
0.0
  0
VERTEX
  8
0
 10
10.4779163256836
 20
1.3612736816406
 42
0.0
  0
VERTEX
  8
0
 10
10.4564070483398
 20
1.2706274414063
 42
0.0
  0
VERTEX
  8
0
 10
10.4395069018555
 20
1.2706274414063
 42
-0.1068929740376
  0
VERTEX
  8
0
 10
10.4502615405273
 20
1.2352907714844
 42
-0.0251723938044
  0
VERTEX
  8
0
 10
10.4425796557617
 20
1.2076359863281
 42
0.0
  0
VERTEX
  8
0
 10
10.4364341479492
 20
1.2076359863281
 42
0.0
  0
VERTEX
  8
0
 10
10.433361394043
 20
1.1630810546875
 42
0.0
  0
VERTEX
  8
0
 10
10.433361394043
 20
1.1477172851563
 42
0.0
  0
VERTEX
  8
0
 10
10.4364341479492
 20
1.1093078613281
 42
-0.0452700032386
  0
VERTEX
  8
0
 10
10.433361394043
 20
1.0847258300781
 42
0.0
  0
VERTEX
  8
0
 10
10.433361394043
 20
1.0693620605469
 42
0.1866278666492
  0
VERTEX
  8
0
 10
10.439860037303
 20
1.0323589781184
 42
0.2372185649135
  0
VERTEX
  8
0
 10
10.4748435717773
 20
1.0186616210938
 42
0.2070759180742
  0
VERTEX
  8
0
 10
10.5409077807617
 20
1.04631640625
 42
-0.0212073346871
  0
VERTEX
  8
0
 10
10.7114456225586
 20
1.2014904785156
 42
0.0140463868224
  0
VERTEX
  8
0
 10
10.8113101245117
 20
1.29213671875
 42
0.0086241780555
  0
VERTEX
  8
0
 10
10.8435740405273
 20
1.3151823730469
 42
0.0
  0
VERTEX
  8
0
 10
10.8358921557617
 20
1.2952094726563
 42
0.0
  0
VERTEX
  8
0
 10
10.8558650561523
 20
1.2952094726563
 42
-0.0624935557131
  0
VERTEX
  8
0
 10
10.7941221742977
 20
1.2204965774345
 42
-0.0130657058596
  0
VERTEX
  8
0
 10
10.7237366381836
 20
1.1538627929688
 42
0.0459021027729
  0
VERTEX
  8
0
 10
10.7006909838867
 20
1.1123806152344
 42
0.0
  0
VERTEX
  8
0
 10
10.691472722168
 20
1.1123806152344
 42
0.0
  0
VERTEX
  8
0
 10
10.691472722168
 20
1.0939440917969
 42
0.0456706745423
  0
VERTEX
  8
0
 10
10.6392359057617
 20
1.04631640625
 42
-0.0405447495795
  0
VERTEX
  8
0
 10
10.593144597168
 20
1.0032978515625
 42
0.0238708367737
  0
VERTEX
  8
0
 10
10.5624170581055
 20
0.9802521972656
 42
0.0
  0
VERTEX
  8
0
 10
10.5501260424805
 20
0.9679611816406
 42
-0.0551728033394
  0
VERTEX
  8
0
 10
10.519398503418
 20
0.9495246582031
 42
-0.2178477806126
  0
VERTEX
  8
0
 10
10.4963528491211
 20
0.92340625
 42
0.0
  0
VERTEX
  8
0
 10
10.4748435717773
 20
0.8957514648438
 42
0.0
  0
VERTEX
  8
0
 10
10.4594798022461
 20
0.8957514648438
 42
-0.327695256955
  0
VERTEX
  8
0
 10
10.4179976245117
 20
0.8573420410156
 42
-0.0080041525578
  0
VERTEX
  8
0
 10
10.396488347168
 20
0.8296872558594
 42
-0.1948529665131
  0
VERTEX
  8
0
 10
10.3642244311523
 20
0.8112507324219
 42
0.0
  0
VERTEX
  8
0
 10
10.3642244311523
 20
0.8051052246094
 42
0.0
  0
VERTEX
  8
0
 10
10.3580789233398
 20
0.8051052246094
 42
0.0
  0
VERTEX
  8
0
 10
10.3334968920898
 20
0.7820595703125
 42
-0.0448090962976
  0
VERTEX
  8
0
 10
10.2502945840305
 20
0.7426327473994
 42
-0.0853684548292
  0
VERTEX
  8
0
 10
10.1598862963867
 20
0.7252136230469
 42
-0.3044047124787
  0
VERTEX
  8
0
 10
10.101598467287
 20
0.7711172758789
 42
-0.0771257035839
  0
VERTEX
  8
0
 10
10.0771901651785
 20
0.8758734874142
 42
-0.0255575987576
  0
VERTEX
  8
0
 10
10.0723128100586
 20
0.9833249511719
 42
-0.0208201860338
  0
VERTEX
  8
0
 10
10.0753855639648
 20
1.0693620605469
 42
0.0
  0
VERTEX
  8
0
 10
10.0461944018555
 20
1.034025390625
 42
0.0
  0
VERTEX
  8
0
 10
10.0369761401367
 20
1.034025390625
 42
0.0
  0
VERTEX
  8
0
 10
10.0062486010742
 20
1.0032978515625
 42
0.0
  0
VERTEX
  8
0
 10
10.003175847168
 20
0.9833249511719
 42
0.2151260028106
  0
VERTEX
  8
0
 10
9.9586209155273
 20
0.9295517578125
 42
0.0
  0
VERTEX
  8
0
 10
9.9463298999023
 20
0.9433791503906
 42
0.0
  0
VERTEX
  8
0
 10
9.9248206225586
 20
0.9141879882813
 42
0.0
  0
VERTEX
  8
0
 10
9.9017749682617
 20
0.911115234375
 42
-0.1980902600012
  0
VERTEX
  8
0
 10
9.8956294604492
 20
0.89882421875
 42
0.0
  0
VERTEX
  8
0
 10
9.8741201831055
 20
0.8634875488281
 42
0.1981453252904
  0
VERTEX
  8
0
 10
9.8710474291992
 20
0.8573420410156
 42
0.0
  0
VERTEX
  8
0
 10
9.855683659668
 20
0.8542692871094
 42
0.0906449896055
  0
VERTEX
  8
0
 10
9.8080559741211
 20
0.8143234863281
 42
0.0
  0
VERTEX
  8
0
 10
9.8019104663086
 20
0.8143234863281
 42
-0.1726839615999
  0
VERTEX
  8
0
 10
9.7358462573242
 20
0.7759140625
 42
0.0
  0
VERTEX
  8
0
 10
9.7358462573242
 20
0.75133203125
 42
-0.0703219038554
  0
VERTEX
  8
0
 10
9.6605637866211
 20
0.7159953613281
 42
-0.2933817540513
  0
VERTEX
  8
0
 10
9.6037178393555
 20
0.6852678222656
 42
-0.0964474860749
  0
VERTEX
  8
0
 10
9.5944995776367
 20
0.6883405761719
 42
0.0
  0
VERTEX
  8
0
 10
9.5868176928711
 20
0.6821950683594
 42
0.0
  0
VERTEX
  8
0
 10
9.5775994311523
 20
0.6821950683594
 42
0.0
  0
VERTEX
  8
0
 10
9.5714539233398
 20
0.6883405761719
 42
0.0
  0
VERTEX
  8
0
 10
9.5653084155273
 20
0.6883405761719
 42
-0.2789934497909
  0
VERTEX
  8
0
 10
9.5345808764648
 20
0.6729768066406
 42
-0.2425510103268
  0
VERTEX
  8
0
 10
9.4285708666992
 20
0.7236772460938
 42
-0.1115787961629
  0
VERTEX
  8
0
 10
9.376334050293
 20
0.8235417480469
 42
0.0
  0
VERTEX
  8
0
 10
9.3916978198242
 20
0.8296872558594
 42
0.0
  0
VERTEX
  8
0
 10
9.3916978198242
 20
0.8450510253906
 42
0.0
  0
VERTEX
  8
0
 10
9.3824795581055
 20
0.8511965332031
 42
0.0
  0
VERTEX
  8
0
 10
9.3824795581055
 20
0.8634875488281
 42
0.0
  0
VERTEX
  8
0
 10
9.3701885424805
 20
0.8711694335938
 42
0.0
  0
VERTEX
  8
0
 10
9.3701885424805
 20
0.8773149414063
 42
0.0
  0
VERTEX
  8
0
 10
9.3609702807617
 20
0.8773149414063
 42
-0.0525241267622
  0
VERTEX
  8
0
 10
9.3548247729492
 20
0.9141879882813
 42
-0.2011784048914
  0
VERTEX
  8
0
 10
9.3701885424805
 20
0.9403063964844
 42
0.0
  0
VERTEX
  8
0
 10
9.3701885424805
 20
0.9940795898438
 42
0.0
  0
VERTEX
  8
0
 10
9.3548247729492
 20
0.9940795898438
 42
0.0
  0
SEQEND
  0
POLYLINE
  8
0
 66
     1
 10
0.0
 20
0.0
 30
0.0
 70
     1
  0
VERTEX
  8
0
 10
9.7389190112305
 20
1.1262080078125
 42
0.0
  0
VERTEX
  8
0
 10
9.745064519043
 20
1.1262080078125
 42
0.0432455419738
  0
VERTEX
  8
0
 10
9.7419917651367
 20
1.0847258300781
 42
0.1041114357574
  0
VERTEX
  8
0
 10
9.7625403242909
 20
1.0234246561102
 42
0.0252101327439
  0
VERTEX
  8
0
 10
9.7957649584961
 20
0.9679611816406
 42
0.0
  0
VERTEX
  8
0
 10
9.7988377124023
 20
0.9679611816406
 42
0.124433703003
  0
VERTEX
  8
0
 10
9.853531834521
 20
0.9806982807967
 42
0.044285569621
  0
VERTEX
  8
0
 10
9.9017749682617
 20
1.009443359375
 42
0.00424429836
  0
VERTEX
  8
0
 10
9.9822072855849
 20
1.066051706207
 42
0.0255446905647
  0
VERTEX
  8
0
 10
10.0600217944336
 20
1.1262080078125
 42
-0.0336445072276
  0
VERTEX
  8
0
 10
10.089212956543
 20
1.1477172851563
 42
0.2321574368572
  0
VERTEX
  8
0
 10
10.1153313647461
 20
1.2014904785156
 42
-0.0458738512818
  0
VERTEX
  8
0
 10
10.1429861499023
 20
1.2859912109375
 42
0.0330562001274
  0
VERTEX
  8
0
 10
10.1675681811523
 20
1.3551281738281
 42
-0.0302146902636
  0
VERTEX
  8
0
 10
10.1721773120117
 20
1.3797102050781
 42
0.0
  0
VERTEX
  8
0
 10
10.1890774584961
 20
1.3935375976563
 42
-0.0382589306335
  0
VERTEX
  8
0
 10
10.1921502124023
 20
1.415046875
 42
0.0
  0
VERTEX
  8
0
 10
10.2013684741211
 20
1.4334833984375
 42
0.0
  0
VERTEX
  8
0
 10
10.2797236987305
 20
1.6040212402344
 42
0.0718119652121
  0
VERTEX
  8
0
 10
10.3080914778276
 20
1.7043400699795
 42
0.0366950167484
  0
VERTEX
  8
0
 10
10.3150603686523
 20
1.808359375
 42
0.1304721761015
  0
VERTEX
  8
0
 10
10.2827866862013
 20
1.9541097256134
 42
0.2353569784093
  0
VERTEX
  8
0
 10
10.1568135424805
 20
2.0342067871094
 42
0.0
  0
VERTEX
  8
0
 10
10.1291587573242
 20
2.0096247558594
 42
0.0754784150638
  0
VERTEX
  8
0
 10
10.1000400016466
 20
1.9816685278926
 42
0.0162728473023
  0
VERTEX
  8
0
 10
10.0753855639648
 20
1.9497060546875
 42
0.0
  0
VERTEX
  8
0
 10
10.0661673022461
 20
1.9497060546875
 42
0.0323934816119
  0
VERTEX
  8
0
 10
9.9678391772461
 20
1.8237231445313
 42
-0.1039728147505
  0
VERTEX
  8
0
 10
9.9524754077148
 20
1.8037502441406
 42
0.1720787929263
  0
VERTEX
  8
0
 10
9.9401843920898
 20
1.7807045898438
 42
0.0
  0
VERTEX
  8
0
 10
9.9340388842773
 20
1.7699499511719
 42
0.0
  0
VERTEX
  8
0
 10
9.9278933764648
 20
1.7668771972656
 42
0.0306779487785
  0
VERTEX
  8
0
 10
9.892556706543
 20
1.673158203125
 42
0.0
  0
VERTEX
  8
0
 10
9.8864111987305
 20
1.673158203125
 42
0.0351585551002
  0
VERTEX
  8
0
 10
9.8480017749023
 20
1.5717573242188
 42
-0.0490391461644
  0
VERTEX
  8
0
 10
9.8341743823242
 20
1.53795703125
 42
0.0174234891371
  0
VERTEX
  8
0
 10
9.7988377124023
 20
1.4565290527344
 42
0.0685150200447
  0
VERTEX
  8
0
 10
9.7896194506836
 20
1.4181196289063
 42
0.0
  0
VERTEX
  8
0
 10
9.769646550293
 20
1.4119741210938
 42
-0.0962775260111
  0
VERTEX
  8
0
 10
9.7757920581055
 20
1.3996831054688
 42
-0.0571408252502
  0
VERTEX
  8
0
 10
9.7604282885742
 20
1.3643464355469
 42
0.0
  0
VERTEX
  8
0
 10
9.757355534668
 20
1.3428371582031
 42
-0.0223809400001
  0
VERTEX
  8
0
 10
9.7512100268555
 20
1.304427734375
 42
0.0
  0
VERTEX
  8
0
 10
9.745064519043
 20
1.304427734375
 42
0.0
  0
VERTEX
  8
0
 10
9.7389190112305
 20
1.2859912109375
 42
0.0
  0
VERTEX
  8
0
 10
9.745064519043
 20
1.2859912109375
 42
0.0
  0
VERTEX
  8
0
 10
9.745064519043
 20
1.279845703125
 42
0.0
  0
VERTEX
  8
0
 10
9.7604282885742
 20
1.279845703125
 42
-0.1514833797508
  0
VERTEX
  8
0
 10
9.7389190112305
 20
1.2475817871094
 42
0.0
  0
VERTEX
  8
0
 10
9.7481372729492
 20
1.156935546875
 42
0.5
  0
VERTEX
  8
0
 10
9.7358462573242
 20
1.14464453125
 42
0.0
  0
VERTEX
  8
0
 10
9.7358462573242
 20
1.1415717773438
 42
0.0
  0
SEQEND
  0
POLYLINE
  8
0
 66
     1
 10
0.0
 20
0.0
 30
0.0
 70
     1
  0
VERTEX
  8
0
 10
11.1840428552246
 20
1.3013549804688
 42
0.0
  0
VERTEX
  8
0
 10
11.200943001709
 20
1.2982822265625
 42
0.0
  0
VERTEX
  8
0
 10
11.200943001709
 20
1.3228642578125
 42
0.0
  0
VERTEX
  8
0
 10
11.2070885095215
 20
1.3228642578125
 42
0.0
  0
VERTEX
  8
0
 10
11.2101612634277
 20
1.329009765625
 42
0.0
  0
VERTEX
  8
0
 10
11.2101612634277
 20
1.3397644042969
 42
0.0
  0
VERTEX
  8
0
 10
11.225525032959
 20
1.3397644042969
 42
-0.2583485289494
  0
VERTEX
  8
0
 10
11.274689095459
 20
1.3612736816406
 42
-0.2068051687504
  0
VERTEX
  8
0
 10
11.2823709802246
 20
1.3582009277344
 42
0.0
  0
VERTEX
  8
0
 10
11.2854437341309
 20
1.3366916503906
 42
0.0
  0
VERTEX
  8
0
 10
11.2593253259277
 20
1.3136459960938
 42
0.0
  0
VERTEX
  8
0
 10
11.2593253259277
 20
1.3075004882813
 42
0.0
  0
VERTEX
  8
0
 10
11.250107064209
 20
1.2952094726563
 42
0.0
  0
VERTEX
  8
0
 10
11.250107064209
 20
1.2890639648438
 42
-0.2360714321637
  0
VERTEX
  8
0
 10
11.237816048584
 20
1.2767729492188
 42
0.1436366520452
  0
VERTEX
  8
0
 10
11.2222194949671
 20
1.247045849935
 42
0.0581317522361
  0
VERTEX
  8
0
 10
11.213234017334
 20
1.1477172851563
 42
0.1212902116904
  0
VERTEX
  8
0
 10
11.237816048584
 20
1.0493891601563
 42
-0.0973086948704
  0
VERTEX
  8
0
 10
11.250107064209
 20
1.0186616210938
 42
-0.0196980365868
  0
VERTEX
  8
0
 10
11.2885164880371
 20
0.9802521972656
 42
0.0
  0
VERTEX
  8
0
 10
11.2915892419434
 20
0.9833249511719
 42
0.0
  0
VERTEX
  8
0
 10
11.3069530114746
 20
0.9679611816406
 42
0.0
  0
VERTEX
  8
0
 10
11.3161712731934
 20
0.9679611816406
 42
-0.0819842033346
  0
VERTEX
  8
0
 10
11.3299986657715
 20
0.9556701660156
 42
-0.126653064031
  0
VERTEX
  8
0
 10
11.3346077966309
 20
0.9464519042969
 42
0.0
  0
VERTEX
  8
0
 10
11.348435189209
 20
0.9433791503906
 42
0.0
  0
VERTEX
  8
0
 10
11.360726204834
 20
0.935697265625
 42
0.0808622799542
  0
VERTEX
  8
0
 10
11.4006720056152
 20
0.9295517578125
 42
0.0525241267622
  0
VERTEX
  8
0
 10
11.4390814294434
 20
0.9326245117188
 42
0.0
  0
VERTEX
  8
0
 10
11.4421541833496
 20
0.9172607421875
 42
0.0
  0
VERTEX
  8
0
 10
11.4482996911621
 20
0.935697265625
 42
0.0
  0
VERTEX
  8
0
 10
11.4544451989746
 20
0.935697265625
 42
0.0
  0
VERTEX
  8
0
 10
11.4605907067871
 20
0.9525974121094
 42
0.0
  0
VERTEX
  8
0
 10
11.4667362145996
 20
0.9525974121094
 42
0.0
  0
VERTEX
  8
0
 10
11.4698089685059
 20
0.9464519042969
 42
0.0
  0
VERTEX
  8
0
 10
11.4990001306152
 20
0.9464519042969
 42
0.0
  0
VERTEX
  8
0
 10
11.508218392334
 20
0.9295517578125
 42
0.1311613467361
  0
VERTEX
  8
0
 10
11.5435550622559
 20
0.9679611816406
 42
-0.0811678866433
  0
VERTEX
  8
0
 10
11.5619915856934
 20
0.9648884277344
 42
0.0
  0
VERTEX
  8
0
 10
11.5804281091309
 20
0.9556701660156
 42
0.0
  0
VERTEX
  8
0
 10
11.5988646325684
 20
0.9556701660156
 42
0.0
  0
VERTEX
  8
0
 10
11.5988646325684
 20
0.9648884277344
 42
0.0
  0
VERTEX
  8
0
 10
11.5927191247559
 20
0.9648884277344
 42
0.0
  0
VERTEX
  8
0
 10
11.5927191247559
 20
0.9710339355469
 42
0.0
  0
VERTEX
  8
0
 10
11.6096192712402
 20
0.9925432128906
 42
0.0
  0
VERTEX
  8
0
 10
11.6096192712402
 20
0.9833249511719
 42
0.0
  0
VERTEX
  8
0
 10
11.6342013024902
 20
0.9863977050781
 42
0.0
  0
VERTEX
  8
0
 10
11.6342013024902
 20
0.9986887207031
 42
0.0
  0
VERTEX
  8
0
 10
11.6403468103027
 20
0.9986887207031
 42
0.0
  0
VERTEX
  8
0
 10
11.6495650720215
 20
1.009443359375
 42
0.0
  0
VERTEX
  8
0
 10
11.6587833337402
 20
1.009443359375
 42
0.1079327929658
  0
VERTEX
  8
0
 10
11.6795204534645
 20
1.0515333893632
 42
0.0222765310143
  0
VERTEX
  8
0
 10
11.6910472497559
 20
1.0970168457031
 42
0.1311768136909
  0
VERTEX
  8
0
 10
11.6726107263184
 20
1.1600083007813
 42
-0.2204351108382
  0
VERTEX
  8
0
 10
11.6649288415527
 20
1.1722993164063
 42
0.0
  0
VERTEX
  8
0
 10
11.6618560876465
 20
1.1845903320313
 42
0.1137394241017
  0
VERTEX
  8
0
 10
11.5266549157715
 20
1.2598728027344
 42
0.0
  0
VERTEX
  8
0
 10
11.5266549157715
 20
1.2660183105469
 42
-0.0240910585738
  0
VERTEX
  8
0
 10
11.4698089685059
 20
1.2952094726563
 42
0.0137012742377
  0
VERTEX
  8
0
 10
11.4237176599121
 20
1.3197915039063
 42
-0.0255160287476
  0
VERTEX
  8
0
 10
11.3760899743652
 20
1.3520554199219
 42
0.0
  0
VERTEX
  8
0
 10
11.3515079431152
 20
1.3704919433594
 42
-0.0213096324131
  0
VERTEX
  8
0
 10
11.3192440270996
 20
1.3920012207031
 42
-0.0104821958112
  0
VERTEX
  8
0
 10
11.3253895349121
 20
1.4119741210938
 42
0.0541773815815
  0
VERTEX
  8
0
 10
11.3130985192871
 20
1.4334833984375
 42
0.0
  0
VERTEX
  8
0
 10
11.3069530114746
 20
1.4089013671875
 42
-0.0852155447085
  0
VERTEX
  8
0
 10
11.2193795251465
 20
1.5210568847656
 42
0.0
  0
VERTEX
  8
0
 10
11.225525032959
 20
1.5210568847656
 42
0.0
  0
VERTEX
  8
0
 10
11.2316705407715
 20
1.5272023925781
 42
0.0
  0
VERTEX
  8
0
 10
11.2316705407715
 20
1.5302751464844
 42
0.0
  0
VERTEX
  8
0
 10
11.2086248864746
 20
1.5348842773438
 42
-0.029256829582
  0
VERTEX
  8
0
 10
11.1901883630371
 20
1.5901938476563
 42
-0.0627322508263
  0
VERTEX
  8
0
 10
11.1932611169434
 20
1.6070939941406
 42
-0.1936268190807
  0
VERTEX
  8
0
 10
11.1748245935059
 20
1.6654763183594
 42
-0.1132791136707
  0
VERTEX
  8
0
 10
11.2019955764811
 20
1.7805083399455
 42
-0.0962633521032
  0
VERTEX
  8
0
 10
11.3102775862286
 20
1.9181601485412
 42
-0.0451938982631
  0
VERTEX
  8
0
 10
11.4513724450684
 20
2.0219157714844
 42
0.0
  0
VERTEX
  8
0
 10
11.6249830407715
 20
2.12792578125
 42
0.0132356926033
  0
VERTEX
  8
0
 10
11.6879744958496
 20
2.1663352050781
 42
-0.0510211082225
  0
VERTEX
  8
0
 10
11.7847662438965
 20
2.2231811523438
 42
0.0380405720889
  0
VERTEX
  8
0
 10
11.7939845056152
 20
2.2354721679688
 42
0.0
  0
VERTEX
  8
0
 10
11.8108846520996
 20
2.2354721679688
 42
0.0
  0
VERTEX
  8
0
 10
11.8108846520996
 20
2.2416176757813
 42
-0.0520395393696
  0
VERTEX
  8
0
 10
11.9522313317871
 20
2.2646633300781
 42
-0.1733784631364
  0
VERTEX
  8
0
 10
12.0997235192871
 20
2.2170356445313
 42
-0.0795560723978
  0
VERTEX
  8
0
 10
12.1750059899902
 20
2.1202438964844
 42
-0.0325569357087
  0
VERTEX
  8
0
 10
12.1811514978027
 20
2.0726162109375
 42
0.0201517284124
  0
VERTEX
  8
0
 10
12.1872970056152
 20
2.0065520019531
 42
-0.0703350441973
  0
VERTEX
  8
0
 10
12.1627149743652
 20
1.9404877929688
 42
0.1980902600012
  0
VERTEX
  8
0
 10
12.1534967126465
 20
1.943560546875
 42
0.2790253562018
  0
VERTEX
  8
0
 10
12.1405803836926
 20
1.9340431013789
 42
0.0627718037135
  0
VERTEX
  8
0
 10
12.135060189209
 20
1.918978515625
 42
0.0
  0
VERTEX
  8
0
 10
12.1504239587402
 20
1.9220512695313
 42
0.0
  0
VERTEX
  8
0
 10
12.1504239587402
 20
1.9128330078125
 42
0.0
  0
VERTEX
  8
0
 10
12.1442784509277
 20
1.9128330078125
 42
0.0494548362563
  0
VERTEX
  8
0
 10
12.1212327966309
 20
1.8805690917969
 42
0.0
  0
VERTEX
  8
0
 10
12.1120145349121
 20
1.8421596679688
 42
-0.0052357832754
  0
VERTEX
  8
0
 10
12.0689959802246
 20
1.78377734375
 42
0.0
  0
VERTEX
  8
0
 10
12.061314095459
 20
1.78377734375
 42
0.0
  0
VERTEX
  8
0
 10
12.0582413415527
 20
1.796068359375
 42
0.1647646029941
  0
VERTEX
  8
0
 10
12.0428775720215
 20
1.7914592285156
 42
0.1327306578947
  0
VERTEX
  8
0
 10
12.0321229333496
 20
1.7745590820313
 42
-0.0941544432466
  0
VERTEX
  8
0
 10
12.0167591638184
 20
1.7530498046875
 42
-0.0669080108808
  0
VERTEX
  8
0
 10
11.999859017334
 20
1.7392224121094
 42
0.0
  0
VERTEX
  8
0
 10
11.9860316247559
 20
1.7207858886719
 42
-0.0045429685317
  0
VERTEX
  8
0
 10
11.889239876709
 20
1.6255305175781
 42
0.0354952573473
  0
VERTEX
  8
0
 10
11.8569759606934
 20
1.5978757324219
 42
0.0
  0
VERTEX
  8
0
 10
11.8446849450684
 20
1.6040212402344
 42
0.0137347358364
  0
VERTEX
  8
0
 10
11.8600487145996
 20
1.63628515625
 42
-0.0278767048174
  0
VERTEX
  8
0
 10
11.8708033532715
 20
1.6577944335938
 42
0.0628590010064
  0
VERTEX
  8
0
 10
11.8800216149902
 20
1.6793037109375
 42
0.0
  0
VERTEX
  8
0
 10
11.8708033532715
 20
1.6885219726563
 42
0.0454539386914
  0
VERTEX
  8
0
 10
11.8800216149902
 20
1.7361496582031
 42
0.035792849909
  0
VERTEX
  8
0
 10
11.8631214685059
 20
1.8390869140625
 42
0.0
  0
VERTEX
  8
0
 10
11.8569759606934
 20
1.8390869140625
 42
0.0725669851018
  0
VERTEX
  8
0
 10
11.7893261896039
 20
1.9692649360863
 42
0.0902997708452
  0
VERTEX
  8
0
 10
11.7343285299793
 20
2.0209128490406
 42
0.1420027640219
  0
VERTEX
  8
0
 10
11.6618560876465
 20
2.041888671875
 42
0.2858796932564
  0
VERTEX
  8
0
 10
11.5804281091309
 20
1.9973337402344
 42
0.0
  0
VERTEX
  8
0
 10
11.5619915856934
 20
1.9942609863281
 42
-0.1010562166765
  0
VERTEX
  8
0
 10
11.5650643395996
 20
1.9742880859375
 42
0.0
  0
VERTEX
  8
0
 10
11.5466278161621
 20
1.9374150390625
 42
0.1411043372782
  0
VERTEX
  8
0
 10
11.5334323873107
 20
1.9040064688278
 42
0.0283952529077
  0
VERTEX
  8
0
 10
11.5297276696777
 20
1.8682780761719
 42
-0.018814587617
  0
VERTEX
  8
0
 10
11.5235821618652
 20
1.78377734375
 42
-0.3381126496908
  0
VERTEX
  8
0
 10
11.5466278161621
 20
1.7515134277344
 42
0.0
  0
VERTEX
  8
0
 10
11.5527733239746
 20
1.7453679199219
 42
0.0
  0
VERTEX
  8
0
 10
11.5589188317871
 20
1.7453679199219
 42
0.0
  0
VERTEX
  8
0
 10
11.5681370935059
 20
1.6946674804688
 42
0.0
  0
VERTEX
  8
0
 10
11.5927191247559
 20
1.6885219726563
 42
0.145592441129
  0
VERTEX
  8
0
 10
11.618837532959
 20
1.6408942871094
 42
-0.02233347584
  0
VERTEX
  8
0
 10
11.6464923181152
 20
1.6193850097656
 42
0.0
  0
VERTEX
  8
0
 10
11.6526378259277
 20
1.6193850097656
 42
0.0
  0
VERTEX
  8
0
 10
11.6526378259277
 20
1.6101667480469
 42
0.0
  0
VERTEX
  8
0
 10
11.6587833337402
 20
1.6009484863281
 42
0.0
  0
VERTEX
  8
0
 10
11.6649288415527
 20
1.6009484863281
 42
0.0
  0
VERTEX
  8
0
 10
11.6649288415527
 20
1.58712109375
 42
0.0
  0
VERTEX
  8
0
 10
11.6587833337402
 20
1.5809755859375
 42
0.0
  0
VERTEX
  8
0
 10
11.6649288415527
 20
1.5656118164063
 42
0.0
  0
VERTEX
  8
0
 10
11.6818289880371
 20
1.5656118164063
 42
0.0
  0
VERTEX
  8
0
 10
11.6849017419434
 20
1.5563935546875
 42
0.0
  0
VERTEX
  8
0
 10
11.6971927575684
 20
1.5563935546875
 42
0.0
  0
VERTEX
  8
0
 10
11.6971927575684
 20
1.5656118164063
 42
0.0
  0
VERTEX
  8
0
 10
11.7340658044434
 20
1.5625390625
 42
0.0
  0
VERTEX
  8
0
 10
11.7248475427246
 20
1.5318115234375
 42
0.1061351788981
  0
VERTEX
  8
0
 10
11.754038704834
 20
1.525666015625
 42
0.0
  0
VERTEX
  8
0
 10
11.7632569665527
 20
1.525666015625
 42
0.0
  0
VERTEX
  8
0
 10
11.7632569665527
 20
1.5087658691406
 42
0.0
  0
VERTEX
  8
0
 10
11.7724752282715
 20
1.4995476074219
 42
0.0
  0
VERTEX
  8
0
 10
11.7939845056152
 20
1.5056931152344
 42
0.0
  0
VERTEX
  8
0
 10
11.7939845056152
 20
1.4964748535156
 42
0.3260220304468
  0
VERTEX
  8
0
 10
11.8108846520996
 20
1.4780383300781
 42
0.0
  0
VERTEX
  8
0
 10
11.8293211755371
 20
1.4427016601563
 42
0.0
  0
VERTEX
  8
0
 10
11.8416121911621
 20
1.4903293457031
 42
0.0
  0
VERTEX
  8
0
 10
11.8539032067871
 20
1.4749655761719
 42
0.0
  0
VERTEX
  8
0
 10
11.8569759606934
 20
1.4580654296875
 42
0.0
  0
VERTEX
  8
0
 10
11.8738761071777
 20
1.4580654296875
 42
0.0
  0
VERTEX
  8
0
 10
11.8738761071777
 20
1.4657473144531
 42
0.0
  0
VERTEX
  8
0
 10
11.8861671228027
 20
1.4657473144531
 42
0.0
  0
VERTEX
  8
0
 10
11.8861671228027
 20
1.451919921875
 42
0.0
  0
VERTEX
  8
0
 10
11.9046036462402
 20
1.4457744140625
 42
0.0
  0
VERTEX
  8
0
 10
11.913821907959
 20
1.4457744140625
 42
0.0
  0
VERTEX
  8
0
 10
11.9199674157715
 20
1.4365561523438
 42
0.0
  0
VERTEX
  8
0
 10
11.9199674157715
 20
1.427337890625
 42
-0.1342531868999
  0
VERTEX
  8
0
 10
11.9645223474121
 20
1.3643464355469
 42
0.0
  0
VERTEX
  8
0
 10
11.9768133630371
 20
1.3643464355469
 42
0.0
  0
VERTEX
  8
0
 10
11.9768133630371
 20
1.3735646972656
 42
0.0
  0
VERTEX
  8
0
 10
11.9891043786621
 20
1.3735646972656
 42
0.0
  0
VERTEX
  8
0
 10
11.9921771325684
 20
1.3520554199219
 42
0.0
  0
VERTEX
  8
0
 10
11.9737406091309
 20
1.3336188964844
 42
0.0
  0
VERTEX
  8
0
 10
11.9706678552246
 20
1.3197915039063
 42
0.0
  0
VERTEX
  8
0
 10
11.9768133630371
 20
1.3136459960938
 42
0.0
  0
VERTEX
  8
0
 10
11.9891043786621
 20
1.3366916503906
 42
0.0
  0
VERTEX
  8
0
 10
11.9952498864746
 20
1.3366916503906
 42
0.0
  0
VERTEX
  8
0
 10
11.9952498864746
 20
1.3259370117188
 42
0.1132261305217
  0
VERTEX
  8
0
 10
12.0013953942871
 20
1.3090368652344
 42
-0.0857408873244
  0
VERTEX
  8
0
 10
12.0090772790527
 20
1.2952094726563
 42
-0.1473961332706
  0
VERTEX
  8
0
 10
11.9891043786621
 20
1.2675546875
 42
0.0
  0
VERTEX
  8
0
 10
11.9829588708496
 20
1.2475817871094
 42
0.0
  0
VERTEX
  8
0
 10
11.9768133630371
 20
1.2475817871094
 42
0.0
  0
VERTEX
  8
0
 10
11.9768133630371
 20
1.2414362792969
 42
0.0
  0
VERTEX
  8
0
 10
11.9706678552246
 20
1.2414362792969
 42
0.0
  0
VERTEX
  8
0
 10
11.9675951013184
 20
1.2137814941406
 42
0.0
  0
VERTEX
  8
0
 10
11.9737406091309
 20
1.2045632324219
 42
0.0
  0
VERTEX
  8
0
 10
11.9737406091309
 20
1.1968813476563
 42
0.0
  0
VERTEX
  8
0
 10
11.9645223474121
 20
1.1968813476563
 42
0.024594215317
  0
VERTEX
  8
0
 10
11.913821907959
 20
1.1308171386719
 42
0.0
  0
VERTEX
  8
0
 10
11.9046036462402
 20
1.1384990234375
 42
0.0
  0
VERTEX
  8
0
 10
11.876948861084
 20
1.1000895996094
 42
0.0904141520778
  0
VERTEX
  8
0
 10
11.8293211755371
 20
1.0755075683594
 42
0.0431733828475
  0
VERTEX
  8
0
 10
11.7847662438965
 20
1.0401708984375
 42
0.0
  0
VERTEX
  8
0
 10
11.7601842126465
 20
1.021734375
 42
0.0
  0
VERTEX
  8
0
 10
11.7217747888184
 20
0.9956159667969
 42
0.0750615140137
  0
VERTEX
  8
0
 10
11.6972488277826
 20
0.9708036942919
 42
0.007327806188
  0
VERTEX
  8
0
 10
11.6756834802246
 20
0.9433791503906
 42
0.2629723405814
  0
VERTEX
  8
0
 10
11.6464923181152
 20
0.9141879882813
 42
0.0
  0
VERTEX
  8
0
 10
11.6372740563965
 20
0.9049697265625
 42
0.0
  0
VERTEX
  8
0
 10
11.6280557946777
 20
0.9049697265625
 42
0.0
  0
VERTEX
  8
0
 10
11.606546517334
 20
0.8803876953125
 42
0.0
  0
VERTEX
  8
0
 10
11.5927191247559
 20
0.8803876953125
 42
0.0
  0
VERTEX
  8
0
 10
11.5681370935059
 20
0.8573420410156
 42
0.0
  0
VERTEX
  8
0
 10
11.5742826013184
 20
0.8419782714844
 42
0.0428455993741
  0
VERTEX
  8
0
 10
11.5589188317871
 20
0.8097143554688
 42
0.0
  0
VERTEX
  8
0
 10
11.5497005700684
 20
0.8173962402344
 42
0.0
  0
VERTEX
  8
0
 10
11.5358731774902
 20
0.8204689941406
 42
0.0
  0
VERTEX
  8
0
 10
11.5358731774902
 20
0.8327600097656
 42
0.0
  0
VERTEX
  8
0
 10
11.5297276696777
 20
0.8327600097656
 42
0.0
  0
VERTEX
  8
0
 10
11.5297276696777
 20
0.8143234863281
 42
0.0
  0
VERTEX
  8
0
 10
11.520509407959
 20
0.8066416015625
 42
0.0
  0
VERTEX
  8
0
 10
11.520509407959
 20
0.788205078125
 42
0.0
  0
VERTEX
  8
0
 10
11.5112911462402
 20
0.7912778320313
 42
0.1577380632988
  0
VERTEX
  8
0
 10
11.4867091149902
 20
0.7728413085938
 42
0.0
  0
VERTEX
  8
0
 10
11.4867091149902
 20
0.7467229003906
 42
0.0
  0
VERTEX
  8
0
 10
11.4805636071777
 20
0.75133203125
 42
0.0
  0
VERTEX
  8
0
 10
11.4774908532715
 20
0.7574775390625
 42
0.0
  0
VERTEX
  8
0
 10
11.4575179528809
 20
0.7574775390625
 42
0.0
  0
VERTEX
  8
0
 10
11.4513724450684
 20
0.7544047851563
 42
0.0
  0
VERTEX
  8
0
 10
11.4513724450684
 20
0.7436501464844
 42
0.0
  0
VERTEX
  8
0
 10
11.4329359216309
 20
0.7436501464844
 42
0.0
  0
VERTEX
  8
0
 10
11.4267904138184
 20
0.7252136230469
 42
0.0
  0
VERTEX
  8
0
 10
11.4037447595215
 20
0.7190681152344
 42
0.0
  0
VERTEX
  8
0
 10
11.4037447595215
 20
0.7098498535156
 42
0.0
  0
VERTEX
  8
0
 10
11.3791627282715
 20
0.7067770996094
 42
0.0
  0
VERTEX
  8
0
 10
11.3760899743652
 20
0.6975588378906
 42
0.0
  0
VERTEX
  8
0
 10
11.3699444665527
 20
0.7037043457031
 42
0.0
  0
VERTEX
  8
0
 10
11.3637989587402
 20
0.6975588378906
 42
0.0
  0
VERTEX
  8
0
 10
11.3576534509277
 20
0.7067770996094
 42
0.0
  0
VERTEX
  8
0
 10
11.3315350427246
 20
0.7067770996094
 42
0.0
  0
VERTEX
  8
0
 10
11.3315350427246
 20
0.6914133300781
 42
0.0
  0
VERTEX
  8
0
 10
11.3100257653809
 20
0.6852678222656
 42
0.0
  0
VERTEX
  8
0
 10
11.3100257653809
 20
0.6699040527344
 42
0.0
  0
VERTEX
  8
0
 10
11.2946619958496
 20
0.6699040527344
 42
0.0
  0
VERTEX
  8
0
 10
11.2885164880371
 20
0.6975588378906
 42
0.0
  0
VERTEX
  8
0
 10
11.2823709802246
 20
0.6975588378906
 42
0.0
  0
VERTEX
  8
0
 10
11.2823709802246
 20
0.6791223144531
 42
0.0
  0
VERTEX
  8
0
 10
11.2654708337402
 20
0.6668312988281
 42
-0.1980661715523
  0
VERTEX
  8
0
 10
11.2531798181152
 20
0.6914133300781
 42
0.0
  0
VERTEX
  8
0
 10
11.2562525720215
 20
0.7006315917969
 42
0.0
  0
VERTEX
  8
0
 10
11.2408888024902
 20
0.7006315917969
 42
0.0
  0
VERTEX
  8
0
 10
11.2347432946777
 20
0.6944860839844
 42
0.0
  0
VERTEX
  8
0
 10
11.2408888024902
 20
0.6637585449219
 42
0.0604992873036
  0
VERTEX
  8
0
 10
11.1963338708496
 20
0.6699040527344
 42
0.0
  0
VERTEX
  8
0
 10
11.1533153161621
 20
0.665294921875
 42
0.1641428764199
  0
VERTEX
  8
0
 10
11.127196907959
 20
0.6760495605469
 42
0.0356560281189
  0
VERTEX
  8
0
 10
11.1118331384277
 20
0.6729768066406
 42
0.0
  0
VERTEX
  8
0
 10
11.102614876709
 20
0.6975588378906
 42
0.0
  0
VERTEX
  8
0
 10
11.0995421228027
 20
0.6883405761719
 42
0.0
  0
VERTEX
  8
0
 10
11.0549871911621
 20
0.7006315917969
 42
0.0
  0
VERTEX
  8
0
 10
11.0580599450684
 20
0.7252136230469
 42
0.0
  0
VERTEX
  8
0
 10
11.0488416833496
 20
0.7252136230469
 42
0.0
  0
VERTEX
  8
0
 10
11.0457689294434
 20
0.7159953613281
 42
-0.2849207079363
  0
VERTEX
  8
0
 10
10.9336134118652
 20
0.92340625
 42
-0.0941766970581
  0
VERTEX
  8
0
 10
10.9526739244698
 20
1.0147234516118
 42
-0.051518171102
  0
VERTEX
  8
0
 10
10.9966048669434
 20
1.0970168457031
 42
-0.0954276660263
  0
VERTEX
  8
0
 10
11.1533153161621
 20
1.2629455566406
 42
0.0678361307338
  0
SEQEND
  0
POLYLINE
  8
0
 66
     1
 10
0.0
 20
0.0
 30
0.0
 70
     1
  0
VERTEX
  8
0
 10
5.3910522756638
 20
-0.565127890625
 42
0.0
  0
VERTEX
  8
0
 10
5.2820620412888
 20
-1.02594625
 42
-0.3896183111932
  0
VERTEX
  8
0
 10
5.2409516897263
 20
-1.05654
 42
0.0
  0
VERTEX
  8
0
 10
5.1099721975388
 20
-1.05654
 42
-0.1510621531384
  0
VERTEX
  8
0
 10
5.0736421194138
 20
-1.04506734375
 42
-0.2553238146333
  0
VERTEX
  8
0
 10
5.0564331350388
 20
-1.012561484375
 42
-0.1440401848928
  0
VERTEX
  8
0
 10
5.0602573537888
 20
-0.993440390625
 42
0.0
  0
VERTEX
  8
0
 10
5.1778520803513
 20
-0.565127890625
 42
0.0
  0
VERTEX
  8
0
 10
4.9560473928513
 20
-0.565127890625
 42
-0.0653953362444
  0
VERTEX
  8
0
 10
4.8432329397263
 20
-0.786932578125
 42
-0.0892138212671
  0
VERTEX
  8
0
 10
4.6826157522263
 20
-0.9523300390625
 42
-0.0895030697324
  0
VERTEX
  8
0
 10
4.4694155569138
 20
-1.0488915625
 42
-0.0616052848205
  0
VERTEX
  8
0
 10
4.1950278616013
 20
-1.0794853125
 42
-0.0464794173258
  0
VERTEX
  8
0
 10
3.9904321584763
 20
-1.0613202734375
 42
-0.0713456703839
  0
VERTEX
  8
0
 10
3.8202544241013
 20
-1.00682515625
 42
-0.1113150809587
  0
VERTEX
  8
0
 10
3.7007475881638
 20
-0.9102636328125
 42
-0.167496571304
  0
VERTEX
  8
0
 10
3.6558130178513
 20
-0.7687675390625
 42
-0.1511000821606
  0
VERTEX
  8
0
 10
3.6988354787888
 20
-0.614842734375
 42
-0.1127550164173
  0
VERTEX
  8
0
 10
3.8106938772263
 20
-0.5068085546875
 42
-0.0653796870358
  0
VERTEX
  8
0
 10
3.9693989553513
 20
-0.4379726171875
 42
-0.0352046699382
  0
VERTEX
  8
0
 10
4.1520054006638
 20
-0.398774375
 42
-0.0255013216544
  0
VERTEX
  8
0
 10
4.3460845022263
 20
-0.381565390625
 42
-0.0116737345332
  0
VERTEX
  8
0
 10
4.5191304006638
 20
-0.3767851171875
 42
0.0
  0
VERTEX
  8
0
 10
4.7887378225388
 20
-0.3767851171875
 42
-0.0352648634046
  0
VERTEX
  8
0
 10
4.8929477834763
 20
-0.106221640625
 42
-0.0671618990912
  0
VERTEX
  8
0
 10
5.0401802053513
 20
0.1241875390625
 42
-0.0967637527856
  0
VERTEX
  8
0
 10
5.2342593069138
 20
0.2771562890625
 42
-0.1210469124226
  0
VERTEX
  8
0
 10
5.4828335256638
 20
0.333563515625
 42
0.0
  0
VERTEX
  8
0
 10
5.5229878225388
 20
0.333563515625
 42
-0.2988390218828
  0
VERTEX
  8
0
 10
5.5679223928513
 20
0.304881875
 42
0.0
  0
VERTEX
  8
0
 10
5.6042524709763
 20
0.207364296875
 42
0.205945201606
  0
VERTEX
  8
0
 10
5.6080766897263
 20
0.1987598046875
 42
-0.0494896453663
  0
VERTEX
  8
0
 10
5.6062387909926
 20
0.1777868399116
 42
-0.1330193697893
  0
VERTEX
  8
0
 10
5.5975600881638
 20
0.1586055078125
 42
0.0317247210911
  0
VERTEX
  8
0
 10
5.5583618459763
 20
0.0763848046875
 42
0.0194404681423
  0
VERTEX
  8
0
 10
5.5210757131638
 20
-0.0345175390625
 42
0.0086656532782
  0
VERTEX
  8
0
 10
5.4799653616013
 20
-0.1922665625
 42
-0.006708717406
  0
VERTEX
  8
0
 10
5.4321626272263
 20
-0.3767851171875
 42
0.0
  0
VERTEX
  8
0
 10
5.5478452444138
 20
-0.3767851171875
 42
-0.1958285002292
  0
VERTEX
  8
0
 10
5.5793950491013
 20
-0.3901698828125
 42
-0.226862405738
  0
VERTEX
  8
0
 10
5.5946919241013
 20
-0.423631796875
 42
0.0
  0
VERTEX
  8
0
 10
5.5946919241013
 20
-0.521149375
 42
-0.2490808118986
  0
VERTEX
  8
0
 10
5.5793950491013
 20
-0.553655234375
 42
-0.1751254459246
  0
VERTEX
  8
0
 10
5.5478452444138
 20
-0.565127890625
 42
0.0
  0
SEQEND
  0
POLYLINE
  8
0
 66
     1
 10
0.0
 20
0.0
 30
0.0
 70
     1
  0
VERTEX
  8
0
 10
4.5191304006638
 20
-0.565127890625
 42
0.006747960547
  0
VERTEX
  8
0
 10
4.3910190725388
 20
-0.56704
 42
0.0156397953747
  0
VERTEX
  8
0
 10
4.2456987600388
 20
-0.5756444921875
 42
0.0256331936323
  0
VERTEX
  8
0
 10
4.1022905569138
 20
-0.595721640625
 42
0.0576462466648
  0
VERTEX
  8
0
 10
3.9818276662888
 20
-0.6330077734375
 42
0.1119895366214
  0
VERTEX
  8
0
 10
3.8996069631638
 20
-0.6903710546875
 42
0.1894391483752
  0
VERTEX
  8
0
 10
3.8699692678513
 20
-0.7706796484375
 42
0.2245362755327
  0
VERTEX
  8
0
 10
3.8948266897263
 20
-0.828998984375
 42
0.0971319313604
  0
VERTEX
  8
0
 10
3.9665307912888
 20
-0.863416953125
 42
0.0479510990367
  0
VERTEX
  8
0
 10
4.0688286428513
 20
-0.8815819921875
 42
0.016899853084
  0
VERTEX
  8
0
 10
4.1854673147263
 20
-0.8854062109375
 42
0.0538711242514
  0
VERTEX
  8
0
 10
4.3891069631638
 20
-0.8662851171875
 42
0.091639492634
  0
VERTEX
  8
0
 10
4.5372954397263
 20
-0.806053671875
 42
0.0930175957574
  0
VERTEX
  8
0
 10
4.6462856741013
 20
-0.698975546875
 42
0.0234445078629
  0
VERTEX
  8
0
 10
4.7323305959763
 20
-0.565127890625
 42
0.0
  0
SEQEND
  0
POLYLINE
  8
0
 66
     1
 10
0.0
 20
0.0
 30
0.0
 70
     1
  0
VERTEX
  8
0
 10
5.3757554006638
 20
0.1260996484375
 42
0.1130780266646
  0
VERTEX
  8
0
 10
5.2583518285429
 20
0.0687521071113
 42
0.0663629743276
  0
VERTEX
  8
0
 10
5.1682915334763
 20
-0.025913046875
 42
0.0559441808968
  0
VERTEX
  8
0
 10
5.0722766838657
 20
-0.1945165741371
 42
0.0306789126197
  0
VERTEX
  8
0
 10
5.0057622366013
 20
-0.3767851171875
 42
0.0
  0
VERTEX
  8
0
 10
5.2160942678513
 20
-0.3767851171875
 42
-0.003188586996
  0
VERTEX
  8
0
 10
5.2610288381638
 20
-0.184618125
 42
-0.0057607894789
  0
VERTEX
  8
0
 10
5.3002270803513
 20
-0.0345175390625
 42
-0.0262985867786
  0
VERTEX
  8
0
 10
5.3375132131638
 20
0.07542875
 42
-0.0404314073859
  0
VERTEX
  8
0
 10
5.3521782570394
 20
0.1041272858946
 42
-0.165094178698
  0
SEQEND
  0
POLYLINE
  8
0
 66
     1
 10
0.0
 20
0.0
 30
0.0
 70
     1
  0
VERTEX
  8
0
 10
7.5430312305598
 20
0.333563515625
 42
-0.0797414393303
  0
VERTEX
  8
0
 10
7.6673183399348
 20
0.314442421875
 42
-0.0974925701232
  0
VERTEX
  8
0
 10
7.7686601368098
 20
0.260903359375
 42
-0.1154692119584
  0
VERTEX
  8
0
 10
7.8365400196223
 20
0.17103421875
 42
-0.109842523773
  0
VERTEX
  8
0
 10
7.8613974414973
 20
0.050571328125
 42
-0.032793502879
  0
VERTEX
  8
0
 10
7.8575732227473
 20
0.0037246484375
 42
-0.0521331271758
  0
VERTEX
  8
0
 10
7.8461005664973
 20
-0.05077046875
 42
-0.0595097150101
  0
VERTEX
  8
0
 10
7.8231552539973
 20
-0.0995292578125
 42
-0.2871754788299
  0
VERTEX
  8
0
 10
7.7830009571223
 20
-0.1224745703125
 42
-0.1843723227455
  0
VERTEX
  8
0
 10
7.7648359180598
 20
-0.117694296875
 42
0.0
  0
VERTEX
  8
0
 10
7.6577577930598
 20
-0.08136421875
 42
-0.3852035669046
  0
VERTEX
  8
0
 10
7.6214277149348
 20
-0.03547359375
 42
-0.149313243521
  0
VERTEX
  8
0
 10
7.6309882618098
 20
-0.0000995703125
 42
0.1446589058662
  0
VERTEX
  8
0
 10
7.6415048633723
 20
0.046747109375
 42
0.0733638383353
  0
VERTEX
  8
0
 10
7.6362415347598
 20
0.0872304982149
 42
0.159698009047
  0
VERTEX
  8
0
 10
7.6137792774348
 20
0.121319375
 42
0.1718466012844
  0
VERTEX
  8
0
 10
7.5430312305598
 20
0.1433086328125
 42
0.0646856905446
  0
VERTEX
  8
0
 10
7.4694150196223
 20
0.1337480859375
 42
0.0859386818145
  0
VERTEX
  8
0
 10
7.4063154102473
 20
0.1069785546875
 42
0.1204245001528
  0
VERTEX
  8
0
 10
7.3632929493098
 20
0.0591758203125
 42
0.1217626481578
  0
VERTEX
  8
0
 10
7.3479960743098
 20
-0.01252828125
 42
0.1241260125071
  0
VERTEX
  8
0
 10
7.3738095508723
 20
-0.1186503515625
 42
0.0490945780675
  0
VERTEX
  8
0
 10
7.4407333789973
 20
-0.215211875
 42
0.019055042373
  0
VERTEX
  8
0
 10
7.5315585743098
 20
-0.312729453125
 42
-0.035878873702
  0
VERTEX
  8
0
 10
7.6252519336848
 20
-0.4188515234375
 42
-0.0616228498834
  0
VERTEX
  8
0
 10
7.6988681446223
 20
-0.542182578125
 42
-0.1067748937849
  0
VERTEX
  8
0
 10
7.7285058399348
 20
-0.6884589453125
 42
-0.1934857173252
  0
VERTEX
  8
0
 10
7.6606259571223
 20
-0.8643730078125
 42
-0.1025658884267
  0
VERTEX
  8
0
 10
7.4894921680598
 20
-0.985791953125
 42
-0.0602918403324
  0
VERTEX
  8
0
 10
7.2581269336848
 20
-1.05654
 42
-0.0444005119224
  0
VERTEX
  8
0
 10
7.0047724414973
 20
-1.0794853125
 42
-0.040025261448
  0
VERTEX
  8
0
 10
6.8145175586848
 20
-1.0632323828125
 42
-0.0566700707442
  0
VERTEX
  8
0
 10
6.6261747852473
 20
-1.010649375
 42
-0.0969006451836
  0
VERTEX
  8
0
 10
6.4779863086848
 20
-0.913131796875
 42
-0.2047893741429
  0
VERTEX
  8
0
 10
6.4177548633723
 20
-0.7649433203125
 42
-0.0783199000037
  0
VERTEX
  8
0
 10
6.4320922558566
 20
-0.6681929393797
 42
-0.0948949986521
  0
VERTEX
  8
0
 10
6.4789423633723
 20
-0.582336875
 42
-0.1074142104755
  0
VERTEX
  8
0
 10
6.6280868946223
 20
-0.4628300390625
 42
-0.0649628557684
  0
VERTEX
  8
0
 10
6.8192978321223
 20
-0.39495015625
 42
-0.0375771232782
  0
VERTEX
  8
0
 10
7.0133769336848
 20
-0.3653124609375
 42
-0.1920063437433
  0
VERTEX
  8
0
 10
7.0489864218367
 20
-0.3767888077165
 42
-0.2041598663209
  0
VERTEX
  8
0
 10
7.0611796680598
 20
-0.412159140625
 42
0.0
  0
VERTEX
  8
0
 10
7.0611796680598
 20
-0.50967671875
 42
-0.1917593494331
  0
VERTEX
  8
0
 10
7.050181243681
 20
-0.5438519229976
 42
-0.2044230489587
  0
VERTEX
  8
0
 10
7.0162450977473
 20
-0.55556734375
 42
0.0178057288414
  0
VERTEX
  8
0
 10
6.9043866993098
 20
-0.57086421875
 42
0.0532661191952
  0
VERTEX
  8
0
 10
6.7753193164973
 20
-0.6062382421875
 42
0.0838004342876
  0
VERTEX
  8
0
 10
6.6730214649348
 20
-0.6664696875
 42
0.2248454159955
  0
VERTEX
  8
0
 10
6.6319111133723
 20
-0.7534706640625
 42
0.2694169386713
  0
VERTEX
  8
0
 10
6.6758896289973
 20
-0.8223066015625
 42
0.073526895293
  0
VERTEX
  8
0
 10
6.7877480274348
 20
-0.8653290625
 42
0.0422124485657
  0
VERTEX
  8
0
 10
6.9225517383723
 20
-0.88445015625
 42
0.0100122377628
  0
VERTEX
  8
0
 10
7.0353661914973
 20
-0.8873183203125
 42
0.0257832044925
  0
VERTEX
  8
0
 10
7.1787743946223
 20
-0.878713828125
 42
0.0466602956597
  0
VERTEX
  8
0
 10
7.3346113086848
 20
-0.84620796875
 42
0.0944165104857
  0
VERTEX
  8
0
 10
7.4579423633723
 20
-0.7821523046875
 42
0.2355788709967
  0
VERTEX
  8
0
 10
7.5067011524348
 20
-0.6827226171875
 42
0.1348298207648
  0
VERTEX
  8
0
 10
7.4799316211848
 20
-0.588073203125
 42
0.0491263765269
  0
VERTEX
  8
0
 10
7.4130077930598
 20
-0.49437984375
 42
0.0192994548942
  0
VERTEX
  8
0
 10
7.3231386524348
 20
-0.3939941015625
 42
-0.0320956301317
  0
VERTEX
  8
0
 10
7.2294452930598
 20
-0.2830917578125
 42
-0.0586157024909
  0
VERTEX
  8
0
 10
7.1567851368098
 20
-0.1568925390625
 42
-0.1022245261397
  0
VERTEX
  8
0
 10
7.1281034961848
 20
-0.0087040625
 42
-0.1259304620825
  0
VERTEX
  8
0
 10
7.1615654102473
 20
0.1280117578125
 42
-0.102427273657
  0
VERTEX
  8
0
 10
7.2514345508723
 20
0.2350898828125
 42
-0.0890868701608
  0
VERTEX
  8
0
 10
7.3833700977473
 20
0.306793984375
 42
-0.0859220639792
  0
SEQEND
  0
POLYLINE
  8
0
 66
     1
 10
0.0
 20
0.0
 30
0.0
 70
     1
  0
VERTEX
  8
0
 10
8.0149876270442
 20
-0.435104453125
 42
-0.2071067494153
  0
VERTEX
  8
0
 10
8.0293284473567
 20
-0.400686484375
 42
-0.2167803835869
  0
VERTEX
  8
0
 10
8.0608782520442
 20
-0.3863456640625
 42
0.0
  0
VERTEX
  8
0
 10
8.1115491504817
 20
-0.3863456640625
 42
0.0
  0
VERTEX
  8
0
 10
8.1679563770442
 20
-0.1157821875
 42
-0.4541102854034
  0
VERTEX
  8
0
 10
8.2138470020442
 20
-0.075627890625
 42
0.0
  0
VERTEX
  8
0
 10
8.3276175098567
 20
-0.075627890625
 42
-0.1695910548984
  0
VERTEX
  8
0
 10
8.364341840856
 20
-0.0859980342721
 42
-0.2288514219501
  0
VERTEX
  8
0
 10
8.3782884082942
 20
-0.121518515625
 42
0.0
  0
VERTEX
  8
0
 10
8.3180569629817
 20
-0.3863456640625
 42
0.0
  0
VERTEX
  8
0
 10
8.3773323536067
 20
-0.3863456640625
 42
-0.2149061541432
  0
VERTEX
  8
0
 10
8.4098382129817
 20
-0.4016425390625
 42
-0.2068421334208
  0
VERTEX
  8
0
 10
8.4241790332942
 20
-0.435104453125
 42
0.0
  0
VERTEX
  8
0
 10
8.4241790332942
 20
-0.52497359375
 42
-0.2257651980743
  0
VERTEX
  8
0
 10
8.4088821582942
 20
-0.5565233984375
 42
-0.1858599659115
  0
VERTEX
  8
0
 10
8.3773323536067
 20
-0.568952109375
 42
0.0
  0
VERTEX
  8
0
 10
8.2836389942317
 20
-0.568952109375
 42
0.0
  0
VERTEX
  8
0
 10
8.2320120411067
 20
-0.8223066015625
 42
-0.0024357487424
  0
VERTEX
  8
0
 10
8.2253196582942
 20
-0.8653290625
 42
0.014411405152
  0
VERTEX
  8
0
 10
8.2243636036067
 20
-0.8806259375
 42
0.3693336678128
  0
VERTEX
  8
0
 10
8.2214954395442
 20
-0.874889609375
 42
0.0
  0
VERTEX
  8
0
 10
8.2979798145442
 20
-0.874889609375
 42
-0.1748365849542
  0
VERTEX
  8
0
 10
8.3342550936304
 20
-0.8854656463588
 42
-0.2228080550306
  0
VERTEX
  8
0
 10
8.3476946582942
 20
-0.920780234375
 42
0.0
  0
VERTEX
  8
0
 10
8.3476946582942
 20
-1.010649375
 42
-0.1854714279279
  0
VERTEX
  8
0
 10
8.3371624956275
 20
-1.0445744018219
 42
-0.2110488192578
  0
VERTEX
  8
0
 10
8.3037161426692
 20
-1.05654
 42
0.0
  0
VERTEX
  8
0
 10
8.1698684864192
 20
-1.05654
 42
-0.0787134186423
  0
VERTEX
  8
0
 10
8.1042096029858
 20
-1.0474022607373
 42
-0.1684318580795
  0
VERTEX
  8
0
 10
8.0503616504817
 20
-1.008737265625
 42
-0.1547177830952
  0
VERTEX
  8
0
 10
8.0168997364192
 20
-0.8959228125
 42
-0.021523324751
  0
VERTEX
  8
0
 10
8.0188118457942
 20
-0.8643730078125
 42
-0.028448338132
  0
VERTEX
  8
0
 10
8.0274163379817
 20
-0.813702109375
 42
0.0
  0
VERTEX
  8
0
 10
8.0799993457942
 20
-0.568952109375
 42
0.0
  0
VERTEX
  8
0
 10
8.0532298145442
 20
-0.568952109375
 42
-0.2418634788106
  0
VERTEX
  8
0
 10
8.0232725663482
 20
-0.5563855389775
 42
-0.1588181449218
  0
VERTEX
  8
0
 10
8.0149876270442
 20
-0.52497359375
 42
0.0
  0
SEQEND
  0
POLYLINE
  8
0
 66
     1
 10
0.0
 20
0.0
 30
0.0
 70
     1
  0
VERTEX
  8
0
 10
9.1681616700129
 20
-1.0335946875
 42
-0.2166760427458
  0
VERTEX
  8
0
 10
9.1552234237439
 20
-1.0686961810968
 42
-0.1803012949483
  0
VERTEX
  8
0
 10
9.1194028809504
 20
-1.0794853125
 42
-0.0739735702088
  0
VERTEX
  8
0
 10
9.0524717492007
 20
-1.0706912176031
 42
-0.1571284949449
  0
VERTEX
  8
0
 10
8.9960718262629
 20
-1.0335946875
 42
-0.056020001507
  0
VERTEX
  8
0
 10
8.9711254132698
 20
-0.9924171891477
 42
-0.0998757642142
  0
VERTEX
  8
0
 10
8.9597417481379
 20
-0.94563765625
 42
-0.1007286682426
  0
VERTEX
  8
0
 10
8.9196336101774
 20
-0.9970325986727
 42
-0.0451717809298
  0
VERTEX
  8
0
 10
8.8670044434504
 20
-1.035506796875
 42
-0.1392833984793
  0
VERTEX
  8
0
 10
8.6930024903254
 20
-1.0794853125
 42
-0.0876256352104
  0
VERTEX
  8
0
 10
8.6258783208786
 20
-1.0685335543883
 42
-0.1134026329766
  0
VERTEX
  8
0
 10
8.5687153809504
 20
-1.031682578125
 42
-0.1316991245154
  0
VERTEX
  8
0
 10
8.5312900647021
 20
-0.9555111249796
 42
-0.0562391832816
  0
VERTEX
  8
0
 10
8.5228247559504
 20
-0.871065390625
 42
-0.1201713577324
  0
VERTEX
  8
0
 10
8.5696714356379
 20
-0.679854453125
 42
-0.0841632069816
  0
VERTEX
  8
0
 10
8.6891782715754
 20
-0.5182812109375
 42
-0.0847339729027
  0
VERTEX
  8
0
 10
8.8545757325129
 20
-0.4054667578125
 42
-0.1087190287676
  0
VERTEX
  8
0
 10
9.0371821778254
 20
-0.3634003515625
 42
-0.0369351149322
  0
VERTEX
  8
0
 10
9.1079302247004
 20
-0.3691366796875
 42
-0.0674358218098
  0
VERTEX
  8
0
 10
9.1796343262629
 20
-0.38730171875
 42
-0.1087990672222
  0
VERTEX
  8
0
 10
9.2360415528254
 20
-0.4226757421875
 42
-0.2191245582144
  0
VERTEX
  8
0
 10
9.2599429200129
 20
-0.47908296875
 42
-0.1188789357234
  0
VERTEX
  8
0
 10
9.2417778809504
 20
-0.5335780859375
 42
0.0388021759646
  0
VERTEX
  8
0
 10
9.2092720215754
 20
-0.6081503515625
 42
0.021309098388
  0
VERTEX
  8
0
 10
9.1509526856379
 20
-0.794581015625
 42
0.0489286331586
  0
VERTEX
  8
0
 10
9.1375679200129
 20
-0.888274375
 42
0.1057583972486
  0
VERTEX
  8
0
 10
9.1394800293879
 20
-0.89974703125
 42
0.0
  0
VERTEX
  8
0
 10
9.1471284668879
 20
-0.90739546875
 42
-0.0699955887345
  0
VERTEX
  8
0
 10
9.1605132325129
 20
-0.920780234375
 42
-0.1867630965661
  0
VERTEX
  8
0
 10
9.1681616700129
 20
-0.943725546875
 42
0.0
  0
SEQEND
  0
POLYLINE
  8
0
 66
     1
 10
0.0
 20
0.0
 30
0.0
 70
     1
  0
VERTEX
  8
0
 10
8.7283765137629
 20
-0.89974703125
 42
0.0638253478092
  0
VERTEX
  8
0
 10
8.7618384278254
 20
-0.890186484375
 42
0.0445231690018
  0
VERTEX
  8
0
 10
8.8220698731379
 20
-0.8586366796875
 42
0.0424455555778
  0
VERTEX
  8
0
 10
8.8985542481379
 20
-0.7974491796875
 42
0.0505532700464
  0
VERTEX
  8
0
 10
8.9769507325129
 20
-0.7094921484375
 42
-0.0162160059482
  0
VERTEX
  8
0
 10
9.0037202637629
 20
-0.618666953125
 42
-0.0309263393868
  0
VERTEX
  8
0
 10
9.0178282648407
 20
-0.5824097373894
 42
-0.0822035814784
  0
VERTEX
  8
0
 10
9.0390942872004
 20
-0.549831015625
 42
0.0
  0
VERTEX
  8
0
 10
9.0410063965754
 20
-0.549831015625
 42
0.1176816176031
  0
VERTEX
  8
0
 10
8.9253237793879
 20
-0.57851265625
 42
0.0883501508771
  0
VERTEX
  8
0
 10
8.8249380372004
 20
-0.6521288671875
 42
0.0861482839453
  0
VERTEX
  8
0
 10
8.7551460450129
 20
-0.7553827734375
 42
0.1085211853612
  0
VERTEX
  8
0
 10
8.7293325684504
 20
-0.867241171875
 42
-0.024309390794
  0
SEQEND
  0
POLYLINE
  8
0
 66
     1
 10
0.0
 20
0.0
 30
0.0
 70
     1
  0
VERTEX
  8
0
 10
9.3681348487239
 20
-0.435104453125
 42
-0.2071067494153
  0
VERTEX
  8
0
 10
9.3824756690364
 20
-0.400686484375
 42
-0.2167803835869
  0
VERTEX
  8
0
 10
9.4140254737239
 20
-0.3863456640625
 42
0.0
  0
VERTEX
  8
0
 10
9.4646963721614
 20
-0.3863456640625
 42
0.0
  0
VERTEX
  8
0
 10
9.5211035987239
 20
-0.1157821875
 42
-0.4541102854034
  0
VERTEX
  8
0
 10
9.5669942237239
 20
-0.075627890625
 42
0.0
  0
VERTEX
  8
0
 10
9.6807647315364
 20
-0.075627890625
 42
-0.1695910548984
  0
VERTEX
  8
0
 10
9.7174890625357
 20
-0.0859980342721
 42
-0.2288514219501
  0
VERTEX
  8
0
 10
9.7314356299739
 20
-0.121518515625
 42
0.0
  0
VERTEX
  8
0
 10
9.6712041846614
 20
-0.3863456640625
 42
0.0
  0
VERTEX
  8
0
 10
9.7304795752864
 20
-0.3863456640625
 42
-0.2149061541432
  0
VERTEX
  8
0
 10
9.7629854346614
 20
-0.4016425390625
 42
-0.2068421334208
  0
VERTEX
  8
0
 10
9.7773262549739
 20
-0.435104453125
 42
0.0
  0
VERTEX
  8
0
 10
9.7773262549739
 20
-0.52497359375
 42
-0.2257651980743
  0
VERTEX
  8
0
 10
9.7620293799739
 20
-0.5565233984375
 42
-0.1858599659115
  0
VERTEX
  8
0
 10
9.7304795752864
 20
-0.568952109375
 42
0.0
  0
VERTEX
  8
0
 10
9.6367862159114
 20
-0.568952109375
 42
0.0
  0
VERTEX
  8
0
 10
9.5851592627864
 20
-0.8223066015625
 42
-0.0024357487424
  0
VERTEX
  8
0
 10
9.5784668799739
 20
-0.8653290625
 42
0.014411405152
  0
VERTEX
  8
0
 10
9.5775108252864
 20
-0.8806259375
 42
0.3693336678128
  0
VERTEX
  8
0
 10
9.5746426612239
 20
-0.874889609375
 42
0.0
  0
VERTEX
  8
0
 10
9.6511270362239
 20
-0.874889609375
 42
-0.1748365849542
  0
VERTEX
  8
0
 10
9.6874023153101
 20
-0.8854656463588
 42
-0.2228080550306
  0
VERTEX
  8
0
 10
9.7008418799739
 20
-0.920780234375
 42
0.0
  0
VERTEX
  8
0
 10
9.7008418799739
 20
-1.010649375
 42
-0.1854714279279
  0
VERTEX
  8
0
 10
9.6903097173072
 20
-1.0445744018219
 42
-0.2110488192578
  0
VERTEX
  8
0
 10
9.6568633643489
 20
-1.05654
 42
0.0
  0
VERTEX
  8
0
 10
9.5230157080989
 20
-1.05654
 42
-0.0787134186423
  0
VERTEX
  8
0
 10
9.4573568246655
 20
-1.0474022607373
 42
-0.1684318580795
  0
VERTEX
  8
0
 10
9.4035088721614
 20
-1.008737265625
 42
-0.1547177830952
  0
VERTEX
  8
0
 10
9.3700469580989
 20
-0.8959228125
 42
-0.021523324751
  0
VERTEX
  8
0
 10
9.3719590674739
 20
-0.8643730078125
 42
-0.028448338132
  0
VERTEX
  8
0
 10
9.3805635596614
 20
-0.813702109375
 42
0.0
  0
VERTEX
  8
0
 10
9.4331465674739
 20
-0.568952109375
 42
0.0
  0
VERTEX
  8
0
 10
9.4063770362239
 20
-0.568952109375
 42
-0.2418634788106
  0
VERTEX
  8
0
 10
9.3764197880279
 20
-0.5563855389775
 42
-0.1588181449218
  0
VERTEX
  8
0
 10
9.3681348487239
 20
-0.52497359375
 42
0.0
  0
SEQEND
  0
POLYLINE
  8
0
 66
     1
 10
0.0
 20
0.0
 30
0.0
 70
     1
  0
VERTEX
  8
0
 10
10.5146165088801
 20
-0.503940390625
 42
-0.157022422202
  0
VERTEX
  8
0
 10
10.4735061573176
 20
-0.6463925390625
 42
-0.1178917591982
  0
VERTEX
  8
0
 10
10.3692961963801
 20
-0.7400858984375
 42
-0.0694633314365
  0
VERTEX
  8
0
 10
10.2268440479426
 20
-0.7936249609375
 42
-0.029243920887
  0
VERTEX
  8
0
 10
10.0805676807551
 20
-0.817526328125
 42
-0.011337271528
  0
VERTEX
  8
0
 10
10.0809483892143
 20
-0.8158975798008
 42
-0.0101112602818
  0
VERTEX
  8
0
 10
10.0812527730361
 20
-0.8147460941548
 42
-0.0143645504185
  0
VERTEX
  8
0
 10
10.0815095432763
 20
-0.8139208603846
 42
-0.339050222402
  0
VERTEX
  8
0
 10
10.0822017515759
 20
-0.8131005086518
 42
-0.0610628470762
  0
VERTEX
  8
0
 10
10.0824797901301
 20
-0.8165702734375
 42
0.0
  0
VERTEX
  8
0
 10
10.0824797901301
 20
-0.8299550390625
 42
0.211764965768
  0
VERTEX
  8
0
 10
10.1006448291926
 20
-0.8777577734375
 42
0.1334609598123
  0
VERTEX
  8
0
 10
10.1346249842806
 20
-0.8920926726467
 42
0.0443596295303
  0
VERTEX
  8
0
 10
10.1713928760676
 20
-0.8949667578125
 42
0.0199524608266
  0
VERTEX
  8
0
 10
10.2161924914819
 20
-0.8933769891732
 42
0.060405654315
  0
VERTEX
  8
0
 10
10.2603059620051
 20
-0.8854062109375
 42
-0.0823562184639
  0
VERTEX
  8
0
 10
10.3061965870051
 20
-0.8758456640625
 42
-0.3382338234443
  0
VERTEX
  8
0
 10
10.3492190479426
 20
-0.9026151953125
 42
0.0
  0
VERTEX
  8
0
 10
10.3855491260676
 20
-0.9867480078125
 42
-0.1818044374894
  0
VERTEX
  8
0
 10
10.3912854541926
 20
-1.008737265625
 42
-0.2137248828549
  0
VERTEX
  8
0
 10
10.3811221668156
 20
-1.0323509461795
 42
-0.1040375106057
  0
VERTEX
  8
0
 10
10.3587795948176
 20
-1.04506734375
 42
-0.0302146902636
  0
VERTEX
  8
0
 10
10.2918557666926
 20
-1.0641884375
 42
-0.0299257733514
  0
VERTEX
  8
0
 10
10.2220637745051
 20
-1.07566109375
 42
-0.0247661445169
  0
VERTEX
  8
0
 10
10.1656565479426
 20
-1.0794853125
 42
-0.0635773893059
  0
VERTEX
  8
0
 10
10.052165903571
 20
-1.0665433424511
 42
-0.1315880058821
  0
VERTEX
  8
0
 10
9.9515002979426
 20
-1.012561484375
 42
-0.1131901332662
  0
VERTEX
  8
0
 10
9.8990319571693
 20
-0.9291747411921
 42
-0.0852254857816
  0
VERTEX
  8
0
 10
9.8836204151301
 20
-0.8318671484375
 42
-0.1212824607596
  0
VERTEX
  8
0
 10
9.9266428760676
 20
-0.6636015234375
 42
-0.0788234338305
  0
VERTEX
  8
0
 10
10.0365891651301
 20
-0.5125448828125
 42
-0.0792897374158
  0
VERTEX
  8
0
 10
10.1866897510676
 20
-0.404510703125
 42
-0.1168818924998
  0
VERTEX
  8
0
 10
10.3463508838801
 20
-0.3634003515625
 42
-0.0670065529352
  0
VERTEX
  8
0
 10
10.415992671962
 20
-0.3717007059521
 42
-0.1480113256982
  0
VERTEX
  8
0
 10
10.4763743213801
 20
-0.4073788671875
 42
-0.1862606255053
  0
SEQEND
  0
POLYLINE
  8
0
 66
     1
 10
0.0
 20
0.0
 30
0.0
 70
     1
  0
VERTEX
  8
0
 10
10.2937678760676
 20
-0.5440946875
 42
0.1043897617313
  0
VERTEX
  8
0
 10
10.2402288135676
 20
-0.557479453125
 42
0.0574776060687
  0
VERTEX
  8
0
 10
10.1847776416926
 20
-0.591897421875
 42
0.0439058156989
  0
VERTEX
  8
0
 10
10.1350627979426
 20
-0.6406562109375
 42
-0.033952460498
  0
VERTEX
  8
0
 10
10.1191371624307
 20
-0.6570801007004
 42
-0.1726764151745
  0
VERTEX
  8
0
 10
10.0987327198176
 20
-0.6674257421875
 42
0.0146588638136
  0
VERTEX
  8
0
 10
10.1675686573176
 20
-0.6511728125
 42
0.035329165528
  0
VERTEX
  8
0
 10
10.2459651416926
 20
-0.6234472265625
 42
0.0815559337468
  0
VERTEX
  8
0
 10
10.2975920948176
 20
-0.5899853125
 42
0.1918364436687
  0
VERTEX
  8
0
 10
10.3157571338801
 20
-0.5584355078125
 42
0.3261729492972
  0
VERTEX
  8
0
 10
10.3079199112096
 20
-0.5464237423287
 42
0.0991039436529
  0
SEQEND
  0
POLYLINE
  8
0
 66
     1
 10
0.0
 20
0.0
 30
0.0
 70
     1
  0
VERTEX
  8
0
 10
12.0096663866277
 20
-0.6540409765625
 42
-0.0990649320479
  0
VERTEX
  8
0
 10
11.9781165819402
 20
-0.8146581640625
 42
-0.0955800997979
  0
VERTEX
  8
0
 10
11.8892034960027
 20
-0.9504179296875
 42
-0.0955668326582
  0
VERTEX
  8
0
 10
11.7534437303777
 20
-1.04506734375
 42
-0.1047011822551
  0
VERTEX
  8
0
 10
11.5823099413152
 20
-1.0794853125
 42
-0.0703258288989
  0
VERTEX
  8
0
 10
11.4553235393459
 20
-1.0634651587627
 42
-0.1383421192223
  0
VERTEX
  8
0
 10
11.3452083788152
 20
-0.9982206640625
 42
-0.1058048275967
  0
VERTEX
  8
0
 10
11.2883220543093
 20
-0.9000820538536
 42
-0.0798828044746
  0
VERTEX
  8
0
 10
11.2715921678777
 20
-0.7878886328125
 42
-0.0635752557724
  0
VERTEX
  8
0
 10
11.2907132616277
 20
-0.6616894140625
 42
-0.0940448946908
  0
VERTEX
  8
0
 10
11.3557249803777
 20
-0.523061484375
 42
-0.107300617017
  0
VERTEX
  8
0
 10
11.4857484178777
 20
-0.41024703125
 42
-0.0782483825017
  0
VERTEX
  8
0
 10
11.5854943801032
 20
-0.3735291479114
 42
-0.0513437391549
  0
VERTEX
  8
0
 10
11.6913001756902
 20
-0.3634003515625
 42
-0.069378400521
  0
VERTEX
  8
0
 10
11.8200576445624
 20
-0.379441553904
 42
-0.1359755922854
  0
VERTEX
  8
0
 10
11.9322259569402
 20
-0.444665
 42
-0.1071475825653
  0
VERTEX
  8
0
 10
11.9917566217204
 20
-0.5416560192321
 42
-0.0850965645356
  0
SEQEND
  0
POLYLINE
  8
0
 66
     1
 10
0.0
 20
0.0
 30
0.0
 70
     1
  0
VERTEX
  8
0
 10
11.5784857225652
 20
-0.8968788671875
 42
0.1310217187594
  0
VERTEX
  8
0
 10
11.6750472460027
 20
-0.8739335546875
 42
0.1021307095166
  0
VERTEX
  8
0
 10
11.7410150194402
 20
-0.8146581640625
 42
0.0893813636068
  0
VERTEX
  8
0
 10
11.7802132616277
 20
-0.735305625
 42
0.0738079257429
  0
VERTEX
  8
0
 10
11.7935980272527
 20
-0.6521288671875
 42
0.1501712458133
  0
VERTEX
  8
0
 10
11.7735208788152
 20
-0.576600546875
 42
0.1766633631898
  0
VERTEX
  8
0
 10
11.7380981006725
 20
-0.551629115666
 42
0.0744407053607
  0
VERTEX
  8
0
 10
11.6951243944402
 20
-0.546006796875
 42
0.120444041654
  0
VERTEX
  8
0
 10
11.6090794725652
 20
-0.5660839453125
 42
0.0992790480265
  0
VERTEX
  8
0
 10
11.5402435350652
 20
-0.618666953125
 42
0.0911922596173
  0
VERTEX
  8
0
 10
11.4953089647527
 20
-0.6970634375
 42
0.0844097158276
  0
VERTEX
  8
0
 10
11.4800120897527
 20
-0.7898007421875
 42
0.1484396327152
  0
VERTEX
  8
0
 10
11.5000892381902
 20
-0.8681972265625
 42
0.1734578565393
  0
VERTEX
  8
0
 10
11.5359252471648
 20
-0.8917281671241
 42
0.068924169738
  0
SEQEND
  0
POLYLINE
  8
0
 66
     1
 10
0.0
 20
0.0
 30
0.0
 70
     1
  0
VERTEX
  8
0
 10
12.7460770702214
 20
0.1719902734375
 42
0.2036951755162
  0
VERTEX
  8
0
 10
12.7203166831109
 20
0.1570675896824
 42
0.0604318310605
  0
VERTEX
  8
0
 10
12.6963528959105
 20
0.1202297147024
 42
0.0222982301135
  0
VERTEX
  8
0
 10
12.6781971874089
 20
0.0802090234375
 42
0.0289480973193
  0
VERTEX
  8
0
 10
12.6358208659751
 20
-0.053186804361
 42
0.0118992739264
  0
VERTEX
  8
0
 10
12.6036249217839
 20
-0.1893983984375
 42
0.0
  0
VERTEX
  8
0
 10
12.5586903514714
 20
-0.3863456640625
 42
0.0
  0
VERTEX
  8
0
 10
12.6208339061589
 20
-0.3863456640625
 42
-0.2164662382553
  0
VERTEX
  8
0
 10
12.6552518749089
 20
-0.4016425390625
 42
-0.2068421334208
  0
VERTEX
  8
0
 10
12.6695926952214
 20
-0.435104453125
 42
0.0
  0
VERTEX
  8
0
 10
12.6695926952214
 20
-0.52497359375
 42
-0.2257651980743
  0
VERTEX
  8
0
 10
12.6542958202214
 20
-0.5565233984375
 42
-0.1865096507259
  0
VERTEX
  8
0
 10
12.6208339061589
 20
-0.568952109375
 42
0.0
  0
VERTEX
  8
0
 10
12.5233163280339
 20
-0.568952109375
 42
0.0
  0
VERTEX
  8
0
 10
12.3034237499089
 20
-1.570897421875
 42
-0.415738755083
  0
VERTEX
  8
0
 10
12.2604012889714
 20
-1.60340328125
 42
0.0
  0
VERTEX
  8
0
 10
12.1428065624089
 20
-1.60340328125
 42
-0.260119398229
  0
VERTEX
  8
0
 10
12.1078089257624
 20
-1.5873192226238
 42
-0.1447139007992
  0
VERTEX
  8
0
 10
12.0988280467839
 20
-1.54986421875
 42
0.0
  0
VERTEX
  8
0
 10
12.3120282420964
 20
-0.568952109375
 42
0.0
  0
VERTEX
  8
0
 10
12.2680497264714
 20
-0.568952109375
 42
-0.1858715692809
  0
VERTEX
  8
0
 10
12.2364999217839
 20
-0.5565233984375
 42
-0.2378988276969
  0
VERTEX
  8
0
 10
12.2212030467839
 20
-0.52497359375
 42
0.0
  0
VERTEX
  8
0
 10
12.2212030467839
 20
-0.435104453125
 42
-0.2071067494153
  0
VERTEX
  8
0
 10
12.2355438670964
 20
-0.400686484375
 42
-0.2061643158614
  0
VERTEX
  8
0
 10
12.2680497264714
 20
-0.3863456640625
 42
0.0
  0
VERTEX
  8
0
 10
12.3483583202214
 20
-0.3863456640625
 42
0.0
  0
VERTEX
  8
0
 10
12.3961610545964
 20
-0.1616728125
 42
-0.0149113835257
  0
VERTEX
  8
0
 10
12.4458758983464
 20
0.0400547265625
 42
-0.0572908081968
  0
VERTEX
  8
0
 10
12.5118436717839
 20
0.2025840234375
 42
-0.1125369770334
  0
VERTEX
  8
0
 10
12.6074491405339
 20
0.3134863671875
 42
-0.1595483685633
  0
VERTEX
  8
0
 10
12.7460770702214
 20
0.35459671875
 42
0.0
  0
VERTEX
  8
0
 10
12.8091766795964
 20
0.35459671875
 42
-0.2164662382553
  0
VERTEX
  8
0
 10
12.8435946483464
 20
0.33929984375
 42
-0.2068421334208
  0
VERTEX
  8
0
 10
12.8579354686589
 20
0.3058379296875
 42
0.0
  0
VERTEX
  8
0
 10
12.8579354686589
 20
0.2159687890625
 42
-0.2257651980743
  0
VERTEX
  8
0
 10
12.8426385936589
 20
0.184418984375
 42
-0.1865096507259
  0
VERTEX
  8
0
 10
12.8091766795964
 20
0.1719902734375
 42
0.0
  0
SEQEND
  0
POLYLINE
  8
0
 66
     1
 10
0.0
 20
0.0
 30
0.0
 70
     1
  0
VERTEX
  8
0
 10
7.0761994067383
 20
-2.310618203125
 42
-0.1970351473629
  0
VERTEX
  8
0
 10
7.0628146411133
 20
-2.3440801171875
 42
-0.2172215852529
  0
VERTEX
  8
0
 10
7.0303087817383
 20
-2.3584209375
 42
0.0129448963124
  0
VERTEX
  8
0
 10
6.9155822192383
 20
-2.36224515625
 42
0.0162323242847
  0
VERTEX
  8
0
 10
6.7664376879883
 20
-2.375629921875
 42
0.0269605123289
  0
VERTEX
  8
0
 10
6.6086886645508
 20
-2.4033555078125
 42
0.0505152228816
  0
VERTEX
  8
0
 10
6.4700607348633
 20
-2.4492461328125
 42
0.09788372412
  0
VERTEX
  8
0
 10
6.3734992114258
 20
-2.5142578515625
 42
0.1989152852345
  0
VERTEX
  8
0
 10
6.3371691333008
 20
-2.6003027734375
 42
0.1826905751668
  0
VERTEX
  8
0
 10
6.3591583911133
 20
-2.6653144921875
 42
0.1059995269123
  0
VERTEX
  8
0
 10
6.4203458911133
 20
-2.70642484375
 42
0.0607197548089
  0
VERTEX
  8
0
 10
6.5073468676758
 20
-2.7284141015625
 42
0.0287524205951
  0
VERTEX
  8
0
 10
6.6086886645508
 20
-2.7341504296875
 42
0.065741261887
  0
VERTEX
  8
0
 10
6.8524826098633
 20
-2.7054687890625
 42
0.0751167750057
  0
VERTEX
  8
0
 10
7.0389132739258
 20
-2.6251601953125
 42
0.0735537317936
  0
VERTEX
  8
0
 10
7.1794533129883
 20
-2.5027851953125
 42
0.055057136019
  0
VERTEX
  8
0
 10
7.2846193286133
 20
-2.34694828125
 42
0.0370606095587
  0
VERTEX
  8
0
 10
7.3677960864258
 20
-2.1662539453125
 42
0.0123870963941
  0
VERTEX
  8
0
 10
7.4385441333008
 20
-1.968350625
 42
0.012881546365
  0
VERTEX
  8
0
 10
7.4997316333008
 20
-1.763754921875
 42
0.0018972962318
  0
VERTEX
  8
0
 10
7.5513585864258
 20
-1.568719765625
 42
-0.2300004633584
  0
VERTEX
  8
0
 10
7.5662695252237
 20
-1.5416455549902
 42
-0.144614628663
  0
VERTEX
  8
0
 10
7.5962931567383
 20
-1.534301796875
 42
0.0
  0
VERTEX
  8
0
 10
7.7358771411133
 20
-1.534301796875
 42
-0.2364857758129
  0
VERTEX
  8
0
 10
7.7631891656384
 20
-1.5481001346257
 42
-0.0899223504479
  0
VERTEX
  8
0
 10
7.7769874926758
 20
-1.5754121484375
 42
-0.0421229550789
  0
VERTEX
  8
0
 10
7.7980206958008
 20
-1.6691055078125
 42
-0.0185578769384
  0
VERTEX
  8
0
 10
7.8104494067383
 20
-1.7876562890625
 42
-0.0037943348387
  0
VERTEX
  8
0
 10
7.8190538989258
 20
-1.9195918359375
 42
-0.0110132960388
  0
VERTEX
  8
0
 10
7.8238341723633
 20
-2.054395546875
 42
-0.0046276749491
  0
VERTEX
  8
0
 10
7.8257462817383
 20
-2.1413965234375
 42
-0.0184964675285
  0
VERTEX
  8
0
 10
7.8200099536133
 20
-2.310618203125
 42
-0.0989908067778
  0
VERTEX
  8
0
 10
7.8811974536133
 20
-2.0840332421875
 42
-0.0199613516577
  0
VERTEX
  8
0
 10
7.9959240161133
 20
-1.8612725
 42
-0.0195114563626
  0
VERTEX
  8
0
 10
8.1125626879883
 20
-1.675797890625
 42
-0.0328605714953
  0
VERTEX
  8
0
 10
8.2215529223633
 20
-1.534301796875
 42
0.0
  0
VERTEX
  8
0
 10
8.3859943286133
 20
-1.534301796875
 42
-0.1980265831549
  0
VERTEX
  8
0
 10
8.4196952563477
 20
-1.5455354394531
 42
-0.1980512805129
  0
VERTEX
  8
0
 10
8.4309288989258
 20
-1.5792363671875
 42
-0.0541064857718
  0
VERTEX
  8
0
 10
8.4271046801758
 20
-1.6002695703125
 42
-0.034159322303
  0
VERTEX
  8
0
 10
8.4213683520508
 20
-1.6213027734375
 42
0.036607090338
  0
VERTEX
  8
0
 10
8.3267189379883
 20
-2.0343183984375
 42
0.0372060708799
  0
VERTEX
  8
0
 10
8.2951691333008
 20
-2.4760156640625
 42
0.0162672060736
  0
VERTEX
  8
0
 10
8.2980372973633
 20
-2.5620605859375
 42
0.0329734822916
  0
VERTEX
  8
0
 10
8.3123781176758
 20
-2.6519297265625
 42
0.0454961597886
  0
VERTEX
  8
0
 10
8.3420158129883
 20
-2.7437109765625
 42
0.0723704744934
  0
VERTEX
  8
0
 10
8.3926867114258
 20
-2.826887734375
 42
-0.1232852204068
  0
VERTEX
  8
0
 10
8.4022472583008
 20
-2.857481484375
 42
-0.1914835752852
  0
VERTEX
  8
0
 10
8.3917266743063
 20
-2.890222462847
 42
-0.2047134610429
  0
VERTEX
  8
0
 10
8.3592247973633
 20
-2.90146
 42
0.0
  0
VERTEX
  8
0
 10
8.2186847583008
 20
-2.90146
 42
-0.0918101604762
  0
VERTEX
  8
0
 10
8.1938273364258
 20
-2.895723671875
 42
-0.0758768761126
  0
VERTEX
  8
0
 10
8.1737501879883
 20
-2.88233890625
 42
-0.1001039465714
  0
VERTEX
  8
0
 10
8.0953537036133
 20
-2.6796553125
 42
-0.0430209743298
  0
VERTEX
  8
0
 10
8.0752765551758
 20
-2.4530703515625
 42
-0.0168287741824
  0
VERTEX
  8
0
 10
8.0800568286133
 20
-2.3173105859375
 42
-0.0128191732271
  0
VERTEX
  8
0
 10
8.0934415942383
 20
-2.172946328125
 42
-0.0167685693887
  0
VERTEX
  8
0
 10
8.1144747973633
 20
-2.0324062890625
 42
-0.024636572617
  0
VERTEX
  8
0
 10
8.1402882739258
 20
-1.91863578125
 42
-0.0499865164658
  0
VERTEX
  8
0
 10
8.0704962817383
 20
-2.123231484375
 42
0.014056843811
  0
VERTEX
  8
0
 10
7.9729787036133
 20
-2.3689375390625
 42
0.0111111111111
  0
VERTEX
  8
0
 10
7.8869337817383
 20
-2.6270723046875
 42
0.0083438224552
  0
VERTEX
  8
0
 10
7.8180978442383
 20
-2.86704203125
 42
-0.1360069620651
  0
VERTEX
  8
0
 10
7.8044756252832
 20
-2.8917817356825
 42
-0.1965371155204
  0
VERTEX
  8
0
 10
7.7779435473633
 20
-2.90146
 42
0.0
  0
VERTEX
  8
0
 10
7.6460080004883
 20
-2.90146
 42
-0.1663226226958
  0
VERTEX
  8
0
 10
7.6066826953343
 20
-2.8905792675653
 42
-0.232721442523
  0
VERTEX
  8
0
 10
7.5915128833008
 20
-2.8527012109375
 42
0.0093797898289
  0
VERTEX
  8
0
 10
7.6173263598633
 20
-2.517126015625
 42
0.0144278001525
  0
VERTEX
  8
0
 10
7.6268869067383
 20
-2.1891992578125
 42
0.0037653723268
  0
VERTEX
  8
0
 10
7.6259308520508
 20
-2.0630000390625
 42
-0.0243690817836
  0
VERTEX
  8
0
 10
7.6287990161133
 20
-1.954965859375
 42
-0.0538762739716
  0
VERTEX
  8
0
 10
7.6207925655061
 20
-2.0616377649518
 42
-0.0347198472675
  0
VERTEX
  8
0
 10
7.5943810473633
 20
-2.165297890625
 42
-0.0367621953806
  0
VERTEX
  8
0
 10
7.5016437426758
 20
-2.390926796875
 42
-0.0502189863483
  0
VERTEX
  8
0
 10
7.3716203051758
 20
-2.597434609375
 42
-0.0753293015048
  0
VERTEX
  8
0
 10
7.1890138598633
 20
-2.7685683984375
 42
-0.078863810887
  0
VERTEX
  8
0
 10
6.9461759692383
 20
-2.884251015625
 42
-0.0742642614115
  0
VERTEX
  8
0
 10
6.6354581958008
 20
-2.926317421875
 42
-0.0422441128458
  0
VERTEX
  8
0
 10
6.4557199145508
 20
-2.911020546875
 42
-0.0696156454213
  0
VERTEX
  8
0
 10
6.2931906176758
 20
-2.8603496484375
 42
-0.1087155498641
  0
VERTEX
  8
0
 10
6.1727277270508
 20
-2.7685683984375
 42
-0.182061436286
  0
VERTEX
  8
0
 10
6.1249249926758
 20
-2.6270723046875
 42
-0.0657739132368
  0
VERTEX
  8
0
 10
6.1369437158955
 20
-2.5302885476865
 42
-0.0856438533109
  0
VERTEX
  8
0
 10
6.1775080004883
 20
-2.4415976953125
 42
-0.1083855595106
  0
VERTEX
  8
0
 10
6.3132677661133
 20
-2.3134863671875
 42
-0.0668604228249
  0
VERTEX
  8
0
 10
6.4987423754883
 20
-2.234133828125
 42
-0.0318205882074
  0
VERTEX
  8
0
 10
6.6985578051758
 20
-2.1911113671875
 42
-0.0260869131982
  0
VERTEX
  8
0
 10
6.8878566333008
 20
-2.172946328125
 42
-0.0114900511371
  0
VERTEX
  8
0
 10
7.0303087817383
 20
-2.1681660546875
 42
-0.1917593494331
  0
VERTEX
  8
0
 10
7.0644839859859
 20
-2.1791644790663
 42
-0.2044230489587
  0
VERTEX
  8
0
 10
7.0761994067383
 20
-2.213100625
 42
0.0
  0
SEQEND
  0
POLYLINE
  8
0
 66
     1
 10
0.0
 20
0.0
 30
0.0
 70
     1
  0
VERTEX
  8
0
 10
8.9818601928711
 20
-2.2312656640625
 42
-0.2233213887517
  0
VERTEX
  8
0
 10
9.0164564981595
 20
-2.244467285635
 42
-0.1743743678654
  0
VERTEX
  8
0
 10
9.0267947631836
 20
-2.280024453125
 42
0.0
  0
VERTEX
  8
0
 10
8.9474422241211
 20
-2.673918984375
 42
0.0007303879036
  0
VERTEX
  8
0
 10
8.932121802359
 20
-2.6942842474948
 42
0.0039696721108
  0
VERTEX
  8
0
 10
8.9245197330005
 20
-2.7045674529432
 42
0.0
  0
VERTEX
  8
0
 10
8.9207154998567
 20
-2.7098100348953
 42
0.0
  0
VERTEX
  8
0
 10
8.9187393004751
 20
-2.7125815018143
 42
0.0047543372144
  0
VERTEX
  8
0
 10
8.9175391057167
 20
-2.7142910445034
 42
0.0
  0
VERTEX
  8
0
 10
8.9157945670215
 20
-2.7168362683334
 42
0.0
  0
VERTEX
  8
0
 10
8.9150266048615
 20
-2.7179965582788
 42
0.0
  0
VERTEX
  8
0
 10
8.9143252115377
 20
-2.7190995572795
 42
0.0305457177947
  0
VERTEX
  8
0
 10
8.913430510283
 20
-2.7207010607624
 42
0.169577754029
  0
VERTEX
  8
0
 10
8.9163277300787
 20
-2.7186056043914
 42
0.0078888639914
  0
VERTEX
  8
0
 10
8.9187605834961
 20
-2.715985390625
 42
-0.0029747853565
  0
VERTEX
  8
0
 10
8.9265067646646
 20
-2.7175065244136
 42
-0.0051168718771
  0
VERTEX
  8
0
 10
8.9303824979449
 20
-2.7183290377524
 42
-0.0065236089179
  0
VERTEX
  8
0
 10
8.9323355946685
 20
-2.7187824071065
 42
-0.0097350128088
  0
VERTEX
  8
0
 10
8.933348500172
 20
-2.7190412381083
 42
-0.0110169756067
  0
VERTEX
  8
0
 10
8.9339387092649
 20
-2.7192079130164
 42
-0.0186851129588
  0
VERTEX
  8
0
 10
8.9345326794076
 20
-2.7194032729919
 42
-0.8175406748901
  0
VERTEX
  8
0
 10
8.9340574584961
 20
-2.719809609375
 42
0.0
  0
VERTEX
  8
0
 10
8.9512664428711
 20
-2.719809609375
 42
-0.1970351473629
  0
VERTEX
  8
0
 10
8.9847283569336
 20
-2.733194375
 42
-0.2265416164395
  0
VERTEX
  8
0
 10
9.0000252319336
 20
-2.765700234375
 42
0.0
  0
VERTEX
  8
0
 10
9.0000252319336
 20
-2.855569375
 42
-0.153289517467
  0
VERTEX
  8
0
 10
8.9895086303711
 20
-2.886163125
 42
-0.2598711815257
  0
VERTEX
  8
0
 10
8.9570027709961
 20
-2.90146
 42
0.0
  0
VERTEX
  8
0
 10
8.8852986694336
 20
-2.90146
 42
-0.078702509863
  0
VERTEX
  8
0
 10
8.8192374063066
 20
-2.89224988526
 42
-0.1648674130844
  0
VERTEX
  8
0
 10
8.7648357788086
 20
-2.853657265625
 42
-0.1506538003169
  0
VERTEX
  8
0
 10
8.7323299194336
 20
-2.738930703125
 42
0.0110593107179
  0
VERTEX
  8
0
 10
8.7351980834961
 20
-2.702600625
 42
-0.0303039031518
  0
VERTEX
  8
0
 10
8.7409344116211
 20
-2.6595781640625
 42
0.0
  0
VERTEX
  8
0
 10
8.8202869506836
 20
-2.2714199609375
 42
-0.4541102854034
  0
VERTEX
  8
0
 10
8.8661775756836
 20
-2.2312656640625
 42
0.0
  0
SEQEND
  0
POLYLINE
  8
0
 66
     1
 10
0.0
 20
0.0
 30
0.0
 70
     1
  0
VERTEX
  8
0
 10
9.0086297241211
 20
-1.7666230859375
 42
-0.2157441307254
  0
VERTEX
  8
0
 10
9.0870262084961
 20
-1.800085
 42
-0.2060550634472
  0
VERTEX
  8
0
 10
9.1195320678711
 20
-1.8842178125
 42
-0.1902637396418
  0
VERTEX
  8
0
 10
9.0879822631836
 20
-1.970262734375
 42
-0.2199039250357
  0
VERTEX
  8
0
 10
9.0086297241211
 20
-2.004680703125
 42
-0.2187498960779
  0
VERTEX
  8
0
 10
8.9244969116211
 20
-1.970262734375
 42
-0.1891930280583
  0
VERTEX
  8
0
 10
8.8939031616211
 20
-1.8842178125
 42
-0.2010627161759
  0
VERTEX
  8
0
 10
8.9254529663086
 20
-1.7991289453125
 42
-0.2063624538919
  0
SEQEND
  0
POLYLINE
  8
0
 66
     1
 10
0.0
 20
0.0
 30
0.0
 70
     1
  0
VERTEX
  8
0
 10
9.353923215332
 20
-2.2312656640625
 42
-0.1980265831549
  0
VERTEX
  8
0
 10
9.3904923071289
 20
-2.2434553613281
 42
-0.1980512805129
  0
VERTEX
  8
0
 10
9.4026820043945
 20
-2.280024453125
 42
0.0
  0
VERTEX
  8
0
 10
9.4026820043945
 20
-2.29340921875
 42
-0.1116091595273
  0
VERTEX
  8
0
 10
9.4360568640899
 20
-2.2571127029447
 42
-0.0544528326341
  0
VERTEX
  8
0
 10
9.4791663793945
 20
-2.2331777734375
 42
-0.1035184845208
  0
VERTEX
  8
0
 10
9.6034534887695
 20
-2.2083203515625
 42
-0.0664938214922
  0
VERTEX
  8
0
 10
9.6937369596204
 20
-2.2189601021358
 42
-0.1537705339368
  0
VERTEX
  8
0
 10
9.7717191137695
 20
-2.2656836328125
 42
-0.1032963930287
  0
VERTEX
  8
0
 10
9.8089783186925
 20
-2.3364798223828
 42
-0.0716372722251
  0
VERTEX
  8
0
 10
9.8195218481445
 20
-2.41578421875
 42
-0.1279188821562
  0
VERTEX
  8
0
 10
9.774587277832
 20
-2.6060391015625
 42
-0.0644188592024
  0
VERTEX
  8
0
 10
9.7281386073354
 20
-2.6716999258228
 42
-0.0920519404006
  0
VERTEX
  8
0
 10
9.663684934082
 20
-2.719809609375
 42
0.0
  0
VERTEX
  8
0
 10
9.6933226293945
 20
-2.719809609375
 42
-0.1802785043225
  0
VERTEX
  8
0
 10
9.729143172188
 20
-2.7305987407782
 42
-0.2166978051385
  0
VERTEX
  8
0
 10
9.742081418457
 20
-2.765700234375
 42
0.0
  0
VERTEX
  8
0
 10
9.742081418457
 20
-2.855569375
 42
-0.1791711549168
  0
VERTEX
  8
0
 10
9.7320071512354
 20
-2.8892367933984
 42
-0.2179263470909
  0
VERTEX
  8
0
 10
9.6990589575195
 20
-2.90146
 42
0.0
  0
VERTEX
  8
0
 10
9.531749387207
 20
-2.90146
 42
-0.2601360035254
  0
VERTEX
  8
0
 10
9.4868148168945
 20
-2.8794707421875
 42
0.0
  0
VERTEX
  8
0
 10
9.430407590332
 20
-2.8010742578125
 42
-0.0871395013458
  0
VERTEX
  8
0
 10
9.426583371582
 20
-2.777172890625
 42
-0.0127050951137
  0
VERTEX
  8
0
 10
9.4264141893334
 20
-2.7849196914629
 42
-0.1431025275655
  0
VERTEX
  8
0
 10
9.424671262207
 20
-2.792469765625
 42
-0.1203744057574
  0
VERTEX
  8
0
 10
9.434231809082
 20
-2.7437109765625
 42
0.0382095614639
  0
VERTEX
  8
0
 10
9.501155637207
 20
-2.673918984375
 42
0.0452611195798
  0
VERTEX
  8
0
 10
9.558518918457
 20
-2.5926543359375
 42
0.0466647569037
  0
VERTEX
  8
0
 10
9.598673215332
 20
-2.50374125
 42
0.0871948412348
  0
VERTEX
  8
0
 10
9.6149261450195
 20
-2.4167402734375
 42
0.3093932192005
  0
VERTEX
  8
0
 10
9.6041629561091
 20
-2.3985549298721
 42
0.1104401263441
  0
VERTEX
  8
0
 10
9.583376340332
 20
-2.394751015625
 42
0.1900770185818
  0
VERTEX
  8
0
 10
9.4638695043945
 20
-2.440641640625
 42
0.0972638049307
  0
VERTEX
  8
0
 10
9.3778245825195
 20
-2.5563242578125
 42
0.0654799089254
  0
VERTEX
  8
0
 10
9.327153684082
 20
-2.7073808984375
 42
0.0495431403984
  0
VERTEX
  8
0
 10
9.3109007543945
 20
-2.855569375
 42
-0.1854714279279
  0
VERTEX
  8
0
 10
9.3003685917278
 20
-2.8894944018219
 42
-0.2110488192578
  0
VERTEX
  8
0
 10
9.2669222387695
 20
-2.90146
 42
0.0
  0
VERTEX
  8
0
 10
9.1560198950195
 20
-2.90146
 42
-0.1859817577588
  0
VERTEX
  8
0
 10
9.1206601973478
 20
-2.8904504618032
 42
-0.2105143348755
  0
VERTEX
  8
0
 10
9.1082171606445
 20
-2.855569375
 42
-0.0640614129039
  0
VERTEX
  8
0
 10
9.1254261450195
 20
-2.7255459375
 42
0.0
  0
VERTEX
  8
0
 10
9.162712277832
 20
-2.582137734375
 42
0.0073341517304
  0
VERTEX
  8
0
 10
9.1999984106445
 20
-2.427256875
 42
0.0546072622705
  0
VERTEX
  8
0
 10
9.2172073950195
 20
-2.280024453125
 42
-0.1684752454078
  0
VERTEX
  8
0
 10
9.2271034654985
 20
-2.2447374206357
 42
-0.2301539633275
  0
VERTEX
  8
0
 10
9.2611859106445
 20
-2.2312656640625
 42
0.0
  0
SEQEND
  0
POLYLINE
  8
0
 66
     1
 10
0.0
 20
0.0
 30
0.0
 70
     1
  0
VERTEX
  8
0
 10
10.8656273266602
 20
-1.49032328125
 42
-0.2511263338179
  0
VERTEX
  8
0
 10
10.9026246487253
 20
-1.506581200565
 42
-0.1515171707217
  0
VERTEX
  8
0
 10
10.9124740063477
 20
-1.545774453125
 42
0.0
  0
VERTEX
  8
0
 10
10.6763284985352
 20
-2.670094765625
 42
0.0025845419331
  0
VERTEX
  8
0
 10
10.6696361157227
 20
-2.70642484375
 42
0.0344808854412
  0
VERTEX
  8
0
 10
10.6667679516602
 20
-2.72937015625
 42
0.4568024688854
  0
VERTEX
  8
0
 10
10.6600755688477
 20
-2.719809609375
 42
0.0
  0
VERTEX
  8
0
 10
10.6811087719727
 20
-2.719809609375
 42
-0.1958285002292
  0
VERTEX
  8
0
 10
10.7126585766602
 20
-2.733194375
 42
-0.2265416164395
  0
VERTEX
  8
0
 10
10.7279554516602
 20
-2.765700234375
 42
0.0
  0
VERTEX
  8
0
 10
10.7279554516602
 20
-2.855569375
 42
-0.153289517467
  0
VERTEX
  8
0
 10
10.7174388500977
 20
-2.886163125
 42
-0.2703306382909
  0
VERTEX
  8
0
 10
10.6849329907227
 20
-2.90146
 42
0.0
  0
VERTEX
  8
0
 10
10.6275697094727
 20
-2.90146
 42
-0.1389220890702
  0
VERTEX
  8
0
 10
10.5281400219727
 20
-2.8775586328125
 42
-0.0702500619612
  0
VERTEX
  8
0
 10
10.5012279156831
 20
-2.8548492066068
 42
-0.1480480439552
  0
VERTEX
  8
0
 10
10.4860736157227
 20
-2.823063515625
 42
-0.0847807102059
  0
VERTEX
  8
0
 10
10.4380745981043
 20
-2.8656387361978
 42
-0.0459648216736
  0
VERTEX
  8
0
 10
10.3809076000977
 20
-2.8947676171875
 42
-0.0976337945335
  0
VERTEX
  8
0
 10
10.2202904125977
 20
-2.9244053125
 42
-0.0750234282197
  0
VERTEX
  8
0
 10
10.1308703588011
 20
-2.9122889979989
 42
-0.1338021453963
  0
VERTEX
  8
0
 10
10.0539368969727
 20
-2.865129921875
 42
-0.1097761677535
  0
VERTEX
  8
0
 10
10.0121680601333
 20
-2.7908373503031
 42
-0.0754102687913
  0
VERTEX
  8
0
 10
10.0003978344727
 20
-2.70642484375
 42
-0.1015979405267
  0
VERTEX
  8
0
 10
10.0376839672852
 20
-2.5219062890625
 42
-0.0809892966017
  0
VERTEX
  8
0
 10
10.1380697094727
 20
-2.3632012109375
 42
-0.0878975070212
  0
VERTEX
  8
0
 10
10.2805218579102
 20
-2.2513428125
 42
-0.12667694121
  0
VERTEX
  8
0
 10
10.4449632641602
 20
-2.2083203515625
 42
-0.0654165425753
  0
VERTEX
  8
0
 10
10.5035237900092
 20
-2.2150798515406
 42
-0.160544160652
  0
VERTEX
  8
0
 10
10.5539534985352
 20
-2.245606484375
 42
0.0
  0
VERTEX
  8
0
 10
10.7011859204102
 20
-1.5295215234375
 42
-0.464108463622
  0
VERTEX
  8
0
 10
10.7451644360352
 20
-1.49032328125
 42
0.0
  0
SEQEND
  0
POLYLINE
  8
0
 66
     1
 10
0.0
 20
0.0
 30
0.0
 70
     1
  0
VERTEX
  8
0
 10
10.2384554516602
 20
-2.7379746484375
 42
0.1659188857757
  0
VERTEX
  8
0
 10
10.3751712719727
 20
-2.68730375
 42
0.0988590146946
  0
VERTEX
  8
0
 10
10.4851175610352
 20
-2.56110453125
 42
0.0
  0
VERTEX
  8
0
 10
10.5128431469727
 20
-2.43872953125
 42
0.1410360803874
  0
VERTEX
  8
0
 10
10.4978120658623
 20
-2.4046087852631
 42
0.2159554677253
  0
VERTEX
  8
0
 10
10.4631283032227
 20
-2.390926796875
 42
0.120343601461
  0
VERTEX
  8
0
 10
10.3799515454102
 20
-2.413872109375
 42
0.0794291996987
  0
VERTEX
  8
0
 10
10.2967747875977
 20
-2.47697171875
 42
0.0786853120709
  0
VERTEX
  8
0
 10
10.2336751782227
 20
-2.56875296875
 42
0.1140058131491
  0
VERTEX
  8
0
 10
10.2088177563477
 20
-2.6748750390625
 42
0.0177982463585
  0
VERTEX
  8
0
 10
10.2096215416051
 20
-2.7009179173085
 42
0.0799080955915
  0
VERTEX
  8
0
 10
10.2145540844727
 20
-2.7265019921875
 42
0.2788675844178
  0
SEQEND
  0
ENDSEC
  0
EOF
