0
SECTION
2
ENTITIES
0
LINE
8
1
62
3
10
0.67806
20
1.60092
30
0.0
11
0.71362
21
1.78295
31
0.0
0
ARC
8
1
62
3
10
0.64916
20
1.79502
30
0.0
40
0.06558
50
349.39685
51
447.07456
0
LINE
8
1
62
3
10
0.65251
20
1.86051
30
0.0
11
0.42844
21
1.87257
31
0.0
0
ARC
8
1
62
3
10
0.42586
20
1.80709
30
0.0
40
0.06553
50
87.73859
51
204.69324
0
LINE
8
1
62
3
10
0.36632
20
1.77971
30
0.0
11
0.49212
21
1.50156
31
0.0
0
LINE
8
1
62
3
10
0.49212
20
1.50156
30
0.0
11
0.64619
21
1.49394
31
0.0
0
LINE
8
1
62
3
10
0.64619
20
1.49394
30
0.0
11
0.64229
21
1.41523
31
0.0
0
LINE
8
1
62
3
10
0.64229
20
1.41523
30
0.0
11
0.48823
21
1.42285
31
0.0
0
LINE
8
1
62
3
10
0.48823
20
1.42285
30
0.0
11
0.33559
21
1.15847
31
0.0
0
ARC
8
1
62
3
10
0.39214
20
1.12535
30
0.0
40
0.06554
50
149.64373
51
266.59838
0
LINE
8
1
62
3
10
0.38825
20
1.05993
30
0.0
11
0.61241
21
1.04983
31
0.0
0
ARC
8
1
62
3
10
0.61555
20
1.11533
30
0.0
40
0.06557
50
267.25803
51
364.93574
0
LINE
8
1
62
3
10
0.68088
20
1.12097
30
0.0
11
0.66345
21
1.30562
31
0.0
0
LINE
8
1
62
3
10
0.66345
20
1.30562
30
0.0
11
0.88805
21
1.32657
31
0.0
0
ARC
8
1
62
3
10
0.87723
20
1.44306
30
0.0
40
0.11699
50
275.30664
51
439.03056
0
LINE
8
1
62
3
10
0.89949
20
1.55792
30
0.0
11
0.67806
21
1.60092
31
0.0
0
LINE
8
1
62
3
10
1.23868
20
0.81822
30
0.0
11
1.03499
21
0.8002
31
0.0
0
ARC
8
1
62
3
10
1.02919
20
0.87226
30
0.0
40
0.0723
50
176.92153
51
274.59924
0
LINE
8
1
62
3
10
0.957
20
0.87615
30
0.0
11
0.9696
21
1.12322
31
0.0
0
ARC
8
1
62
3
10
1.04169
20
1.11851
30
0.0
40
0.07225
50
59.3083
51
176.26295
0
LINE
8
1
62
3
10
1.07857
20
1.18064
30
0.0
11
1.37298
21
1.00834
31
0.0
0
LINE
8
1
62
3
10
1.37298
20
1.00834
30
0.0
11
1.36369
21
0.84061
31
0.0
0
LINE
8
1
62
3
10
1.36369
20
0.84061
30
0.0
11
1.44237
21
0.83626
31
0.0
0
LINE
8
1
62
3
10
1.44237
20
0.83626
30
0.0
11
1.45166
21
1.00399
31
0.0
0
LINE
8
1
62
3
10
1.45166
20
1.00399
30
0.0
11
1.76328
21
1.14273
31
0.0
0
ARC
8
1
62
3
10
1.79308
20
1.07691
30
0.0
40
0.07225
50
357.40298
51
474.35763
0
LINE
8
1
62
3
10
1.86525
20
1.07364
30
0.0
11
1.8505
21
0.82669
31
0.0
0
ARC
8
1
62
3
10
1.77832
20
0.8308
30
0.0
40
0.0723
50
259.06184
51
356.73955
0
LINE
8
1
62
3
10
1.7646
20
0.75981
30
0.0
11
1.56415
21
0.8002
31
0.0
0
LINE
8
1
62
3
10
1.56415
20
0.8002
30
0.0
11
1.5153
21
0.55636
31
0.0
0
ARC
8
1
62
3
10
1.38882
20
0.58164
30
0.0
40
0.12898
50
184.96954
51
348.69345
0
LINE
8
1
62
3
10
1.26032
20
0.57047
30
0.0
11
1.23868
21
0.81822
31
0.0
0
ARC
8
1
62
3
10
1.54541
20
1.2252
30
0.0
40
0.04643
50
227.74321
51
288.98115
0
ARC
8
1
62
3
10
1.53776
20
1.22414
30
0.0
40
0.04851
50
297.97309
51
381.6917
0
ARC
8
1
62
3
10
1.35729
20
1.15622
30
0.0
40
0.24132
50
20.83888
51
31.09092
0
LINE
8
1
62
3
10
1.56395
20
1.28084
30
0.0
11
1.28088
21
1.64825
31
0.0
0
ARC
8
1
62
3
10
1.55898
20
1.86779
30
0.0
40
0.35431
50
213.04168
51
218.28832
0
ARC
8
1
62
3
10
1.4405
20
1.78726
30
0.0
40
0.2111
50
112.24842
51
212.25414
0
LINE
8
1
62
3
10
1.36057
20
1.98265
30
0.0
11
1.38725
21
1.9938
31
0.0
0
LINE
8
1
62
3
10
1.38725
20
1.9938
30
0.0
11
1.30491
21
2.18962
31
0.0
0
LINE
8
1
62
3
10
1.30491
20
2.18962
30
0.0
11
1.37755
21
2.22016
31
0.0
0
LINE
8
1
62
3
10
1.37755
20
2.22016
30
0.0
11
1.45989
21
2.02434
31
0.0
0
LINE
8
1
62
3
10
1.45989
20
2.02434
30
0.0
11
1.48652
21
2.03561
31
0.0
0
ARC
8
1
62
3
10
1.57024
20
1.84182
30
0.0
40
0.2111
50
13.35842
51
113.36413
0
ARC
8
1
62
3
10
1.42977
20
1.8135
30
0.0
40
0.35435
50
7.31815
51
12.56479
0
LINE
8
1
62
3
10
1.78123
20
1.85864
30
0.0
11
1.84578
21
1.39934
31
0.0
0
ARC
8
1
62
3
10
2.07933
20
1.45986
30
0.0
40
0.24126
50
194.52781
51
204.77984
0
ARC
8
1
62
3
10
1.90463
20
1.37841
30
0.0
40
0.04852
50
203.91497
51
287.63358
0
ARC
8
1
62
3
10
1.89851
20
1.37367
30
0.0
40
0.04643
50
296.63852
51
357.87647
0
LINE
8
1
62
3
10
1.94491
20
1.37195
30
0.0
11
1.9619
21
1.74067
31
0.0
0
ARC
8
1
62
3
10
1.45536
20
1.7655
30
0.0
40
0.50714
50
357.1938
51
442.28342
0
LINE
8
1
62
3
10
1.52346
20
2.26805
30
0.0
11
1.29318
21
2.61145
31
0.0
0
ARC
8
1
62
3
10
1.19731
20
2.54716
30
0.0
40
0.11543
50
33.84501
51
191.76661
0
LINE
8
1
62
3
10
1.0843
20
2.52362
30
0.0
11
1.16862
21
2.11884
31
0.0
0
ARC
8
1
62
3
10
1.57539
20
1.81597
30
0.0
40
0.50714
50
143.32938
51
228.419
0
LINE
8
1
62
3
10
1.23881
20
1.43662
30
0.0
11
1.51419
21
1.19084
31
0.0
0
LINE
8
1
62
3
10
2.41854
20
1.46107
30
0.0
11
2.55345
21
1.69521
31
0.0
0
ARC
8
1
62
3
10
2.29276
20
1.84555
30
0.0
40
0.30094
50
330.02875
51
460.72345
0
ARC
8
1
62
3
10
2.23834
20
2.09819
30
0.0
40
0.04307
50
92.1025
51
272.10227
0
ARC
8
1
62
3
10
2.21793
20
1.87882
30
0.0
40
0.1777
50
47.99849
51
82.89288
0
LINE
8
1
62
3
10
2.33684
20
2.01087
30
0.0
11
2.39002
21
1.96321
31
0.0
0
ARC
8
1
62
3
10
2.36876
20
1.93934
30
0.0
40
0.03197
50
263.28669
51
408.30751
0
LINE
8
1
62
3
10
2.36502
20
1.90759
30
0.0
11
2.25613
21
1.91864
31
0.0
0
ARC
8
1
62
3
10
2.24933
20
1.84564
30
0.0
40
0.07331
50
84.68027
51
195.85172
0
ARC
8
1
62
3
10
2.17077
20
1.69659
30
0.0
40
0.12928
50
329.90989
51
446.43219
0
LINE
8
1
62
3
10
2.28262
20
1.63178
30
0.0
11
2.11801
21
1.34666
31
0.0
0
ARC
8
1
62
3
10
2.19153
20
1.306
30
0.0
40
0.08401
50
151.05775
51
262.00201
0
LINE
8
1
62
3
10
2.17984
20
1.22281
30
0.0
11
2.24707
21
1.21533
31
0.0
0
ARC
8
1
62
3
10
2.44347
20
2.88854
30
0.0
40
1.68469
50
263.30516
51
286.87094
0
LINE
8
1
62
3
10
2.9324
20
1.27635
30
0.0
11
3.24018
21
1.37889
31
0.0
0
LINE
8
1
62
3
10
3.24018
20
1.37889
30
0.0
11
3.26509
21
1.30413
31
0.0
0
LINE
8
1
62
3
10
3.26509
20
1.30413
30
0.0
11
3.08809
21
1.24516
31
0.0
0
LINE
8
1
62
3
10
3.08809
20
1.24516
30
0.0
11
3.09458
21
1.22567
31
0.0
0
ARC
8
1
62
3
10
3.17147
20
1.2544
30
0.0
40
0.08208
50
200.48709
51
288.01656
0
LINE
8
1
62
3
10
3.19686
20
1.17634
30
0.0
11
3.49269
21
1.2749
31
0.0
0
ARC
8
1
62
3
10
3.46824
20
1.35203
30
0.0
40
0.08091
50
287.59039
51
379.26185
0
LINE
8
1
62
3
10
3.54462
20
1.37872
30
0.0
11
3.50561
21
1.49582
31
0.0
0
ARC
8
1
62
3
10
3.40981
20
1.4639
30
0.0
40
0.10098
50
18.42952
51
108.42961
0
LINE
8
1
62
3
10
3.37788
20
1.5597
30
0.0
11
3.18646
21
1.4953
31
0.0
0
ARC
8
1
62
3
10
2.55118
20
3.26841
30
0.0
40
1.88348
50
270.61743
51
289.71175
0
LINE
8
1
62
3
10
2.57148
20
1.38504
30
0.0
11
2.46391
21
1.38282
31
0.0
0
ARC
8
1
62
3
10
2.46392
20
1.4351
30
0.0
40
0.05228
50
150.21999
51
269.99103
0
LINE
8
1
62
3
10
2.51431
20
0.73394
30
0.0
11
2.52908
21
0.9087
31
0.0
0
LINE
8
1
62
3
10
2.52908
20
0.9087
30
0.0
11
2.86242
21
1.04566
31
0.0
0
ARC
8
1
62
3
10
2.89169
20
0.97567
30
0.0
40
0.07586
50
355.73945
51
472.6941
0
LINE
8
1
62
3
10
2.96734
20
0.97004
30
0.0
11
2.94433
21
0.7113
31
0.0
0
ARC
8
1
62
3
10
2.8687
20
0.71781
30
0.0
40
0.07591
50
257.40003
51
355.07773
0
LINE
8
1
62
3
10
2.85214
20
0.64373
30
0.0
11
2.64298
21
0.69223
31
0.0
0
LINE
8
1
62
3
10
2.64298
20
0.69223
30
0.0
11
2.58428
21
0.43778
31
0.0
0
ARC
8
1
62
3
10
2.4523
20
0.46818
30
0.0
40
0.13544
50
183.30665
51
347.03057
0
LINE
8
1
62
3
10
2.31709
20
0.46037
30
0.0
11
2.30193
21
0.72105
31
0.0
0
LINE
8
1
62
3
10
2.30193
20
0.72105
30
0.0
11
2.0876
21
0.70835
31
0.0
0
ARC
8
1
62
3
10
2.08371
20
0.78416
30
0.0
40
0.07591
50
175.25902
51
272.93673
0
LINE
8
1
62
3
10
2.00806
20
0.79044
30
0.0
11
2.02881
21
1.04937
31
0.0
0
ARC
8
1
62
3
10
2.10433
20
1.04223
30
0.0
40
0.07586
50
57.64392
51
174.59857
0
LINE
8
1
62
3
10
2.14493
20
1.10631
30
0.0
11
2.45056
21
0.91534
31
0.0
0
LINE
8
1
62
3
10
2.45056
20
0.91534
30
0.0
11
2.43579
21
0.74058
31
0.0
0
LINE
8
1
62
3
10
2.43579
20
0.74058
30
0.0
11
2.51431
21
0.73394
31
0.0
0
LINE
8
1
62
3
10
3.75608
20
0.79704
30
0.0
11
3.71978
21
1.05563
31
0.0
0
ARC
8
1
62
3
10
3.58565
20
1.03685
30
0.0
40
0.13543
50
7.96924
51
171.69315
0
LINE
8
1
62
3
10
3.45164
20
1.05642
30
0.0
11
3.41382
21
0.79805
31
0.0
0
LINE
8
1
62
3
10
3.41382
20
0.79805
30
0.0
11
3.20141
21
0.82938
31
0.0
0
ARC
8
1
62
3
10
3.19093
20
0.7542
30
0.0
40
0.07591
50
82.06404
51
179.74175
0
LINE
8
1
62
3
10
3.11502
20
0.75454
30
0.0
11
3.11312
21
0.49479
31
0.0
0
ARC
8
1
62
3
10
3.18898
20
0.49532
30
0.0
40
0.07586
50
180.40089
51
297.35554
0
LINE
8
1
62
3
10
3.22384
20
0.42794
30
0.0
11
3.54495
21
0.59155
31
0.0
0
LINE
8
1
62
3
10
3.54495
20
0.59155
30
0.0
11
3.54546
21
0.76681
31
0.0
0
LINE
8
1
62
3
10
3.54546
20
0.76681
30
0.0
11
3.62426
21
0.76681
31
0.0
0
LINE
8
1
62
3
10
3.62426
20
0.76681
30
0.0
11
3.62375
21
0.59132
31
0.0
0
LINE
8
1
62
3
10
3.62375
20
0.59132
30
0.0
11
3.94389
21
0.42582
31
0.0
0
ARC
8
1
62
3
10
3.97905
20
0.49294
30
0.0
40
0.07577
50
242.3519
51
359.3048
0
LINE
8
1
62
3
10
4.05481
20
0.49202
30
0.0
11
4.05481
21
0.75178
31
0.0
0
ARC
8
1
62
3
10
3.9788
20
0.7518
30
0.0
40
0.07601
50
359.98493
51
457.66244
0
LINE
8
1
62
3
10
3.96867
20
0.82713
30
0.0
11
3.75608
21
0.79704
31
0.0
0
ARC
8
1
62
3
10
4.892
20
0.92202
30
0.0
40
0.2111
50
346.63555
51
446.64126
0
LINE
8
1
62
3
10
5.09739
20
0.87322
30
0.0
11
5.09092
21
0.84504
31
0.0
0
LINE
8
1
62
3
10
5.09092
20
0.84504
30
0.0
11
5.29806
21
0.79795
31
0.0
0
LINE
8
1
62
3
10
5.29806
20
0.79795
30
0.0
11
5.2806
21
0.72111
31
0.0
0
LINE
8
1
62
3
10
5.2806
20
0.72111
30
0.0
11
5.07345
21
0.7682
31
0.0
0
LINE
8
1
62
3
10
5.07345
20
0.7682
30
0.0
11
5.0671
21
0.73998
31
0.0
0
ARC
8
1
62
3
10
4.8608
20
0.78476
30
0.0
40
0.2111
50
247.74649
51
347.75221
0
ARC
8
1
62
3
10
4.91958
20
0.9155
30
0.0
40
0.35439
50
241.71052
51
246.95716
0
LINE
8
1
62
3
10
4.75162
20
0.60344
30
0.0
11
4.34064
21
0.81841
31
0.0
0
ARC
8
1
62
3
10
4.2538
20
0.59325
30
0.0
40
0.24133
50
68.90906
51
79.16109
0
ARC
8
1
62
3
10
4.28935
20
0.78277
30
0.0
40
0.04851
50
78.31062
51
162.02923
0
ARC
8
1
62
3
10
4.28907
20
0.79049
30
0.0
40
0.04643
50
171.02001
51
232.25796
0
LINE
8
1
62
3
10
4.26065
20
0.75377
30
0.0
11
4.55052
21
0.52526
31
0.0
0
ARC
8
1
62
3
10
4.86566
20
0.9226
30
0.0
40
0.50714
50
231.58122
51
316.67084
0
LINE
8
1
62
3
10
5.23456
20
0.5746
30
0.0
11
5.64783
21
0.56185
31
0.0
0
ARC
8
1
62
3
10
5.65139
20
0.67723
30
0.0
40
0.11543
50
268.23157
51
426.15317
0
LINE
8
1
62
3
10
5.69806
20
0.78281
30
0.0
11
5.31988
21
0.94996
31
0.0
0
ARC
8
1
62
3
10
4.83679
20
0.79563
30
0.0
40
0.50714
50
17.7166
51
102.80622
0
LINE
8
1
62
3
10
4.72438
20
1.29016
30
0.0
11
4.36422
21
1.2094
31
0.0
0
ARC
8
1
62
3
10
4.37397
20
1.164
30
0.0
40
0.04643
50
102.11918
51
163.35712
0
ARC
8
1
62
3
10
4.37757
20
1.17085
30
0.0
40
0.04852
50
172.36576
51
256.08437
0
ARC
8
1
62
3
10
4.42739
20
1.35704
30
0.0
40
0.24125
50
255.23249
51
265.48452
0
LINE
8
1
62
3
10
4.4084
20
1.11654
30
0.0
11
4.87194
21
1.13272
31
0.0
0
ARC
8
1
62
3
10
4.88859
20
0.77884
30
0.0
40
0.35427
50
87.44735
51
92.69399
0
LINE
8
1
62
3
10
7.06388
20
0.92696
30
0.0
11
7.09523
21
0.70358
31
0.0
0
LINE
8
1
62
3
10
7.09523
20
0.70358
30
0.0
11
7.27888
21
0.72957
31
0.0
0
ARC
8
1
62
3
10
7.28763
20
0.6645
30
0.0
40
0.06566
50
359.9848
51
457.66232
0
LINE
8
1
62
3
10
7.35329
20
0.66448
30
0.0
11
7.35329
21
0.44009
31
0.0
0
ARC
8
1
62
3
10
7.28784
20
0.44089
30
0.0
40
0.06545
50
242.35125
51
359.30416
0
LINE
8
1
62
3
10
7.25747
20
0.38291
30
0.0
11
6.98627
21
0.5231
31
0.0
0
LINE
8
1
62
3
10
6.98627
20
0.5231
30
0.0
11
6.98673
21
0.67747
31
0.0
0
LINE
8
1
62
3
10
6.98673
20
0.67747
30
0.0
11
6.90793
21
0.67747
31
0.0
0
LINE
8
1
62
3
10
6.90793
20
0.67747
30
0.0
11
6.90747
21
0.52333
31
0.0
0
LINE
8
1
62
3
10
6.90747
20
0.52333
30
0.0
11
6.63546
21
0.38474
31
0.0
0
ARC
8
1
62
3
10
6.60535
20
0.44294
30
0.0
40
0.06553
50
180.39972
51
297.35437
0
LINE
8
1
62
3
10
6.53982
20
0.44248
30
0.0
11
6.54146
21
0.66687
31
0.0
0
ARC
8
1
62
3
10
6.60703
20
0.66657
30
0.0
40
0.06558
50
82.06267
51
179.74037
0
LINE
8
1
62
3
10
6.61609
20
0.73152
30
0.0
11
6.79958
21
0.70445
31
0.0
0
LINE
8
1
62
3
10
6.79958
20
0.70445
30
0.0
11
6.83225
21
0.92764
31
0.0
0
ARC
8
1
62
3
10
6.94802
20
0.91074
30
0.0
40
0.11699
50
7.96959
51
171.69351
0
LINE
8
1
62
3
10
7.4866
20
1.13148
30
0.0
11
7.31064
21
1.20773
31
0.0
0
LINE
8
1
62
3
10
7.31064
20
1.20773
30
0.0
11
7.28967
21
1.15995
31
0.0
0
ARC
8
1
62
3
10
7.38127
20
1.11938
30
0.0
40
0.10018
50
156.10788
51
247.07342
0
LINE
8
1
62
3
10
7.34224
20
1.02711
30
0.0
11
7.40128
21
1.00168
31
0.0
0
ARC
8
1
62
3
10
7.38002
20
0.95325
30
0.0
40
0.05289
50
349.24786
51
426.29838
0
LINE
8
1
62
3
10
7.43198
20
0.94339
30
0.0
11
7.66708
21
0.95262
31
0.0
0
LINE
8
1
62
3
10
7.66708
20
0.95262
30
0.0
11
7.67017
21
0.87388
31
0.0
0
LINE
8
1
62
3
10
7.67017
20
0.87388
30
0.0
11
7.43258
21
0.86455
31
0.0
0
ARC
8
1
62
3
10
7.57254
20
0.86515
30
0.0
40
0.13996
50
180.24598
51
272.17765
0
LINE
8
1
62
3
10
7.57786
20
0.72529
30
0.0
11
7.9316
21
0.73948
31
0.0
0
LINE
8
1
62
3
10
7.9316
20
0.73948
30
0.0
11
7.9316
21
1.23364
31
0.0
0
LINE
8
1
62
3
10
7.9316
20
1.23364
30
0.0
11
7.74026
21
1.23364
31
0.0
0
LINE
8
1
62
3
10
7.74026
20
1.23364
30
0.0
11
7.74026
21
1.31244
31
0.0
0
LINE
8
1
62
3
10
7.74026
20
1.31244
30
0.0
11
7.9316
21
1.31244
31
0.0
0
LINE
8
1
62
3
10
7.9316
20
1.31244
30
0.0
11
7.9316
21
1.51061
31
0.0
0
LINE
8
1
62
3
10
7.9316
20
1.51061
30
0.0
11
7.74026
21
1.51061
31
0.0
0
LINE
8
1
62
3
10
7.74026
20
1.51061
30
0.0
11
7.74026
21
1.58941
31
0.0
0
LINE
8
1
62
3
10
7.74026
20
1.58941
30
0.0
11
7.9316
21
1.58941
31
0.0
0
LINE
8
1
62
3
10
7.9316
20
1.58941
30
0.0
11
7.9316
21
1.78758
31
0.0
0
LINE
8
1
62
3
10
7.9316
20
1.78758
30
0.0
11
7.74026
21
1.78758
31
0.0
0
LINE
8
1
62
3
10
7.74026
20
1.78758
30
0.0
11
7.74026
21
1.86638
31
0.0
0
LINE
8
1
62
3
10
7.74026
20
1.86638
30
0.0
11
7.9316
21
1.86638
31
0.0
0
LINE
8
1
62
3
10
7.9316
20
1.86638
30
0.0
11
7.9316
21
2.36054
31
0.0
0
LINE
8
1
62
3
10
7.9316
20
2.36054
30
0.0
11
7.57786
21
2.37473
31
0.0
0
ARC
8
1
62
3
10
7.57254
20
2.23487
30
0.0
40
0.13996
50
87.82214
51
179.75381
0
LINE
8
1
62
3
10
7.43258
20
2.23547
30
0.0
11
7.67017
21
2.22614
31
0.0
0
LINE
8
1
62
3
10
7.67017
20
2.22614
30
0.0
11
7.66708
21
2.1474
31
0.0
0
LINE
8
1
62
3
10
7.66708
20
2.1474
30
0.0
11
7.43198
21
2.15663
31
0.0
0
ARC
8
1
62
3
10
7.38002
20
2.14676
30
0.0
40
0.05289
50
293.70405
51
370.75457
0
LINE
8
1
62
3
10
7.40128
20
2.09833
30
0.0
11
7.34224
21
2.0729
31
0.0
0
ARC
8
1
62
3
10
7.38126
20
1.98064
30
0.0
40
0.10017
50
112.92511
51
203.89064
0
LINE
8
1
62
3
10
7.28967
20
1.94007
30
0.0
11
7.31064
21
1.89229
31
0.0
0
LINE
8
1
62
3
10
7.31064
20
1.89229
30
0.0
11
7.4866
21
1.96854
31
0.0
0
LINE
8
1
62
3
10
7.4866
20
1.96854
30
0.0
11
7.51793
21
1.89624
31
0.0
0
LINE
8
1
62
3
10
7.51793
20
1.89624
30
0.0
11
7.19573
21
1.75662
31
0.0
0
ARC
8
1
62
3
10
7.28526
20
1.55001
30
0.0
40
0.22517
50
113.429
51
246.571
0
LINE
8
1
62
3
10
7.19573
20
1.3434
30
0.0
11
7.51793
21
1.20378
31
0.0
0
LINE
8
1
62
3
10
7.51793
20
1.20378
30
0.0
11
7.4866
21
1.13148
31
0.0
0
LINE
8
1
62
3
10
6.78826
20
1.38829
30
0.0
11
6.86568
21
1.3736
31
0.0
0
LINE
8
1
62
3
10
6.86568
20
1.3736
30
0.0
11
6.91081
21
1.61156
31
0.0
0
ARC
8
1
62
3
10
6.90837
20
1.52967
30
0.0
40
0.08192
50
349.16228
51
448.29223
0
LINE
8
1
62
3
10
6.98883
20
1.51427
30
0.0
11
6.94294
21
1.26992
31
0.0
0
ARC
8
1
62
3
10
6.82413
20
1.2932
30
0.0
40
0.12107
50
280.24635
51
348.91108
0
ARC
8
1
62
3
10
6.88714
20
0.95493
30
0.0
40
0.22303
50
100.71607
51
147.4031
0
ARC
8
1
62
3
10
6.12374
20
1.44828
30
0.0
40
0.68591
50
298.19808
51
327.03724
0
LINE
8
1
62
3
10
6.44785
20
0.84377
30
0.0
11
6.3778
21
0.80676
31
0.0
0
ARC
8
1
62
3
10
6.34807
20
0.86548
30
0.0
40
0.06582
50
250.5873
51
296.85368
0
LINE
8
1
62
3
10
6.32619
20
0.8034
30
0.0
11
6.30002
21
0.81374
31
0.0
0
ARC
8
1
62
3
10
6.30735
20
0.83619
30
0.0
40
0.02362
50
138.03176
51
251.92169
0
ARC
8
1
62
3
10
5.23974
20
1.76957
30
0.0
40
1.39448
50
318.851
51
346.48482
0
ARC
8
1
62
3
10
6.33261
20
1.54536
30
0.0
40
0.28197
50
338.86295
51
423.74174
0
LINE
8
1
62
3
10
6.45736
20
1.79823
30
0.0
11
6.43454
21
1.80773
31
0.0
0
LINE
8
1
62
3
10
6.43454
20
1.80773
30
0.0
11
6.41596
21
1.81485
31
0.0
0
LINE
8
1
62
3
10
6.41596
20
1.81485
30
0.0
11
6.49013
21
2.00836
31
0.0
0
LINE
8
1
62
3
10
6.49013
20
2.00836
30
0.0
11
6.41655
21
2.03656
31
0.0
0
LINE
8
1
62
3
10
6.41655
20
2.03656
30
0.0
11
6.34238
21
1.84305
31
0.0
0
LINE
8
1
62
3
10
6.34238
20
1.84305
30
0.0
11
6.32303
21
1.85046
31
0.0
0
LINE
8
1
62
3
10
6.32303
20
1.85046
30
0.0
11
6.2997
21
1.85865
31
0.0
0
ARC
8
1
62
3
10
6.2235
20
1.58718
30
0.0
40
0.28196
50
74.32025
51
159.19904
0
ARC
8
1
62
3
10
7.18628
20
1.02355
30
0.0
40
1.39448
50
151.57622
51
179.21004
0
ARC
8
1
62
3
10
5.76832
20
1.04277
30
0.0
40
0.02362
50
246.13897
51
360.0289
0
LINE
8
1
62
3
10
5.75877
20
1.02117
30
0.0
11
5.7324
21
1.03097
31
0.0
0
ARC
8
1
62
3
10
5.75762
20
1.09177
30
0.0
40
0.06582
50
201.20881
51
247.47519
0
LINE
8
1
62
3
10
5.69625
20
1.06796
30
0.0
11
5.66888
21
1.14231
31
0.0
0
ARC
8
1
62
3
10
6.314
20
1.37537
30
0.0
40
0.68593
50
171.02433
51
199.86349
0
ARC
8
1
62
3
10
5.41641
20
1.51859
30
0.0
40
0.22302
50
350.65735
51
397.34437
0
ARC
8
1
62
3
10
5.68935
20
1.72811
30
0.0
40
0.12107
50
149.15211
51
217.81683
0
LINE
8
1
62
3
10
5.58541
20
1.79019
30
0.0
11
5.71458
21
2.00262
31
0.0
0
ARC
8
1
62
3
10
5.78473
20
1.9603
30
0.0
40
0.08192
50
49.77046
51
148.90041
0
LINE
8
1
62
3
10
5.83764
20
2.02285
30
0.0
11
5.71218
21
1.81568
31
0.0
0
LINE
8
1
62
3
10
5.71218
20
1.81568
30
0.0
11
5.77959
21
1.77486
31
0.0
0
LINE
8
1
62
3
10
5.77959
20
1.77486
30
0.0
11
5.87618
21
1.93437
31
0.0
0
ARC
8
1
62
3
10
6.2132
20
1.73028
30
0.0
40
0.394
50
89.83614
51
148.80227
0
ARC
8
1
62
3
10
6.21476
20
2.27256
30
0.0
40
0.14829
50
269.83562
51
331.20104
0
LINE
8
1
62
3
10
6.3447
20
2.20113
30
0.0
11
6.49998
21
2.48126
31
0.0
0
ARC
8
1
62
3
10
6.60656
20
2.42647
30
0.0
40
0.11984
50
345.27226
51
512.79153
0
LINE
8
1
62
3
10
6.72246
20
2.396
30
0.0
11
6.65075
21
2.08384
31
0.0
0
ARC
8
1
62
3
10
6.80417
20
2.05386
30
0.0
40
0.15632
50
168.94212
51
227.41519
0
ARC
8
1
62
3
10
6.43591
20
1.64492
30
0.0
40
0.394
50
349.26022
51
408.22635
0
LINE
8
1
62
3
10
6.82301
20
1.5715
30
0.0
11
6.78826
21
1.38829
31
0.0
0
ARC
8
1
62
3
10
5.734
20
2.95089
30
0.0
40
1.46205
50
326.85808
51
349.65033
0
ARC
8
1
62
3
10
7.01345
20
2.1212
30
0.0
40
0.06305
50
151.21435
51
317.62518
0
ARC
8
1
62
3
10
3.62273
20
4.82703
30
0.0
40
4.40094
50
321.35564
51
342.17975
0
ARC
8
1
62
3
10
7.7531
20
3.49965
30
0.0
40
0.06252
50
341.8725
51
404.08748
0
ARC
8
1
62
3
10
7.836
20
3.57995
30
0.0
40
0.05289
50
101.76994
51
224.09006
0
ARC
8
1
62
3
10
7.8125
20
3.6927
30
0.0
40
0.06228
50
281.77076
51
396.44058
0
ARC
8
1
62
3
10
7.90534
20
3.76067
30
0.0
40
0.05278
50
111.31178
51
215.93624
0
ARC
8
1
62
3
10
7.86105
20
3.86867
30
0.0
40
0.06396
50
293.11282
51
393.7106
0
ARC
8
1
62
3
10
7.95631
20
3.93487
30
0.0
40
0.05206
50
115.73805
51
216.13387
0
ARC
8
1
62
3
10
7.90598
20
4.03828
30
0.0
40
0.06294
50
296.12744
51
411.48126
0
ARC
8
1
62
3
10
7.97693
20
4.12866
30
0.0
40
0.05197
50
119.58115
51
232.33535
0
ARC
8
1
62
3
10
7.91909
20
4.22824
30
0.0
40
0.06321
50
300.61951
51
380.13481
0
LINE
8
1
62
3
10
7.97843
20
4.25
30
0.0
11
7.91394
21
4.41786
31
0.0
0
ARC
8
1
62
3
10
7.96353
20
4.43618
30
0.0
40
0.05286
50
114.43281
51
200.27971
0
ARC
8
1
62
3
10
7.91571
20
4.54144
30
0.0
40
0.06274
50
294.42789
51
429.39832
0
LINE
8
1
62
3
10
7.93779
20
4.60017
30
0.0
11
7.88416
21
4.62033
31
0.0
0
ARC
8
1
62
3
10
7.90127
20
4.66978
30
0.0
40
0.05233
50
70.82092
51
250.9137
0
ARC
8
1
62
3
10
7.93914
20
4.77863
30
0.0
40
0.06292
50
250.81709
51
390.01831
0
LINE
8
1
62
3
10
7.99362
20
4.81011
30
0.0
11
7.85631
21
5.0056
31
0.0
0
ARC
8
1
62
3
10
7.87485
20
5.01995
30
0.0
40
0.02344
50
51.71438
51
217.74584
0
ARC
8
1
62
3
10
7.92825
20
5.08758
30
0.0
40
0.06273
50
231.70101
51
386.69546
0
LINE
8
1
62
3
10
7.98429
20
5.11576
30
0.0
11
7.87144
21
5.30666
31
0.0
0
ARC
8
1
62
3
10
7.88929
20
5.32179
30
0.0
40
0.0234
50
47.47147
51
220.29077
0
ARC
8
1
62
3
10
7.94519
20
5.38679
30
0.0
40
0.06234
50
229.98871
51
392.80983
0
LINE
8
1
62
3
10
7.99759
20
5.42057
30
0.0
11
7.86008
21
5.60921
31
0.0
0
ARC
8
1
62
3
10
7.87804
20
5.62484
30
0.0
40
0.0238
50
100.51949
51
221.03255
0
LINE
8
1
62
3
10
7.87369
20
5.64824
30
0.0
11
7.95324
21
5.66118
31
0.0
0
ARC
8
1
62
3
10
7.94631
20
5.72286
30
0.0
40
0.06207
50
276.407
51
406.00042
0
LINE
8
1
62
3
10
7.98943
20
5.76751
30
0.0
11
7.79972
21
5.93519
31
0.0
0
ARC
8
1
62
3
10
7.81457
20
5.95355
30
0.0
40
0.02362
50
73.25227
51
231.0303
0
LINE
8
1
62
3
10
7.82138
20
5.97617
30
0.0
11
7.87471
21
5.95658
31
0.0
0
ARC
8
1
62
3
10
7.89449
20
6.01692
30
0.0
40
0.0635
50
251.85276
51
394.28735
0
ARC
8
1
62
3
10
6.68759
20
5.11159
30
0.0
40
1.57215
50
36.77
51
49.17409
0
ARC
8
1
62
3
10
7.73137
20
6.31936
30
0.0
40
0.02415
50
86.11988
51
228.62112
0
LINE
8
1
62
3
10
7.733
20
6.34346
30
0.0
11
7.86837
21
6.32704
31
0.0
0
ARC
8
1
62
3
10
7.87884
20
6.38855
30
0.0
40
0.06239
50
260.33892
51
406.5739
0
ARC
8
1
62
3
10
6.62889
20
5.08758
30
0.0
40
1.86653
50
46.16005
51
58.29076
0
ARC
8
1
62
3
10
7.62068
20
6.69614
30
0.0
40
0.02328
50
70.26511
51
242.55382
0
LINE
8
1
62
3
10
7.62854
20
6.71805
30
0.0
11
7.76228
21
6.67006
31
0.0
0
ARC
8
1
62
3
10
7.79003
20
6.726
30
0.0
40
0.06244
50
243.61363
51
423.61329
0
ARC
8
1
62
3
10
6.86383
20
5.13217
30
0.0
40
1.90571
50
59.96213
51
70.71111
0
ARC
8
1
62
3
10
7.51
20
6.98082
30
0.0
40
0.05262
50
71.56
51
251.55977
0
LINE
8
1
62
3
10
7.52664
20
7.03074
30
0.0
11
7.6337
21
6.9923
31
0.0
0
ARC
8
1
62
3
10
7.66605
20
7.07759
30
0.0
40
0.09121
50
249.22761
51
429.22727
0
LINE
8
1
62
3
10
7.6984
20
7.16287
30
0.0
11
7.52719
21
7.22464
31
0.0
0
ARC
8
1
62
3
10
7.81811
20
8.03099
30
0.0
40
0.85723
50
196.04791
51
250.16106
0
LINE
8
1
62
3
10
6.99429
20
7.79402
30
0.0
11
6.95625
21
7.87407
31
0.0
0
LINE
8
1
62
3
10
6.95625
20
7.87407
30
0.0
11
6.75184
21
7.77876
31
0.0
0
LINE
8
1
62
3
10
6.75184
20
7.77876
30
0.0
11
6.87624
21
7.51197
31
0.0
0
LINE
8
1
62
3
10
6.87624
20
7.51197
30
0.0
11
6.80483
21
7.47867
31
0.0
0
LINE
8
1
62
3
10
6.80483
20
7.47867
30
0.0
11
6.68042
21
7.74545
31
0.0
0
LINE
8
1
62
3
10
6.68042
20
7.74545
30
0.0
11
6.45506
21
7.64037
31
0.0
0
LINE
8
1
62
3
10
6.45506
20
7.64037
30
0.0
11
6.51948
21
7.50222
31
0.0
0
LINE
8
1
62
3
10
6.51948
20
7.50222
30
0.0
11
6.39917
21
7.44575
31
0.0
0
ARC
8
1
62
3
10
6.44688
20
7.33507
30
0.0
40
0.12052
50
113.31826
51
291.58864
0
LINE
8
1
62
3
10
6.49122
20
7.22301
30
0.0
11
6.66936
21
7.30202
31
0.0
0
LINE
8
1
62
3
10
6.66936
20
7.30202
30
0.0
11
6.69647
21
7.23628
31
0.0
0
LINE
8
1
62
3
10
6.69647
20
7.23628
30
0.0
11
6.51509
21
7.16554
31
0.0
0
ARC
8
1
62
3
10
6.55526
20
7.05295
30
0.0
40
0.11954
50
109.63612
51
289.42714
0
LINE
8
1
62
3
10
6.59502
20
6.94022
30
0.0
11
6.78325
21
7.01229
31
0.0
0
LINE
8
1
62
3
10
6.78325
20
7.01229
30
0.0
11
6.80756
21
6.94565
31
0.0
0
LINE
8
1
62
3
10
6.80756
20
6.94565
30
0.0
11
6.63832
21
6.88834
31
0.0
0
ARC
8
1
62
3
10
6.66918
20
6.7719
30
0.0
40
0.12046
50
104.84619
51
284.70412
0
LINE
8
1
62
3
10
6.69976
20
6.65539
30
0.0
11
6.88439
21
6.71787
31
0.0
0
LINE
8
1
62
3
10
6.88439
20
6.71787
30
0.0
11
6.90463
21
6.65429
31
0.0
0
LINE
8
1
62
3
10
6.90463
20
6.65429
30
0.0
11
7.10527
21
6.74045
31
0.0
0
LINE
8
1
62
3
10
7.10527
20
6.74045
30
0.0
11
7.13666
21
6.66735
31
0.0
0
LINE
8
1
62
3
10
7.13666
20
6.66735
30
0.0
11
7.00473
21
6.61069
31
0.0
0
LINE
8
1
62
3
10
7.00473
20
6.61069
30
0.0
11
7.07783
21
6.42942
31
0.0
0
LINE
8
1
62
3
10
7.07783
20
6.42942
30
0.0
11
7.21229
21
6.48014
31
0.0
0
LINE
8
1
62
3
10
7.21229
20
6.48014
30
0.0
11
7.24005
21
6.40655
31
0.0
0
LINE
8
1
62
3
10
7.24005
20
6.40655
30
0.0
11
7.10559
21
6.35583
31
0.0
0
LINE
8
1
62
3
10
7.10559
20
6.35583
30
0.0
11
7.17048
21
6.16946
31
0.0
0
LINE
8
1
62
3
10
7.17048
20
6.16946
30
0.0
11
7.30746
21
6.2142
31
0.0
0
LINE
8
1
62
3
10
7.30746
20
6.2142
30
0.0
11
7.33185
21
6.13953
31
0.0
0
LINE
8
1
62
3
10
7.33185
20
6.13953
30
0.0
11
7.19543
21
6.09498
31
0.0
0
LINE
8
1
62
3
10
7.19543
20
6.09498
30
0.0
11
7.25247
21
5.90603
31
0.0
0
LINE
8
1
62
3
10
7.25247
20
5.90603
30
0.0
11
7.39029
21
5.94495
31
0.0
0
LINE
8
1
62
3
10
7.39029
20
5.94495
30
0.0
11
7.41165
21
5.86932
31
0.0
0
LINE
8
1
62
3
10
7.41165
20
5.86932
30
0.0
11
7.27347
21
5.8303
31
0.0
0
LINE
8
1
62
3
10
7.27347
20
5.8303
30
0.0
11
7.32168
21
5.63989
31
0.0
0
LINE
8
1
62
3
10
7.32168
20
5.63989
30
0.0
11
7.46161
21
5.67327
31
0.0
0
LINE
8
1
62
3
10
7.46161
20
5.67327
30
0.0
11
7.48002
21
5.59608
31
0.0
0
LINE
8
1
62
3
10
7.48002
20
5.59608
30
0.0
11
7.34006
21
5.56269
31
0.0
0
LINE
8
1
62
3
10
7.34006
20
5.56269
30
0.0
11
7.38077
21
5.37051
31
0.0
0
LINE
8
1
62
3
10
7.38077
20
5.37051
30
0.0
11
7.52211
21
5.39753
31
0.0
0
LINE
8
1
62
3
10
7.52211
20
5.39753
30
0.0
11
7.53696
21
5.31983
31
0.0
0
LINE
8
1
62
3
10
7.53696
20
5.31983
30
0.0
11
7.39559
21
5.2928
31
0.0
0
LINE
8
1
62
3
10
7.39559
20
5.2928
30
0.0
11
7.4275
21
5.09907
31
0.0
0
LINE
8
1
62
3
10
7.4275
20
5.09907
30
0.0
11
7.56972
21
5.11954
31
0.0
0
LINE
8
1
62
3
10
7.56972
20
5.11954
30
0.0
11
7.58098
21
5.04132
31
0.0
0
LINE
8
1
62
3
10
7.58098
20
5.04132
30
0.0
11
7.43876
21
5.02084
31
0.0
0
LINE
8
1
62
3
10
7.43876
20
5.02084
30
0.0
11
7.46262
21
4.82516
31
0.0
0
LINE
8
1
62
3
10
7.46262
20
4.82516
30
0.0
11
7.6056
21
4.83908
31
0.0
0
LINE
8
1
62
3
10
7.6056
20
4.83908
30
0.0
11
7.61324
21
4.76059
31
0.0
0
LINE
8
1
62
3
10
7.61324
20
4.76059
30
0.0
11
7.44616
21
4.74432
31
0.0
0
ARC
8
1
62
3
10
7.36558
20
4.73342
30
0.0
40
0.08132
50
260.75271
51
367.70346
0
ARC
8
1
62
3
10
7.33894
20
4.56338
30
0.0
40
0.0908
50
81.4053
51
295.88459
0
ARC
8
1
62
3
10
7.41474
20
4.40896
30
0.0
40
0.08122
50
-104.83568
51
116.43312
0
ARC
8
1
62
3
10
7.37046
20
4.24179
30
0.0
40
0.09171
50
75.16544
51
291.09003
0
ARC
8
1
62
3
10
7.43109
20
4.08068
30
0.0
40
0.08044
50
-109.26001
51
110.09212
0
ARC
8
1
62
3
10
7.37165
20
3.91928
30
0.0
40
0.09158
50
68.94016
51
286.17939
0
ARC
8
1
62
3
10
7.41904
20
3.75327
30
0.0
40
0.08106
50
-115.7192
51
105.65045
0
ARC
8
1
62
3
10
7.34433
20
3.59817
30
0.0
40
0.09109
50
64.27842
51
279.83129
0
ARC
8
1
62
3
10
7.3743
20
3.42805
30
0.0
40
0.08165
50
-121.14628
51
100.1737
0
ARC
8
1
62
3
10
7.28475
20
3.27988
30
0.0
40
0.09148
50
58.85187
51
274.45089
0
ARC
8
1
62
3
10
7.29884
20
3.10749
30
0.0
40
0.08148
50
-127.21979
51
94.91912
0
ARC
8
1
62
3
10
7.1938
20
2.9692
30
0.0
40
0.09217
50
52.78355
51
269.33425
0
ARC
8
1
62
3
10
7.19238
20
2.79627
30
0.0
40
0.08076
50
276.26263
51
449.75212
0
ARC
8
1
62
3
10
7.20553
20
2.68253
30
0.0
40
0.03375
50
97.38899
51
170.28757
0
LINE
8
1
62
3
10
6.19818
20
3.1101
30
0.0
11
6.13226
21
3.06693
31
0.0
0
LINE
8
1
62
3
10
6.13226
20
3.06693
30
0.0
11
6.40012
21
2.65785
31
0.0
0
LINE
8
1
62
3
10
6.40012
20
2.65785
30
0.0
11
6.26185
21
2.56733
31
0.0
0
ARC
8
1
62
3
10
6.07082
20
2.52172
30
0.0
40
0.1964
50
209.87164
51
373.42958
0
LINE
8
1
62
3
10
5.90052
20
2.4239
30
0.0
11
5.5991
21
2.93171
31
0.0
0
ARC
8
1
62
3
10
5.76803
20
3.03244
30
0.0
40
0.19668
50
133.5008
51
210.80755
0
LINE
8
1
62
3
10
5.63264
20
3.17511
30
0.0
11
5.83258
21
2.82412
31
0.0
0
LINE
8
1
62
3
10
5.83258
20
2.82412
30
0.0
11
5.90105
21
2.86312
31
0.0
0
LINE
8
1
62
3
10
5.90105
20
2.86312
30
0.0
11
5.70182
21
3.21286
31
0.0
0
LINE
8
1
62
3
10
5.70182
20
3.21286
30
0.0
11
5.82071
21
3.2907
31
0.0
0
LINE
8
1
62
3
10
5.82071
20
3.2907
30
0.0
11
5.42427
21
4.0363
31
0.0
0
ARC
8
1
62
3
10
5.51311
20
4.08388
30
0.0
40
0.10078
50
38.258
51
208.17398
0
LINE
8
1
62
3
10
5.59225
20
4.14629
30
0.0
11
6.11715
21
3.48481
31
0.0
0
LINE
8
1
62
3
10
6.11715
20
3.48481
30
0.0
11
6.23653
21
3.56298
31
0.0
0
LINE
8
1
62
3
10
6.23653
20
3.56298
30
0.0
11
6.47744
21
3.24053
31
0.0
0
LINE
8
1
62
3
10
6.47744
20
3.24053
30
0.0
11
6.54056
21
3.2877
31
0.0
0
LINE
8
1
62
3
10
6.54056
20
3.2877
30
0.0
11
6.29879
21
3.6113
31
0.0
0
ARC
8
1
62
3
10
6.37539
20
3.43173
30
0.0
40
0.19523
50
35.25229
51
113.10266
0
LINE
8
1
62
3
10
6.53482
20
3.54441
30
0.0
11
6.87972
21
3.06506
31
0.0
0
ARC
8
1
62
3
10
6.72057
20
2.95027
30
0.0
40
0.19623
50
233.83335
51
395.80291
0
LINE
8
1
62
3
10
6.60477
20
2.79185
30
0.0
11
6.46604
21
2.70102
31
0.0
0
LINE
8
1
62
3
10
6.46604
20
2.70102
30
0.0
11
6.19818
21
3.1101
31
0.0
0
ARC
8
1
62
3
10
3.48283
20
-0.84004
30
0.0
40
3.16268
50
69.04942
51
82.09977
0
ARC
8
1
62
3
10
4.6507
20
2.20739
30
0.0
40
0.10088
50
248.4778
51
308.43028
0
LINE
8
1
62
3
10
4.7134
20
2.12837
30
0.0
11
4.80133
21
2.19825
31
0.0
0
ARC
8
1
62
3
10
4.83371
20
2.15682
30
0.0
40
0.05258
50
25.42861
51
128.00958
0
ARC
8
1
62
3
10
5.14613
20
2.30444
30
0.0
40
0.29297
50
205.26588
51
266.95728
0
ARC
8
1
62
3
10
5.12773
20
1.95041
30
0.0
40
0.06154
50
347.43027
51
447.34805
0
ARC
8
1
62
3
10
4.72133
20
2.03447
30
0.0
40
0.47654
50
298.21507
51
348.20051
0
ARC
8
1
62
3
10
4.98042
20
1.55085
30
0.0
40
0.07211
50
117.9426
51
232.18677
0
ARC
8
1
62
3
10
5.8919
20
2.73576
30
0.0
40
1.56704
50
232.41979
51
250.40093
0
ARC
8
1
62
3
10
5.39057
20
1.32741
30
0.0
40
0.07212
50
250.29728
51
384.79084
0
ARC
8
1
62
3
10
6.06083
20
1.63669
30
0.0
40
0.66605
50
129.32081
51
204.76804
0
ARC
8
1
62
3
10
5.60444
20
2.19267
30
0.0
40
0.05327
50
310.13838
51
422.36456
0
LINE
8
1
62
3
10
5.62915
20
2.23986
30
0.0
11
5.56964
21
2.27006
31
0.0
0
ARC
8
1
62
3
10
5.61951
20
2.36793
30
0.0
40
0.10984
50
152.99849
51
242.99896
0
LINE
8
1
62
3
10
5.52164
20
2.4178
30
0.0
11
5.54334
21
2.4591
31
0.0
0
LINE
8
1
62
3
10
5.54334
20
2.4591
30
0.0
11
5.33035
21
2.56762
31
0.0
0
LINE
8
1
62
3
10
5.33035
20
2.56762
30
0.0
11
5.15716
21
2.22771
31
0.0
0
LINE
8
1
62
3
10
5.15716
20
2.22771
30
0.0
11
5.08695
21
2.26348
31
0.0
0
LINE
8
1
62
3
10
5.08695
20
2.26348
30
0.0
11
5.26041
21
2.60392
31
0.0
0
LINE
8
1
62
3
10
5.26041
20
2.60392
30
0.0
11
5.04689
21
2.71271
31
0.0
0
LINE
8
1
62
3
10
5.04689
20
2.71271
30
0.0
11
5.02571
21
2.67115
31
0.0
0
ARC
8
1
62
3
10
4.92784
20
2.72101
30
0.0
40
0.10984
50
243.00333
51
333.00342
0
LINE
8
1
62
3
10
4.87798
20
2.62314
30
0.0
11
4.83009
21
2.64754
31
0.0
0
ARC
8
1
62
3
10
4.8067
20
2.59981
30
0.0
40
0.05316
50
63.89308
51
163.88617
0
LINE
8
1
62
3
10
4.75563
20
2.61456
30
0.0
11
4.72335
21
2.50309
31
0.0
0
ARC
8
1
62
3
10
4.63618
20
2.52841
30
0.0
40
0.09077
50
264.3606
51
343.80029
0
ARC
8
1
62
3
10
4.27283
20
-1.6342
30
0.0
40
4.08768
50
85.02577
51
94.95966
0
ARC
8
1
62
3
10
3.92797
20
2.36527
30
0.0
40
0.0734
50
96.68027
51
261.83182
0
LINE
8
1
62
3
10
3.77246
20
2.21779
30
0.0
11
4.0926
21
1.90498
31
0.0
0
LINE
8
1
62
3
10
4.0926
20
1.90498
30
0.0
11
4.03096
21
1.70547
31
0.0
0
LINE
8
1
62
3
10
4.03096
20
1.70547
30
0.0
11
4.10625
21
1.68221
31
0.0
0
LINE
8
1
62
3
10
4.10625
20
1.68221
30
0.0
11
4.16789
21
1.88172
31
0.0
0
LINE
8
1
62
3
10
4.16789
20
1.88172
30
0.0
11
4.60869
21
1.95944
31
0.0
0
ARC
8
1
62
3
10
4.62526
20
1.86873
30
0.0
40
0.09221
50
343.40017
51
460.35482
0
LINE
8
1
62
3
10
4.71363
20
1.84239
30
0.0
11
4.61911
21
1.54113
31
0.0
0
ARC
8
1
62
3
10
4.53099
20
1.56851
30
0.0
40
0.09227
50
245.06208
51
342.73979
0
LINE
8
1
62
3
10
4.49209
20
1.48484
30
0.0
11
4.25632
21
1.59675
31
0.0
0
LINE
8
1
62
3
10
4.25632
20
1.59675
30
0.0
11
4.12054
21
1.30986
31
0.0
0
ARC
8
1
62
3
10
3.97172
20
1.38023
30
0.0
40
0.16462
50
170.96901
51
334.69292
0
LINE
8
1
62
3
10
3.80914
20
1.40607
30
0.0
11
3.85884
21
1.71955
31
0.0
0
LINE
8
1
62
3
10
3.85884
20
1.71955
30
0.0
11
3.60103
21
1.76013
31
0.0
0
ARC
8
1
62
3
10
3.6161
20
1.85116
30
0.0
40
0.09227
50
162.9213
51
260.599
0
LINE
8
1
62
3
10
3.5279
20
1.87826
30
0.0
11
3.61978
21
2.18033
31
0.0
0
ARC
8
1
62
3
10
3.70761
20
2.15224
30
0.0
40
0.09221
50
45.30788
51
162.26253
0
LINE
8
1
62
3
10
3.44509
20
2.48351
30
0.0
11
2.9625
21
2.8699
31
0.0
0
ARC
8
1
62
3
10
3.2593
20
3.23991
30
0.0
40
0.47434
50
226.02644
51
231.2661
0
ARC
8
1
62
3
10
3.12667
20
3.10162
30
0.0
40
0.28273
50
125.716
51
225.91044
0
LINE
8
1
62
3
10
2.96162
20
3.33118
30
0.0
11
3.00162
21
3.3602
31
0.0
0
LINE
8
1
62
3
10
3.00162
20
3.3602
30
0.0
11
2.86158
21
3.55183
31
0.0
0
LINE
8
1
62
3
10
2.86158
20
3.55183
30
0.0
11
2.9252
21
3.59832
31
0.0
0
LINE
8
1
62
3
10
2.9252
20
3.59832
30
0.0
11
3.06524
21
3.40669
31
0.0
0
LINE
8
1
62
3
10
3.06524
20
3.40669
30
0.0
11
3.10503
21
3.43599
31
0.0
0
ARC
8
1
62
3
10
3.27361
20
3.20901
30
0.0
40
0.28273
50
26.40632
51
126.60077
0
ARC
8
1
62
3
10
3.10151
20
3.12464
30
0.0
40
0.4744
50
21.04889
51
26.28854
0
LINE
8
1
62
3
10
3.54425
20
3.29503
30
0.0
11
3.7658
21
2.71787
31
0.0
0
ARC
8
1
62
3
10
3.97929
20
2.81938
30
0.0
40
0.23639
50
205.43092
51
219.23614
0
ARC
8
1
62
3
10
3.84658
20
2.7074
30
0.0
40
0.06283
50
216.68792
51
301.57726
0
ARC
8
1
62
3
10
3.83783
20
2.70069
30
0.0
40
0.06266
50
311.65776
51
370.36339
0
LINE
8
1
62
3
10
3.89947
20
2.71196
30
0.0
11
3.81052
21
3.19618
31
0.0
0
ARC
8
1
62
3
10
3.14584
20
3.07387
30
0.0
40
0.67584
50
10.42646
51
102.14983
0
LINE
8
1
62
3
10
3.0036
20
3.73457
30
0.0
11
2.73442
21
3.98805
31
0.0
0
ARC
8
1
62
3
10
2.654
20
3.90265
30
0.0
40
0.1173
50
46.72117
51
205.59659
0
LINE
8
1
62
3
10
2.54821
20
3.85197
30
0.0
11
2.70795
21
3.51852
31
0.0
0
ARC
8
1
62
3
10
3.29423
20
3.18231
30
0.0
40
0.67584
50
150.16704
51
241.8904
0
LINE
8
1
62
3
10
2.9758
20
2.58618
30
0.0
11
3.41012
21
2.35436
31
0.0
0
ARC
8
1
62
3
10
3.43959
20
2.40965
30
0.0
40
0.06266
50
241.94384
51
300.64947
0
ARC
8
1
62
3
10
3.43052
20
2.40337
30
0.0
40
0.06284
50
310.73697
51
395.62631
0
ARC
8
1
62
3
10
3.28352
20
2.31095
30
0.0
40
0.2364
50
33.07854
51
46.88376
0
LINE
8
1
62
3
10
2.67748
20
2.49567
30
0.0
11
2.8226
21
2.20554
31
0.0
0
LINE
8
1
62
3
10
2.8226
20
2.20554
30
0.0
11
2.89308
21
2.24079
31
0.0
0
LINE
8
1
62
3
10
2.89308
20
2.24079
30
0.0
11
2.80962
21
2.40764
31
0.0
0
LINE
8
1
62
3
10
2.80962
20
2.40764
30
0.0
11
2.82799
21
2.41683
31
0.0
0
ARC
8
1
62
3
10
2.86205
20
2.34214
30
0.0
40
0.08209
50
26.98498
51
114.51445
0
LINE
8
1
62
3
10
2.9352
20
2.37939
30
0.0
11
3.07469
21
2.10052
31
0.0
0
ARC
8
1
62
3
10
3.00286
20
2.06327
30
0.0
40
0.08092
50
295.74025
51
387.4117
0
LINE
8
1
62
3
10
3.038
20
1.99038
30
0.0
11
2.92761
21
1.93517
31
0.0
0
ARC
8
1
62
3
10
2.88243
20
2.02548
30
0.0
40
0.10098
50
206.57389
51
296.57397
0
LINE
8
1
62
3
10
2.79212
20
1.98031
30
0.0
11
2.7023
21
2.16121
31
0.0
0
ARC
8
1
62
3
10
0.99929
20
1.35665
30
0.0
40
1.8835
50
25.28777
51
44.38209
0
LINE
8
1
62
3
10
2.34541
20
2.67404
30
0.0
11
2.27092
21
2.75166
31
0.0
0
ARC
8
1
62
3
10
2.23395
20
2.71469
30
0.0
40
0.05228
50
45.00346
51
164.7745
0
LINE
8
1
62
3
10
2.18351
20
2.72842
30
0.0
11
2.11334
21
2.46746
31
0.0
0
ARC
8
1
62
3
10
1.82269
20
2.54549
30
0.0
40
0.30094
50
214.27649
51
344.97119
0
ARC
8
1
62
3
10
1.60558
20
2.40532
30
0.0
40
0.04307
50
42.8926
51
222.89237
0
ARC
8
1
62
3
10
1.74626
20
2.57487
30
0.0
40
0.17769
50
232.10753
51
267.00191
0
LINE
8
1
62
3
10
1.73697
20
2.39742
30
0.0
11
1.80828
21
2.39352
31
0.0
0
ARC
8
1
62
3
10
1.81012
20
2.42543
30
0.0
40
0.03196
50
266.70037
51
411.72119
0
LINE
8
1
62
3
10
1.82992
20
2.45052
30
0.0
11
1.74511
21
2.51971
31
0.0
0
ARC
8
1
62
3
10
1.79192
20
2.57612
30
0.0
40
0.07331
50
119.14393
51
230.31539
0
ARC
8
1
62
3
10
1.84176
20
2.73707
30
0.0
40
0.12927
50
228.57088
51
345.09317
0
LINE
8
1
62
3
10
1.96668
20
2.70382
30
0.0
11
2.05189
21
3.02182
31
0.0
0
ARC
8
1
62
3
10
2.13262
20
2.99858
30
0.0
40
0.08401
50
52.99554
51
163.9398
0
LINE
8
1
62
3
10
2.18319
20
3.06567
30
0.0
11
2.23602
21
3.02343
31
0.0
0
ARC
8
1
62
3
10
1.19174
20
1.7014
30
0.0
40
1.68472
50
28.12888
51
51.69465
0
LINE
8
1
62
3
10
1.38536
20
3.27967
30
0.0
11
1.23814
21
3.13158
31
0.0
0
LINE
8
1
62
3
10
1.23814
20
3.13158
30
0.0
11
1.18225
21
3.18713
31
0.0
0
LINE
8
1
62
3
10
1.18225
20
3.18713
30
0.0
11
1.32947
21
3.33522
31
0.0
0
LINE
8
1
62
3
10
1.32947
20
3.33522
30
0.0
11
1.19116
21
3.76091
31
0.0
0
ARC
8
1
62
3
10
1.10329
20
3.73296
30
0.0
40
0.09221
50
17.64377
51
134.59842
0
LINE
8
1
62
3
10
1.03854
20
3.79862
30
0.0
11
0.81691
21
3.57373
31
0.0
0
ARC
8
1
62
3
10
0.88246
20
3.50878
30
0.0
40
0.09227
50
135.25928
51
232.93699
0
LINE
8
1
62
3
10
0.82684
20
3.43515
30
0.0
11
1.03634
21
3.27952
31
0.0
0
LINE
8
1
62
3
10
1.03634
20
3.27952
30
0.0
11
0.84678
21
3.02494
31
0.0
0
ARC
8
1
62
3
10
0.97878
20
2.92658
30
0.0
40
0.16462
50
143.30722
51
307.03114
0
LINE
8
1
62
3
10
1.07792
20
2.79516
30
0.0
11
1.33138
21
2.98621
31
0.0
0
LINE
8
1
62
3
10
1.33138
20
2.98621
30
0.0
11
1.48824
21
2.77763
31
0.0
0
ARC
8
1
62
3
10
1.56154
20
2.83367
30
0.0
40
0.09227
50
217.40139
51
315.0791
0
LINE
8
1
62
3
10
1.62687
20
2.76852
30
0.0
11
1.85045
21
2.99146
31
0.0
0
ARC
8
1
62
3
10
1.78441
20
3.05582
30
0.0
40
0.09221
50
315.7357
51
432.69035
0
LINE
8
1
62
3
10
1.81185
20
3.14386
30
0.0
11
1.38536
21
3.27967
31
0.0
0
LINE
8
1
62
3
10
1.61912
20
3.70667
30
0.0
11
2.07844
21
3.41965
31
0.0
0
ARC
8
1
62
3
10
1.95229
20
3.25436
30
0.0
40
0.20793
50
38.98854
51
52.64978
0
ARC
8
1
62
3
10
2.07142
20
3.34743
30
0.0
40
0.05684
50
318.17298
51
401.61495
0
ARC
8
1
62
3
10
2.08032
20
3.3542
30
0.0
40
0.05581
50
248.30204
51
306.8234
0
LINE
8
1
62
3
10
2.05969
20
3.30235
30
0.0
11
1.65883
21
3.45961
31
0.0
0
ARC
8
1
62
3
10
1.87762
20
4.01248
30
0.0
40
0.59459
50
160.05489
51
248.41005
0
LINE
8
1
62
3
10
1.31869
20
4.21531
30
0.0
11
1.11039
21
4.54628
31
0.0
0
ARC
8
1
62
3
10
1.20882
20
4.60823
30
0.0
40
0.1163
50
53.65538
51
212.18458
0
LINE
8
1
62
3
10
1.27774
20
4.7019
30
0.0
11
1.59274
21
4.47015
31
0.0
0
ARC
8
1
62
3
10
1.7545
20
3.89799
30
0.0
40
0.59458
50
17.43157
51
105.78673
0
LINE
8
1
62
3
10
2.32178
20
4.07611
30
0.0
11
2.44956
21
3.6649
31
0.0
0
ARC
8
1
62
3
10
2.39636
20
3.64808
30
0.0
40
0.0558
50
319.01945
51
377.5408
0
ARC
8
1
62
3
10
2.40374
20
3.65648
30
0.0
40
0.05684
50
224.23117
51
307.67314
0
ARC
8
1
62
3
10
2.50523
20
3.76855
30
0.0
40
0.20795
50
213.19148
51
226.85272
0
LINE
8
1
62
3
10
2.33121
20
3.65471
30
0.0
11
2.07826
21
4.13364
31
0.0
0
ARC
8
1
62
3
10
1.71131
20
3.94108
30
0.0
40
0.41441
50
27.68926
51
32.83248
0
ARC
8
1
62
3
10
1.85296
20
4.03206
30
0.0
40
0.24605
50
32.91507
51
133.3498
0
LINE
8
1
62
3
10
1.68406
20
4.21098
30
0.0
11
1.65629
21
4.18489
31
0.0
0
LINE
8
1
62
3
10
1.65629
20
4.18489
30
0.0
11
1.51548
21
4.33631
31
0.0
0
LINE
8
1
62
3
10
1.51548
20
4.33631
30
0.0
11
1.45778
21
4.28265
31
0.0
0
LINE
8
1
62
3
10
1.45778
20
4.28265
30
0.0
11
1.59862
21
4.1312
31
0.0
0
LINE
8
1
62
3
10
1.59862
20
4.1312
30
0.0
11
1.57056
21
4.10543
31
0.0
0
ARC
8
1
62
3
10
1.73676
20
3.924
30
0.0
40
0.24605
50
132.49266
51
232.92739
0
ARC
8
1
62
3
10
1.83779
20
4.05873
30
0.0
40
0.41444
50
233.01191
51
238.15513
0
LINE
8
1
62
3
10
0.79288
20
4.14811
30
0.0
11
0.63851
21
4.14766
31
0.0
0
LINE
8
1
62
3
10
0.63851
20
4.14766
30
0.0
11
0.49832
21
4.41885
31
0.0
0
ARC
8
1
62
3
10
0.5563
20
4.44922
30
0.0
40
0.06545
50
90.69584
51
207.64875
0
LINE
8
1
62
3
10
0.5555
20
4.51467
30
0.0
11
0.77989
21
4.51467
31
0.0
0
ARC
8
1
62
3
10
0.77992
20
4.44902
30
0.0
40
0.06565
50
352.34193
51
450.01945
0
LINE
8
1
62
3
10
0.84498
20
4.44027
30
0.0
11
0.81899
21
4.25662
31
0.0
0
LINE
8
1
62
3
10
0.81899
20
4.25662
30
0.0
11
1.04237
21
4.22526
31
0.0
0
ARC
8
1
62
3
10
1.02615
20
4.1094
30
0.0
40
0.11699
50
278.30625
51
442.03016
0
LINE
8
1
62
3
10
1.04305
20
3.99363
30
0.0
11
0.81986
21
3.96096
31
0.0
0
LINE
8
1
62
3
10
0.81986
20
3.96096
30
0.0
11
0.84693
21
3.77748
31
0.0
0
ARC
8
1
62
3
10
0.78198
20
3.76842
30
0.0
40
0.06558
50
270.25963
51
367.93733
0
LINE
8
1
62
3
10
0.78228
20
3.70285
30
0.0
11
0.5579
21
3.70121
31
0.0
0
ARC
8
1
62
3
10
0.55835
20
3.76674
30
0.0
40
0.06553
50
152.64563
51
269.60028
0
LINE
8
1
62
3
10
0.50015
20
3.79685
30
0.0
11
0.63875
21
4.06886
31
0.0
0
LINE
8
1
62
3
10
0.63875
20
4.06886
30
0.0
11
0.79288
21
4.06931
31
0.0
0
LINE
8
1
62
3
10
0.79288
20
4.06931
30
0.0
11
0.79288
21
4.14811
31
0.0
0
ARC
8
1
62
3
10
1.20757
20
5.43077
30
0.0
40
0.24605
50
201.91469
51
302.34941
0
LINE
8
1
62
3
10
1.33923
20
5.22291
30
0.0
11
1.37147
21
5.24322
31
0.0
0
LINE
8
1
62
3
10
1.37147
20
5.24322
30
0.0
11
1.4808
21
5.06771
31
0.0
0
LINE
8
1
62
3
10
1.4808
20
5.06771
30
0.0
11
1.54768
21
5.10938
31
0.0
0
LINE
8
1
62
3
10
1.54768
20
5.10938
30
0.0
11
1.43833
21
5.28492
31
0.0
0
LINE
8
1
62
3
10
1.43833
20
5.28492
30
0.0
11
1.47079
21
5.30486
31
0.0
0
ARC
8
1
62
3
10
1.34226
20
5.51467
30
0.0
40
0.24605
50
301.49205
51
401.92678
0
ARC
8
1
62
3
10
1.21747
20
5.40165
30
0.0
40
0.41441
50
42.02529
51
47.16851
0
LINE
8
1
62
3
10
1.49921
20
5.70556
30
0.0
11
1.10309
21
6.07495
31
0.0
0
ARC
8
1
62
3
10
1.25848
20
6.21313
30
0.0
40
0.20795
50
207.98395
51
221.64519
0
ARC
8
1
62
3
10
1.12377
20
6.1445
30
0.0
40
0.05684
50
127.16664
51
210.60861
0
ARC
8
1
62
3
10
1.11374
20
6.13956
30
0.0
40
0.0558
50
57.30255
51
115.8239
0
LINE
8
1
62
3
10
1.14388
20
6.18652
30
0.0
11
1.50737
21
5.95566
31
0.0
0
ARC
8
1
62
3
10
1.18711
20
5.45469
30
0.0
40
0.59459
50
329.05443
51
417.40959
0
LINE
8
1
62
3
10
1.69706
20
5.14894
30
0.0
11
1.83839
21
4.78431
31
0.0
0
ARC
8
1
62
3
10
1.72994
20
4.74228
30
0.0
40
0.11631
50
222.65627
51
381.18548
0
LINE
8
1
62
3
10
1.64441
20
4.66347
30
0.0
11
1.37943
21
4.95107
31
0.0
0
ARC
8
1
62
3
10
1.32981
20
5.54358
30
0.0
40
0.59459
50
186.43162
51
274.78678
0
LINE
8
1
62
3
10
0.73897
20
5.47698
30
0.0
11
0.69199
21
5.90502
31
0.0
0
ARC
8
1
62
3
10
0.74743
20
5.91137
30
0.0
40
0.0558
50
128.01619
51
186.53754
0
ARC
8
1
62
3
10
0.73858
20
5.90455
30
0.0
40
0.05683
50
33.2388
51
116.68077
0
ARC
8
1
62
3
10
0.61754
20
5.8139
30
0.0
40
0.20797
50
22.18821
51
35.84945
0
LINE
8
1
62
3
10
0.81012
20
5.89244
30
0.0
11
0.96704
21
5.37405
31
0.0
0
ARC
8
1
62
3
10
1.36404
20
5.49306
30
0.0
40
0.41445
50
196.68717
51
201.83039
0
LINE
8
1
62
3
10
2.50048
20
5.12716
30
0.0
11
1.8929
21
5.13776
31
0.0
0
LINE
8
1
62
3
10
1.8929
20
5.13776
30
0.0
11
1.89409
21
5.20575
31
0.0
0
ARC
8
1
62
3
10
1.99506
20
5.20399
30
0.0
40
0.10099
50
89.3367
51
179.00168
0
LINE
8
1
62
3
10
1.99623
20
5.30497
30
0.0
11
2.23478
21
5.30081
31
0.0
0
ARC
8
1
62
3
10
2.23613
20
5.39173
30
0.0
40
0.09093
50
269.14838
51
320.43241
0
LINE
8
1
62
3
10
2.30623
20
5.33381
30
0.0
11
2.46004
21
5.51718
31
0.0
0
ARC
8
1
62
3
10
2.53749
20
5.45323
30
0.0
40
0.10044
50
89.00513
51
140.45059
0
LINE
8
1
62
3
10
2.53923
20
5.55365
30
0.0
11
2.6279
21
5.55205
31
0.0
0
ARC
8
1
62
3
10
2.62747
20
5.52806
30
0.0
40
0.024
50
358.99978
51
448.96994
0
LINE
8
1
62
3
10
2.65146
20
5.52764
30
0.0
11
2.64796
21
5.32667
31
0.0
0
LINE
8
1
62
3
10
2.64796
20
5.32667
30
0.0
11
2.72674
21
5.3253
31
0.0
0
LINE
8
1
62
3
10
2.72674
20
5.3253
30
0.0
11
2.73025
21
5.52626
31
0.0
0
ARC
8
1
62
3
10
2.75425
20
5.52584
30
0.0
40
0.024
50
88.99738
51
178.99747
0
LINE
8
1
62
3
10
2.75467
20
5.54984
30
0.0
11
2.8197
21
5.54871
31
0.0
0
ARC
8
1
62
3
10
2.81794
20
5.44774
30
0.0
40
0.10099
50
359.00134
51
449.00143
0
LINE
8
1
62
3
10
2.91891
20
5.44598
30
0.0
11
2.91724
21
5.35032
31
0.0
0
ARC
8
1
62
3
10
3.02706
20
5.34823
30
0.0
40
0.10984
50
178.90904
51
306.41846
0
LINE
8
1
62
3
10
3.09227
20
5.25984
30
0.0
11
3.15508
21
5.30601
31
0.0
0
ARC
8
1
62
3
10
3.21436
20
5.22394
30
0.0
40
0.10125
50
1.40607
51
125.84142
0
LINE
8
1
62
3
10
3.31558
20
5.22642
30
0.0
11
3.31736
21
5.09468
31
0.0
0
ARC
8
1
62
3
10
3.67893
20
5.10072
30
0.0
40
0.36162
50
180.95721
51
206.9392
0
LINE
8
1
62
3
10
3.35655
20
4.93689
30
0.0
11
3.43704
21
4.77719
31
0.0
0
ARC
8
1
62
3
10
3.3484
20
4.73054
30
0.0
40
0.10017
50
271.94019
51
387.75689
0
LINE
8
1
62
3
10
3.35179
20
4.63043
30
0.0
11
3.22587
21
4.62435
31
0.0
0
ARC
8
1
62
3
10
2.98303
20
9.57549
30
0.0
40
4.95709
50
265.51314
51
272.80801
0
LINE
8
1
62
3
10
2.59523
20
4.63359
30
0.0
11
2.12336
21
4.67018
31
0.0
0
ARC
8
1
62
3
10
2.14296
20
4.92381
30
0.0
40
0.25439
50
179.13384
51
265.58079
0
LINE
8
1
62
3
10
1.8886
20
4.92766
30
0.0
11
1.89094
21
5.05898
31
0.0
0
LINE
8
1
62
3
10
1.89094
20
5.05898
30
0.0
11
2.49911
21
5.04837
31
0.0
0
LINE
8
1
62
3
10
2.49911
20
5.04837
30
0.0
11
2.50048
21
5.12716
31
0.0
0
LINE
8
1
62
3
10
3.82694
20
4.27661
30
0.0
11
4.14689
21
4.48438
31
0.0
0
LINE
8
1
62
3
10
4.14689
20
4.48438
30
0.0
11
4.0167
21
4.68486
31
0.0
0
LINE
8
1
62
3
10
4.0167
20
4.68486
30
0.0
11
3.97789
21
4.65896
31
0.0
0
ARC
8
1
62
3
10
3.91807
20
4.75108
30
0.0
40
0.10984
50
212.99826
51
302.99874
0
LINE
8
1
62
3
10
3.82595
20
4.69126
30
0.0
11
3.7897
21
4.74728
31
0.0
0
ARC
8
1
62
3
10
3.74535
20
4.71778
30
0.0
40
0.05327
50
33.63425
51
145.86043
0
ARC
8
1
62
3
10
3.14471
20
5.11355
30
0.0
40
0.66605
50
251.23152
51
326.67876
0
ARC
8
1
62
3
10
2.90718
20
4.41464
30
0.0
40
0.07212
50
71.20911
51
205.70266
0
ARC
8
1
62
3
10
4.25542
20
5.06043
30
0.0
40
1.56705
50
205.59893
51
223.58007
0
ARC
8
1
62
3
10
3.17226
20
4.03008
30
0.0
40
0.07211
50
223.8149
51
338.05907
0
ARC
8
1
62
3
10
3.68032
20
3.82296
30
0.0
40
0.47655
50
107.79935
51
157.78478
0
ARC
8
1
62
3
10
3.55424
20
4.21836
30
0.0
40
0.06154
50
8.64354
51
108.56132
0
ARC
8
1
62
3
10
3.90441
20
4.27367
30
0.0
40
0.29297
50
189.0446
51
250.736
0
ARC
8
1
62
3
10
3.79026
20
3.94752
30
0.0
40
0.05257
50
327.98803
51
430.569
0
LINE
8
1
62
3
10
3.83484
20
3.91965
30
0.0
11
3.77453
21
3.8249
31
0.0
0
ARC
8
1
62
3
10
3.85968
20
3.7708
30
0.0
40
0.10088
50
147.57346
51
207.52594
0
ARC
8
1
62
3
10
0.95105
20
2.29082
30
0.0
40
3.16263
50
13.89998
51
26.95033
0
ARC
8
1
62
3
10
4.09224
20
3.06853
30
0.0
40
0.0734
50
194.16648
51
359.31804
0
ARC
8
1
62
3
10
0.07864
20
2.99343
30
0.0
40
4.08766
50
1.04054
51
10.97442
0
ARC
8
1
62
3
10
4.18046
20
3.78991
30
0.0
40
0.09077
50
112.19982
51
191.63951
0
LINE
8
1
62
3
10
4.14616
20
3.87396
30
0.0
11
4.25365
21
3.91772
31
0.0
0
ARC
8
1
62
3
10
4.23364
20
3.96696
30
0.0
40
0.05316
50
292.11806
51
392.11116
0
LINE
8
1
62
3
10
4.27866
20
3.99522
30
0.0
11
4.24939
21
4.04029
31
0.0
0
ARC
8
1
62
3
10
4.34151
20
4.10011
30
0.0
40
0.10984
50
122.99846
51
212.99854
0
LINE
8
1
62
3
10
4.28169
20
4.19223
30
0.0
11
4.32082
21
4.21764
31
0.0
0
LINE
8
1
62
3
10
4.32082
20
4.21764
30
0.0
11
4.1903
21
4.41862
31
0.0
0
LINE
8
1
62
3
10
4.1903
20
4.41862
30
0.0
11
3.86986
21
4.21052
31
0.0
0
LINE
8
1
62
3
10
3.86986
20
4.21052
30
0.0
11
3.82694
21
4.27661
31
0.0
0
LINE
8
1
62
3
10
4.84919
20
3.69566
30
0.0
11
4.92769
21
3.70253
31
0.0
0
LINE
8
1
62
3
10
4.92769
20
3.70253
30
0.0
11
4.87467
21
4.30848
31
0.0
0
LINE
8
1
62
3
10
4.87467
20
4.30848
30
0.0
11
5.00552
21
4.31997
31
0.0
0
ARC
8
1
62
3
10
5.0271
20
4.0665
30
0.0
40
0.25439
50
8.42027
51
94.86722
0
LINE
8
1
62
3
10
5.27875
20
4.10375
30
0.0
11
5.34816
21
3.63557
31
0.0
0
ARC
8
1
62
3
10
0.44542
20
2.90398
30
0.0
40
4.95702
50
1.19218
51
8.48704
0
LINE
8
1
62
3
10
5.40137
20
3.00712
30
0.0
11
5.40409
21
2.88109
31
0.0
0
ARC
8
1
62
3
10
5.30398
20
2.87749
30
0.0
40
0.10017
50
246.24516
51
362.06186
0
LINE
8
1
62
3
10
5.26363
20
2.7858
30
0.0
11
5.09871
21
2.85496
31
0.0
0
ARC
8
1
62
3
10
4.95778
20
2.52193
30
0.0
40
0.36162
50
67.06349
51
93.04548
0
LINE
8
1
62
3
10
4.93857
20
2.88304
30
0.0
11
4.80702
21
2.87563
31
0.0
0
ARC
8
1
62
3
10
4.80244
20
2.97677
30
0.0
40
0.10124
50
148.1564
51
272.59176
0
LINE
8
1
62
3
10
4.71644
20
3.03018
30
0.0
11
4.75811
21
3.09606
31
0.0
0
ARC
8
1
62
3
10
4.66539
20
3.15495
30
0.0
40
0.10984
50
327.58057
51
455.08999
0
LINE
8
1
62
3
10
4.65564
20
3.26436
30
0.0
11
4.56033
21
3.25602
31
0.0
0
ARC
8
1
62
3
10
4.55153
20
3.35662
30
0.0
40
0.10098
50
184.99919
51
274.99927
0
LINE
8
1
62
3
10
4.45093
20
3.34782
30
0.0
11
4.44526
21
3.41262
31
0.0
0
ARC
8
1
62
3
10
4.46917
20
3.41471
30
0.0
40
0.024
50
94.99555
51
184.99563
0
LINE
8
1
62
3
10
4.46708
20
3.43862
30
0.0
11
4.66731
21
3.45613
31
0.0
0
LINE
8
1
62
3
10
4.66731
20
3.45613
30
0.0
11
4.66045
21
3.53463
31
0.0
0
LINE
8
1
62
3
10
4.66045
20
3.53463
30
0.0
11
4.46021
21
3.51712
31
0.0
0
ARC
8
1
62
3
10
4.45812
20
3.54103
30
0.0
40
0.024
50
185.03638
51
275.00654
0
LINE
8
1
62
3
10
4.43421
20
3.53892
30
0.0
11
4.42644
21
3.62726
31
0.0
0
ARC
8
1
62
3
10
4.52649
20
3.63601
30
0.0
40
0.10043
50
133.55354
51
184.999
0
LINE
8
1
62
3
10
4.45729
20
3.7088
30
0.0
11
4.62948
21
3.87503
31
0.0
0
ARC
8
1
62
3
10
4.56681
20
3.94092
30
0.0
40
0.09094
50
313.56508
51
364.8491
0
LINE
8
1
62
3
10
4.65742
20
3.94861
30
0.0
11
4.63663
21
4.18629
31
0.0
0
ARC
8
1
62
3
10
4.73728
20
4.1945
30
0.0
40
0.10098
50
94.99873
51
184.66371
0
LINE
8
1
62
3
10
4.72848
20
4.2951
30
0.0
11
4.79623
21
4.30103
31
0.0
0
LINE
8
1
62
3
10
4.79623
20
4.30103
30
0.0
11
4.84919
21
3.69566
31
0.0
0
ARC
8
1
62
3
10
5.37147
20
4.47903
30
0.0
40
0.02367
50
2.87322
51
90.63409
0
LINE
8
1
62
3
10
5.39511
20
4.48022
30
0.0
11
5.39857
21
4.43386
31
0.0
0
LINE
8
1
62
3
10
5.39857
20
4.43386
30
0.0
11
5.60979
21
4.4482
31
0.0
0
LINE
8
1
62
3
10
5.60979
20
4.4482
30
0.0
11
5.59162
21
4.70052
31
0.0
0
LINE
8
1
62
3
10
5.59162
20
4.70052
30
0.0
11
5.33441
21
4.68202
31
0.0
0
LINE
8
1
62
3
10
5.33441
20
4.68202
30
0.0
11
5.32876
21
4.76062
31
0.0
0
LINE
8
1
62
3
10
5.32876
20
4.76062
30
0.0
11
5.58714
21
4.7792
31
0.0
0
LINE
8
1
62
3
10
5.58714
20
4.7792
30
0.0
11
5.5701
21
5.03126
31
0.0
0
LINE
8
1
62
3
10
5.5701
20
5.03126
30
0.0
11
5.21007
21
5.00609
31
0.0
0
LINE
8
1
62
3
10
5.21007
20
5.00609
30
0.0
11
5.21216
21
4.96879
31
0.0
0
ARC
8
1
62
3
10
5.18866
20
4.9677
30
0.0
40
0.02353
50
283.0452
51
362.65959
0
ARC
8
1
62
3
10
4.94156
20
5.94274
30
0.0
40
1.02938
50
235.53983
51
284.19406
0
ARC
8
1
62
3
10
4.38955
20
5.13687
30
0.0
40
0.05259
50
171.40191
51
234.62133
0
ARC
8
1
62
3
10
4.24575
20
5.156
30
0.0
40
0.09249
50
352.99862
51
491.45035
0
LINE
8
1
62
3
10
4.18452
20
5.22533
30
0.0
11
4.122
21
5.16858
31
0.0
0
ARC
8
1
62
3
10
4.0933
20
5.2004
30
0.0
40
0.04285
50
151.10154
51
312.051
0
LINE
8
1
62
3
10
4.05578
20
5.22111
30
0.0
11
4.07015
21
5.2479
31
0.0
0
ARC
8
1
62
3
10
3.99123
20
5.29309
30
0.0
40
0.09095
50
330.2032
51
476.66529
0
ARC
8
1
62
3
10
3.92807
20
5.42203
30
0.0
40
0.05264
50
230.76493
51
295.11687
0
ARC
8
1
62
3
10
2.06213
20
3.17623
30
0.0
40
2.86718
50
50.26944
51
66.53979
0
ARC
8
1
62
3
10
3.21271
20
5.82821
30
0.0
40
0.02364
50
170.55834
51
247.3044
0
ARC
8
1
62
3
10
3.09949
20
5.84511
30
0.0
40
0.09083
50
351.75613
51
497.37282
0
ARC
8
1
62
3
10
3.01518
20
5.92285
30
0.0
40
0.02385
50
200.93156
51
317.14777
0
ARC
8
1
62
3
10
2.21312
20
5.62357
30
0.0
40
0.83223
50
20.44953
51
40.20977
0
ARC
8
1
62
3
10
2.80045
20
6.12111
30
0.0
40
0.06249
50
39.4798
51
219.48094
0
ARC
8
1
62
3
10
2.71161
20
6.04793
30
0.0
40
0.05261
50
258.76432
51
399.48267
0
LINE
8
1
62
3
10
2.70136
20
5.99632
30
0.0
11
2.49856
21
6.03578
31
0.0
0
ARC
8
1
62
3
10
2.47035
20
5.88974
30
0.0
40
0.14874
50
79.06694
51
162.47829
0
ARC
8
1
62
3
10
1.94984
20
6.05435
30
0.0
40
0.39718
50
272.39819
51
342.44013
0
ARC
8
1
62
3
10
1.97052
20
5.59538
30
0.0
40
0.06228
50
93.74232
51
266.43284
0
ARC
8
1
62
3
10
1.98758
20
6.02743
30
0.0
40
0.49465
50
267.57528
51
322.97246
0
ARC
8
1
62
3
10
2.56156
20
5.59524
30
0.0
40
0.22385
50
78.94698
51
143.13046
0
ARC
8
1
62
3
10
2.98543
20
7.79649
30
0.0
40
2.01784
50
259.11787
51
267.69299
0
ARC
8
1
62
3
10
2.90362
20
5.75688
30
0.0
40
0.02342
50
10.08197
51
88.56861
0
ARC
8
1
62
3
10
3.07291
20
5.78536
30
0.0
40
0.14826
50
189.46456
51
293.33019
0
ARC
8
1
62
3
10
3.14138
20
5.62716
30
0.0
40
0.02412
50
61.43179
51
113.83216
0
ARC
8
1
62
3
10
1.76346
20
3.13692
30
0.0
40
2.87016
50
45.75715
51
61.04629
0
ARC
8
1
62
3
10
3.66979
20
5.09354
30
0.0
40
0.13841
50
347.65342
51
405.98184
0
ARC
8
1
62
3
10
3.8941
20
5.04434
30
0.0
40
0.09123
50
167.59493
51
326.61508
0
ARC
8
1
62
3
10
4.01373
20
4.96444
30
0.0
40
0.05263
50
46.88246
51
145.64905
0
ARC
8
1
62
3
10
5.30889
20
6.33396
30
0.0
40
1.83232
50
226.59007
51
271.94901
0
ARC
8
1
62
3
10
4.80345
20
5.25063
30
0.0
40
0.14973
50
166.22782
51
325.69952
0
LINE
8
1
62
3
10
4.92714
20
5.16625
30
0.0
11
4.99014
21
5.26283
31
0.0
0
ARC
8
1
62
3
10
5.10626
20
5.18709
30
0.0
40
0.13863
50
56.91386
51
146.88694
0
LINE
8
1
62
3
10
5.18194
20
5.30325
30
0.0
11
5.19384
21
5.2955
31
0.0
0
ARC
8
1
62
3
10
5.27546
20
5.41925
30
0.0
40
0.14824
50
236.59085
51
327.23573
0
LINE
8
1
62
3
10
5.40012
20
5.33902
30
0.0
11
5.42793
21
5.3817
31
0.0
0
ARC
8
1
62
3
10
5.47201
20
5.35297
30
0.0
40
0.05262
50
73.04044
51
146.9072
0
ARC
8
1
62
3
10
5.52945
20
5.54652
30
0.0
40
0.14927
50
253.62393
51
400.35924
0
ARC
8
1
62
3
10
5.68325
20
5.67722
30
0.0
40
0.05257
50
147.22716
51
220.35353
0
LINE
8
1
62
3
10
5.63905
20
5.70567
30
0.0
11
5.6518
21
5.72526
31
0.0
0
ARC
8
1
62
3
10
5.52806
20
5.80689
30
0.0
40
0.14825
50
326.58724
51
417.2329
0
LINE
8
1
62
3
10
5.60829
20
5.93155
30
0.0
11
5.38619
21
6.06909
31
0.0
0
LINE
8
1
62
3
10
5.38619
20
6.06909
30
0.0
11
5.07578
21
5.59109
31
0.0
0
LINE
8
1
62
3
10
5.07578
20
5.59109
30
0.0
11
5.00969
21
5.63401
31
0.0
0
LINE
8
1
62
3
10
5.00969
20
5.63401
30
0.0
11
5.44167
21
6.29919
31
0.0
0
ARC
8
1
62
3
10
5.35943
20
6.35259
30
0.0
40
0.09806
50
327.00387
51
417.39902
0
LINE
8
1
62
3
10
5.41226
20
6.4352
30
0.0
11
5.33019
21
6.4885
31
0.0
0
LINE
8
1
62
3
10
5.33019
20
6.4885
30
0.0
11
5.18966
21
6.27211
31
0.0
0
LINE
8
1
62
3
10
5.18966
20
6.27211
30
0.0
11
5.12358
21
6.31503
31
0.0
0
LINE
8
1
62
3
10
5.12358
20
6.31503
30
0.0
11
5.26413
21
6.53146
31
0.0
0
LINE
8
1
62
3
10
5.26413
20
6.53146
30
0.0
11
5.18168
21
6.58482
31
0.0
0
ARC
8
1
62
3
10
5.1284
20
6.5025
30
0.0
40
0.09806
50
57.09022
51
147.00226
0
LINE
8
1
62
3
10
5.04616
20
6.5559
30
0.0
11
4.61415
21
5.89066
31
0.0
0
LINE
8
1
62
3
10
4.61415
20
5.89066
30
0.0
11
4.54806
21
5.93358
31
0.0
0
LINE
8
1
62
3
10
4.54806
20
5.93358
30
0.0
11
4.85844
21
6.41152
31
0.0
0
LINE
8
1
62
3
10
4.85844
20
6.41152
30
0.0
11
4.6422
21
6.55894
31
0.0
0
ARC
8
1
62
3
10
4.56094
20
6.43495
30
0.0
40
0.14825
50
56.76206
51
147.40772
0
LINE
8
1
62
3
10
4.43604
20
6.5148
30
0.0
11
4.42333
21
6.49517
31
0.0
0
ARC
8
1
62
3
10
4.37936
20
6.52398
30
0.0
40
0.05256
50
253.6427
51
326.76907
0
ARC
8
1
62
3
10
4.32252
20
6.33032
30
0.0
40
0.14927
50
73.64005
51
220.37536
0
ARC
8
1
62
3
10
4.16906
20
6.19913
30
0.0
40
0.05262
50
327.08381
51
400.95057
0
LINE
8
1
62
3
10
4.21323
20
6.17054
30
0.0
11
4.18555
21
6.12778
31
0.0
0
ARC
8
1
62
3
10
4.30955
20
6.04653
30
0.0
40
0.14824
50
146.76567
51
237.41055
0
LINE
8
1
62
3
10
4.2297
20
5.92163
30
0.0
11
4.24162
21
5.91391
31
0.0
0
ARC
8
1
62
3
10
4.16629
20
5.79753
30
0.0
40
0.13864
50
327.11403
51
417.08692
0
LINE
8
1
62
3
10
4.28271
20
5.72225
30
0.0
11
4.2201
21
5.62541
31
0.0
0
ARC
8
1
62
3
10
4.34749
20
5.54674
30
0.0
40
0.14972
50
148.30151
51
307.77321
0
ARC
8
1
62
3
10
4.52607
20
5.32089
30
0.0
40
0.13821
50
73.85519
51
128.9405
0
LINE
8
1
62
3
10
4.5645
20
5.45365
30
0.0
11
4.75217
21
5.74263
31
0.0
0
LINE
8
1
62
3
10
4.75217
20
5.74263
30
0.0
11
4.81826
21
5.69972
31
0.0
0
LINE
8
1
62
3
10
4.81826
20
5.69972
30
0.0
11
4.6305
21
5.41059
31
0.0
0
ARC
8
1
62
3
10
4.52449
20
5.32191
30
0.0
40
0.13821
50
345.0582
51
399.9145
0
LINE
8
1
62
3
10
6.40886
20
5.38441
30
0.0
11
6.24797
21
5.26598
31
0.0
0
ARC
8
1
62
3
10
6.19805
20
5.25151
30
0.0
40
0.05197
50
275.37227
51
376.16414
0
ARC
8
1
62
3
10
6.20867
20
5.13742
30
0.0
40
0.06261
50
95.26527
51
219.23586
0
LINE
8
1
62
3
10
6.16017
20
5.09782
30
0.0
11
6.22529
21
5.01728
31
0.0
0
ARC
8
1
62
3
10
6.18416
20
4.98451
30
0.0
40
0.05259
50
259.44536
51
398.54935
0
LINE
8
1
62
3
10
6.17453
20
4.93281
30
0.0
11
6.07228
21
4.95236
31
0.0
0
ARC
8
1
62
3
10
6.06147
20
4.89147
30
0.0
40
0.06184
50
79.93122
51
218.48274
0
LINE
8
1
62
3
10
6.01306
20
4.85299
30
0.0
11
6.07733
21
4.77103
31
0.0
0
ARC
8
1
62
3
10
6.03566
20
4.73891
30
0.0
40
0.05261
50
259.8804
51
397.62743
0
LINE
8
1
62
3
10
6.02642
20
4.68712
30
0.0
11
5.92503
21
4.70567
31
0.0
0
ARC
8
1
62
3
10
5.91422
20
4.64478
30
0.0
40
0.06184
50
79.93045
51
218.48352
0
LINE
8
1
62
3
10
5.86581
20
4.6063
30
0.0
11
5.92935
21
4.52476
31
0.0
0
ARC
8
1
62
3
10
5.88822
20
4.49199
30
0.0
40
0.05259
50
239.00134
51
398.55078
0
ARC
8
1
62
3
10
5.82944
20
4.39334
30
0.0
40
0.06225
50
59.38414
51
184.71669
0
ARC
8
1
62
3
10
6.33384
20
4.42398
30
0.0
40
0.56757
50
183.61193
51
241.33654
0
ARC
8
1
62
3
10
6.09175
20
3.98181
30
0.0
40
0.06347
50
241.64249
51
328.69991
0
ARC
8
1
62
3
10
6.19087
20
3.92138
30
0.0
40
0.05262
50
59.45502
51
148.54594
0
LINE
8
1
62
3
10
6.21761
20
3.9667
30
0.0
11
6.33616
21
3.89644
31
0.0
0
ARC
8
1
62
3
10
6.48599
20
4.14743
30
0.0
40
0.29231
50
239.16411
51
329.00061
0
LINE
8
1
62
3
10
6.73655
20
3.99688
30
0.0
11
6.93269
21
4.32088
31
0.0
0
LINE
8
1
62
3
10
6.93269
20
4.32088
30
0.0
11
6.51892
21
4.56951
31
0.0
0
LINE
8
1
62
3
10
6.51892
20
4.56951
30
0.0
11
6.55935
21
4.6368
31
0.0
0
LINE
8
1
62
3
10
6.55935
20
4.6368
30
0.0
11
6.97441
21
4.38741
31
0.0
0
LINE
8
1
62
3
10
6.97441
20
4.38741
30
0.0
11
7.00476
21
4.44176
31
0.0
0
ARC
8
1
62
3
10
6.7554
20
4.59256
30
0.0
40
0.29141
50
328.83635
51
435.56635
0
ARC
8
1
62
3
10
6.85929
20
5.00001
30
0.0
40
0.12908
50
112.5772
51
255.99073
0
ARC
8
1
62
3
10
6.43522
20
6.0071
30
0.0
40
0.96365
50
292.86951
51
320.58531
0
ARC
8
1
62
3
10
7.13386
20
5.43614
30
0.0
40
0.06144
50
318.27279
51
482.1247
0
ARC
8
1
62
3
10
6.82363
20
5.9874
30
0.0
40
0.5712
50
276.96155
51
299.07301
0
ARC
8
1
62
3
10
6.88586
20
5.47291
30
0.0
40
0.05297
50
110.41321
51
277.59064
0
ARC
8
1
62
3
10
6.62547
20
6.16822
30
0.0
40
0.6895
50
290.54002
51
313.61563
0
ARC
8
1
62
3
10
7.05861
20
5.715
30
0.0
40
0.0626
50
312.74443
51
492.74317
0
ARC
8
1
62
3
10
6.64224
20
6.16445
30
0.0
40
0.55008
50
282.39978
51
312.82016
0
ARC
8
1
62
3
10
6.74802
20
5.67816
30
0.0
40
0.05243
50
137.18751
51
283.61047
0
LINE
8
1
62
3
10
6.70956
20
5.71379
30
0.0
11
6.79631
21
5.81024
31
0.0
0
ARC
8
1
62
3
10
6.7487
20
5.85172
30
0.0
40
0.06315
50
318.93731
51
480.73736
0
LINE
8
1
62
3
10
6.71642
20
5.906
30
0.0
11
6.60651
21
5.83661
31
0.0
0
ARC
8
1
62
3
10
6.57982
20
5.88192
30
0.0
40
0.05259
50
133.3871
51
300.504
0
LINE
8
1
62
3
10
6.54369
20
5.92014
30
0.0
11
6.63932
21
6.00784
31
0.0
0
ARC
8
1
62
3
10
6.59754
20
6.05396
30
0.0
40
0.06223
50
312.17332
51
475.66353
0
LINE
8
1
62
3
10
6.57059
20
6.11005
30
0.0
11
6.45352
21
6.05473
31
0.0
0
ARC
8
1
62
3
10
6.43118
20
6.10189
30
0.0
40
0.05218
50
127.05354
51
295.34722
0
LINE
8
1
62
3
10
6.39974
20
6.14353
30
0.0
11
6.50351
21
6.2205
31
0.0
0
ARC
8
1
62
3
10
6.46555
20
6.27065
30
0.0
40
0.06289
50
307.12245
51
468.95794
0
LINE
8
1
62
3
10
6.44512
20
6.33013
30
0.0
11
6.32393
21
6.2865
31
0.0
0
ARC
8
1
62
3
10
6.30562
20
6.33552
30
0.0
40
0.05232
50
120.39019
51
290.48357
0
LINE
8
1
62
3
10
6.27915
20
6.38065
30
0.0
11
6.3906
21
6.44622
31
0.0
0
ARC
8
1
62
3
10
6.35958
20
6.49991
30
0.0
40
0.06201
50
300.01764
51
463.99757
0
LINE
8
1
62
3
10
6.34458
20
6.56008
30
0.0
11
6.21809
21
6.53035
31
0.0
0
ARC
8
1
62
3
10
6.20723
20
6.58146
30
0.0
40
0.05225
50
115.80466
51
281.9909
0
LINE
8
1
62
3
10
6.18449
20
6.6285
30
0.0
11
6.3021
21
6.68158
31
0.0
0
ARC
8
1
62
3
10
6.27636
20
6.73844
30
0.0
40
0.06241
50
294.35278
51
457.47937
0
LINE
8
1
62
3
10
6.26824
20
6.80032
30
0.0
11
6.14062
21
6.78247
31
0.0
0
ARC
8
1
62
3
10
6.13244
20
6.83457
30
0.0
40
0.05273
50
107.78867
51
278.92262
0
LINE
8
1
62
3
10
6.11633
20
6.88478
30
0.0
11
6.23952
21
6.92526
31
0.0
0
ARC
8
1
62
3
10
6.21946
20
6.98426
30
0.0
40
0.06231
50
288.78066
51
450.96411
0
LINE
8
1
62
3
10
6.21841
20
7.04656
30
0.0
11
6.08907
21
7.04288
31
0.0
0
ARC
8
1
62
3
10
6.08735
20
7.09544
30
0.0
40
0.05259
50
101.87689
51
271.86989
0
LINE
8
1
62
3
10
6.07653
20
7.14691
30
0.0
11
6.20302
21
7.17419
31
0.0
0
ARC
8
1
62
3
10
6.1898
20
7.23553
30
0.0
40
0.06275
50
282.16503
51
445.5644
0
LINE
8
1
62
3
10
6.19465
20
7.29809
30
0.0
11
6.06575
21
7.30732
31
0.0
0
ARC
8
1
62
3
10
6.06962
20
7.35991
30
0.0
40
0.05273
50
172.17567
51
265.78867
0
LINE
8
1
62
3
10
6.01738
20
7.36709
30
0.0
11
6.07598
21
7.8473
31
0.0
0
LINE
8
1
62
3
10
6.07598
20
7.8473
30
0.0
11
5.86544
21
7.86176
31
0.0
0
LINE
8
1
62
3
10
5.86544
20
7.86176
30
0.0
11
5.83583
21
7.48866
31
0.0
0
LINE
8
1
62
3
10
5.83583
20
7.48866
30
0.0
11
5.7616
21
7.49248
31
0.0
0
LINE
8
1
62
3
10
5.7616
20
7.49248
30
0.0
11
5.78652
21
7.86582
31
0.0
0
LINE
8
1
62
3
10
5.78652
20
7.86582
30
0.0
11
5.57856
21
7.8797
31
0.0
0
LINE
8
1
62
3
10
5.57856
20
7.8797
30
0.0
11
5.55741
21
7.76184
31
0.0
0
ARC
8
1
62
3
10
5.5052
20
7.76945
30
0.0
40
0.05276
50
262.11032
51
351.70654
0
LINE
8
1
62
3
10
5.49796
20
7.71719
30
0.0
11
5.4305
21
7.72652
31
0.0
0
LINE
8
1
62
3
10
5.4305
20
7.72652
30
0.0
11
5.36304
21
7.73584
31
0.0
0
ARC
8
1
62
3
10
5.33964
20
7.63231
30
0.0
40
0.10614
50
77.26475
51
266.48271
0
LINE
8
1
62
3
10
5.33313
20
7.52637
30
0.0
11
5.47792
21
7.50708
31
0.0
0
ARC
8
1
62
3
10
5.47969
20
7.47192
30
0.0
40
0.0352
50
272.88254
51
452.88128
0
LINE
8
1
62
3
10
5.48146
20
7.43676
30
0.0
11
5.27852
21
7.45985
31
0.0
0
ARC
8
1
62
3
10
5.26891
20
7.35455
30
0.0
40
0.10574
50
84.78596
51
259.55448
0
LINE
8
1
62
3
10
5.24974
20
7.25056
30
0.0
11
5.49106
21
7.22248
31
0.0
0
LINE
8
1
62
3
10
5.49106
20
7.22248
30
0.0
11
5.51079
21
7.05821
31
0.0
0
LINE
8
1
62
3
10
5.51079
20
7.05821
30
0.0
11
5.70911
21
7.08756
31
0.0
0
LINE
8
1
62
3
10
5.70911
20
7.08756
30
0.0
11
5.72067
21
7.0095
31
0.0
0
LINE
8
1
62
3
10
5.72067
20
7.0095
30
0.0
11
5.52174
21
6.98006
31
0.0
0
ARC
8
1
62
3
10
9.38692
20
7.60564
30
0.0
40
3.91548
50
189.19357
51
193.53834
0
LINE
8
1
62
3
10
5.58024
20
6.68904
30
0.0
11
5.77506
21
6.73761
31
0.0
0
LINE
8
1
62
3
10
5.77506
20
6.73761
30
0.0
11
5.79407
21
6.6614
31
0.0
0
LINE
8
1
62
3
10
5.79407
20
6.6614
30
0.0
11
5.59924
21
6.61282
31
0.0
0
ARC
8
1
62
3
10
9.38733
20
7.60514
30
0.0
40
3.9159
50
194.67929
51
199.02351
0
LINE
8
1
62
3
10
5.68529
20
6.32873
30
0.0
11
5.87425
21
6.39595
31
0.0
0
LINE
8
1
62
3
10
5.87425
20
6.39595
30
0.0
11
5.9007
21
6.32159
31
0.0
0
LINE
8
1
62
3
10
5.9007
20
6.32159
30
0.0
11
5.71119
21
6.25418
31
0.0
0
ARC
8
1
62
3
10
9.38711
20
7.60569
30
0.0
40
3.91651
50
200.18677
51
204.50893
0
LINE
8
1
62
3
10
5.8235
20
5.98099
30
0.0
11
6.0055
21
6.06655
31
0.0
0
LINE
8
1
62
3
10
6.0055
20
6.06655
30
0.0
11
6.03957
21
5.99408
31
0.0
0
LINE
8
1
62
3
10
6.03957
20
5.99408
30
0.0
11
5.85761
21
5.90855
31
0.0
0
ARC
8
1
62
3
10
9.38982
20
7.60193
30
0.0
40
3.91715
50
205.61358
51
209.96399
0
LINE
8
1
62
3
10
5.99624
20
5.64549
30
0.0
11
6.16961
21
5.74836
31
0.0
0
LINE
8
1
62
3
10
6.16961
20
5.74836
30
0.0
11
6.20965
21
5.68088
31
0.0
0
LINE
8
1
62
3
10
6.20965
20
5.68088
30
0.0
11
6.0361
21
5.5779
31
0.0
0
ARC
8
1
62
3
10
9.38519
20
7.60533
30
0.0
40
3.91496
50
211.18933
51
215.55202
0
LINE
8
1
62
3
10
6.20003
20
5.32901
30
0.0
11
6.36192
21
5.44817
31
0.0
0
LINE
8
1
62
3
10
6.36192
20
5.44817
30
0.0
11
6.40886
21
5.38441
31
0.0
0
ARC
8
1
62
3
10
4.10876
20
7.63188
30
0.0
40
0.89621
50
240.48978
51
284.84339
0
ARC
8
1
62
3
10
4.07822
20
8.40114
30
0.0
40
1.60276
50
249.22418
51
255.14487
0
ARC
8
1
62
3
10
3.61419
20
7.81924
30
0.0
40
0.92259
50
248.0122
51
263.49716
0
ARC
8
1
62
3
10
3.27774
20
7.01153
30
0.0
40
0.04861
50
189.67383
51
259.34853
0
ARC
8
1
62
3
10
3.14208
20
6.966
30
0.0
40
0.09537
50
23.06114
51
75.77883
0
ARC
8
1
62
3
10
3.16845
20
7.11145
30
0.0
40
0.05309
50
105.70273
51
266.82783
0
ARC
8
1
62
3
10
3.14083
20
7.22158
30
0.0
40
0.06049
50
282.65591
51
329.49171
0
ARC
8
1
62
3
10
3.2448
20
7.15444
30
0.0
40
0.06337
50
51.57643
51
144.91229
0
LINE
8
1
62
3
10
3.28418
20
7.20409
30
0.0
11
3.3441
21
7.15765
31
0.0
0
ARC
8
1
62
3
10
3.37628
20
7.19101
30
0.0
40
0.04636
50
226.02813
51
305.70716
0
LINE
8
1
62
3
10
3.40334
20
7.15337
30
0.0
11
3.44789
21
7.17997
31
0.0
0
ARC
8
1
62
3
10
3.47982
20
7.12641
30
0.0
40
0.06236
50
29.95805
51
120.80563
0
LINE
8
1
62
3
10
3.53385
20
7.15755
30
0.0
11
3.55736
21
7.11898
31
0.0
0
ARC
8
1
62
3
10
3.60247
20
7.1455
30
0.0
40
0.05233
50
210.44813
51
308.68442
0
LINE
8
1
62
3
10
3.63518
20
7.10465
30
0.0
11
3.65863
21
7.12435
31
0.0
0
ARC
8
1
62
3
10
3.69913
20
7.07625
30
0.0
40
0.06288
50
60.50485
51
130.09651
0
LINE
8
1
62
3
10
3.73009
20
7.13098
30
0.0
11
3.81709
21
7.07835
31
0.0
0
ARC
8
1
62
3
10
3.84343
20
7.12459
30
0.0
40
0.05322
50
240.32946
51
285.42747
0
LINE
8
1
62
3
10
3.85759
20
7.07329
30
0.0
11
3.94802
21
7.09808
31
0.0
0
ARC
8
1
62
3
10
3.96486
20
7.04082
30
0.0
40
0.05969
50
38.49681
51
106.38389
0
LINE
8
1
62
3
10
4.01157
20
7.07797
30
0.0
11
4.02207
21
7.07964
31
0.0
0
ARC
8
1
62
3
10
3.88689
20
7.15119
30
0.0
40
0.15295
50
332.10858
51
418.26022
0
LINE
8
1
62
3
10
3.96735
20
7.28126
30
0.0
11
3.95766
21
7.27765
31
0.0
0
ARC
8
1
62
3
10
3.89683
20
7.29287
30
0.0
40
0.06271
50
227.13384
51
345.95253
0
LINE
8
1
62
3
10
3.85417
20
7.24691
30
0.0
11
3.79088
21
7.30776
31
0.0
0
ARC
8
1
62
3
10
3.75492
20
7.26737
30
0.0
40
0.05408
50
48.32324
51
110.80763
0
LINE
8
1
62
3
10
3.73571
20
7.31792
30
0.0
11
3.66248
21
7.28877
31
0.0
0
ARC
8
1
62
3
10
3.63842
20
7.34724
30
0.0
40
0.06322
50
224.8357
51
292.36536
0
ARC
8
1
62
3
10
3.49541
20
7.21092
30
0.0
40
0.13438
50
43.05908
51
108.0873
0
ARC
8
1
62
3
10
3.43483
20
7.39708
30
0.0
40
0.0614
50
223.90893
51
287.89043
0
ARC
8
1
62
3
10
3.29333
20
7.26341
30
0.0
40
0.13326
50
43.12455
51
103.92135
0
ARC
8
1
62
3
10
3.24472
20
7.45009
30
0.0
40
0.05968
50
174.39645
51
286.10083
0
ARC
8
1
62
3
10
2.959
20
7.44933
30
0.0
40
0.22641
50
1.66853
51
29.76255
0
ARC
8
1
62
3
10
3.205
20
7.59636
30
0.0
40
0.06038
50
105.51594
51
215.01226
0
ARC
8
1
62
3
10
3.10653
20
7.90494
30
0.0
40
0.26359
50
288.19921
51
331.73763
0
ARC
8
1
62
3
10
3.51145
20
7.68807
30
0.0
40
0.19576
50
69.31991
51
151.94629
0
LINE
8
1
62
3
10
3.58058
20
7.87121
30
0.0
11
3.83631
21
7.77618
31
0.0
0
ARC
8
1
62
3
10
3.96708
20
8.10205
30
0.0
40
0.35113
50
248.13405
51
279.54504
0
LINE
8
1
62
3
10
4.02531
20
7.75578
30
0.0
11
4.61894
21
7.83921
31
0.0
0
ARC
8
1
62
3
10
4.6693
20
7.48045
30
0.0
40
0.36227
50
325.72054
51
457.99105
0
LINE
8
1
62
3
10
4.96865
20
7.27641
30
0.0
11
4.9668
21
7.01327
31
0.0
0
LINE
8
1
62
3
10
4.9668
20
7.01327
30
0.0
11
4.47452
21
7.10393
31
0.0
0
LINE
8
1
62
3
10
4.47452
20
7.10393
30
0.0
11
4.46025
21
7.02643
31
0.0
0
LINE
8
1
62
3
10
4.46025
20
7.02643
30
0.0
11
4.95074
21
6.9361
31
0.0
0
ARC
8
1
62
3
10
4.75682
20
6.92614
30
0.0
40
0.19418
50
258.5833
51
362.94098
0
LINE
8
1
62
3
10
4.71838
20
6.7358
30
0.0
11
4.53253
21
6.77006
31
0.0
0
ARC
8
1
62
3
10
4.44344
20
6.42094
30
0.0
40
0.36031
50
75.6851
51
106.95822
0
LINE
8
1
62
3
10
2.4588
20
7.46344
30
0.0
11
2.95786
21
7.50214
31
0.0
0
LINE
8
1
62
3
10
2.95786
20
7.50214
30
0.0
11
2.93219
21
7.24025
31
0.0
0
ARC
8
1
62
3
10
2.61316
20
7.06861
30
0.0
40
0.36227
50
256.00902
51
388.27954
0
LINE
8
1
62
3
10
2.52557
20
6.71709
30
0.0
11
1.94392
21
6.86211
31
0.0
0
ARC
8
1
62
3
10
1.84979
20
6.52382
30
0.0
40
0.35114
50
74.45123
51
105.86222
0
LINE
8
1
62
3
10
1.75382
20
6.86159
30
0.0
11
1.48955
21
6.7938
31
0.0
0
ARC
8
1
62
3
10
1.43995
20
6.98317
30
0.0
40
0.19576
50
202.05237
51
284.67874
0
ARC
8
1
62
3
10
1.01458
20
6.80981
30
0.0
40
0.26358
50
22.263
51
65.80142
0
ARC
8
1
62
3
10
1.14477
20
7.1064
30
0.0
40
0.06038
50
138.98372
51
248.48004
0
ARC
8
1
62
3
10
0.9155
20
7.27834
30
0.0
40
0.22639
50
324.23871
51
352.33273
0
ARC
8
1
62
3
10
1.19955
20
7.24772
30
0.0
40
0.05968
50
67.90383
51
179.60821
0
ARC
8
1
62
3
10
1.26741
20
7.42831
30
0.0
40
0.13327
50
250.07668
51
310.87348
0
ARC
8
1
62
3
10
1.39416
20
7.28058
30
0.0
40
0.06139
50
66.1132
51
130.09469
0
ARC
8
1
62
3
10
1.47386
20
7.45939
30
0.0
40
0.13438
50
245.91272
51
310.94093
0
ARC
8
1
62
3
10
1.60185
20
7.30886
30
0.0
40
0.06323
50
61.63183
51
129.16149
0
LINE
8
1
62
3
10
1.63189
20
7.36449
30
0.0
11
1.70167
21
7.32785
31
0.0
0
ARC
8
1
62
3
10
1.72607
20
7.37611
30
0.0
40
0.05408
50
243.18471
51
305.6691
0
LINE
8
1
62
3
10
1.7576
20
7.33218
30
0.0
11
1.8269
21
7.38609
31
0.0
0
ARC
8
1
62
3
10
1.86452
20
7.33591
30
0.0
40
0.06271
50
8.04427
51
126.86295
0
LINE
8
1
62
3
10
1.92662
20
7.34469
30
0.0
11
1.93587
21
7.34009
31
0.0
0
ARC
8
1
62
3
10
1.86944
20
7.47786
30
0.0
40
0.15295
50
295.74155
51
381.89319
0
LINE
8
1
62
3
10
2.01136
20
7.53489
30
0.0
11
2.0011
21
7.53765
31
0.0
0
ARC
8
1
62
3
10
1.95853
20
7.57948
30
0.0
40
0.05968
50
247.61927
51
315.50635
0
LINE
8
1
62
3
10
1.9358
20
7.52429
30
0.0
11
1.84846
21
7.5584
31
0.0
0
ARC
8
1
62
3
10
1.82903
20
7.50884
30
0.0
40
0.05323
50
68.58778
51
113.68579
0
LINE
8
1
62
3
10
1.80764
20
7.55759
30
0.0
11
1.71562
21
7.51436
31
0.0
0
ARC
8
1
62
3
10
1.69054
20
7.57202
30
0.0
40
0.06288
50
223.9146
51
293.50625
0
LINE
8
1
62
3
10
1.64524
20
7.52841
30
0.0
11
1.62398
21
7.55046
31
0.0
0
ARC
8
1
62
3
10
1.58718
20
7.51325
30
0.0
40
0.05233
50
45.31777
51
143.55406
0
LINE
8
1
62
3
10
1.54509
20
7.54434
30
0.0
11
1.51768
21
7.50844
31
0.0
0
ARC
8
1
62
3
10
1.4672
20
7.54505
30
0.0
40
0.06236
50
233.19978
51
324.04736
0
LINE
8
1
62
3
10
1.42985
20
7.49512
30
0.0
11
1.38832
21
7.52623
31
0.0
0
ARC
8
1
62
3
10
1.35748
20
7.49163
30
0.0
40
0.04635
50
48.28862
51
127.96764
0
LINE
8
1
62
3
10
1.32896
20
7.52817
30
0.0
11
1.26451
21
7.48825
31
0.0
0
ARC
8
1
62
3
10
1.23054
20
7.54174
30
0.0
40
0.06337
50
209.08328
51
302.41914
0
ARC
8
1
62
3
10
1.12013
20
7.48584
30
0.0
40
0.06048
50
24.51604
51
71.35185
0
ARC
8
1
62
3
10
1.1591
20
7.59248
30
0.0
40
0.05309
50
87.17802
51
248.30312
0
ARC
8
1
62
3
10
1.14808
20
7.73989
30
0.0
40
0.09537
50
278.21693
51
330.93462
0
ARC
8
1
62
3
10
1.27824
20
7.68042
30
0.0
40
0.04861
50
94.64588
51
164.32059
0
ARC
8
1
62
3
10
1.52845
20
6.84199
30
0.0
40
0.92258
50
90.50529
51
105.99026
0
ARC
8
1
62
3
10
1.929
20
6.21477
30
0.0
40
1.60274
50
98.85256
51
104.77324
0
ARC
8
1
62
3
10
2.03987
20
6.9766
30
0.0
40
0.89622
50
69.15709
51
113.5107
0
ARC
8
1
62
3
10
2.49928
20
8.14593
30
0.0
40
0.36029
50
247.0423
51
278.31542
0
LINE
8
1
62
3
10
2.55139
20
7.78942
30
0.0
11
2.7398
21
7.80406
31
0.0
0
ARC
8
1
62
3
10
2.75814
20
7.61074
30
0.0
40
0.19418
50
351.06049
51
455.41818
0
LINE
8
1
62
3
10
2.94996
20
7.58057
30
0.0
11
2.45271
21
7.542
31
0.0
0
LINE
8
1
62
3
10
2.45271
20
7.542
30
0.0
11
2.4588
21
7.46344
31
0.0
0
ARC
8
1
62
3
10
0.69563
20
6.59996
30
0.0
40
0.0522
50
254.95871
51
398.08893
0
ARC
8
1
62
3
10
0.667
20
6.48892
30
0.0
40
0.06248
50
76.03114
51
256.03114
0
ARC
8
1
62
3
10
0.75185
20
6.80521
30
0.0
40
0.38995
50
255.15095
51
293.75671
0
ARC
8
1
62
3
10
0.91818
20
6.42635
30
0.0
40
0.02382
50
345.95544
51
472.8338
0
ARC
8
1
62
3
10
1.00195
20
6.40537
30
0.0
40
0.06254
50
165.93186
51
329.26144
0
ARC
8
1
62
3
10
1.08487
20
6.35671
30
0.0
40
0.0336
50
358.22835
51
510.21161
0
ARC
8
1
62
3
10
1.20917
20
6.35454
30
0.0
40
0.09073
50
179.28953
51
315.11688
0
ARC
8
1
62
3
10
1.2899
20
6.27409
30
0.0
40
0.02325
50
60.44493
51
135.02127
0
ARC
8
1
62
3
10
1.9318
20
7.93651
30
0.0
40
1.75905
50
248.99862
51
273.66661
0
ARC
8
1
62
3
10
2.04885
20
6.15788
30
0.0
40
0.02363
50
28.10817
51
101.13162
0
ARC
8
1
62
3
10
2.14966
20
6.21413
30
0.0
40
0.09182
50
209.43069
51
364.51683
0
ARC
8
1
62
3
10
2.28359
20
6.2261
30
0.0
40
0.04265
50
32.12942
51
186.37459
0
ARC
8
1
62
3
10
2.398
20
6.30235
30
0.0
40
0.09487
50
214.38097
51
294.63702
0
ARC
8
1
62
3
10
2.81434
20
5.44589
30
0.0
40
0.85746
50
73.58182
51
116.06753
0
ARC
8
1
62
3
10
2.97641
20
5.99726
30
0.0
40
0.28275
50
22.06452
51
73.50432
0
LINE
8
1
62
3
10
3.23846
20
6.10348
30
0.0
11
3.30521
21
5.9389
31
0.0
0
LINE
8
1
62
3
10
3.30521
20
5.9389
30
0.0
11
3.53693
21
6.03309
31
0.0
0
LINE
8
1
62
3
10
3.53693
20
6.03309
30
0.0
11
3.43759
21
6.27027
31
0.0
0
LINE
8
1
62
3
10
3.43759
20
6.27027
30
0.0
11
3.51027
21
6.30071
31
0.0
0
LINE
8
1
62
3
10
3.51027
20
6.30071
30
0.0
11
3.61046
21
6.06151
31
0.0
0
LINE
8
1
62
3
10
3.61046
20
6.06151
30
0.0
11
3.83752
21
6.15397
31
0.0
0
LINE
8
1
62
3
10
3.83752
20
6.15397
30
0.0
11
3.77927
21
6.29666
31
0.0
0
LINE
8
1
62
3
10
3.77927
20
6.29666
30
0.0
11
3.69925
21
6.26472
31
0.0
0
LINE
8
1
62
3
10
3.69925
20
6.26472
30
0.0
11
3.56152
21
6.60562
31
0.0
0
ARC
8
1
62
3
10
3.3432
20
6.51727
30
0.0
40
0.23552
50
22.03182
51
112.03269
0
ARC
8
1
62
3
10
2.85482
20
7.78179
30
0.0
40
1.12007
50
273.37413
51
290.92521
0
ARC
8
1
62
3
10
2.95929
20
5.65159
30
0.0
40
1.01281
50
92.18156
51
118.63359
0
ARC
8
1
62
3
10
2.46248
20
6.56133
30
0.0
40
0.02375
50
227.28635
51
298.86265
0
ARC
8
1
62
3
10
2.38312
20
6.47839
30
0.0
40
0.09105
50
45.99698
51
169.74464
0
ARC
8
1
62
3
10
2.25125
20
6.50401
30
0.0
40
0.04332
50
189.91892
51
347.45113
0
ARC
8
1
62
3
10
2.11791
20
6.4846
30
0.0
40
0.09146
50
7.50499
51
117.64594
0
ARC
8
1
62
3
10
1.67534
20
7.32747
30
0.0
40
0.86053
50
247.88255
51
297.70871
0
ARC
8
1
62
3
10
1.29502
20
6.39251
30
0.0
40
0.14883
50
67.76073
51
113.17673
0
ARC
8
1
62
3
10
1.22667
20
6.55141
30
0.0
40
0.02416
50
200.9891
51
293.87688
0
ARC
8
1
62
3
10
0.90461
20
6.43216
30
0.0
40
0.31927
50
20.26889
51
73.39834
0
ARC
8
1
62
3
10
1.03492
20
6.90011
30
0.0
40
0.16664
50
160.01445
51
256.4319
0
ARC
8
1
62
3
10
0.49409
20
7.09381
30
0.0
40
0.40783
50
340.41015
51
394.88907
0
ARC
8
1
62
3
10
0.77581
20
7.29338
30
0.0
40
0.06264
50
32.54697
51
212.54582
0
ARC
8
1
62
3
10
0.52878
20
7.1473
30
0.0
40
0.2244
50
307.65343
51
390.05398
0
ARC
8
1
62
3
10
0.75768
20
6.8518
30
0.0
40
0.14939
50
127.92459
51
216.96546
0
LINE
8
1
62
3
10
0.63832
20
6.76197
30
0.0
11
0.73671
21
6.63216
31
0.0
0
ARC
8
1
62
3
10
4.49651
20
7.33001
30
0.0
40
0.04264
50
120.48902
51
291.10364
0
ARC
8
1
62
3
10
4.34313
20
7.5752
30
0.0
40
0.24658
50
302.29357
51
357.72401
0
ARC
8
1
62
3
10
4.67914
20
7.55833
30
0.0
40
0.0899
50
-20.9243
51
175.48045
0
ARC
8
1
62
3
10
4.98224
20
7.42939
30
0.0
40
0.23957
50
156.16011
51
204.25076
0
ARC
8
1
62
3
10
4.72528
20
7.31287
30
0.0
40
0.04258
50
240.51515
51
385.17983
0
ARC
8
1
62
3
10
4.5921
20
7.06963
30
0.0
40
0.23474
50
61.44212
51
109.98816
0
ARC
8
1
62
3
10
3.91722
20
7.44604
30
0.0
40
0.23897
50
352.82075
51
386.82904
0
ARC
8
1
62
3
10
4.16843
20
7.5733
30
0.0
40
0.04264
50
75.03469
51
207.08294
0
ARC
8
1
62
3
10
4.24217
20
7.85142
30
0.0
40
0.2451
50
255.17071
51
304.50716
0
ARC
8
1
62
3
10
4.40496
20
7.61309
30
0.0
40
0.04354
50
309.07931
51
483.35327
0
ARC
8
1
62
3
10
4.57377
20
7.38724
30
0.0
40
0.23847
50
126.35769
51
177.03167
0
ARC
8
1
62
3
10
4.24456
20
7.40339
30
0.0
40
0.09114
50
171.93958
51
357.61002
0
ARC
8
1
62
3
10
3.50431
20
7.5447
30
0.0
40
0.02816
50
235.9613
51
359.60523
0
ARC
8
1
62
3
10
3.71414
20
7.54668
30
0.0
40
0.18168
50
149.47318
51
180.68286
0
ARC
8
1
62
3
10
3.52041
20
7.66862
30
0.0
40
0.0476
50
-38.54138
51
154.49466
0
ARC
8
1
62
3
10
3.321
20
7.79294
30
0.0
40
0.18775
50
277.20157
51
326.42864
0
ARC
8
1
62
3
10
3.34628
20
7.57801
30
0.0
40
0.02872
50
93.46503
51
282.92825
0
ARC
8
1
62
3
10
3.38039
20
7.34492
30
0.0
40
0.20696
50
58.49304
51
97.68926
0
ARC
8
1
62
3
10
2.57932
20
7.48526
30
0.0
40
0.23474
50
244.01079
51
292.55683
0
ARC
8
1
62
3
10
2.68634
20
7.22943
30
0.0
40
0.04258
50
328.82038
51
473.48505
0
ARC
8
1
62
3
10
2.92972
20
7.08668
30
0.0
40
0.23958
50
149.74736
51
197.83801
0
ARC
8
1
62
3
10
2.6148
20
6.99014
30
0.0
40
0.08989
50
-181.48314
51
14.92162
0
ARC
8
1
62
3
10
2.27888
20
7.00848
30
0.0
40
0.24658
50
356.2772
51
411.70764
0
ARC
8
1
62
3
10
2.45704
20
7.2363
30
0.0
40
0.04264
50
62.90237
51
233.517
0
ARC
8
1
62
3
10
2.10532
20
7.02863
30
0.0
40
0.04263
50
146.91126
51
278.95952
0
ARC
8
1
62
3
10
2.14958
20
6.74432
30
0.0
40
0.24511
50
49.49332
51
98.82976
0
ARC
8
1
62
3
10
2.3364
20
6.96434
30
0.0
40
0.04354
50
230.64074
51
404.9147
0
ARC
8
1
62
3
10
2.5279
20
7.1713
30
0.0
40
0.23847
50
176.96955
51
227.64353
0
ARC
8
1
62
3
10
2.1988
20
7.18965
30
0.0
40
0.09114
50
-3.61259
51
182.05786
0
ARC
8
1
62
3
10
1.8688
20
7.18147
30
0.0
40
0.23897
50
327.16871
51
361.177
0
ARC
8
1
62
3
10
1.28718
20
7.10989
30
0.0
40
0.02871
50
71.07674
51
260.53995
0
ARC
8
1
62
3
10
1.34548
20
7.33814
30
0.0
40
0.20698
50
256.30916
51
295.50538
0
ARC
8
1
62
3
10
1.44784
20
7.12649
30
0.0
40
0.02815
50
354.40793
51
478.05186
0
ARC
8
1
62
3
10
1.65632
20
7.1026
30
0.0
40
0.1817
50
173.3169
51
204.52658
0
ARC
8
1
62
3
10
1.45089
20
7.00157
30
0.0
40
0.0476
50
-160.49475
51
32.54128
0
ARC
8
1
62
3
10
1.23958
20
6.89877
30
0.0
40
0.18776
50
27.57285
51
76.79992
0
LINE
8
1
62
3
10
8.26224
20
8.09644
30
0.0
11
0.0
21
8.09644
31
0.0
0
LINE
8
1
62
3
10
0.0
20
8.09644
30
0.0
11
0.0
21
0.0
31
0.0
0
LINE
8
1
62
3
10
0.0
20
0.0
30
0.0
11
8.26224
21
0.0
31
0.0
0
LINE
8
1
62
3
10
8.26224
20
0.0
30
0.0
11
8.26224
21
8.09644
31
0.0
0
ENDSEC
0
EOF
