  0
SECTION
  2
HEADER
  9
$ACADVER
  1
AC1009
  9
$EXTMIN
 10
2.83333333
 20
2.25464703
 30
0.0
  9
$EXTMAX
 10
7.16666667
 20
7.74535297
 30
0.0
  0
ENDSEC
  0
SECTION
  2
TABLES
  0
TABLE
  2
LAYER
 70
1
 0
LAYER
 2
Default_Layer
 70
0
 62
1
 6
CONTINUOUS
 0
ENDTAB
 0
ENDSEC
  0
SECTION
  2
ENTITIES
  0
POLYLINE
  8
Default_Layer
 66
   1
 39
0.000000
 70
    1
  0
VERTEX
  8
0
 10
6.79166667
 20
5.43979741
  0
VERTEX
  8
0
 10
6.75996186
 20
5.59585789
  0
VERTEX
  8
0
 10
6.70875737
 20
5.72622284
  0
VERTEX
  8
0
 10
6.67318958
 20
5.77434225
  0
VERTEX
  8
0
 10
6.62956308
 20
5.80712508
  0
VERTEX
  8
0
 10
6.57681660
 20
5.82160043
  0
VERTEX
  8
0
 10
6.51388889
 20
5.81479741
  0
VERTEX
  8
0
 10
6.44299776
 20
5.67954443
  0
VERTEX
  8
0
 10
6.38133272
 20
5.53947249
  0
VERTEX
  8
0
 10
6.34775132
 20
5.38428523
  0
VERTEX
  8
0
 10
6.36111111
 20
5.20368630
  0
VERTEX
  8
0
 10
6.41555476
 20
5.17479923
  0
VERTEX
  8
0
 10
6.48611111
 20
5.16201964
  0
VERTEX
  8
0
 10
6.48611111
 20
5.25924186
  0
VERTEX
  8
0
 10
6.45771716
 20
5.25550073
  0
VERTEX
  8
0
 10
6.43445008
 20
5.23796277
  0
VERTEX
  8
0
 10
6.41618018
 20
5.22411991
  0
VERTEX
  8
0
 10
6.40277778
 20
5.23146408
  0
VERTEX
  8
0
 10
6.42227102
 20
5.26358631
  0
VERTEX
  8
0
 10
6.45819680
 20
5.28893009
  0
VERTEX
  8
0
 10
6.56014348
 20
5.31745982
  0
VERTEX
  8
0
 10
6.67021286
 20
5.31340835
  0
VERTEX
  8
0
 10
6.75000000
 20
5.27313075
  0
VERTEX
  8
0
 10
6.70597160
 20
5.28465791
  0
VERTEX
  8
0
 10
6.65277778
 20
5.28701964
  0
VERTEX
  8
0
 10
6.65582108
 20
5.22062110
  0
VERTEX
  8
0
 10
6.66666667
 20
5.16201964
  0
VERTEX
  8
0
 10
6.73989784
 20
5.19658035
  0
VERTEX
  8
0
 10
6.78164209
 20
5.26187197
  0
VERTEX
  8
0
 10
6.79714863
 20
5.34668187
  0
VERTEX
  8
0
 10
6.79166667
 20
5.43979741
  0
SEQEND
  0
POLYLINE
  8
Default_Layer
 66
   1
 39
0.000000
 70
    1
  0
VERTEX
  8
0
 10
5.06944444
 20
6.59257519
  0
VERTEX
  8
0
 10
5.07941063
 20
6.51147166
  0
VERTEX
  8
0
 10
5.10477827
 20
6.43429606
  0
VERTEX
  8
0
 10
5.14435939
 20
6.36447024
  0
VERTEX
  8
0
 10
5.19696605
 20
6.30541607
  0
VERTEX
  8
0
 10
5.26141028
 20
6.26055539
  0
VERTEX
  8
0
 10
5.33650414
 20
6.23331008
  0
VERTEX
  8
0
 10
5.42105966
 20
6.22710199
  0
VERTEX
  8
0
 10
5.51388889
 20
6.24535297
  0
VERTEX
  8
0
 10
5.57991454
 20
6.27570360
  0
VERTEX
  8
0
 10
5.63580909
 20
6.31879143
  0
VERTEX
  8
0
 10
5.71715242
 20
6.43424882
  0
VERTEX
  8
0
 10
5.75781397
 20
6.57386533
  0
VERTEX
  8
0
 10
5.75768879
 20
6.71978117
  0
VERTEX
  8
0
 10
5.71667196
 20
6.85413654
  0
VERTEX
  8
0
 10
5.63465854
 20
6.95907165
  0
VERTEX
  8
0
 10
5.57824532
 20
6.99492541
  0
VERTEX
  8
0
 10
5.51154361
 20
7.01672669
  0
VERTEX
  8
0
 10
5.43454028
 20
7.02224299
  0
VERTEX
  8
0
 10
5.34722222
 20
7.00924186
  0
VERTEX
  8
0
 10
5.23369769
 20
6.95807785
  0
VERTEX
  8
0
 10
5.14466865
 20
6.86885374
  0
VERTEX
  8
0
 10
5.08747195
 20
6.74565702
  0
VERTEX
  8
0
 10
5.06944444
 20
6.59257519
  0
SEQEND
  0
POLYLINE
  8
Default_Layer
 66
   1
 39
0.000000
 70
    1
  0
VERTEX
  8
0
 10
5.60059042
 20
2.83451209
  0
VERTEX
  8
0
 10
5.56524605
 20
2.79327988
  0
VERTEX
  8
0
 10
5.51725709
 20
2.76506765
  0
VERTEX
  8
0
 10
5.57723711
 20
2.71339218
  0
VERTEX
  8
0
 10
5.64126706
 20
2.64441182
  0
VERTEX
  8
0
 10
5.70926424
 20
2.60450937
  0
VERTEX
  8
0
 10
5.74472471
 20
2.60995699
  0
VERTEX
  8
0
 10
5.78114598
 20
2.64006765
  0
VERTEX
  8
0
 10
5.76095500
 20
2.69156026
  0
VERTEX
  8
0
 10
5.71633060
 20
2.74541269
  0
VERTEX
  8
0
 10
5.60059042
 20
2.83451209
  0
SEQEND
  0
POLYLINE
  8
Default_Layer
 66
   1
 39
0.000000
 70
    1
  0
VERTEX
  8
0
 10
3.89089077
 20
3.22629231
  0
VERTEX
  8
0
 10
3.90277778
 20
3.28701964
  0
VERTEX
  8
0
 10
3.99568654
 20
3.50654645
  0
VERTEX
  8
0
 10
4.06944444
 20
3.73146408
  0
VERTEX
  8
0
 10
4.15768688
 20
3.72942614
  0
VERTEX
  8
0
 10
4.22222222
 20
3.70368630
  0
VERTEX
  8
0
 10
4.16151970
 20
3.56975149
  0
VERTEX
  8
0
 10
4.13142508
 20
3.50267275
  0
VERTEX
  8
0
 10
4.11111111
 20
3.42590853
  0
VERTEX
  8
0
 10
4.04040225
 20
3.28098527
  0
VERTEX
  8
0
 10
4.02888688
 20
3.20440090
  0
VERTEX
  8
0
 10
4.05806932
 20
3.14306109
  0
VERTEX
  8
0
 10
4.11938277
 20
3.07904032
  0
VERTEX
  8
0
 10
4.13888889
 20
3.05090853
  0
VERTEX
  8
0
 10
4.08333333
 20
2.98146408
  0
VERTEX
  8
0
 10
3.91666667
 20
3.13424186
  0
VERTEX
  8
0
 10
3.90146786
 20
3.15884003
  0
VERTEX
  8
0
 10
3.89089077
 20
3.22629231
  0
SEQEND
  0
POLYLINE
  8
Default_Layer
 66
   1
 39
0.000000
 70
    1
  0
VERTEX
  8
0
 10
3.95833333
 20
7.50924186
  0
VERTEX
  8
0
 10
4.02200577
 20
7.49713484
  0
VERTEX
  8
0
 10
4.06343168
 20
7.45524548
  0
VERTEX
  8
0
 10
4.08439025
 20
7.39325007
  0
VERTEX
  8
0
 10
4.08666067
 20
7.32082492
  0
VERTEX
  8
0
 10
4.07202211
 20
7.24764634
  0
VERTEX
  8
0
 10
4.04225377
 20
7.18339062
  0
VERTEX
  8
0
 10
3.99913482
 20
7.13773406
  0
VERTEX
  8
0
 10
3.94444444
 20
7.12035297
  0
VERTEX
  8
0
 10
3.88842556
 20
7.13629333
  0
VERTEX
  8
0
 10
3.84699322
 20
7.17865722
  0
VERTEX
  8
0
 10
3.82110488
 20
7.23890012
  0
VERTEX
  8
0
 10
3.81171796
 20
7.30847753
  0
VERTEX
  8
0
 10
3.81978991
 20
7.37884492
  0
VERTEX
  8
0
 10
3.84627816
 20
7.44145778
  0
VERTEX
  8
0
 10
3.89214016
 20
7.48777160
  0
VERTEX
  8
0
 10
3.95833333
 20
7.50924186
  0
SEQEND
  0
POLYLINE
  8
Default_Layer
 66
   1
 39
0.000000
 70
    1
  0
VERTEX
  8
0
 10
5.95833333
 20
7.27313075
  0
VERTEX
  8
0
 10
5.96309485
 20
7.28597929
  0
VERTEX
  8
0
 10
5.97733584
 20
7.28171485
  0
VERTEX
  8
0
 10
6.00000000
 20
7.25924186
  0
VERTEX
  8
0
 10
5.98134365
 20
7.24562267
  0
VERTEX
  8
0
 10
5.95833333
 20
7.27313075
  0
SEQEND
  0
POLYLINE
  8
Default_Layer
 66
   1
 39
0.000000
 70
    1
  0
VERTEX
  8
0
 10
6.12500000
 20
7.05090853
  0
VERTEX
  8
0
 10
6.11974385
 20
7.12570152
  0
VERTEX
  8
0
 10
6.13517154
 20
7.18013126
  0
VERTEX
  8
0
 10
6.16541226
 20
7.21543077
  0
VERTEX
  8
0
 10
6.20459522
 20
7.23283308
  0
VERTEX
  8
0
 10
6.24684960
 20
7.23357121
  0
VERTEX
  8
0
 10
6.28630462
 20
7.21887818
  0
VERTEX
  8
0
 10
6.31708946
 20
7.18998702
  0
VERTEX
  8
0
 10
6.33333333
 20
7.14813075
  0
VERTEX
  8
0
 10
6.31633587
 20
7.08309302
  0
VERTEX
  8
0
 10
6.26157647
 20
7.02981746
  0
VERTEX
  8
0
 10
6.19061217
 20
7.01139298
  0
VERTEX
  8
0
 10
6.15578975
 20
7.02246519
  0
VERTEX
  8
0
 10
6.12500000
 20
7.05090853
  0
SEQEND
  0
POLYLINE
  8
Default_Layer
 66
   1
 39
0.000000
 70
    1
  0
VERTEX
  8
0
 10
3.87500000
 20
7.09257519
  0
VERTEX
  8
0
 10
3.86436154
 20
7.01274037
  0
VERTEX
  8
0
 10
3.84172649
 20
6.99028508
  0
VERTEX
  8
0
 10
3.80555556
 20
6.98146408
  0
VERTEX
  8
0
 10
3.77777778
 20
7.00924186
  0
VERTEX
  8
0
 10
3.78391282
 20
7.05346828
  0
VERTEX
  8
0
 10
3.80684765
 20
7.08667822
  0
VERTEX
  8
0
 10
3.83955310
 20
7.10200331
  0
VERTEX
  8
0
 10
3.87500000
 20
7.09257519
  0
SEQEND
  0
POLYLINE
  8
Default_Layer
 66
   1
 39
0.000000
 70
    1
  0
VERTEX
  8
0
 10
5.37500000
 20
6.95368630
  0
VERTEX
  8
0
 10
5.47222222
 20
6.96757519
  0
VERTEX
  8
0
 10
5.56521452
 20
6.93140132
  0
VERTEX
  8
0
 10
5.63114620
 20
6.86176768
  0
VERTEX
  8
0
 10
5.67051095
 20
6.76916311
  0
VERTEX
  8
0
 10
5.68380251
 20
6.66407649
  0
VERTEX
  8
0
 10
5.67151459
 20
6.55699664
  0
VERTEX
  8
0
 10
5.63414090
 20
6.45841243
  0
VERTEX
  8
0
 10
5.57217517
 20
6.37881270
  0
VERTEX
  8
0
 10
5.48611111
 20
6.32868630
  0
VERTEX
  8
0
 10
5.41065566
 20
6.31201682
  0
VERTEX
  8
0
 10
5.34404647
 20
6.31268644
  0
VERTEX
  8
0
 10
5.28634537
 20
6.32857199
  0
VERTEX
  8
0
 10
5.23761419
 20
6.35755029
  0
VERTEX
  8
0
 10
5.16730890
 20
6.44629241
  0
VERTEX
  8
0
 10
5.13362525
 20
6.56192735
  0
VERTEX
  8
0
 10
5.13705789
 20
6.68746966
  0
VERTEX
  8
0
 10
5.17810147
 20
6.80593389
  0
VERTEX
  8
0
 10
5.25725062
 20
6.90033459
  0
VERTEX
  8
0
 10
5.31126937
 20
6.93320316
  0
VERTEX
  8
0
 10
5.37500000
 20
6.95368630
  0
SEQEND
  0
POLYLINE
  8
Default_Layer
 66
   1
 39
0.000000
 70
    1
  0
VERTEX
  8
0
 10
5.27777778
 20
6.75924186
  0
VERTEX
  8
0
 10
5.29219325
 20
6.72065186
  0
VERTEX
  8
0
 10
5.32237669
 20
6.69293740
  0
VERTEX
  8
0
 10
5.40614713
 20
6.67539576
  0
VERTEX
  8
0
 10
5.44778397
 20
6.68819891
  0
VERTEX
  8
0
 10
5.48128845
 20
6.71713827
  0
VERTEX
  8
0
 10
5.50068549
 20
6.76352901
  0
VERTEX
  8
0
 10
5.50000000
 20
6.82868630
  0
VERTEX
  8
0
 10
5.42994255
 20
6.86764062
  0
VERTEX
  8
0
 10
5.35493827
 20
6.86202388
  0
VERTEX
  8
0
 10
5.29690930
 20
6.82237725
  0
VERTEX
  8
0
 10
5.27777778
 20
6.75924186
  0
SEQEND
  0
POLYLINE
  8
Default_Layer
 66
   1
 39
0.000000
 70
    1
  0
VERTEX
  8
0
 10
5.36111111
 20
6.56479741
  0
VERTEX
  8
0
 10
5.37880511
 20
6.56165548
  0
VERTEX
  8
0
 10
5.38888889
 20
6.55090853
  0
VERTEX
  8
0
 10
5.42148419
 20
6.55891837
  0
VERTEX
  8
0
 10
5.44036692
 20
6.58459142
  0
VERTEX
  8
0
 10
5.44392729
 20
6.61772857
  0
VERTEX
  8
0
 10
5.43055556
 20
6.64813075
  0
VERTEX
  8
0
 10
5.39433174
 20
6.64601414
  0
VERTEX
  8
0
 10
5.37053480
 20
6.63156971
  0
VERTEX
  8
0
 10
5.36111111
 20
6.56479741
  0
SEQEND
  0
POLYLINE
  8
Default_Layer
 66
   1
 39
0.000000
 70
    1
  0
VERTEX
  8
0
 10
6.58333333
 20
6.55090853
  0
VERTEX
  8
0
 10
6.54537689
 20
6.61043570
  0
VERTEX
  8
0
 10
6.53056499
 20
6.67591223
  0
VERTEX
  8
0
 10
6.53597191
 20
6.74330004
  0
VERTEX
  8
0
 10
6.55867195
 20
6.80856103
  0
VERTEX
  8
0
 10
6.59573938
 20
6.86765713
  0
VERTEX
  8
0
 10
6.64424850
 20
6.91655025
  0
VERTEX
  8
0
 10
6.70127357
 20
6.95120230
  0
VERTEX
  8
0
 10
6.76388889
 20
6.96757519
  0
VERTEX
  8
0
 10
6.80654194
 20
6.91355776
  0
VERTEX
  8
0
 10
6.82590064
 20
6.84862935
  0
VERTEX
  8
0
 10
6.82429468
 20
6.77852176
  0
VERTEX
  8
0
 10
6.80405372
 20
6.70896676
  0
VERTEX
  8
0
 10
6.76750744
 20
6.64569616
  0
VERTEX
  8
0
 10
6.71698550
 20
6.59444172
  0
VERTEX
  8
0
 10
6.65481757
 20
6.56093525
  0
VERTEX
  8
0
 10
6.58333333
 20
6.55090853
  0
SEQEND
  0
POLYLINE
  8
Default_Layer
 66
   1
 39
0.000000
 70
    1
  0
VERTEX
  8
0
 10
3.89775025
 20
6.74151913
  0
VERTEX
  8
0
 10
3.87860474
 20
6.72202025
  0
VERTEX
  8
0
 10
3.84815901
 20
6.71424369
  0
VERTEX
  8
0
 10
3.82167557
 20
6.72357707
  0
VERTEX
  8
0
 10
3.81441692
 20
6.75540802
  0
VERTEX
  8
0
 10
3.86084703
 20
6.76408900
  0
VERTEX
  8
0
 10
3.89775025
 20
6.74151913
  0
SEQEND
  0
POLYLINE
  8
Default_Layer
 66
   1
 39
0.000000
 70
    1
  0
VERTEX
  8
0
 10
3.67927761
 20
6.72004683
  0
VERTEX
  8
0
 10
3.67048952
 20
6.68741980
  0
VERTEX
  8
0
 10
3.63751449
 20
6.67654412
  0
VERTEX
  8
0
 10
3.60458769
 20
6.68741980
  0
VERTEX
  8
0
 10
3.59594428
 20
6.72004683
  0
VERTEX
  8
0
 10
3.63501501
 20
6.73016131
  0
VERTEX
  8
0
 10
3.67927761
 20
6.72004683
  0
SEQEND
  0
POLYLINE
  8
Default_Layer
 66
   1
 39
0.000000
 70
    1
  0
VERTEX
  8
0
 10
3.79166667
 20
6.60390819
  0
VERTEX
  8
0
 10
3.73423272
 20
6.60203240
  0
VERTEX
  8
0
 10
3.71170488
 20
6.60728136
  0
VERTEX
  8
0
 10
3.70833333
 20
6.63168597
  0
VERTEX
  8
0
 10
3.75719730
 20
6.64030636
  0
VERTEX
  8
0
 10
3.78142701
 20
6.62819468
  0
VERTEX
  8
0
 10
3.79166667
 20
6.60390819
  0
SEQEND
  0
POLYLINE
  8
Default_Layer
 66
   1
 39
0.000000
 70
    1
  0
VERTEX
  8
0
 10
6.13888889
 20
6.64813075
  0
VERTEX
  8
0
 10
6.12506777
 20
6.61686564
  0
VERTEX
  8
0
 10
6.09084279
 20
6.60621503
  0
VERTEX
  8
0
 10
6.05633530
 20
6.61652228
  0
VERTEX
  8
0
 10
6.04166667
 20
6.64813075
  0
VERTEX
  8
0
 10
6.06375307
 20
6.66095939
  0
VERTEX
  8
0
 10
6.08560893
 20
6.65832336
  0
VERTEX
  8
0
 10
6.13888889
 20
6.64813075
  0
SEQEND
  0
POLYLINE
  8
Default_Layer
 66
   1
 39
0.000000
 70
    1
  0
VERTEX
  8
0
 10
6.77777778
 20
6.31479741
  0
VERTEX
  8
0
 10
6.78581848
 20
6.23270756
  0
VERTEX
  8
0
 10
6.75427629
 20
6.15798274
  0
VERTEX
  8
0
 10
6.69629040
 20
6.10958191
  0
VERTEX
  8
0
 10
6.62500000
 20
6.10646408
  0
VERTEX
  8
0
 10
6.61310114
 20
6.18724851
  0
VERTEX
  8
0
 10
6.64073515
 20
6.25400409
  0
VERTEX
  8
0
 10
6.69869602
 20
6.29907299
  0
VERTEX
  8
0
 10
6.77777778
 20
6.31479741
  0
SEQEND
  0
POLYLINE
  8
Default_Layer
 66
   1
 39
0.000000
 70
    1
  0
VERTEX
  8
0
 10
3.79166667
 20
5.64813075
  0
VERTEX
  8
0
 10
3.79073009
 20
5.58642265
  0
VERTEX
  8
0
 10
3.77330737
 20
5.54129714
  0
VERTEX
  8
0
 10
3.73728652
 20
5.51486622
  0
VERTEX
  8
0
 10
3.68055556
 20
5.50924186
  0
VERTEX
  8
0
 10
3.65998495
 20
5.54024330
  0
VERTEX
  8
0
 10
3.65429374
 20
5.57416212
  0
VERTEX
  8
0
 10
3.67748185
 20
5.63712267
  0
VERTEX
  8
0
 10
3.72998458
 20
5.67086503
  0
VERTEX
  8
0
 10
3.76093666
 20
5.66826112
  0
VERTEX
  8
0
 10
3.79166667
 20
5.64813075
  0
SEQEND
  0
POLYLINE
  8
Default_Layer
 66
   1
 39
0.000000
 70
    1
  0
VERTEX
  8
0
 10
3.73611111
 20
5.14813075
  0
VERTEX
  8
0
 10
3.72900043
 20
5.22744094
  0
VERTEX
  8
0
 10
3.74564507
 20
5.29181084
  0
VERTEX
  8
0
 10
3.78014349
 20
5.34060478
  0
VERTEX
  8
0
 10
3.82659417
 20
5.37318708
  0
VERTEX
  8
0
 10
3.87909559
 20
5.38892205
  0
VERTEX
  8
0
 10
3.93174620
 20
5.38717404
  0
VERTEX
  8
0
 10
3.97864447
 20
5.36730734
  0
VERTEX
  8
0
 10
4.01388889
 20
5.32868630
  0
VERTEX
  8
0
 10
4.02990141
 20
5.27220869
  0
VERTEX
  8
0
 10
4.02018897
 20
5.21486134
  0
VERTEX
  8
0
 10
3.99036622
 20
5.16192315
  0
VERTEX
  8
0
 10
3.94604782
 20
5.11867301
  0
VERTEX
  8
0
 10
3.89284845
 20
5.09038981
  0
VERTEX
  8
0
 10
3.83638276
 20
5.08235244
  0
VERTEX
  8
0
 10
3.78226543
 20
5.09983979
  0
VERTEX
  8
0
 10
3.73611111
 20
5.14813075
  0
SEQEND
  0
POLYLINE
  8
Default_Layer
 66
   1
 39
0.000000
 70
    1
  0
VERTEX
  8
0
 10
6.43055556
 20
5.03701964
  0
VERTEX
  8
0
 10
6.42490514
 20
4.99044205
  0
VERTEX
  8
0
 10
6.40610945
 20
4.95710617
  0
VERTEX
  8
0
 10
6.37523126
 20
4.93594925
  0
VERTEX
  8
0
 10
6.33333333
 20
4.92590853
  0
VERTEX
  8
0
 10
6.32101076
 20
4.97475882
  0
VERTEX
  8
0
 10
6.34224122
 20
5.02097649
  0
VERTEX
  8
0
 10
6.38332330
 20
5.04743795
  0
VERTEX
  8
0
 10
6.43055556
 20
5.03701964
  0
SEQEND
  0
POLYLINE
  8
Default_Layer
 66
   1
 39
0.000000
 70
    1
  0
VERTEX
  8
0
 10
5.62500000
 20
4.96757519
  0
VERTEX
  8
0
 10
5.62220058
 20
4.92161752
  0
VERTEX
  8
0
 10
5.60692334
 20
4.88823673
  0
VERTEX
  8
0
 10
5.57985110
 20
4.86674739
  0
VERTEX
  8
0
 10
5.54166667
 20
4.85646408
  0
VERTEX
  8
0
 10
5.53187219
 20
4.90279953
  0
VERTEX
  8
0
 10
5.54917959
 20
4.94712475
  0
VERTEX
  8
0
 10
5.58356386
 20
4.97389741
  0
VERTEX
  8
0
 10
5.62500000
 20
4.96757519
  0
SEQEND
  0
POLYLINE
  8
Default_Layer
 66
   1
 39
0.000000
 70
    1
  0
VERTEX
  8
0
 10
3.66666667
 20
4.57868630
  0
VERTEX
  8
0
 10
3.92302230
 20
4.55726676
  0
VERTEX
  8
0
 10
4.16666667
 20
4.52313075
  0
VERTEX
  8
0
 10
4.15597890
 20
4.48501451
  0
VERTEX
  8
0
 10
4.15277778
 20
4.43979741
  0
VERTEX
  8
0
 10
4.03929743
 20
4.42562085
  0
VERTEX
  8
0
 10
3.90624435
 20
4.43229524
  0
VERTEX
  8
0
 10
3.65277778
 20
4.48146408
  0
VERTEX
  8
0
 10
3.66430494
 20
4.52529958
  0
VERTEX
  8
0
 10
3.66666667
 20
4.57868630
  0
SEQEND
  0
POLYLINE
  8
Default_Layer
 66
   1
 39
0.000000
 70
    1
  0
VERTEX
  8
0
 10
5.25000000
 20
4.41201964
  0
VERTEX
  8
0
 10
5.49029226
 20
4.38629055
  0
VERTEX
  8
0
 10
5.60851106
 20
4.37737308
  0
VERTEX
  8
0
 10
5.72222222
 20
4.38424186
  0
VERTEX
  8
0
 10
5.72869713
 20
4.32559576
  0
VERTEX
  8
0
 10
5.73365867
 20
4.28859999
  0
VERTEX
  8
0
 10
5.72222222
 20
4.24535297
  0
VERTEX
  8
0
 10
5.46982334
 20
4.25756190
  0
VERTEX
  8
0
 10
5.23611111
 20
4.30090853
  0
VERTEX
  8
0
 10
5.24581796
 20
4.35350878
  0
VERTEX
  8
0
 10
5.25000000
 20
4.41201964
  0
SEQEND
  0
POLYLINE
  8
Default_Layer
 66
   1
 39
0.000000
 70
    1
  0
VERTEX
  8
0
 10
6.01388889
 20
4.28701964
  0
VERTEX
  8
0
 10
6.09903771
 20
4.26452677
  0
VERTEX
  8
0
 10
6.17203150
 20
4.22988395
  0
VERTEX
  8
0
 10
6.30555556
 20
4.14813075
  0
VERTEX
  8
0
 10
6.30231935
 20
4.08173482
  0
VERTEX
  8
0
 10
6.29166667
 20
4.02313075
  0
VERTEX
  8
0
 10
6.20945735
 20
4.04508810
  0
VERTEX
  8
0
 10
6.13934834
 20
4.07914576
  0
VERTEX
  8
0
 10
6.00000000
 20
4.14813075
  0
VERTEX
  8
0
 10
5.99902039
 20
4.22530635
  0
VERTEX
  8
0
 10
6.01388889
 20
4.28701964
  0
SEQEND
  0
POLYLINE
  8
Default_Layer
 66
   1
 39
0.000000
 70
    1
  0
VERTEX
  8
0
 10
4.37500000
 20
3.96757519
  0
VERTEX
  8
0
 10
4.30975909
 20
3.96254684
  0
VERTEX
  8
0
 10
4.25185285
 20
3.97500982
  0
VERTEX
  8
0
 10
4.18954797
 20
3.99069993
  0
VERTEX
  8
0
 10
4.11111111
 20
3.99535297
  0
VERTEX
  8
0
 10
4.17204094
 20
4.02462434
  0
VERTEX
  8
0
 10
4.25119869
 20
4.02333951
  0
VERTEX
  8
0
 10
4.32628487
 20
4.00111696
  0
VERTEX
  8
0
 10
4.37500000
 20
3.96757519
  0
SEQEND
  0
POLYLINE
  8
Default_Layer
 66
   1
 39
0.000000
 70
    1
  0
VERTEX
  8
0
 10
5.69444444
 20
3.85646408
  0
VERTEX
  8
0
 10
5.57257942
 20
3.84922475
  0
VERTEX
  8
0
 10
5.50321371
 20
3.85917436
  0
VERTEX
  8
0
 10
5.45833333
 20
3.88424186
  0
VERTEX
  8
0
 10
5.51809105
 20
3.89862065
  0
VERTEX
  8
0
 10
5.57935442
 20
3.89018464
  0
VERTEX
  8
0
 10
5.69444444
 20
3.85646408
  0
SEQEND
  0
POLYLINE
  8
Default_Layer
 66
   1
 39
0.000000
 70
    1
  0
VERTEX
  8
0
 10
5.98611111
 20
6.74535297
  0
VERTEX
  8
0
 10
5.95018532
 20
6.81503430
  0
VERTEX
  8
0
 10
5.93055556
 20
6.92590853
  0
VERTEX
  8
0
 10
5.83836481
 20
7.02289361
  0
VERTEX
  8
0
 10
5.74759938
 20
7.10333812
  0
VERTEX
  8
0
 10
5.64761759
 20
7.15756783
  0
VERTEX
  8
0
 10
5.52777778
 20
7.17590853
  0
VERTEX
  8
0
 10
5.42458024
 20
7.16198746
  0
VERTEX
  8
0
 10
5.32949661
 20
7.12742449
  0
VERTEX
  8
0
 10
5.24378782
 20
7.07584874
  0
VERTEX
  8
0
 10
5.16871483
 20
7.01088933
  0
VERTEX
  8
0
 10
5.05552009
 20
6.85533599
  0
VERTEX
  8
0
 10
5.00000000
 20
6.68979741
  0
VERTEX
  8
0
 10
4.99310023
 20
6.55386307
  0
VERTEX
  8
0
 10
5.01162282
 20
6.42784676
  0
VERTEX
  8
0
 10
5.05326688
 20
6.31504793
  0
VERTEX
  8
0
 10
5.11573150
 20
6.21876607
  0
VERTEX
  8
0
 10
5.19671580
 20
6.14230062
  0
VERTEX
  8
0
 10
5.29391887
 20
6.08895105
  0
VERTEX
  8
0
 10
5.40503983
 20
6.06201683
  0
VERTEX
  8
0
 10
5.52777778
 20
6.06479741
  0
VERTEX
  8
0
 10
5.65102089
 20
6.10291915
  0
VERTEX
  8
0
 10
5.75277056
 20
6.17440669
  0
VERTEX
  8
0
 10
5.83924606
 20
6.27442293
  0
VERTEX
  8
0
 10
5.91666667
 20
6.39813075
  0
VERTEX
  8
0
 10
5.88081452
 20
6.44328405
  0
VERTEX
  8
0
 10
5.86134756
 20
6.49152790
  0
VERTEX
  8
0
 10
5.86424608
 20
6.59010583
  0
VERTEX
  8
0
 10
5.91071601
 20
6.67950177
  0
VERTEX
  8
0
 10
5.98611111
 20
6.74535297
  0
SEQEND
  0
POLYLINE
  8
Default_Layer
 66
   1
 39
0.000000
 70
    1
  0
VERTEX
  8
0
 10
6.44444444
 20
5.75924186
  0
VERTEX
  8
0
 10
6.45822293
 20
5.80812050
  0
VERTEX
  8
0
 10
6.49489016
 20
5.83723938
  0
VERTEX
  8
0
 10
6.54648976
 20
5.84875166
  0
VERTEX
  8
0
 10
6.60506535
 20
5.84481051
  0
VERTEX
  8
0
 10
6.71131898
 20
5.79918065
  0
VERTEX
  8
0
 10
6.74308426
 20
5.76179829
  0
VERTEX
  8
0
 10
6.75000000
 20
5.71757519
  0
VERTEX
  8
0
 10
6.77736525
 20
5.78728736
  0
VERTEX
  8
0
 10
6.78806779
 20
5.87375687
  0
VERTEX
  8
0
 10
6.80555556
 20
6.05090853
  0
VERTEX
  8
0
 10
6.87475514
 20
6.12667647
  0
VERTEX
  8
0
 10
6.93678445
 20
6.21299888
  0
VERTEX
  8
0
 10
6.97139376
 20
6.31897056
  0
VERTEX
  8
0
 10
6.95833333
 20
6.45368630
  0
VERTEX
  8
0
 10
7.00316123
 20
6.51982614
  0
VERTEX
  8
0
 10
7.05670546
 20
6.57734350
  0
VERTEX
  8
0
 10
7.09925807
 20
6.64594893
  0
VERTEX
  8
0
 10
7.11111111
 20
6.74535297
  0
VERTEX
  8
0
 10
7.09722222
 20
6.77313075
  0
VERTEX
  8
0
 10
7.00457041
 20
6.81242469
  0
VERTEX
  8
0
 10
6.93935667
 20
6.87915409
  0
VERTEX
  8
0
 10
6.89404793
 20
6.96578849
  0
VERTEX
  8
0
 10
6.86111111
 20
7.06479741
  0
VERTEX
  8
0
 10
6.76205674
 20
7.09074305
  0
VERTEX
  8
0
 10
6.69820841
 20
7.15189471
  0
VERTEX
  8
0
 10
6.61111111
 20
7.31479741
  0
VERTEX
  8
0
 10
6.61339541
 20
7.26569666
  0
VERTEX
  8
0
 10
6.60214029
 20
7.22482950
  0
VERTEX
  8
0
 10
6.55387265
 20
7.15855305
  0
VERTEX
  8
0
 10
6.49602979
 20
7.09748211
  0
VERTEX
  8
0
 10
6.45833333
 20
7.02313075
  0
VERTEX
  8
0
 10
6.46438289
 20
6.92897093
  0
VERTEX
  8
0
 10
6.47222222
 20
6.82868630
  0
VERTEX
  8
0
 10
6.42918081
 20
6.72706971
  0
VERTEX
  8
0
 10
6.37500000
 20
6.63424186
  0
VERTEX
  8
0
 10
6.41789200
 20
6.59661454
  0
VERTEX
  8
0
 10
6.44993383
 20
6.54548204
  0
VERTEX
  8
0
 10
6.47468931
 20
6.42541954
  0
VERTEX
  8
0
 10
6.46401418
 20
6.36784855
  0
VERTEX
  8
0
 10
6.43571126
 20
6.31949042
  0
VERTEX
  8
0
 10
6.38808614
 20
6.28602465
  0
VERTEX
  8
0
 10
6.31944444
 20
6.27313075
  0
VERTEX
  8
0
 10
6.30902122
 20
6.22651047
  0
VERTEX
  8
0
 10
6.28747421
 20
6.18328829
  0
VERTEX
  8
0
 10
6.25000000
 20
6.09257519
  0
VERTEX
  8
0
 10
6.25959435
 20
5.96422353
  0
VERTEX
  8
0
 10
6.26804348
 20
5.90104895
  0
VERTEX
  8
0
 10
6.26388889
 20
5.84257519
  0
VERTEX
  8
0
 10
6.23206377
 20
5.78241659
  0
VERTEX
  8
0
 10
6.18397542
 20
5.73274801
  0
VERTEX
  8
0
 10
6.13764936
 20
5.68590969
  0
VERTEX
  8
0
 10
6.11111111
 20
5.63424186
  0
VERTEX
  8
0
 10
6.12246067
 20
5.55026780
  0
VERTEX
  8
0
 10
6.13041944
 20
5.50667675
  0
VERTEX
  8
0
 10
6.12500000
 20
5.46757519
  0
VERTEX
  8
0
 10
6.17722760
 20
5.43246631
  0
VERTEX
  8
0
 10
6.21298422
 20
5.38465502
  0
VERTEX
  8
0
 10
6.24314244
 20
5.26167006
  0
VERTEX
  8
0
 10
6.23159055
 20
5.12010989
  0
VERTEX
  8
0
 10
6.19444444
 20
4.98146408
  0
VERTEX
  8
0
 10
6.35859730
 20
4.86438326
  0
VERTEX
  8
0
 10
6.43766234
 20
4.80675463
  0
VERTEX
  8
0
 10
6.51388889
 20
4.77313075
  0
VERTEX
  8
0
 10
6.48611111
 20
5.12035297
  0
VERTEX
  8
0
 10
6.41519110
 20
5.13235417
  0
VERTEX
  8
0
 10
6.36349513
 20
5.15619810
  0
VERTEX
  8
0
 10
6.32831842
 20
5.18970530
  0
VERTEX
  8
0
 10
6.30695615
 20
5.23069628
  0
VERTEX
  8
0
 10
6.29485577
 20
5.32641169
  0
VERTEX
  8
0
 10
6.30555556
 20
5.42590853
  0
VERTEX
  8
0
 10
6.29431221
 20
5.41099810
  0
VERTEX
  8
0
 10
6.27255772
 20
5.41062197
  0
VERTEX
  8
0
 10
6.23611111
 20
5.42590853
  0
VERTEX
  8
0
 10
6.22134350
 20
5.49377058
  0
VERTEX
  8
0
 10
6.22485707
 20
5.55583007
  0
VERTEX
  8
0
 10
6.27348497
 20
5.65917770
  0
VERTEX
  8
0
 10
6.35550928
 20
5.72922408
  0
VERTEX
  8
0
 10
6.44444444
 20
5.75924186
  0
SEQEND
  0
POLYLINE
  8
Default_Layer
 66
   1
 39
0.000000
 70
    1
  0
VERTEX
  8
0
 10
4.70833333
 20
7.07868630
  0
VERTEX
  8
0
 10
4.63485652
 20
7.09616866
  0
VERTEX
  8
0
 10
4.56380026
 20
7.09687185
  0
VERTEX
  8
0
 10
4.43308942
 20
7.05516616
  0
VERTEX
  8
0
 10
4.32448095
 20
6.96802008
  0
VERTEX
  8
0
 10
4.24625494
 20
6.84988447
  0
VERTEX
  8
0
 10
4.20669151
 20
6.71521021
  0
VERTEX
  8
0
 10
4.21407076
 20
6.57844815
  0
VERTEX
  8
0
 10
4.23795143
 20
6.51380009
  0
VERTEX
  8
0
 10
4.27667281
 20
6.45404915
  0
VERTEX
  8
0
 10
4.33126993
 20
6.40100170
  0
VERTEX
  8
0
 10
4.40277778
 20
6.35646408
  0
VERTEX
  8
0
 10
4.38074118
 20
6.43476739
  0
VERTEX
  8
0
 10
4.34099747
 20
6.49895617
  0
VERTEX
  8
0
 10
4.30089392
 20
6.56481557
  0
VERTEX
  8
0
 10
4.27777778
 20
6.64813075
  0
VERTEX
  8
0
 10
4.27916334
 20
6.72998594
  0
VERTEX
  8
0
 10
4.29749003
 20
6.80802892
  0
VERTEX
  8
0
 10
4.33103379
 20
6.87916862
  0
VERTEX
  8
0
 10
4.37807056
 20
6.94031399
  0
VERTEX
  8
0
 10
4.43687629
 20
6.98837394
  0
VERTEX
  8
0
 10
4.50572692
 20
7.02025743
  0
VERTEX
  8
0
 10
4.58289840
 20
7.03287339
  0
VERTEX
  8
0
 10
4.66666667
 20
7.02313075
  0
VERTEX
  8
0
 10
4.75428895
 20
6.97031894
  0
VERTEX
  8
0
 10
4.81779695
 20
6.87484975
  0
VERTEX
  8
0
 10
4.85087870
 20
6.75629884
  0
VERTEX
  8
0
 10
4.84722222
 20
6.63424186
  0
VERTEX
  8
0
 10
4.81724313
 20
6.56821208
  0
VERTEX
  8
0
 10
4.77777778
 20
6.50924186
  0
VERTEX
  8
0
 10
4.73134799
 20
6.46438430
  0
VERTEX
  8
0
 10
4.71775075
 20
6.43772187
  0
VERTEX
  8
0
 10
4.73611111
 20
6.41201964
  0
VERTEX
  8
0
 10
4.81662443
 20
6.46394692
  0
VERTEX
  8
0
 10
4.87084518
 20
6.54360186
  0
VERTEX
  8
0
 10
4.89992169
 20
6.64160719
  0
VERTEX
  8
0
 10
4.90500233
 20
6.74858569
  0
VERTEX
  8
0
 10
4.88723546
 20
6.85516009
  0
VERTEX
  8
0
 10
4.84776944
 20
6.95195316
  0
VERTEX
  8
0
 10
4.78775261
 20
7.02958765
  0
VERTEX
  8
0
 10
4.70833333
 20
7.07868630
  0
SEQEND
  0
POLYLINE
  8
Default_Layer
 66
   1
 39
0.000000
 70
    1
  0
VERTEX
  8
0
 10
4.50000000
 20
6.78701964
  0
VERTEX
  8
0
 10
4.55819383
 20
6.76188013
  0
VERTEX
  8
0
 10
4.63888889
 20
6.75924186
  0
VERTEX
  8
0
 10
4.67310789
 20
6.82263152
  0
VERTEX
  8
0
 10
4.67744800
 20
6.85963632
  0
VERTEX
  8
0
 10
4.66666667
 20
6.89813075
  0
VERTEX
  8
0
 10
4.60605032
 20
6.92650882
  0
VERTEX
  8
0
 10
4.54263792
 20
6.91543343
  0
VERTEX
  8
0
 10
4.49957323
 20
6.86792892
  0
VERTEX
  8
0
 10
4.50000000
 20
6.78701964
  0
SEQEND
  0
POLYLINE
  8
Default_Layer
 66
   1
 39
0.000000
 70
    1
  0
VERTEX
  8
0
 10
4.47222222
 20
6.62035297
  0
VERTEX
  8
0
 10
4.52785772
 20
6.62007805
  0
VERTEX
  8
0
 10
4.56944444
 20
6.63424186
  0
VERTEX
  8
0
 10
4.56941761
 20
6.67577799
  0
VERTEX
  8
0
 10
4.55504891
 20
6.70142712
  0
VERTEX
  8
0
 10
4.50504053
 20
6.71211138
  0
VERTEX
  8
0
 10
4.46292855
 20
6.68038866
  0
VERTEX
  8
0
 10
4.45843035
 20
6.65302906
  0
VERTEX
  8
0
 10
4.47222222
 20
6.62035297
  0
SEQEND
  0
POLYLINE
  8
Default_Layer
 66
   1
 39
0.000000
 70
    1
  0
VERTEX
  8
0
 10
3.18055556
 20
5.80090853
  0
VERTEX
  8
0
 10
3.13481622
 20
5.82461572
  0
VERTEX
  8
0
 10
3.08333333
 20
5.84257519
  0
VERTEX
  8
0
 10
3.03907074
 20
5.82348569
  0
VERTEX
  8
0
 10
3.00000000
 20
5.81479741
  0
VERTEX
  8
0
 10
3.02875171
 20
5.77305121
  0
VERTEX
  8
0
 10
3.07113029
 20
5.74879228
  0
VERTEX
  8
0
 10
3.11266594
 20
5.71934148
  0
VERTEX
  8
0
 10
3.13888889
 20
5.66201964
  0
VERTEX
  8
0
 10
3.18263185
 20
5.73361555
  0
VERTEX
  8
0
 10
3.20833333
 20
5.80090853
  0
VERTEX
  8
0
 10
3.24519168
 20
5.79586805
  0
VERTEX
  8
0
 10
3.26907299
 20
5.81025652
  0
VERTEX
  8
0
 10
3.29730670
 20
5.82344322
  0
VERTEX
  8
0
 10
3.34722222
 20
5.81479741
  0
VERTEX
  8
0
 10
3.33824784
 20
5.85390492
  0
VERTEX
  8
0
 10
3.32124487
 20
5.87639905
  0
VERTEX
  8
0
 10
3.29166667
 20
5.91201964
  0
VERTEX
  8
0
 10
3.22550980
 20
5.89744767
  0
VERTEX
  8
0
 10
3.16666667
 20
5.87035297
  0
VERTEX
  8
0
 10
3.16853092
 20
5.84791101
  0
VERTEX
  8
0
 10
3.18436709
 20
5.83944228
  0
VERTEX
  8
0
 10
3.20176972
 20
5.83254001
  0
VERTEX
  8
0
 10
3.20833333
 20
5.81479741
  0
VERTEX
  8
0
 10
3.18055556
 20
5.80090853
  0
SEQEND
  0
POLYLINE
  8
Default_Layer
 66
   1
 39
0.000000
 70
    1
  0
VERTEX
  8
0
 10
3.44444444
 20
4.99535297
  0
VERTEX
  8
0
 10
3.46874459
 20
4.98509537
  0
VERTEX
  8
0
 10
3.48082577
 20
4.96089524
  0
VERTEX
  8
0
 10
3.47818851
 20
4.93656286
  0
VERTEX
  8
0
 10
3.45833333
 20
4.92590853
  0
VERTEX
  8
0
 10
3.36647282
 20
5.11910010
  0
VERTEX
  8
0
 10
3.32264166
 20
5.22138365
  0
VERTEX
  8
0
 10
3.29166667
 20
5.34257519
  0
VERTEX
  8
0
 10
3.24469435
 20
5.34421659
  0
VERTEX
  8
0
 10
3.22222222
 20
5.37035297
  0
VERTEX
  8
0
 10
3.30716327
 20
5.44235357
  0
VERTEX
  8
0
 10
3.34486317
 20
5.48162497
  0
VERTEX
  8
0
 10
3.38888889
 20
5.55090853
  0
VERTEX
  8
0
 10
3.38355858
 20
5.69229124
  0
VERTEX
  8
0
 10
3.37030386
 20
5.76381236
  0
VERTEX
  8
0
 10
3.34722222
 20
5.80090853
  0
VERTEX
  8
0
 10
3.27704455
 20
5.77503634
  0
VERTEX
  8
0
 10
3.20502056
 20
5.71455079
  0
VERTEX
  8
0
 10
3.16243074
 20
5.62779966
  0
VERTEX
  8
0
 10
3.16194879
 20
5.57718319
  0
VERTEX
  8
0
 10
3.18055556
 20
5.52313075
  0
VERTEX
  8
0
 10
3.24877625
 20
5.54792881
  0
VERTEX
  8
0
 10
3.28941692
 20
5.58575999
  0
VERTEX
  8
0
 10
3.34722222
 20
5.70368630
  0
VERTEX
  8
0
 10
3.35080870
 20
5.63920329
  0
VERTEX
  8
0
 10
3.33122022
 20
5.58253152
  0
VERTEX
  8
0
 10
3.29185496
 20
5.53435381
  0
VERTEX
  8
0
 10
3.23611111
 20
5.49535297
  0
VERTEX
  8
0
 10
3.24870752
 20
5.48939422
  0
VERTEX
  8
0
 10
3.25290633
 20
5.46747874
  0
VERTEX
  8
0
 10
3.24870752
 20
5.44561149
  0
VERTEX
  8
0
 10
3.23611111
 20
5.43979741
  0
VERTEX
  8
0
 10
3.20623606
 20
5.45853282
  0
VERTEX
  8
0
 10
3.18847004
 20
5.48937857
  0
VERTEX
  8
0
 10
3.16674678
 20
5.51626707
  0
VERTEX
  8
0
 10
3.12500000
 20
5.52313075
  0
VERTEX
  8
0
 10
3.11082708
 20
5.49035468
  0
VERTEX
  8
0
 10
3.08656525
 20
5.47578669
  0
VERTEX
  8
0
 10
3.02216258
 20
5.49053239
  0
VERTEX
  8
0
 10
2.96056751
 20
5.54588282
  0
VERTEX
  8
0
 10
2.93055556
 20
5.62035297
  0
VERTEX
  8
0
 10
2.97163990
 20
5.59546737
  0
VERTEX
  8
0
 10
3.00487195
 20
5.56272753
  0
VERTEX
  8
0
 10
3.03914025
 20
5.53102262
  0
VERTEX
  8
0
 10
3.08333333
 20
5.50924186
  0
VERTEX
  8
0
 10
3.11600776
 20
5.57414604
  0
VERTEX
  8
0
 10
3.10642976
 20
5.63397423
  0
VERTEX
  8
0
 10
3.06794244
 20
5.68699179
  0
VERTEX
  8
0
 10
3.01388889
 20
5.73146408
  0
VERTEX
  8
0
 10
3.00545357
 20
5.71624643
  0
VERTEX
  8
0
 10
2.98842820
 20
5.71688951
  0
VERTEX
  8
0
 10
2.95833333
 20
5.73146408
  0
VERTEX
  8
0
 10
2.91083115
 20
5.67088751
  0
VERTEX
  8
0
 10
2.88680034
 20
5.61535164
  0
VERTEX
  8
0
 10
2.88228332
 20
5.56354944
  0
VERTEX
  8
0
 10
2.89332247
 20
5.51417388
  0
VERTEX
  8
0
 10
2.94623893
 20
5.41747456
  0
VERTEX
  8
0
 10
3.01388889
 20
5.31479741
  0
VERTEX
  8
0
 10
3.09918914
 20
5.30967596
  0
VERTEX
  8
0
 10
3.13279878
 20
5.30606961
  0
VERTEX
  8
0
 10
3.16666667
 20
5.31479741
  0
VERTEX
  8
0
 10
3.19613081
 20
5.24663291
  0
VERTEX
  8
0
 10
3.22222222
 20
5.20368630
  0
VERTEX
  8
0
 10
3.22088636
 20
5.19235096
  0
VERTEX
  8
0
 10
3.23611111
 20
5.17590853
  0
VERTEX
  8
0
 10
3.26388889
 20
5.10646408
  0
VERTEX
  8
0
 10
3.30555556
 20
5.00924186
  0
VERTEX
  8
0
 10
3.35629053
 20
4.88705652
  0
VERTEX
  8
0
 10
3.38502833
 20
4.84330858
  0
VERTEX
  8
0
 10
3.44444444
 20
4.81479741
  0
VERTEX
  8
0
 10
3.50000000
 20
4.84257519
  0
VERTEX
  8
0
 10
3.50452525
 20
4.97936138
  0
VERTEX
  8
0
 10
3.48468997
 20
5.02648684
  0
VERTEX
  8
0
 10
3.44444444
 20
5.03701964
  0
VERTEX
  8
0
 10
3.45606466
 20
5.01893308
  0
VERTEX
  8
0
 10
3.44444444
 20
4.99535297
  0
SEQEND
  0
POLYLINE
  8
Default_Layer
 66
   1
 39
0.000000
 70
    1
  0
VERTEX
  8
0
 10
5.79166667
 20
5.31479741
  0
VERTEX
  8
0
 10
5.83088406
 20
5.30486646
  0
VERTEX
  8
0
 10
5.87474747
 20
5.31115912
  0
VERTEX
  8
0
 10
5.92220937
 20
5.31579871
  0
VERTEX
  8
0
 10
5.97222222
 20
5.30090853
  0
VERTEX
  8
0
 10
5.84741362
 20
5.27514350
  0
VERTEX
  8
0
 10
5.75000000
 20
5.23146408
  0
VERTEX
  8
0
 10
5.75053081
 20
5.21233274
  0
VERTEX
  8
0
 10
5.76388889
 20
5.18979741
  0
VERTEX
  8
0
 10
5.77466121
 20
5.15786624
  0
VERTEX
  8
0
 10
5.79026640
 20
5.14936572
  0
VERTEX
  8
0
 10
5.84722222
 20
5.16201964
  0
VERTEX
  8
0
 10
5.91980858
 20
5.16096086
  0
VERTEX
  8
0
 10
5.97222222
 20
5.13424186
  0
VERTEX
  8
0
 10
5.87532964
 20
5.13024621
  0
VERTEX
  8
0
 10
5.79328775
 20
5.10577145
  0
VERTEX
  8
0
 10
5.76487745
 20
5.08368179
  0
VERTEX
  8
0
 10
5.74862977
 20
5.05386522
  0
VERTEX
  8
0
 10
5.74736136
 20
5.01545271
  0
VERTEX
  8
0
 10
5.76388889
 20
4.96757519
  0
VERTEX
  8
0
 10
5.83323688
 20
4.94934211
  0
VERTEX
  8
0
 10
5.86246460
 20
4.94466711
  0
VERTEX
  8
0
 10
5.90277778
 20
4.95368630
  0
VERTEX
  8
0
 10
5.89637784
 20
4.98477814
  0
VERTEX
  8
0
 10
5.87835841
 20
4.98742718
  0
VERTEX
  8
0
 10
5.86213200
 20
4.99056690
  0
VERTEX
  8
0
 10
5.86111111
 20
5.02313075
  0
VERTEX
  8
0
 10
5.88821139
 20
5.01090485
  0
VERTEX
  8
0
 10
5.91494556
 20
5.01446833
  0
VERTEX
  8
0
 10
5.93906807
 20
5.01541857
  0
VERTEX
  8
0
 10
5.95833333
 20
4.99535297
  0
VERTEX
  8
0
 10
5.94294248
 20
4.97037736
  0
VERTEX
  8
0
 10
5.95037213
 20
4.94210843
  0
VERTEX
  8
0
 10
5.98611111
 20
4.89813075
  0
VERTEX
  8
0
 10
6.02602994
 20
4.90596572
  0
VERTEX
  8
0
 10
6.08333333
 20
4.91201964
  0
VERTEX
  8
0
 10
6.12412890
 20
4.84649176
  0
VERTEX
  8
0
 10
6.14590787
 20
4.83681117
  0
VERTEX
  8
0
 10
6.15277778
 20
4.85646408
  0
VERTEX
  8
0
 10
6.35839018
 20
4.65650999
  0
VERTEX
  8
0
 10
6.56944444
 20
4.49535297
  0
VERTEX
  8
0
 10
6.61111111
 20
4.52313075
  0
VERTEX
  8
0
 10
6.63635674
 20
4.69188773
  0
VERTEX
  8
0
 10
6.63978237
 20
4.89117197
  0
VERTEX
  8
0
 10
6.61111111
 20
5.28701964
  0
VERTEX
  8
0
 10
6.54816535
 20
5.28223621
  0
VERTEX
  8
0
 10
6.50000000
 20
5.28701964
  0
VERTEX
  8
0
 10
6.52988688
 20
5.02388846
  0
VERTEX
  8
0
 10
6.54166667
 20
4.71757519
  0
VERTEX
  8
0
 10
6.44575305
 20
4.75033614
  0
VERTEX
  8
0
 10
6.37221292
 20
4.80267527
  0
VERTEX
  8
0
 10
6.31048300
 20
4.85760325
  0
VERTEX
  8
0
 10
6.25000000
 20
4.89813075
  0
VERTEX
  8
0
 10
6.25870824
 20
4.89209662
  0
VERTEX
  8
0
 10
6.25000000
 20
4.88424186
  0
VERTEX
  8
0
 10
6.19783532
 20
4.94506364
  0
VERTEX
  8
0
 10
6.12500000
 20
4.96757519
  0
VERTEX
  8
0
 10
6.17577126
 20
5.06113460
  0
VERTEX
  8
0
 10
6.20280338
 20
5.18386711
  0
VERTEX
  8
0
 10
6.19787825
 20
5.30956477
  0
VERTEX
  8
0
 10
6.15277778
 20
5.41201964
  0
VERTEX
  8
0
 10
6.05942365
 20
5.42675739
  0
VERTEX
  8
0
 10
5.95738220
 20
5.42617996
  0
VERTEX
  8
0
 10
5.86623298
 20
5.40810570
  0
VERTEX
  8
0
 10
5.80555556
 20
5.37035297
  0
VERTEX
  8
0
 10
5.81803769
 20
5.36139324
  0
VERTEX
  8
0
 10
5.80701883
 20
5.35098551
  0
VERTEX
  8
0
 10
5.79179611
 20
5.33637262
  0
VERTEX
  8
0
 10
5.79166667
 20
5.31479741
  0
SEQEND
  0
POLYLINE
  8
Default_Layer
 66
   1
 39
0.000000
 70
    1
  0
VERTEX
  8
0
 10
3.55555556
 20
4.73146408
  0
VERTEX
  8
0
 10
3.84902577
 20
4.70286054
  0
VERTEX
  8
0
 10
4.11987247
 20
4.66668360
  0
VERTEX
  8
0
 10
4.38633849
 20
4.63859135
  0
VERTEX
  8
0
 10
4.66666667
 20
4.63424186
  0
VERTEX
  8
0
 10
4.67019359
 20
4.65834641
  0
VERTEX
  8
0
 10
4.68351327
 20
4.67275530
  0
VERTEX
  8
0
 10
4.69535409
 20
4.68874081
  0
VERTEX
  8
0
 10
4.69444444
 20
4.71757519
  0
VERTEX
  8
0
 10
4.66500789
 20
4.73674714
  0
VERTEX
  8
0
 10
4.65277778
 20
4.77313075
  0
VERTEX
  8
0
 10
4.61076071
 20
4.76638877
  0
VERTEX
  8
0
 10
4.58629018
 20
4.74219801
  0
VERTEX
  8
0
 10
4.56381345
 20
4.71611251
  0
VERTEX
  8
0
 10
4.52777778
 20
4.70368630
  0
VERTEX
  8
0
 10
4.43867146
 20
4.73210075
  0
VERTEX
  8
0
 10
4.34832716
 20
4.77991433
  0
VERTEX
  8
0
 10
4.25395817
 20
4.83128057
  0
VERTEX
  8
0
 10
4.15277778
 20
4.87035297
  0
VERTEX
  8
0
 10
4.04166667
 20
4.87035297
  0
VERTEX
  8
0
 10
3.95014765
 20
4.90507041
  0
VERTEX
  8
0
 10
3.86111111
 20
4.93979741
  0
VERTEX
  8
0
 10
3.71902664
 20
4.94115096
  0
VERTEX
  8
0
 10
3.56944444
 20
4.93979741
  0
VERTEX
  8
0
 10
3.57085333
 20
4.87772163
  0
VERTEX
  8
0
 10
3.56030511
 20
4.82093169
  0
VERTEX
  8
0
 10
3.55085433
 20
4.77149129
  0
VERTEX
  8
0
 10
3.55555556
 20
4.73146408
  0
SEQEND
  0
POLYLINE
  8
Default_Layer
 66
   1
 39
0.000000
 70
    1
  0
VERTEX
  8
0
 10
4.23611111
 20
4.85646408
  0
VERTEX
  8
0
 10
4.36975095
 20
4.80605930
  0
VERTEX
  8
0
 10
4.51388889
 20
4.73146408
  0
VERTEX
  8
0
 10
4.57207751
 20
4.76336034
  0
VERTEX
  8
0
 10
4.61111111
 20
4.81479741
  0
VERTEX
  8
0
 10
4.53799483
 20
4.85293940
  0
VERTEX
  8
0
 10
4.42179539
 20
4.88202284
  0
VERTEX
  8
0
 10
4.30650381
 20
4.88791023
  0
VERTEX
  8
0
 10
4.26294566
 20
4.87773744
  0
VERTEX
  8
0
 10
4.23611111
 20
4.85646408
  0
SEQEND
  0
POLYLINE
  8
Default_Layer
 66
   1
 39
0.000000
 70
    1
  0
VERTEX
  8
0
 10
5.98611111
 20
4.68979741
  0
VERTEX
  8
0
 10
6.06020064
 20
4.68226722
  0
VERTEX
  8
0
 10
6.12260221
 20
4.65450546
  0
VERTEX
  8
0
 10
6.22711067
 20
4.57015652
  0
VERTEX
  8
0
 10
6.32917491
 20
4.50048914
  0
VERTEX
  8
0
 10
6.38852120
 20
4.49107933
  0
VERTEX
  8
0
 10
6.45833333
 20
4.50924186
  0
VERTEX
  8
0
 10
6.25128220
 20
4.67899471
  0
VERTEX
  8
0
 10
6.04166667
 20
4.87035297
  0
VERTEX
  8
0
 10
6.01667681
 20
4.77709958
  0
VERTEX
  8
0
 10
5.98611111
 20
4.68979741
  0
SEQEND
  0
POLYLINE
  8
Default_Layer
 66
   1
 39
0.000000
 70
    1
  0
VERTEX
  8
0
 10
5.26388889
 20
4.74535297
  0
VERTEX
  8
0
 10
5.09999105
 20
4.80656294
  0
VERTEX
  8
0
 10
5.00215522
 20
4.81640934
  0
VERTEX
  8
0
 10
4.90277778
 20
4.80090853
  0
VERTEX
  8
0
 10
4.94462647
 20
4.71775669
  0
VERTEX
  8
0
 10
4.97309646
 20
4.68372857
  0
VERTEX
  8
0
 10
5.01388889
 20
4.66201964
  0
VERTEX
  8
0
 10
5.26388889
 20
4.74535297
  0
SEQEND
  0
POLYLINE
  8
Default_Layer
 66
   1
 39
0.000000
 70
    1
  0
VERTEX
  8
0
 10
4.83333333
 20
4.80090853
  0
VERTEX
  8
0
 10
4.74127490
 20
4.80249888
  0
VERTEX
  8
0
 10
4.69736353
 20
4.80131861
  0
VERTEX
  8
0
 10
4.66666667
 20
4.78701964
  0
VERTEX
  8
0
 10
4.69996783
 20
4.74129048
  0
VERTEX
  8
0
 10
4.76111865
 20
4.71830096
  0
VERTEX
  8
0
 10
4.81671015
 20
4.73314300
  0
VERTEX
  8
0
 10
4.83198084
 20
4.75946708
  0
VERTEX
  8
0
 10
4.83333333
 20
4.80090853
  0
SEQEND
  0
POLYLINE
  8
Default_Layer
 66
   1
 39
0.000000
 70
    1
  0
VERTEX
  8
0
 10
4.83333333
 20
4.59257519
  0
VERTEX
  8
0
 10
5.36108254
 20
4.52742041
  0
VERTEX
  8
0
 10
5.90277778
 20
4.46757519
  0
VERTEX
  8
0
 10
5.90850876
 20
4.55192909
  0
VERTEX
  8
0
 10
5.93055556
 20
4.62035297
  0
VERTEX
  8
0
 10
5.78129105
 20
4.67248204
  0
VERTEX
  8
0
 10
5.65277778
 20
4.74535297
  0
VERTEX
  8
0
 10
5.56694437
 20
4.72233354
  0
VERTEX
  8
0
 10
5.48181883
 20
4.72237666
  0
VERTEX
  8
0
 10
5.31944444
 20
4.73146408
  0
VERTEX
  8
0
 10
5.23465205
 20
4.71106405
  0
VERTEX
  8
0
 10
5.15393758
 20
4.67775652
  0
VERTEX
  8
0
 10
5.07264320
 20
4.64699721
  0
VERTEX
  8
0
 10
4.98611111
 20
4.63424186
  0
VERTEX
  8
0
 10
4.95058291
 20
4.66468654
  0
VERTEX
  8
0
 10
4.92351466
 20
4.70358985
  0
VERTEX
  8
0
 10
4.89649463
 20
4.74254140
  0
VERTEX
  8
0
 10
4.86111111
 20
4.77313075
  0
VERTEX
  8
0
 10
4.81699452
 20
4.68682579
  0
VERTEX
  8
0
 10
4.81053018
 20
4.64467111
  0
VERTEX
  8
0
 10
4.83333333
 20
4.59257519
  0
SEQEND
  0
POLYLINE
  8
Default_Layer
 66
   1
 39
0.000000
 70
    1
  0
VERTEX
  8
0
 10
3.50000000
 20
4.20368630
  0
VERTEX
  8
0
 10
3.60921067
 20
4.20631937
  0
VERTEX
  8
0
 10
3.69444444
 20
4.18979741
  0
VERTEX
  8
0
 10
4.41657108
 20
4.12643673
  0
VERTEX
  8
0
 10
5.12500000
 20
4.05090853
  0
VERTEX
  8
0
 10
5.83333333
 20
3.98146408
  0
VERTEX
  8
0
 10
5.85944331
 20
4.21210096
  0
VERTEX
  8
0
 10
5.88888889
 20
4.43979741
  0
VERTEX
  8
0
 10
5.62969815
 20
4.46512425
  0
VERTEX
  8
0
 10
5.37714626
 20
4.49976624
  0
VERTEX
  8
0
 10
5.12352124
 20
4.52872937
  0
VERTEX
  8
0
 10
4.86111111
 20
4.53701964
  0
VERTEX
  8
0
 10
4.86798376
 20
4.48833412
  0
VERTEX
  8
0
 10
4.88888889
 20
4.45368630
  0
VERTEX
  8
0
 10
4.95833333
 20
4.43979741
  0
VERTEX
  8
0
 10
5.01341292
 20
4.43768343
  0
VERTEX
  8
0
 10
5.03453600
 20
4.43158074
  0
VERTEX
  8
0
 10
5.04166667
 20
4.41201964
  0
VERTEX
  8
0
 10
5.03827265
 20
4.36660964
  0
VERTEX
  8
0
 10
5.02777778
 20
4.32868630
  0
VERTEX
  8
0
 10
4.94454035
 20
4.32878482
  0
VERTEX
  8
0
 10
4.87500000
 20
4.34257519
  0
VERTEX
  8
0
 10
4.79301796
 20
4.27640322
  0
VERTEX
  8
0
 10
4.73611111
 20
4.21757519
  0
VERTEX
  8
0
 10
4.67897460
 20
4.24132905
  0
VERTEX
  8
0
 10
4.63536900
 20
4.28026017
  0
VERTEX
  8
0
 10
4.59352334
 20
4.32257102
  0
VERTEX
  8
0
 10
4.54166667
 20
4.35646408
  0
VERTEX
  8
0
 10
4.45271466
 20
4.37710982
  0
VERTEX
  8
0
 10
4.34722222
 20
4.39813075
  0
VERTEX
  8
0
 10
4.33484229
 20
4.42449101
  0
VERTEX
  8
0
 10
4.33841709
 20
4.45358985
  0
VERTEX
  8
0
 10
4.36111111
 20
4.50924186
  0
VERTEX
  8
0
 10
4.44803858
 20
4.49179504
  0
VERTEX
  8
0
 10
4.53555476
 20
4.50055999
  0
VERTEX
  8
0
 10
4.59834912
 20
4.53449921
  0
VERTEX
  8
0
 10
4.61256607
 20
4.56058495
  0
VERTEX
  8
0
 10
4.61111111
 20
4.59257519
  0
VERTEX
  8
0
 10
3.54166667
 20
4.70368630
  0
VERTEX
  8
0
 10
3.51810980
 20
4.45621954
  0
VERTEX
  8
0
 10
3.50000000
 20
4.20368630
  0
SEQEND
  0
POLYLINE
  8
Default_Layer
 66
   1
 39
0.000000
 70
    1
  0
VERTEX
  8
0
 10
4.72222222
 20
4.68979741
  0
VERTEX
  8
0
 10
4.68576837
 20
4.61499613
  0
VERTEX
  8
0
 10
4.63879244
 20
4.55081208
  0
VERTEX
  8
0
 10
4.59186473
 20
4.48667625
  0
VERTEX
  8
0
 10
4.55555556
 20
4.41201964
  0
VERTEX
  8
0
 10
4.60084478
 20
4.38241056
  0
VERTEX
  8
0
 10
4.63174122
 20
4.33763655
  0
VERTEX
  8
0
 10
4.66273927
 20
4.29533187
  0
VERTEX
  8
0
 10
4.70833333
 20
4.27313075
  0
VERTEX
  8
0
 10
4.75846419
 20
4.28158539
  0
VERTEX
  8
0
 10
4.80273220
 20
4.31322718
  0
VERTEX
  8
0
 10
4.87500000
 20
4.41201964
  0
VERTEX
  8
0
 10
4.81434157
 20
4.54900114
  0
VERTEX
  8
0
 10
4.79083840
 20
4.61993578
  0
VERTEX
  8
0
 10
4.79166667
 20
4.68979741
  0
VERTEX
  8
0
 10
4.72222222
 20
4.68979741
  0
SEQEND
  0
POLYLINE
  8
Default_Layer
 66
   1
 39
0.000000
 70
    1
  0
VERTEX
  8
0
 10
5.93055556
 20
4.45368630
  0
VERTEX
  8
0
 10
6.15591327
 20
4.34571069
  0
VERTEX
  8
0
 10
6.26741291
 20
4.29054365
  0
VERTEX
  8
0
 10
6.38888889
 20
4.24535297
  0
VERTEX
  8
0
 10
6.39666761
 20
4.33460357
  0
VERTEX
  8
0
 10
6.40277778
 20
4.42590853
  0
VERTEX
  8
0
 10
6.34076876
 20
4.44549787
  0
VERTEX
  8
0
 10
6.28966332
 20
4.47598981
  0
VERTEX
  8
0
 10
6.20105164
 20
4.55057128
  0
VERTEX
  8
0
 10
6.09871970
 20
4.61143248
  0
VERTEX
  8
0
 10
6.03046393
 20
4.62477409
  0
VERTEX
  8
0
 10
5.94444444
 20
4.62035297
  0
VERTEX
  8
0
 10
5.93351240
 20
4.54080912
  0
VERTEX
  8
0
 10
5.93055556
 20
4.45368630
  0
SEQEND
  0
POLYLINE
  8
Default_Layer
 66
   1
 39
0.000000
 70
    1
  0
VERTEX
  8
0
 10
5.86111111
 20
3.96757519
  0
VERTEX
  8
0
 10
6.31944444
 20
3.74535297
  0
VERTEX
  8
0
 10
6.34256327
 20
3.97899089
  0
VERTEX
  8
0
 10
6.37500000
 20
4.20368630
  0
VERTEX
  8
0
 10
5.91666667
 20
4.42590853
  0
VERTEX
  8
0
 10
5.89223567
 20
4.19320218
  0
VERTEX
  8
0
 10
5.86111111
 20
3.96757519
  0
SEQEND
  0
POLYLINE
  8
Default_Layer
 66
   1
 39
0.000000
 70
    1
  0
VERTEX
  8
0
 10
6.23611111
 20
3.74535297
  0
VERTEX
  8
0
 10
6.18055556
 20
3.74535297
  0
VERTEX
  8
0
 10
6.13434845
 20
3.79146835
  0
VERTEX
  8
0
 10
6.07482785
 20
3.82489367
  0
VERTEX
  8
0
 10
5.93055556
 20
3.88424186
  0
VERTEX
  8
0
 10
5.82103306
 20
3.93565374
  0
VERTEX
  8
0
 10
5.72222222
 20
3.96757519
  0
VERTEX
  8
0
 10
5.41666667
 20
3.99535297
  0
VERTEX
  8
0
 10
4.49608289
 20
4.09356381
  0
VERTEX
  8
0
 10
3.59722222
 20
4.16201964
  0
VERTEX
  8
0
 10
3.74786570
 20
4.05571867
  0
VERTEX
  8
0
 10
3.82723348
 20
4.00661292
  0
VERTEX
  8
0
 10
3.91666667
 20
3.96757519
  0
VERTEX
  8
0
 10
3.94448315
 20
3.98190177
  0
VERTEX
  8
0
 10
3.97011206
 20
4.00758569
  0
VERTEX
  8
0
 10
3.99332382
 20
4.02715325
  0
VERTEX
  8
0
 10
4.01388889
 20
4.02313075
  0
VERTEX
  8
0
 10
3.83333333
 20
3.75924186
  0
VERTEX
  8
0
 10
3.86384856
 20
3.70262438
  0
VERTEX
  8
0
 10
3.90219365
 20
3.66794159
  0
VERTEX
  8
0
 10
4.00000000
 20
3.62035297
  0
VERTEX
  8
0
 10
4.01379244
 20
3.66192319
  0
VERTEX
  8
0
 10
4.02777778
 20
3.70368630
  0
VERTEX
  8
0
 10
4.01795106
 20
3.71816579
  0
VERTEX
  8
0
 10
3.99990355
 20
3.72442319
  0
VERTEX
  8
0
 10
3.98190427
 20
3.73072881
  0
VERTEX
  8
0
 10
3.97222222
 20
3.74535297
  0
VERTEX
  8
0
 10
4.16666667
 20
3.77313075
  0
VERTEX
  8
0
 10
4.21548152
 20
3.74102091
  0
VERTEX
  8
0
 10
4.28361154
 20
3.72031555
  0
VERTEX
  8
0
 10
4.33840800
 20
3.69476779
  0
VERTEX
  8
0
 10
4.35060344
 20
3.67510086
  0
VERTEX
  8
0
 10
4.34722222
 20
3.64813075
  0
VERTEX
  8
0
 10
4.32043432
 20
3.65894402
  0
VERTEX
  8
0
 10
4.30405025
 20
3.68310878
  0
VERTEX
  8
0
 10
4.28841883
 20
3.70020118
  0
VERTEX
  8
0
 10
4.26388889
 20
3.68979741
  0
VERTEX
  8
0
 10
4.23655077
 20
3.64749819
  0
VERTEX
  8
0
 10
4.22222222
 20
3.59257519
  0
VERTEX
  8
0
 10
4.28362289
 20
3.57671362
  0
VERTEX
  8
0
 10
4.34999626
 20
3.58059402
  0
VERTEX
  8
0
 10
4.44444444
 20
3.60646408
  0
VERTEX
  8
0
 10
4.45459535
 20
3.68248343
  0
VERTEX
  8
0
 10
4.44553289
 20
3.76305635
  0
VERTEX
  8
0
 10
4.43592621
 20
3.84172202
  0
VERTEX
  8
0
 10
4.44444444
 20
3.91201964
  0
VERTEX
  8
0
 10
4.62988977
 20
3.87176824
  0
VERTEX
  8
0
 10
4.83534348
 20
3.85152718
  0
VERTEX
  8
0
 10
5.25000000
 20
3.81479741
  0
VERTEX
  8
0
 10
5.29742612
 20
3.85386555
  0
VERTEX
  8
0
 10
5.32432962
 20
3.86623133
  0
VERTEX
  8
0
 10
5.34722222
 20
3.85646408
  0
VERTEX
  8
0
 10
5.29571032
 20
3.81750010
  0
VERTEX
  8
0
 10
5.27777778
 20
3.74535297
  0
VERTEX
  8
0
 10
5.23190843
 20
3.71330435
  0
VERTEX
  8
0
 10
5.20123445
 20
3.66920357
  0
VERTEX
  8
0
 10
5.18799880
 20
3.61456637
  0
VERTEX
  8
0
 10
5.19444444
 20
3.55090853
  0
VERTEX
  8
0
 10
5.26998081
 20
3.50144489
  0
VERTEX
  8
0
 10
5.30956449
 20
3.47852857
  0
VERTEX
  8
0
 10
5.36111111
 20
3.46757519
  0
VERTEX
  8
0
 10
5.37709053
 20
3.52084732
  0
VERTEX
  8
0
 10
5.38888889
 20
3.57868630
  0
VERTEX
  8
0
 10
5.33163654
 20
3.57698430
  0
VERTEX
  8
0
 10
5.30526343
 20
3.57839092
  0
VERTEX
  8
0
 10
5.29166667
 20
3.59257519
  0
VERTEX
  8
0
 10
5.39704238
 20
3.60836075
  0
VERTEX
  8
0
 10
5.50330667
 20
3.59916381
  0
VERTEX
  8
0
 10
5.59750097
 20
3.56931145
  0
VERTEX
  8
0
 10
5.66666667
 20
3.52313075
  0
VERTEX
  8
0
 10
5.58333333
 20
3.52313075
  0
VERTEX
  8
0
 10
5.57780459
 20
3.46899089
  0
VERTEX
  8
0
 10
5.58333333
 20
3.42590853
  0
VERTEX
  8
0
 10
5.67286608
 20
3.42200020
  0
VERTEX
  8
0
 10
5.73618715
 20
3.44322749
  0
VERTEX
  8
0
 10
5.77782824
 20
3.48526940
  0
VERTEX
  8
0
 10
5.80232108
 20
3.54380496
  0
VERTEX
  8
0
 10
5.81798893
 20
3.69307310
  0
VERTEX
  8
0
 10
5.81944444
 20
3.85646408
  0
VERTEX
  8
0
 10
5.84722222
 20
3.75924186
  0
VERTEX
  8
0
 10
6.05716449
 20
3.73880878
  0
VERTEX
  8
0
 10
6.15392000
 20
3.73393339
  0
VERTEX
  8
0
 10
6.23611111
 20
3.74535297
  0
SEQEND
  0
POLYLINE
  8
Default_Layer
 66
   1
 39
0.000000
 70
    1
  0
VERTEX
  8
0
 10
5.37500000
 20
2.95368630
  0
VERTEX
  8
0
 10
5.42045615
 20
2.99830982
  0
VERTEX
  8
0
 10
5.45833333
 20
3.05090853
  0
VERTEX
  8
0
 10
5.42272265
 20
3.07085339
  0
VERTEX
  8
0
 10
5.40277778
 20
3.10646408
  0
VERTEX
  8
0
 10
5.42296427
 20
3.22474187
  0
VERTEX
  8
0
 10
5.46446240
 20
3.32155201
  0
VERTEX
  8
0
 10
5.51331267
 20
3.42540151
  0
VERTEX
  8
0
 10
5.55555556
 20
3.56479741
  0
VERTEX
  8
0
 10
5.49243341
 20
3.57805947
  0
VERTEX
  8
0
 10
5.41666667
 20
3.57868630
  0
VERTEX
  8
0
 10
5.40576350
 20
3.49706343
  0
VERTEX
  8
0
 10
5.37462063
 20
3.41577998
  0
VERTEX
  8
0
 10
5.29534938
 20
3.25555131
  0
VERTEX
  8
0
 10
5.26908780
 20
3.17726605
  0
VERTEX
  8
0
 10
5.26632011
 20
3.10064014
  0
VERTEX
  8
0
 10
5.29797971
 20
3.02600356
  0
VERTEX
  8
0
 10
5.37500000
 20
2.95368630
  0
SEQEND
  0
POLYLINE
  8
Default_Layer
 66
   1
 39
0.000000
 70
    1
  0
VERTEX
  8
0
 10
4.22679815
 20
2.81559568
  0
VERTEX
  8
0
 10
4.25781843
 20
2.83707607
  0
VERTEX
  8
0
 10
4.27738434
 20
2.87021693
  0
VERTEX
  8
0
 10
4.27860159
 20
2.90729717
  0
VERTEX
  8
0
 10
4.25457593
 20
2.94059568
  0
VERTEX
  8
0
 10
4.22749465
 20
2.92934239
  0
VERTEX
  8
0
 10
4.21228712
 20
2.90630791
  0
VERTEX
  8
0
 10
4.19391843
 20
2.88652842
  0
VERTEX
  8
0
 10
4.15735370
 20
2.88504012
  0
VERTEX
  8
0
 10
4.17921802
 20
2.83745999
  0
VERTEX
  8
0
 10
4.22679815
 20
2.81559568
  0
SEQEND
  0
POLYLINE
  8
Default_Layer
 66
   1
 39
0.000000
 70
    1
  0
VERTEX
  8
0
 10
4.17124259
 20
3.02392901
  0
VERTEX
  8
0
 10
4.13808573
 20
2.98049940
  0
VERTEX
  8
0
 10
4.08790926
 20
2.95448457
  0
VERTEX
  8
0
 10
4.10120427
 20
2.91222014
  0
VERTEX
  8
0
 10
4.12455072
 20
2.89427737
  0
VERTEX
  8
0
 10
4.15251171
 20
2.89577329
  0
VERTEX
  8
0
 10
4.17965031
 20
2.91182492
  0
VERTEX
  8
0
 10
4.20971270
 20
2.96806340
  0
VERTEX
  8
0
 10
4.20176267
 20
2.99848430
  0
VERTEX
  8
0
 10
4.17124259
 20
3.02392901
  0
SEQEND
  0
POLYLINE
  8
Default_Layer
 66
   1
 39
0.000000
 70
    1
  0
VERTEX
  8
0
 10
4.29624259
 20
2.85726234
  0
VERTEX
  8
0
 10
4.26089823
 20
2.81603013
  0
VERTEX
  8
0
 10
4.21290926
 20
2.78781790
  0
VERTEX
  8
0
 10
4.27288929
 20
2.73614244
  0
VERTEX
  8
0
 10
4.33691923
 20
2.66716207
  0
VERTEX
  8
0
 10
4.40491641
 20
2.62725962
  0
VERTEX
  8
0
 10
4.44037688
 20
2.63270724
  0
VERTEX
  8
0
 10
4.47679815
 20
2.66281790
  0
VERTEX
  8
0
 10
4.45660717
 20
2.71431051
  0
VERTEX
  8
0
 10
4.41198277
 20
2.76816294
  0
VERTEX
  8
0
 10
4.29624259
 20
2.85726234
  0
SEQEND
  0
POLYLINE
  8
Default_Layer
 66
   1
 39
0.000000
 70
    1
  0
VERTEX
  8
0
 10
4.01388889
 20
2.64813075
  0
VERTEX
  8
0
 10
3.96719678
 20
2.67088517
  0
VERTEX
  8
0
 10
3.90277778
 20
2.67590853
  0
VERTEX
  8
0
 10
3.90006811
 20
2.62478302
  0
VERTEX
  8
0
 10
3.93636084
 20
2.59616277
  0
VERTEX
  8
0
 10
3.98363981
 20
2.60047095
  0
VERTEX
  8
0
 10
4.01388889
 20
2.64813075
  0
SEQEND
  0
POLYLINE
  8
Default_Layer
 66
   1
 39
0.000000
 70
    1
  0
VERTEX
  8
0
 10
5.45833333
 20
2.46757519
  0
VERTEX
  8
0
 10
5.44971942
 20
2.50062794
  0
VERTEX
  8
0
 10
5.42546779
 20
2.51804298
  0
VERTEX
  8
0
 10
5.34722222
 20
2.52313075
  0
VERTEX
  8
0
 10
5.33838209
 20
2.48312571
  0
VERTEX
  8
0
 10
5.36761154
 20
2.45876225
  0
VERTEX
  8
0
 10
5.41442410
 20
2.45269415
  0
VERTEX
  8
0
 10
5.45833333
 20
2.46757519
  0
SEQEND
  0
POLYLINE
  8
Default_Layer
 66
   1
 39
0.000000
 70
    1
  0
VERTEX
  8
0
 10
5.93055556
 20
7.31479741
  0
VERTEX
  8
0
 10
5.93841032
 20
7.32350565
  0
VERTEX
  8
0
 10
5.94444444
 20
7.31479741
  0
VERTEX
  8
0
 10
5.95542785
 20
7.31751260
  0
VERTEX
  8
0
 10
5.95833333
 20
7.32868630
  0
VERTEX
  8
0
 10
5.97370392
 20
7.31513914
  0
VERTEX
  8
0
 10
5.96500841
 20
7.30463187
  0
VERTEX
  8
0
 10
5.94603092
 20
7.30267959
  0
VERTEX
  8
0
 10
5.93055556
 20
7.31479741
  0
SEQEND
  0
POLYLINE
  8
Default_Layer
 66
   1
 39
0.000000
 70
    1
  0
VERTEX
  8
0
 10
6.25000000
 20
6.59257519
  0
VERTEX
  8
0
 10
6.28242269
 20
6.59375179
  0
VERTEX
  8
0
 10
6.29748358
 20
6.57756399
  0
VERTEX
  8
0
 10
6.31944444
 20
6.53701964
  0
VERTEX
  8
0
 10
6.30338333
 20
6.53054270
  0
VERTEX
  8
0
 10
6.27867525
 20
6.54153326
  0
VERTEX
  8
0
 10
6.25699066
 20
6.56415589
  0
VERTEX
  8
0
 10
6.25000000
 20
6.59257519
  0
SEQEND
  0
POLYLINE
  8
Default_Layer
 66
   1
 39
0.000000
 70
    1
  0
VERTEX
  8
0
 10
3.88888889
 20
6.27313075
  0
VERTEX
  8
0
 10
3.84776726
 20
6.22378169
  0
VERTEX
  8
0
 10
3.79166667
 20
6.18979741
  0
VERTEX
  8
0
 10
3.83253046
 20
6.04316121
  0
VERTEX
  8
0
 10
3.85929257
 20
5.97617332
  0
VERTEX
  8
0
 10
3.90277778
 20
5.92590853
  0
VERTEX
  8
0
 10
3.96972612
 20
5.99765617
  0
VERTEX
  8
0
 10
4.00378083
 20
6.03309478
  0
VERTEX
  8
0
 10
4.02777778
 20
6.07868630
  0
VERTEX
  8
0
 10
3.98898589
 20
6.12322775
  0
VERTEX
  8
0
 10
3.96189157
 20
6.17946676
  0
VERTEX
  8
0
 10
3.93301814
 20
6.23392666
  0
VERTEX
  8
0
 10
3.88888889
 20
6.27313075
  0
SEQEND
  0
POLYLINE
  8
Default_Layer
 66
   1
 39
0.000000
 70
    1
  0
VERTEX
  8
0
 10
5.91666667
 20
6.17590853
  0
VERTEX
  8
0
 10
5.76388889
 20
5.99535297
  0
VERTEX
  8
0
 10
5.83865233
 20
5.91039419
  0
VERTEX
  8
0
 10
5.87981792
 20
5.87169802
  0
VERTEX
  8
0
 10
5.93055556
 20
5.84257519
  0
VERTEX
  8
0
 10
6.00455772
 20
5.96282197
  0
VERTEX
  8
0
 10
6.06944444
 20
6.09257519
  0
VERTEX
  8
0
 10
5.99987160
 20
6.14105791
  0
VERTEX
  8
0
 10
5.96356976
 20
6.16378254
  0
VERTEX
  8
0
 10
5.91666667
 20
6.17590853
  0
SEQEND
  0
POLYLINE
  8
Default_Layer
 66
   1
 39
0.000000
 70
    1
  0
VERTEX
  8
0
 10
3.90277778
 20
5.87035297
  0
VERTEX
  8
0
 10
3.97907890
 20
5.73832076
  0
VERTEX
  8
0
 10
4.02170505
 20
5.67678024
  0
VERTEX
  8
0
 10
4.08333333
 20
5.63424186
  0
VERTEX
  8
0
 10
4.14545633
 20
5.74553968
  0
VERTEX
  8
0
 10
4.22222222
 20
5.84257519
  0
VERTEX
  8
0
 10
4.14051726
 20
5.94837024
  0
VERTEX
  8
0
 10
4.04166667
 20
6.03701964
  0
VERTEX
  8
0
 10
3.96782265
 20
5.95789298
  0
VERTEX
  8
0
 10
3.92969003
 20
5.91968558
  0
VERTEX
  8
0
 10
3.90277778
 20
5.87035297
  0
SEQEND
  0
POLYLINE
  8
Default_Layer
 66
   1
 39
0.000000
 70
    1
  0
VERTEX
  8
0
 10
5.70833333
 20
5.96757519
  0
VERTEX
  8
0
 10
5.61977820
 20
5.88233152
  0
VERTEX
  8
0
 10
5.51388889
 20
5.81479741
  0
VERTEX
  8
0
 10
5.57884035
 20
5.67142076
  0
VERTEX
  8
0
 10
5.61335132
 20
5.60176375
  0
VERTEX
  8
0
 10
5.63888889
 20
5.52313075
  0
VERTEX
  8
0
 10
5.71647751
 20
5.57734124
  0
VERTEX
  8
0
 10
5.78285720
 20
5.64285843
  0
VERTEX
  8
0
 10
5.90277778
 20
5.78701964
  0
VERTEX
  8
0
 10
5.82359192
 20
5.89533117
  0
VERTEX
  8
0
 10
5.77199314
 20
5.93748402
  0
VERTEX
  8
0
 10
5.70833333
 20
5.96757519
  0
SEQEND
  0
POLYLINE
  8
Default_Layer
 66
   1
 39
0.000000
 70
    1
  0
VERTEX
  8
0
 10
4.25000000
 20
5.82868630
  0
VERTEX
  8
0
 10
4.08333333
 20
5.59257519
  0
VERTEX
  8
0
 10
4.20572091
 20
5.47885166
  0
VERTEX
  8
0
 10
4.27024967
 20
5.42532395
  0
VERTEX
  8
0
 10
4.34722222
 20
5.38424186
  0
VERTEX
  8
0
 10
4.47222222
 20
5.71757519
  0
VERTEX
  8
0
 10
4.41341965
 20
5.74210596
  0
VERTEX
  8
0
 10
4.36398497
 20
5.77600461
  0
VERTEX
  8
0
 10
4.31311336
 20
5.80846633
  0
VERTEX
  8
0
 10
4.25000000
 20
5.82868630
  0
SEQEND
  0
POLYLINE
  8
Default_Layer
 66
   1
 39
0.000000
 70
    1
  0
VERTEX
  8
0
 10
5.45833333
 20
5.78701964
  0
VERTEX
  8
0
 10
5.34734279
 20
5.72420878
  0
VERTEX
  8
0
 10
5.22222222
 20
5.67590853
  0
VERTEX
  8
0
 10
5.22641553
 20
5.47871294
  0
VERTEX
  8
0
 10
5.23611111
 20
5.28701964
  0
VERTEX
  8
0
 10
5.35214426
 20
5.32361796
  0
VERTEX
  8
0
 10
5.45391171
 20
5.37457909
  0
VERTEX
  8
0
 10
5.62500000
 20
5.50924186
  0
VERTEX
  8
0
 10
5.58475045
 20
5.58010179
  0
VERTEX
  8
0
 10
5.55259209
 20
5.65905357
  0
VERTEX
  8
0
 10
5.51497102
 20
5.73254394
  0
VERTEX
  8
0
 10
5.45833333
 20
5.78701964
  0
SEQEND
  0
POLYLINE
  8
Default_Layer
 66
   1
 39
0.000000
 70
    1
  0
VERTEX
  8
0
 10
4.37500000
 20
5.35646408
  0
VERTEX
  8
0
 10
4.54463480
 20
5.27609888
  0
VERTEX
  8
0
 10
4.75000000
 20
5.23146408
  0
VERTEX
  8
0
 10
4.79233966
 20
5.43544454
  0
VERTEX
  8
0
 10
4.80869290
 20
5.53846420
  0
VERTEX
  8
0
 10
4.80555556
 20
5.63424186
  0
VERTEX
  8
0
 10
4.73579504
 20
5.63616690
  0
VERTEX
  8
0
 10
4.65407247
 20
5.65291919
  0
VERTEX
  8
0
 10
4.50000000
 20
5.70368630
  0
VERTEX
  8
0
 10
4.37500000
 20
5.35646408
  0
SEQEND
  0
POLYLINE
  8
Default_Layer
 66
   1
 39
0.000000
 70
    1
  0
VERTEX
  8
0
 10
4.86111111
 20
5.62035297
  0
VERTEX
  8
0
 10
4.81967525
 20
5.42548742
  0
VERTEX
  8
0
 10
4.79166667
 20
5.21757519
  0
VERTEX
  8
0
 10
5.00105824
 20
5.22014819
  0
VERTEX
  8
0
 10
5.20833333
 20
5.27313075
  0
VERTEX
  8
0
 10
5.19820702
 20
5.37411568
  0
VERTEX
  8
0
 10
5.19755615
 20
5.48457787
  0
VERTEX
  8
0
 10
5.19187721
 20
5.59001095
  0
VERTEX
  8
0
 10
5.16666667
 20
5.67590853
  0
VERTEX
  8
0
 10
5.10425733
 20
5.64789411
  0
VERTEX
  8
0
 10
5.02937942
 20
5.63244732
  0
VERTEX
  8
0
 10
4.86111111
 20
5.62035297
  0
SEQEND
  0
POLYLINE
  8
Default_Layer
 66
   1
 39
0.000000
 70
    1
  0
VERTEX
  8
0
 10
6.12500000
 20
6.52313075
  0
VERTEX
  8
0
 10
6.19444444
 20
6.52313075
  0
VERTEX
  8
0
 10
6.19477733
 20
6.49568326
  0
VERTEX
  8
0
 10
6.20833333
 20
6.48146408
  0
VERTEX
  8
0
 10
6.16062438
 20
6.47903586
  0
VERTEX
  8
0
 10
6.13142740
 20
6.49414545
  0
VERTEX
  8
0
 10
6.12500000
 20
6.52313075
  0
SEQEND
  0
POLYLINE
  8
Default_Layer
 66
   1
 39
0.000000
 70
    1
  0
VERTEX
  8
0
 10
4.30555556
 20
5.17590853
  0
VERTEX
  8
0
 10
4.34059570
 20
5.17086030
  0
VERTEX
  8
0
 10
4.36314539
 20
5.15149662
  0
VERTEX
  8
0
 10
4.41666667
 20
5.10646408
  0
VERTEX
  8
0
 10
4.50208810
 20
5.08940361
  0
VERTEX
  8
0
 10
4.59991414
 20
5.08801780
  0
VERTEX
  8
0
 10
4.70333866
 20
5.08891069
  0
VERTEX
  8
0
 10
4.80555556
 20
5.07868630
  0
VERTEX
  8
0
 10
4.86595546
 20
5.04427440
  0
VERTEX
  8
0
 10
4.93055556
 20
5.00924186
  0
VERTEX
  8
0
 10
5.02643179
 20
5.00238840
  0
VERTEX
  8
0
 10
5.11431744
 20
5.01844333
  0
VERTEX
  8
0
 10
5.26388889
 20
5.09257519
  0
VERTEX
  8
0
 10
5.27948903
 20
5.07703755
  0
VERTEX
  8
0
 10
5.25412022
 20
5.05433005
  0
VERTEX
  8
0
 10
5.15277778
 20
5.01175562
  0
VERTEX
  8
0
 10
5.05890966
 20
4.98957822
  0
VERTEX
  8
0
 10
4.99114627
 20
4.98581213
  0
VERTEX
  8
0
 10
4.91666667
 20
4.99535297
  0
VERTEX
  8
0
 10
4.83333333
 20
5.05090853
  0
VERTEX
  8
0
 10
4.72774316
 20
5.06939055
  0
VERTEX
  8
0
 10
4.61438792
 20
5.07168343
  0
VERTEX
  8
0
 10
4.50633873
 20
5.07400552
  0
VERTEX
  8
0
 10
4.41666667
 20
5.09257519
  0
VERTEX
  8
0
 10
4.35446101
 20
5.14118708
  0
VERTEX
  8
0
 10
4.30555556
 20
5.17590853
  0
SEQEND
  0
POLYLINE
  8
Default_Layer
 66
   1
 39
0.000000
 70
    0
  0
VERTEX
  8
0
 10
3.73611111
 20
6.45368630
  0
VERTEX
  8
0
 10
3.76325685
 20
6.34888760
  0
VERTEX
  8
0
 10
3.77777778
 20
6.23146408
  0
VERTEX
  8
0
 10
3.81710620
 20
6.23713052
  0
VERTEX
  8
0
 10
3.84129886
 20
6.25802787
  0
VERTEX
  8
0
 10
3.86150876
 20
6.28300444
  0
VERTEX
  8
0
 10
3.88888889
 20
6.30090853
  0
VERTEX
  8
0
 10
3.85151917
 20
6.39548326
  0
VERTEX
  8
0
 10
3.81944444
 20
6.49535297
  0
VERTEX
  8
0
 10
3.77167661
 20
6.48641745
  0
VERTEX
  8
0
 10
3.73311977
 20
6.46241515
  0
SEQEND
  0
POLYLINE
  8
Default_Layer
 66
   1
 39
0.000000
 70
    1
  0
VERTEX
  8
0
 10
5.95833333
 20
6.24217917
  0
VERTEX
  8
0
 10
5.94962549
 20
6.22347880
  0
VERTEX
  8
0
 10
5.95620096
 20
6.20185647
  0
VERTEX
  8
0
 10
6.01002547
 20
6.16221202
  0
VERTEX
  8
0
 10
6.06944444
 20
6.12035297
  0
VERTEX
  8
0
 10
6.10665373
 20
6.16980815
  0
VERTEX
  8
0
 10
6.13043740
 20
6.23278083
  0
VERTEX
  8
0
 10
6.15150238
 20
6.29856735
  0
VERTEX
  8
0
 10
6.18055556
 20
6.35646408
  0
VERTEX
  8
0
 10
6.13758376
 20
6.38988117
  0
VERTEX
  8
0
 10
6.06944444
 20
6.39813075
  0
VERTEX
  8
0
 10
6.03092042
 20
6.34184826
  0
VERTEX
  8
0
 10
5.99446265
 20
6.28372061
  0
VERTEX
  8
0
 10
5.95833333
 20
6.24217917
  0
SEQEND
  0
POLYLINE
  8
Default_Layer
 66
   1
 39
0.000000
 70
    1
  0
VERTEX
  8
0
 10
5.19289031
 20
5.21095334
  0
VERTEX
  8
0
 10
5.02231694
 20
5.16898969
  0
VERTEX
  8
0
 10
4.80555556
 20
5.16201964
  0
VERTEX
  8
0
 10
4.65243617
 20
5.19342825
  0
VERTEX
  8
0
 10
4.50000000
 20
5.23146408
  0
VERTEX
  8
0
 10
4.45833333
 20
5.25924186
  0
VERTEX
  8
0
 10
4.33333333
 20
5.31479741
  0
VERTEX
  8
0
 10
4.29166667
 20
5.34257519
  0
VERTEX
  8
0
 10
4.27777778
 20
5.35646408
  0
VERTEX
  8
0
 10
4.25886136
 20
5.37220669
  0
VERTEX
  8
0
 10
4.09839855
 20
5.51677645
  0
VERTEX
  8
0
 10
3.98611111
 20
5.66201964
  0
VERTEX
  8
0
 10
3.93529519
 20
5.73241201
  0
VERTEX
  8
0
 10
3.87500000
 20
5.85646408
  0
VERTEX
  8
0
 10
3.81414262
 20
5.96596816
  0
VERTEX
  8
0
 10
3.76704635
 20
6.10745389
  0
VERTEX
  8
0
 10
3.73996659
 20
6.24344266
  0
VERTEX
  8
0
 10
3.70458375
 20
6.45368630
  0
VERTEX
  8
0
 10
3.70421524
 20
6.47546878
  0
VERTEX
  8
0
 10
3.72233840
 20
6.50252978
  0
VERTEX
  8
0
 10
3.75596101
 20
6.51965800
  0
VERTEX
  8
0
 10
3.86111111
 20
6.53701964
  0
VERTEX
  8
0
 10
3.87233788
 20
6.44701655
  0
VERTEX
  8
0
 10
3.90733150
 20
6.33778655
  0
VERTEX
  8
0
 10
3.96435381
 20
6.22053421
  0
VERTEX
  8
0
 10
4.04166667
 20
6.10646408
  0
VERTEX
  8
0
 10
4.08333333
 20
6.05090853
  0
VERTEX
  8
0
 10
4.15647671
 20
5.95708714
  0
VERTEX
  8
0
 10
4.23864382
 20
5.88594576
  0
VERTEX
  8
0
 10
4.38888889
 20
5.78701964
  0
VERTEX
  8
0
 10
4.56948058
 20
5.70146797
  0
VERTEX
  8
0
 10
4.77777778
 20
5.66201964
  0
VERTEX
  8
0
 10
5.03908502
 20
5.67408415
  0
VERTEX
  8
0
 10
5.28907629
 20
5.73985235
  0
VERTEX
  8
0
 10
5.51605720
 20
5.85003753
  0
VERTEX
  8
0
 10
5.70833333
 20
5.99535297
  0
VERTEX
  8
0
 10
5.87500000
 20
6.17590853
  0
VERTEX
  8
0
 10
5.90995899
 20
6.21329154
  0
VERTEX
  8
0
 10
5.98407382
 20
6.32680782
  0
VERTEX
  8
0
 10
6.04079132
 20
6.43704686
  0
VERTEX
  8
0
 10
6.14738112
 20
6.41884780
  0
VERTEX
  8
0
 10
6.23664204
 20
6.37756042
  0
VERTEX
  8
0
 10
6.22222222
 20
6.35646408
  0
VERTEX
  8
0
 10
6.18200626
 20
6.26353760
  0
VERTEX
  8
0
 10
6.15277778
 20
6.16201964
  0
VERTEX
  8
0
 10
6.11430782
 20
6.08946306
  0
VERTEX
  8
0
 10
6.11111111
 20
6.07868630
  0
VERTEX
  8
0
 10
6.05555556
 20
5.96757519
  0
VERTEX
  8
0
 10
6.01388889
 20
5.88424186
  0
VERTEX
  8
0
 10
5.92552803
 20
5.75924186
  0
VERTEX
  8
0
 10
5.86460770
 20
5.67610379
  0
VERTEX
  8
0
 10
5.78259531
 20
5.59009767
  0
VERTEX
  8
0
 10
5.61111111
 20
5.43979741
  0
VERTEX
  8
0
 10
5.47928643
 20
5.34699010
  0
VERTEX
  8
0
 10
5.33333333
 20
5.26649526
  0
VERTEX
  8
0
 10
5.25881923
 20
5.23335994
  0
VERTEX
  8
0
 10
5.20411886
 20
5.21392783
  0
VERTEX
  8
0
 10
5.19289031
 20
5.21095334
  0
SEQEND
  0
POLYLINE
  8
Default_Layer
 66
   1
 39
0.000000
 70
    1
  0
VERTEX
  8
0
 10
5.53114598
 20
2.79284542
  0
VERTEX
  8
0
 10
5.56216626
 20
2.81432582
  0
VERTEX
  8
0
 10
5.58173216
 20
2.84746668
  0
VERTEX
  8
0
 10
5.58294942
 20
2.88454691
  0
VERTEX
  8
0
 10
5.55892375
 20
2.91784542
  0
VERTEX
  8
0
 10
5.53184247
 20
2.90659214
  0
VERTEX
  8
0
 10
5.51663494
 20
2.88355765
  0
VERTEX
  8
0
 10
5.49826626
 20
2.86377816
  0
VERTEX
  8
0
 10
5.46170153
 20
2.86228987
  0
VERTEX
  8
0
 10
5.48356584
 20
2.81470974
  0
VERTEX
  8
0
 10
5.53114598
 20
2.79284542
  0
SEQEND
  0
POLYLINE
  8
Default_Layer
 66
   1
 39
0.000000
 70
    1
  0
VERTEX
  8
0
 10
5.47559042
 20
3.00117876
  0
VERTEX
  8
0
 10
5.44243355
 20
2.95774915
  0
VERTEX
  8
0
 10
5.39225709
 20
2.93173431
  0
VERTEX
  8
0
 10
5.40555210
 20
2.88946989
  0
VERTEX
  8
0
 10
5.42889855
 20
2.87152712
  0
VERTEX
  8
0
 10
5.45685953
 20
2.87302304
  0
VERTEX
  8
0
 10
5.48399814
 20
2.88907467
  0
VERTEX
  8
0
 10
5.51406053
 20
2.94531315
  0
VERTEX
  8
0
 10
5.50611049
 20
2.97573405
  0
VERTEX
  8
0
 10
5.47559042
 20
3.00117876
  0
SEQEND
  0
POLYLINE
  8
Default_Layer
 66
   1
 39
0.000000
 70
    1
  0
VERTEX
  8
0
 10
4.04964324
 20
6.79057790
  0
VERTEX
  8
0
 10
4.06475068
 20
6.85543156
  0
VERTEX
  8
0
 10
4.08081957
 20
6.90315827
  0
VERTEX
  8
0
 10
4.09058673
 20
6.92590853
  0
VERTEX
  8
0
 10
4.11758631
 20
7.00056127
  0
VERTEX
  8
0
 10
4.18136460
 20
7.09313881
  0
VERTEX
  8
0
 10
4.26391282
 20
7.17849009
  0
VERTEX
  8
0
 10
4.34722222
 20
7.23146408
  0
VERTEX
  8
0
 10
4.30052554
 20
7.35765637
  0
VERTEX
  8
0
 10
4.31944444
 20
7.36703523
  0
VERTEX
  8
0
 10
4.33817774
 20
7.37968275
  0
VERTEX
  8
0
 10
4.36279123
 20
7.33067134
  0
VERTEX
  8
0
 10
4.38888889
 20
7.25924186
  0
VERTEX
  8
0
 10
4.50092421
 20
7.29437214
  0
VERTEX
  8
0
 10
4.63888889
 20
7.31479741
  0
VERTEX
  8
0
 10
4.65027849
 20
7.38609810
  0
VERTEX
  8
0
 10
4.67182025
 20
7.46168317
  0
VERTEX
  8
0
 10
4.72222222
 20
7.45368630
  0
VERTEX
  8
0
 10
4.70495494
 20
7.37353586
  0
VERTEX
  8
0
 10
4.68055556
 20
7.30090853
  0
VERTEX
  8
0
 10
4.81886987
 20
7.24471867
  0
VERTEX
  8
0
 10
4.91666667
 20
7.16201964
  0
VERTEX
  8
0
 10
4.97310043
 20
7.23618278
  0
VERTEX
  8
0
 10
5.03801680
 20
7.30212532
  0
VERTEX
  8
0
 10
5.05555556
 20
7.28701964
  0
VERTEX
  8
0
 10
5.07138243
 20
7.26051981
  0
VERTEX
  8
0
 10
5.04166667
 20
7.21757519
  0
VERTEX
  8
0
 10
4.99494331
 20
7.17453378
  0
VERTEX
  8
0
 10
4.97483398
 20
7.15114993
  0
VERTEX
  8
0
 10
4.97222222
 20
7.12035297
  0
VERTEX
  8
0
 10
5.06944444
 20
6.95368630
  0
VERTEX
  8
0
 10
5.11239834
 20
7.01870314
  0
VERTEX
  8
0
 10
5.16348914
 20
7.06488343
  0
VERTEX
  8
0
 10
5.20922425
 20
7.10407627
  0
VERTEX
  8
0
 10
5.23611111
 20
7.14813075
  0
VERTEX
  8
0
 10
5.21117639
 20
7.27292781
  0
VERTEX
  8
0
 10
5.21890448
 20
7.28607171
  0
VERTEX
  8
0
 10
5.24890813
 20
7.30090853
  0
VERTEX
  8
0
 10
5.29166667
 20
7.17590853
  0
VERTEX
  8
0
 10
5.43032958
 20
7.20569088
  0
VERTEX
  8
0
 10
5.57764577
 20
7.22388066
  0
VERTEX
  8
0
 10
5.57926586
 20
7.28616227
  0
VERTEX
  8
0
 10
5.59209091
 20
7.36411435
  0
VERTEX
  8
0
 10
5.62500000
 20
7.35504219
  0
VERTEX
  8
0
 10
5.65415745
 20
7.35026110
  0
VERTEX
  8
0
 10
5.65277778
 20
7.34257519
  0
VERTEX
  8
0
 10
5.63888889
 20
7.20368630
  0
VERTEX
  8
0
 10
5.74846275
 20
7.15927232
  0
VERTEX
  8
0
 10
5.84722222
 20
7.09257519
  0
VERTEX
  8
0
 10
5.87071121
 20
7.11223853
  0
VERTEX
  8
0
 10
5.89586744
 20
7.15039333
  0
VERTEX
  8
0
 10
5.92795106
 20
7.18047239
  0
VERTEX
  8
0
 10
5.97222222
 20
7.17590853
  0
VERTEX
  8
0
 10
5.96427143
 20
7.13163131
  0
VERTEX
  8
0
 10
5.93786483
 20
7.10590635
  0
VERTEX
  8
0
 10
5.90780360
 20
7.08393248
  0
VERTEX
  8
0
 10
5.88888889
 20
7.05090853
  0
VERTEX
  8
0
 10
5.97134070
 20
6.91682892
  0
VERTEX
  8
0
 10
6.00147007
 20
6.82988599
  0
VERTEX
  8
0
 10
6.00000000
 20
6.73146408
  0
VERTEX
  8
0
 10
6.09957940
 20
6.75111646
  0
VERTEX
  8
0
 10
6.19009244
 20
6.73953204
  0
VERTEX
  8
0
 10
6.36111111
 20
6.67590853
  0
VERTEX
  8
0
 10
6.40779181
 20
6.75688525
  0
VERTEX
  8
0
 10
6.42600563
 20
6.85831815
  0
VERTEX
  8
0
 10
6.43055556
 20
7.07868630
  0
VERTEX
  8
0
 10
6.52898515
 20
7.18839714
  0
VERTEX
  8
0
 10
6.57040431
 20
7.25119483
  0
VERTEX
  8
0
 10
6.59722222
 20
7.32868630
  0
VERTEX
  8
0
 10
6.54386015
 20
7.37214294
  0
VERTEX
  8
0
 10
6.46715476
 20
7.38305079
  0
VERTEX
  8
0
 10
6.29166667
 20
7.37035297
  0
VERTEX
  8
0
 10
6.21224565
 20
7.41667191
  0
VERTEX
  8
0
 10
6.11046518
 20
7.43510131
  0
VERTEX
  8
0
 10
5.99859101
 20
7.43157321
  0
VERTEX
  8
0
 10
5.88888889
 20
7.41201964
  0
VERTEX
  8
0
 10
5.93259730
 20
7.37995044
  0
VERTEX
  8
0
 10
5.94444444
 20
7.34257519
  0
VERTEX
  8
0
 10
5.82050442
 20
7.44139819
  0
VERTEX
  8
0
 10
5.76301019
 20
7.49079934
  0
VERTEX
  8
0
 10
5.70833333
 20
7.52313075
  0
VERTEX
  8
0
 10
5.58020822
 20
7.52106216
  0
VERTEX
  8
0
 10
5.47547091
 20
7.50563725
  0
VERTEX
  8
0
 10
5.38647037
 20
7.47465353
  0
VERTEX
  8
0
 10
5.30555556
 20
7.42590853
  0
VERTEX
  8
0
 10
5.31295357
 20
7.45629862
  0
VERTEX
  8
0
 10
5.33966779
 20
7.48031885
  0
VERTEX
  8
0
 10
5.35627033
 20
7.49796724
  0
VERTEX
  8
0
 10
5.33333333
 20
7.50924186
  0
VERTEX
  8
0
 10
5.22580687
 20
7.48390105
  0
VERTEX
  8
0
 10
5.12954035
 20
7.49875079
  0
VERTEX
  8
0
 10
4.94444444
 20
7.56479741
  0
VERTEX
  8
0
 10
4.95424591
 20
7.51313899
  0
VERTEX
  8
0
 10
4.94444444
 20
7.48146408
  0
VERTEX
  8
0
 10
4.91751905
 20
7.49682408
  0
VERTEX
  8
0
 10
4.89680164
 20
7.52746798
  0
VERTEX
  8
0
 10
4.87907230
 20
7.55247104
  0
VERTEX
  8
0
 10
4.86111111
 20
7.55090853
  0
VERTEX
  8
0
 10
4.79159591
 20
7.59722341
  0
VERTEX
  8
0
 10
4.71359782
 20
7.62275774
  0
VERTEX
  8
0
 10
4.63296748
 20
7.62972857
  0
VERTEX
  8
0
 10
4.55555556
 20
7.62035297
  0
VERTEX
  8
0
 10
4.46000285
 20
7.59683291
  0
VERTEX
  8
0
 10
4.38888889
 20
7.56479741
  0
VERTEX
  8
0
 10
4.29166667
 20
7.50924186
  0
VERTEX
  8
0
 10
4.25000000
 20
7.49535297
  0
VERTEX
  8
0
 10
4.20745615
 20
7.44502857
  0
VERTEX
  8
0
 10
4.19395754
 20
7.43119645
  0
VERTEX
  8
0
 10
4.16666667
 20
7.42590853
  0
VERTEX
  8
0
 10
4.21584921
 20
7.49458864
  0
VERTEX
  8
0
 10
4.27777778
 20
7.55090853
  0
VERTEX
  8
0
 10
4.21252699
 20
7.58931607
  0
VERTEX
  8
0
 10
4.13888889
 20
7.62035297
  0
VERTEX
  8
0
 10
4.01663046
 20
7.61227666
  0
VERTEX
  8
0
 10
3.88888889
 20
7.60646408
  0
VERTEX
  8
0
 10
3.83563207
 20
7.62700689
  0
VERTEX
  8
0
 10
3.79149886
 20
7.65625444
  0
VERTEX
  8
0
 10
3.74744956
 20
7.67796792
  0
VERTEX
  8
0
 10
3.69444444
 20
7.67590853
  0
VERTEX
  8
0
 10
3.66235865
 20
7.59631464
  0
VERTEX
  8
0
 10
3.66938098
 20
7.52775635
  0
VERTEX
  8
0
 10
3.69240726
 20
7.46035748
  0
VERTEX
  8
0
 10
3.70833333
 20
7.38424186
  0
VERTEX
  8
0
 10
3.70422886
 20
7.31020172
  0
VERTEX
  8
0
 10
3.68722329
 20
7.24174196
  0
VERTEX
  8
0
 10
3.63640890
 20
7.11561089
  0
VERTEX
  8
0
 10
3.59969016
 20
6.99394318
  0
VERTEX
  8
0
 10
3.60030415
 20
6.93106263
  0
VERTEX
  8
0
 10
3.62086706
 20
6.86483338
  0
VERTEX
  8
0
 10
3.62500000
 20
6.85646408
  0
VERTEX
  8
0
 10
3.62632631
 20
6.85400217
  0
VERTEX
  8
0
 10
3.63517504
 20
6.86043686
  0
VERTEX
  8
0
 10
3.74985507
 20
6.88426813
  0
VERTEX
  8
0
 10
3.86993683
 20
6.87627903
  0
VERTEX
  8
0
 10
3.97625475
 20
6.84290410
  0
VERTEX
  8
0
 10
4.04964324
 20
6.79057790
  0
SEQEND
  0
POLYLINE
  8
Default_Layer
 66
   1
 39
0.000000
 70
    1
  0
VERTEX
  8
0
 10
3.51189300
 20
6.42826581
  0
VERTEX
  8
0
 10
3.45324700
 20
6.47324002
  0
VERTEX
  8
0
 10
3.41889958
 20
6.54468763
  0
VERTEX
  8
0
 10
3.41287657
 20
6.62814227
  0
VERTEX
  8
0
 10
3.43920381
 20
6.70913757
  0
VERTEX
  8
0
 10
3.45602331
 20
6.73709149
  0
VERTEX
  8
0
 10
3.49397364
 20
6.77279195
  0
VERTEX
  8
0
 10
3.49486905
 20
6.77332579
  0
VERTEX
  8
0
 10
3.54358257
 20
6.81327315
  0
VERTEX
  8
0
 10
3.57162819
 20
6.83626972
  0
VERTEX
  8
0
 10
3.57413740
 20
6.86072110
  0
VERTEX
  8
0
 10
3.55018675
 20
6.92146361
  0
VERTEX
  8
0
 10
3.54738082
 20
6.98231066
  0
VERTEX
  8
0
 10
3.58320901
 20
7.10381744
  0
VERTEX
  8
0
 10
3.63763372
 20
7.22423956
  0
VERTEX
  8
0
 10
3.66666667
 20
7.34257519
  0
VERTEX
  8
0
 10
3.64969554
 20
7.45204372
  0
VERTEX
  8
0
 10
3.62237160
 20
7.56108690
  0
VERTEX
  8
0
 10
3.62413964
 20
7.66156868
  0
VERTEX
  8
0
 10
3.64825965
 20
7.70605651
  0
VERTEX
  8
0
 10
3.69444444
 20
7.74535297
  0
VERTEX
  8
0
 10
3.76388889
 20
7.74535297
  0
VERTEX
  8
0
 10
3.76388889
 20
7.73146408
  0
VERTEX
  8
0
 10
3.87596917
 20
7.67535600
  0
VERTEX
  8
0
 10
3.92768725
 20
7.64850795
  0
VERTEX
  8
0
 10
3.98611111
 20
7.63424186
  0
VERTEX
  8
0
 10
4.07699834
 20
7.64855565
  0
VERTEX
  8
0
 10
4.18055556
 20
7.66201964
  0
VERTEX
  8
0
 10
4.27015928
 20
7.63287926
  0
VERTEX
  8
0
 10
4.36111111
 20
7.60646408
  0
VERTEX
  8
0
 10
4.47619470
 20
7.63331614
  0
VERTEX
  8
0
 10
4.63172351
 20
7.67889089
  0
VERTEX
  8
0
 10
4.71205027
 20
7.69044668
  0
VERTEX
  8
0
 10
4.78736280
 20
7.68478002
  0
VERTEX
  8
0
 10
4.85261925
 20
7.65458987
  0
VERTEX
  8
0
 10
4.90277778
 20
7.59257519
  0
VERTEX
  8
0
 10
4.96811972
 20
7.59256114
  0
VERTEX
  8
0
 10
5.03316119
 20
7.56966589
  0
VERTEX
  8
0
 10
5.09898317
 20
7.54086418
  0
VERTEX
  8
0
 10
5.16666667
 20
7.52313075
  0
VERTEX
  8
0
 10
5.29703343
 20
7.52778250
  0
VERTEX
  8
0
 10
5.43133410
 20
7.55135201
  0
VERTEX
  8
0
 10
5.56524550
 20
7.57122755
  0
VERTEX
  8
0
 10
5.69444444
 20
7.56479741
  0
VERTEX
  8
0
 10
5.81750511
 20
7.51114819
  0
VERTEX
  8
0
 10
5.87441996
 20
7.48254578
  0
VERTEX
  8
0
 10
5.93055556
 20
7.46757519
  0
VERTEX
  8
0
 10
6.06384487
 20
7.48441451
  0
VERTEX
  8
0
 10
6.13417306
 20
7.49634973
  0
VERTEX
  8
0
 10
6.20833333
 20
7.49535297
  0
VERTEX
  8
0
 10
6.27293775
 20
7.46489576
  0
VERTEX
  8
0
 10
6.36111111
 20
7.42590853
  0
VERTEX
  8
0
 10
6.52772716
 20
7.40771086
  0
VERTEX
  8
0
 10
6.59426377
 20
7.39904263
  0
VERTEX
  8
0
 10
6.65277778
 20
7.37035297
  0
VERTEX
  8
0
 10
6.69110501
 20
7.32406698
  0
VERTEX
  8
0
 10
6.71452681
 20
7.26601503
  0
VERTEX
  8
0
 10
6.75000000
 20
7.13424186
  0
VERTEX
  8
0
 10
6.83037916
 20
7.10351154
  0
VERTEX
  8
0
 10
6.89338220
 20
7.05540444
  0
VERTEX
  8
0
 10
6.93677747
 20
6.98768827
  0
VERTEX
  8
0
 10
6.95833333
 20
6.89813075
  0
VERTEX
  8
0
 10
7.06850199
 20
6.82774124
  0
VERTEX
  8
0
 10
7.12350807
 20
6.79247052
  0
VERTEX
  8
0
 10
7.16666667
 20
6.74535297
  0
VERTEX
  8
0
 10
7.16666667
 20
6.66201964
  0
VERTEX
  8
0
 10
7.15277778
 20
6.66201964
  0
VERTEX
  8
0
 10
7.10625407
 20
6.56307226
  0
VERTEX
  8
0
 10
7.04195372
 20
6.47891346
  0
VERTEX
  8
0
 10
7.00181540
 20
6.38561331
  0
VERTEX
  8
0
 10
7.00391283
 20
6.32805712
  0
VERTEX
  8
0
 10
7.02777778
 20
6.25924186
  0
VERTEX
  8
0
 10
6.98927818
 20
6.18301344
  0
VERTEX
  8
0
 10
6.93714244
 20
6.12051763
  0
VERTEX
  8
0
 10
6.83333333
 20
5.99535297
  0
VERTEX
  8
0
 10
6.84419975
 20
5.89532484
  0
VERTEX
  8
0
 10
6.84087299
 20
5.79965912
  0
VERTEX
  8
0
 10
6.81641529
 20
5.71850700
  0
VERTEX
  8
0
 10
6.76388889
 20
5.66201964
  0
VERTEX
  8
0
 10
6.82511744
 20
5.49235183
  0
VERTEX
  8
0
 10
6.84871069
 20
5.38869828
  0
VERTEX
  8
0
 10
6.84722222
 20
5.28701964
  0
VERTEX
  8
0
 10
6.81696230
 20
5.21855168
  0
VERTEX
  8
0
 10
6.76870945
 20
5.17488951
  0
VERTEX
  8
0
 10
6.71457410
 20
5.13868128
  0
VERTEX
  8
0
 10
6.66666667
 20
5.09257519
  0
VERTEX
  8
0
 10
6.68381935
 20
4.77954992
  0
VERTEX
  8
0
 10
6.67262148
 20
4.62251887
  0
VERTEX
  8
0
 10
6.63888889
 20
4.49535297
  0
VERTEX
  8
0
 10
6.60390945
 20
4.47463348
  0
VERTEX
  8
0
 10
6.55739192
 20
4.46554593
  0
VERTEX
  8
0
 10
6.50995620
 20
4.45747302
  0
VERTEX
  8
0
 10
6.47222222
 20
4.43979741
  0
VERTEX
  8
0
 10
6.44233658
 20
4.24384849
  0
VERTEX
  8
0
 10
6.42232976
 20
4.03811329
  0
VERTEX
  8
0
 10
6.39254695
 20
3.84224793
  0
VERTEX
  8
0
 10
6.33333333
 20
3.67590853
  0
VERTEX
  8
0
 10
6.11640285
 20
3.68244263
  0
VERTEX
  8
0
 10
5.86111111
 20
3.70368630
  0
VERTEX
  8
0
 10
5.86772710
 20
3.61712197
  0
VERTEX
  8
0
 10
5.85917167
 20
3.54575429
  0
VERTEX
  8
0
 10
5.83638104
 20
3.48864691
  0
VERTEX
  8
0
 10
5.80029140
 20
3.44486346
  0
VERTEX
  8
0
 10
5.75183894
 20
3.41346760
  0
VERTEX
  8
0
 10
5.69195987
 20
3.39352295
  0
VERTEX
  8
0
 10
5.54166667
 20
3.38424186
  0
VERTEX
  8
0
 10
5.48947994
 20
3.25567492
  0
VERTEX
  8
0
 10
5.44444444
 20
3.12035297
  0
VERTEX
  8
0
 10
5.61767942
 20
2.91858794
  0
VERTEX
  8
0
 10
5.79166667
 20
2.71757519
  0
VERTEX
  8
0
 10
5.88246535
 20
2.70420721
  0
VERTEX
  8
0
 10
5.91912363
 20
2.68878215
  0
VERTEX
  8
0
 10
5.94444444
 20
2.66201964
  0
VERTEX
  8
0
 10
5.95046674
 20
2.51863430
  0
VERTEX
  8
0
 10
5.94444444
 20
2.38424186
  0
VERTEX
  8
0
 10
5.83032404
 20
2.34733308
  0
VERTEX
  8
0
 10
5.69444444
 20
2.35646408
  0
VERTEX
  8
0
 10
5.62846620
 20
2.30270523
  0
VERTEX
  8
0
 10
5.54695976
 20
2.26904524
  0
VERTEX
  8
0
 10
5.45769008
 20
2.25509863
  0
VERTEX
  8
0
 10
5.36842213
 20
2.26047996
  0
VERTEX
  8
0
 10
5.28692085
 20
2.28480374
  0
VERTEX
  8
0
 10
5.22095121
 20
2.32768452
  0
VERTEX
  8
0
 10
5.17827816
 20
2.38873682
  0
VERTEX
  8
0
 10
5.16666667
 20
2.46757519
  0
VERTEX
  8
0
 10
5.18418287
 20
2.52698434
  0
VERTEX
  8
0
 10
5.22248897
 20
2.57269628
  0
VERTEX
  8
0
 10
5.27455058
 20
2.60404211
  0
VERTEX
  8
0
 10
5.33333333
 20
2.62035297
  0
VERTEX
  8
0
 10
5.39615453
 20
2.61783337
  0
VERTEX
  8
0
 10
5.45828098
 20
2.60488048
  0
VERTEX
  8
0
 10
5.51696139
 20
2.59966384
  0
VERTEX
  8
0
 10
5.56944444
 20
2.62035297
  0
VERTEX
  8
0
 10
5.55394141
 20
2.67889167
  0
VERTEX
  8
0
 10
5.51391744
 20
2.73785544
  0
VERTEX
  8
0
 10
5.39241379
 20
2.85847162
  0
VERTEX
  8
0
 10
5.26914769
 20
2.98502848
  0
VERTEX
  8
0
 10
5.22692066
 20
3.05141809
  0
VERTEX
  8
0
 10
5.20833333
 20
3.12035297
  0
VERTEX
  8
0
 10
5.22209693
 20
3.20130457
  0
VERTEX
  8
0
 10
5.26083897
 20
3.27314801
  0
VERTEX
  8
0
 10
5.30457818
 20
3.34845505
  0
VERTEX
  8
0
 10
5.33333333
 20
3.43979741
  0
VERTEX
  8
0
 10
5.22649259
 20
3.47823808
  0
VERTEX
  8
0
 10
5.15387195
 20
3.55535079
  0
VERTEX
  8
0
 10
5.13580547
 20
3.60322553
  0
VERTEX
  8
0
 10
5.13278756
 20
3.65454793
  0
VERTEX
  8
0
 10
5.14698275
 20
3.70724452
  0
VERTEX
  8
0
 10
5.18055556
 20
3.75924186
  0
VERTEX
  8
0
 10
4.48611111
 20
3.82868630
  0
VERTEX
  8
0
 10
4.49705598
 20
3.68407718
  0
VERTEX
  8
0
 10
4.48623604
 20
3.61887979
  0
VERTEX
  8
0
 10
4.45833333
 20
3.56479741
  0
VERTEX
  8
0
 10
4.34555563
 20
3.53849280
  0
VERTEX
  8
0
 10
4.20833333
 20
3.53701964
  0
VERTEX
  8
0
 10
4.17968343
 20
3.46540693
  0
VERTEX
  8
0
 10
4.12884869
 20
3.38097319
  0
VERTEX
  8
0
 10
4.08303404
 20
3.29122933
  0
VERTEX
  8
0
 10
4.06944444
 20
3.20368630
  0
VERTEX
  8
0
 10
4.08505200
 20
3.16199697
  0
VERTEX
  8
0
 10
4.11741751
 20
3.11869780
  0
VERTEX
  8
0
 10
4.21181327
 20
3.02951051
  0
VERTEX
  8
0
 10
4.31141351
 20
2.94060557
  0
VERTEX
  8
0
 10
4.37500000
 20
2.85646408
  0
VERTEX
  8
0
 10
4.47524522
 20
2.82477006
  0
VERTEX
  8
0
 10
4.51444641
 20
2.79799838
  0
VERTEX
  8
0
 10
4.54166667
 20
2.75924186
  0
VERTEX
  8
0
 10
4.52777595
 20
2.63092388
  0
VERTEX
  8
0
 10
4.54166667
 20
2.53701964
  0
VERTEX
  8
0
 10
4.42638081
 20
2.47888534
  0
VERTEX
  8
0
 10
4.36413945
 20
2.47704496
  0
VERTEX
  8
0
 10
4.30555556
 20
2.50924186
  0
VERTEX
  8
0
 10
4.25489777
 20
2.45374344
  0
VERTEX
  8
0
 10
4.18340542
 20
2.41391138
  0
VERTEX
  8
0
 10
4.09905998
 20
2.39058491
  0
VERTEX
  8
0
 10
4.00984296
 20
2.38460322
  0
VERTEX
  8
0
 10
3.92373584
 20
2.39680553
  0
VERTEX
  8
0
 10
3.84872013
 20
2.42803104
  0
VERTEX
  8
0
 10
3.79277732
 20
2.47911897
  0
VERTEX
  8
0
 10
3.76388889
 20
2.55090853
  0
VERTEX
  8
0
 10
3.76407514
 20
2.62342753
  0
VERTEX
  8
0
 10
3.78673931
 20
2.68526260
  0
VERTEX
  8
0
 10
3.82922827
 20
2.73200396
  0
VERTEX
  8
0
 10
3.88888889
 20
2.75924186
  0
VERTEX
  8
0
 10
3.94927786
 20
2.76358979
  0
VERTEX
  8
0
 10
4.00694956
 20
2.75376589
  0
VERTEX
  8
0
 10
4.12500000
 20
2.73146408
  0
VERTEX
  8
0
 10
4.13591418
 20
2.80248844
  0
VERTEX
  8
0
 10
4.11789639
 20
2.86501692
  0
VERTEX
  8
0
 10
4.02784296
 20
2.97571485
  0
VERTEX
  8
0
 10
3.92039583
 20
3.08581518
  0
VERTEX
  8
0
 10
3.88063591
 20
3.14759665
  0
VERTEX
  8
0
 10
3.86111111
 20
3.21757519
  0
VERTEX
  8
0
 10
3.86986336
 20
3.30526863
  0
VERTEX
  8
0
 10
3.90220407
 20
3.38681746
  0
VERTEX
  8
0
 10
3.94177608
 20
3.47055071
  0
VERTEX
  8
0
 10
3.97222222
 20
3.56479741
  0
VERTEX
  8
0
 10
3.87208391
 20
3.62223263
  0
VERTEX
  8
0
 10
3.81110841
 20
3.70279263
  0
VERTEX
  8
0
 10
3.80064688
 20
3.74899785
  0
VERTEX
  8
0
 10
3.80638426
 20
3.79768836
  0
VERTEX
  8
0
 10
3.83045661
 20
3.84776554
  0
VERTEX
  8
0
 10
3.87500000
 20
3.89813075
  0
VERTEX
  8
0
 10
3.63643810
 20
4.04151069
  0
VERTEX
  8
0
 10
3.52581301
 20
4.12185880
  0
VERTEX
  8
0
 10
3.43055556
 20
4.21757519
  0
VERTEX
  8
0
 10
3.46781709
 20
4.47872926
  0
VERTEX
  8
0
 10
3.48611111
 20
4.75924186
  0
VERTEX
  8
0
 10
3.41046273
 20
4.78259805
  0
VERTEX
  8
0
 10
3.35087497
 20
4.82445743
  0
VERTEX
  8
0
 10
3.30417206
 20
4.88140839
  0
VERTEX
  8
0
 10
3.26717820
 20
4.95003933
  0
VERTEX
  8
0
 10
3.15277778
 20
5.27313075
  0
VERTEX
  8
0
 10
3.07240650
 20
5.26914576
  0
VERTEX
  8
0
 10
3.00000000
 20
5.27313075
  0
VERTEX
  8
0
 10
2.94578424
 20
5.32655550
  0
VERTEX
  8
0
 10
2.90520511
 20
5.39361624
  0
VERTEX
  8
0
 10
2.83333333
 20
5.53701964
  0
VERTEX
  8
0
 10
2.83333333
 20
5.63424186
  0
VERTEX
  8
0
 10
2.91209157
 20
5.74279072
  0
VERTEX
  8
0
 10
3.00000000
 20
5.84257519
  0
VERTEX
  8
0
 10
3.05222855
 20
5.86654263
  0
VERTEX
  8
0
 10
3.12500000
 20
5.87035297
  0
VERTEX
  8
0
 10
3.17321905
 20
5.91287714
  0
VERTEX
  8
0
 10
3.24116588
 20
5.93482336
  0
VERTEX
  8
0
 10
3.31005754
 20
5.92800661
  0
VERTEX
  8
0
 10
3.36111111
 20
5.88424186
  0
VERTEX
  8
0
 10
3.40785424
 20
5.76951103
  0
VERTEX
  8
0
 10
3.43357159
 20
5.70558827
  0
VERTEX
  8
0
 10
3.44444444
 20
5.63424186
  0
VERTEX
  8
0
 10
3.43017482
 20
5.55313295
  0
VERTEX
  8
0
 10
3.39575928
 20
5.48070496
  0
VERTEX
  8
0
 10
3.30555556
 20
5.35646408
  0
VERTEX
  8
0
 10
3.34355379
 20
5.27449148
  0
VERTEX
  8
0
 10
3.37514869
 20
5.18049471
  0
VERTEX
  8
0
 10
3.41361369
 20
5.10156596
  0
VERTEX
  8
0
 10
3.43957042
 20
5.07621840
  0
VERTEX
  8
0
 10
3.47222222
 20
5.06479741
  0
VERTEX
  8
0
 10
3.47423647
 20
5.13431416
  0
VERTEX
  8
0
 10
3.48904556
 20
5.19758135
  0
VERTEX
  8
0
 10
3.51388889
 20
5.32868630
  0
VERTEX
  8
0
 10
3.49267160
 20
5.43841971
  0
VERTEX
  8
0
 10
3.47222222
 20
5.55090853
  0
VERTEX
  8
0
 10
3.48272792
 20
5.61384283
  0
VERTEX
  8
0
 10
3.50551049
 20
5.67553499
  0
VERTEX
  8
0
 10
3.54166667
 20
5.80090853
  0
VERTEX
  8
0
 10
3.53185360
 20
5.87601227
  0
VERTEX
  8
0
 10
3.50612560
 20
5.95537180
  0
VERTEX
  8
0
 10
3.48080702
 20
6.03736080
  0
VERTEX
  8
0
 10
3.47222222
 20
6.12035297
  0
VERTEX
  8
0
 10
3.48955650
 20
6.18658100
  0
VERTEX
  8
0
 10
3.51388889
 20
6.24535297
  0
VERTEX
  8
0
 10
3.51177791
 20
6.32480125
  0
VERTEX
  8
0
 10
3.51189300
 20
6.42826581
  0
SEQEND
  0
POLYLINE
  8
Default_Layer
 66
   1
 39
0.000000
 70
    1
  0
VERTEX
  8
0
 10
6.23779869
 20
6.30501275
 42
0.04075553
  0
VERTEX
  8
0
 10
6.31690445
 20
6.31968208
 42
0.03803838
  0
VERTEX
  8
0
 10
6.35916227
 20
6.33490084
 42
0.04585517
  0
VERTEX
  8
0
 10
6.38981839
 20
6.35235394
 42
0.06515696
  0
VERTEX
  8
0
 10
6.41411206
 20
6.37481170
 42
0.18033080
  0
VERTEX
  8
0
 10
6.43481845
 20
6.43648333
 42
0.06787256
  0
VERTEX
  8
0
 10
6.42891127
 20
6.47237349
 42
0.05025930
  0
VERTEX
  8
0
 10
6.41377118
 20
6.50899333
 42
0.04490075
  0
VERTEX
  8
0
 10
6.38566583
 20
6.55224214
 42
0.04028607
  0
VERTEX
  8
0
 10
6.34392888
 20
6.59785479
 42
0.08120775
  0
VERTEX
  8
0
 10
6.23249025
 20
6.67302906
 42
0.04530754
  0
VERTEX
  8
0
 10
6.18078182
 20
6.69105585
 42
0.07045190
  0
VERTEX
  8
0
 10
6.11797505
 20
6.69692683
 42
0.04388798
  0
VERTEX
  8
0
 10
6.04341916
 20
6.68716919
 42
0.04595103
  0
VERTEX
  8
0
 10
5.96895266
 20
6.66396914
 42
0.03911093
  0
VERTEX
  8
0
 10
5.93562070
 20
6.64667311
 42
0.04752281
  0
VERTEX
  8
0
 10
5.91866317
 20
6.63347666
 42
0.05324478
  0
VERTEX
  8
0
 10
5.91162364
 20
6.62505293
 42
0.03134100
  0
VERTEX
  8
0
 10
5.90658085
 20
6.61560559
 42
0.08549039
  0
VERTEX
  8
0
 10
5.89676323
 20
6.58128476
 42
0.10415587
  0
VERTEX
  8
0
 10
5.90129491
 20
6.54129782
 42
0.04348693
  0
VERTEX
  8
0
 10
5.91304099
 20
6.51325914
 42
0.01707056
  0
VERTEX
  8
0
 10
5.92713255
 20
6.48803273
 42
-0.00184671
  0
VERTEX
  8
0
 10
5.94146488
 20
6.46374159
 42
-0.02595450
  0
VERTEX
  8
0
 10
5.95737851
 20
6.43273202
 42
-0.05192333
  0
VERTEX
  8
0
 10
5.96782367
 20
6.40027584
  0
VERTEX
  8
0
 10
5.96081086
 20
6.38931229
  0
VERTEX
  8
0
 10
5.95013201
 20
6.39623489
  0
VERTEX
  8
0
 10
5.89653643
 20
6.50530806
  0
VERTEX
  8
0
 10
5.87844424
 20
6.56408541
  0
VERTEX
  8
0
 10
5.89457645
 20
6.63234600
  0
VERTEX
  8
0
 10
5.93554027
 20
6.66879958
  0
VERTEX
  8
0
 10
6.00468070
 20
6.69728497
  0
VERTEX
  8
0
 10
6.15846534
 20
6.71567934
  0
VERTEX
  8
0
 10
6.24090694
 20
6.69197899
  0
VERTEX
  8
0
 10
6.32114255
 20
6.64450769
  0
VERTEX
  8
0
 10
6.38998588
 20
6.58084819
  0
VERTEX
  8
0
 10
6.43825066
 20
6.50858323
  0
VERTEX
  8
0
 10
6.45675061
 20
6.43529557
  0
VERTEX
  8
0
 10
6.43629945
 20
6.36856794
  0
VERTEX
  8
0
 10
6.36771090
 20
6.31598309
  0
VERTEX
  8
0
 10
6.24179867
 20
6.28512378
  0
VERTEX
  8
0
 10
6.22957854
 20
6.29397539
  0
VERTEX
  8
0
 10
6.23779869
 20
6.30501275
  0
SEQEND
  0
POLYLINE
  8
Default_Layer
 66
   1
 39
0.000000
 70
    1
  0
VERTEX
  8
0
 10
4.86111111
 20
6.17590853
  0
VERTEX
  8
0
 10
4.93653009
 20
6.11708184
  0
VERTEX
  8
0
 10
5.00000000
 20
6.06479741
  0
VERTEX
  8
0
 10
4.94013735
 20
6.08223231
  0
VERTEX
  8
0
 10
4.88643224
 20
6.11363013
  0
VERTEX
  8
0
 10
4.79656935
 20
6.20621954
  0
VERTEX
  8
0
 10
4.72856067
 20
6.31837566
  0
VERTEX
  8
0
 10
4.68055556
 20
6.42590853
  0
VERTEX
  8
0
 10
4.59173754
 20
6.45563068
  0
VERTEX
  8
0
 10
4.51268532
 20
6.44357735
  0
VERTEX
  8
0
 10
4.45854044
 20
6.38449517
  0
VERTEX
  8
0
 10
4.44444444
 20
6.27313075
  0
VERTEX
  8
0
 10
4.51388889
 20
6.14813075
  0
VERTEX
  8
0
 10
4.62447000
 20
6.06236453
  0
VERTEX
  8
0
 10
4.74188358
 20
6.00633846
  0
VERTEX
  8
0
 10
4.97222222
 20
5.93979741
  0
VERTEX
  8
0
 10
4.84354511
 20
5.92972935
  0
VERTEX
  8
0
 10
4.73268862
 20
5.94611329
  0
VERTEX
  8
0
 10
4.63396004
 20
5.98711707
  0
VERTEX
  8
0
 10
4.54166667
 20
6.05090853
  0
VERTEX
  8
0
 10
4.50372922
 20
6.07644846
  0
VERTEX
  8
0
 10
4.47222222
 20
6.10646408
  0
VERTEX
  8
0
 10
4.42325450
 20
6.18818392
  0
VERTEX
  8
0
 10
4.40277778
 20
6.28701964
  0
VERTEX
  8
0
 10
4.33706393
 20
6.32288120
  0
VERTEX
  8
0
 10
4.28291531
 20
6.36873450
  0
VERTEX
  8
0
 10
4.20780368
 20
6.48390431
  0
VERTEX
  8
0
 10
4.17442283
 20
6.61950502
  0
VERTEX
  8
0
 10
4.17975268
 20
6.76251260
  0
VERTEX
  8
0
 10
4.22077317
 20
6.89990300
  0
VERTEX
  8
0
 10
4.29446423
 20
7.01865218
  0
VERTEX
  8
0
 10
4.39780579
 20
7.10573611
  0
VERTEX
  8
0
 10
4.52777778
 20
7.14813075
  0
VERTEX
  8
0
 10
4.60822047
 20
7.14866028
  0
VERTEX
  8
0
 10
4.68341527
 20
7.13326920
  0
VERTEX
  8
0
 10
4.75193479
 20
7.10364177
  0
VERTEX
  8
0
 10
4.81235164
 20
7.06146225
  0
VERTEX
  8
0
 10
4.90316774
 20
6.94618400
  0
VERTEX
  8
0
 10
4.93071222
 20
6.87645378
  0
VERTEX
  8
0
 10
4.94444444
 20
6.80090853
  0
VERTEX
  8
0
 10
4.93863550
 20
6.66810205
  0
VERTEX
  8
0
 10
4.90298740
 20
6.54378378
  0
VERTEX
  8
0
 10
4.84292894
 20
6.42997232
  0
VERTEX
  8
0
 10
4.76388889
 20
6.32868630
  0
VERTEX
  8
0
 10
4.82826368
 20
6.21662727
  0
VERTEX
  8
0
 10
4.86111111
 20
6.17590853
  0
SEQEND
  0
POLYLINE
  8
Default_Layer
 66
   1
 39
0.000000
 70
    1
  0
VERTEX
  8
0
 10
3.92539219
 20
6.50867939
 42
0.04075553
  0
VERTEX
  8
0
 10
3.98482551
 20
6.56290660
 42
0.03803838
  0
VERTEX
  8
0
 10
4.01267632
 20
6.59814389
 42
0.04585517
  0
VERTEX
  8
0
 10
4.02949482
 20
6.62915270
 42
0.06515696
  0
VERTEX
  8
0
 10
4.03826756
 20
6.66105211
 42
0.18033080
  0
VERTEX
  8
0
 10
4.02328811
 20
6.72435899
 42
0.06787256
  0
VERTEX
  8
0
 10
3.99932076
 20
6.75171890
 42
0.05025930
  0
VERTEX
  8
0
 10
3.96712726
 20
6.77482330
 42
0.04490075
  0
VERTEX
  8
0
 10
3.92042302
 20
6.79671128
 42
0.04028607
  0
VERTEX
  8
0
 10
3.86089424
 20
6.81340893
 42
0.08120775
  0
VERTEX
  8
0
 10
3.72656347
 20
6.81840722
 42
0.04530754
  0
VERTEX
  8
0
 10
3.67313253
 20
6.80641295
 42
0.07045190
  0
VERTEX
  8
0
 10
3.61669509
 20
6.77823542
 42
0.04388798
  0
VERTEX
  8
0
 10
3.55853217
 20
6.73058180
 42
0.04595103
  0
VERTEX
  8
0
 10
3.50754305
 20
6.67155966
 42
0.03911093
  0
VERTEX
  8
0
 10
3.48836921
 20
6.63927134
 42
0.04752281
  0
VERTEX
  8
0
 10
3.48093636
 20
6.61911057
 42
0.05324478
  0
VERTEX
  8
0
 10
3.47940609
 20
6.60823985
 42
0.03134100
  0
VERTEX
  8
0
 10
3.48011200
 20
6.59755417
 42
0.08549039
  0
VERTEX
  8
0
 10
3.48989672
 20
6.56322395
 42
0.10415587
  0
VERTEX
  8
0
 10
3.51485914
 20
6.53165863
 42
0.04348693
  0
VERTEX
  8
0
 10
3.53963930
 20
6.51404951
 42
0.01707056
  0
VERTEX
  8
0
 10
3.56492639
 20
6.50006712
 42
-0.00184671
  0
VERTEX
  8
0
 10
3.58992409
 20
6.48700611
 42
-0.02595450
  0
VERTEX
  8
0
 10
3.61981216
 20
6.46907457
 42
-0.05192333
  0
VERTEX
  8
0
 10
3.64582008
 20
6.44702706
  0
VERTEX
  8
0
 10
3.64565358
 20
6.43401355
  0
VERTEX
  8
0
 10
3.63292949
 20
6.43425378
  0
VERTEX
  8
0
 10
3.52982146
 20
6.49858244
  0
VERTEX
  8
0
 10
3.48342130
 20
6.53894491
  0
VERTEX
  8
0
 10
3.46107819
 20
6.60543207
  0
VERTEX
  8
0
 10
3.47661765
 20
6.65801935
  0
VERTEX
  8
0
 10
3.52029292
 20
6.71871768
  0
VERTEX
  8
0
 10
3.64117896
 20
6.81554038
  0
VERTEX
  8
0
 10
3.72370520
 20
6.83894428
  0
VERTEX
  8
0
 10
3.81690963
 20
6.84099634
  0
VERTEX
  8
0
 10
3.90898712
 20
6.82328551
  0
VERTEX
  8
0
 10
3.98813253
 20
6.78740073
  0
VERTEX
  8
0
 10
4.04254074
 20
6.73493096
  0
VERTEX
  8
0
 10
4.06040662
 20
6.66746514
  0
VERTEX
  8
0
 10
4.02992505
 20
6.58659222
  0
VERTEX
  8
0
 10
3.93929090
 20
6.49390115
  0
VERTEX
  8
0
 10
3.92423935
 20
6.49496571
  0
VERTEX
  8
0
 10
3.92539219
 20
6.50867939
  0
SEQEND
  0
POLYLINE
  8
Default_Layer
 66
   1
 39
0.000000
 70
    1
  0
VERTEX
  8
0
 10
6.21758332
 20
6.24448933
  0
VERTEX
  8
0
 10
6.25556535
 20
6.24811675
  0
VERTEX
  8
0
 10
6.29166667
 20
6.25924186
  0
VERTEX
  8
0
 10
6.24663799
 20
6.17537356
  0
VERTEX
  8
0
 10
6.23006535
 20
6.07816103
  0
VERTEX
  8
0
 10
6.23611111
 20
5.84257519
  0
VERTEX
  8
0
 10
6.09722222
 20
5.66201964
  0
VERTEX
  8
0
 10
6.09722222
 20
5.46757519
  0
VERTEX
  8
0
 10
5.90194904
 20
5.45446051
  0
VERTEX
  8
0
 10
5.84019949
 20
5.43145305
  0
VERTEX
  8
0
 10
5.79166667
 20
5.38424186
  0
VERTEX
  8
0
 10
5.78352070
 20
5.39539971
  0
VERTEX
  8
0
 10
5.79585824
 20
5.41229107
  0
VERTEX
  8
0
 10
5.80609999
 20
5.43251894
  0
VERTEX
  8
0
 10
5.79166667
 20
5.45368630
  0
VERTEX
  8
0
 10
5.72094116
 20
5.42357041
  0
VERTEX
  8
0
 10
5.67251258
 20
5.37125600
  0
VERTEX
  8
0
 10
5.64546659
 20
5.29765674
  0
VERTEX
  8
0
 10
5.63888889
 20
5.20368630
  0
VERTEX
  8
0
 10
5.66124934
 20
5.17089003
  0
VERTEX
  8
0
 10
5.68650997
 20
5.15757128
  0
VERTEX
  8
0
 10
5.75000000
 20
5.13424186
  0
VERTEX
  8
0
 10
5.74112152
 20
5.10477894
  0
VERTEX
  8
0
 10
5.71977629
 20
5.08788117
  0
VERTEX
  8
0
 10
5.69965403
 20
5.06985819
  0
VERTEX
  8
0
 10
5.69444444
 20
5.03701964
  0
VERTEX
  8
0
 10
5.71709988
 20
4.98579295
  0
VERTEX
  8
0
 10
5.74908367
 20
4.95142479
  0
VERTEX
  8
0
 10
5.82927490
 20
4.91790669
  0
VERTEX
  8
0
 10
5.91149535
 20
4.90575062
  0
VERTEX
  8
0
 10
5.97222222
 20
4.88424186
  0
VERTEX
  8
0
 10
5.99921560
 20
4.82172508
  0
VERTEX
  8
0
 10
5.98732542
 20
4.76118673
  0
VERTEX
  8
0
 10
5.95052254
 20
4.71356483
  0
VERTEX
  8
0
 10
5.90277778
 20
4.68979741
  0
VERTEX
  8
0
 10
5.84829105
 20
4.69794456
  0
VERTEX
  8
0
 10
5.79622560
 20
4.72927353
  0
VERTEX
  8
0
 10
5.74535290
 20
4.76517000
  0
VERTEX
  8
0
 10
5.69444444
 20
4.78701964
  0
VERTEX
  8
0
 10
5.57725685
 20
4.77495721
  0
VERTEX
  8
0
 10
5.44444444
 20
4.75924186
  0
VERTEX
  8
0
 10
5.36844604
 20
4.77550327
  0
VERTEX
  8
0
 10
5.29249574
 20
4.80553412
  0
VERTEX
  8
0
 10
5.21613090
 20
4.83672440
  0
VERTEX
  8
0
 10
5.13888889
 20
4.85646408
  0
VERTEX
  8
0
 10
4.96391987
 20
4.85462110
  0
VERTEX
  8
0
 10
4.79166667
 20
4.84257519
  0
VERTEX
  8
0
 10
4.67980737
 20
4.85570281
  0
VERTEX
  8
0
 10
4.57726726
 20
4.88828256
  0
VERTEX
  8
0
 10
4.48123241
 20
4.92231418
  0
VERTEX
  8
0
 10
4.38888889
 20
4.93979741
  0
VERTEX
  8
0
 10
4.24833480
 20
4.91687388
  0
VERTEX
  8
0
 10
4.17874624
 20
4.90144070
  0
VERTEX
  8
0
 10
4.11111111
 20
4.89813075
  0
VERTEX
  8
0
 10
4.05453061
 20
4.91483942
  0
VERTEX
  8
0
 10
4.00150563
 20
4.94517822
  0
VERTEX
  8
0
 10
3.94772784
 20
4.97629884
  0
VERTEX
  8
0
 10
3.88888889
 20
4.99535297
  0
VERTEX
  8
0
 10
3.80005138
 20
4.99646538
  0
VERTEX
  8
0
 10
3.71899296
 20
4.98424801
  0
VERTEX
  8
0
 10
3.63954917
 20
4.97411091
  0
VERTEX
  8
0
 10
3.55555556
 20
4.98146408
  0
VERTEX
  8
0
 10
3.52297310
 20
5.00986048
  0
VERTEX
  8
0
 10
3.50661505
 20
5.04124476
  0
VERTEX
  8
0
 10
3.50874192
 20
5.11260010
  0
VERTEX
  8
0
 10
3.53427560
 20
5.19477631
  0
VERTEX
  8
0
 10
3.55555556
 20
5.28701964
  0
VERTEX
  8
0
 10
3.54501657
 20
5.39903378
  0
VERTEX
  8
0
 10
3.52777778
 20
5.50924186
  0
VERTEX
  8
0
 10
3.53636803
 20
5.60216698
  0
VERTEX
  8
0
 10
3.55734869
 20
5.69569176
  0
VERTEX
  8
0
 10
3.57743278
 20
5.78974159
  0
VERTEX
  8
0
 10
3.58333333
 20
5.88424186
  0
VERTEX
  8
0
 10
3.53696925
 20
6.09628625
  0
VERTEX
  8
0
 10
3.55495504
 20
6.25591080
  0
VERTEX
  8
0
 10
3.56631277
 20
6.41231455
  0
VERTEX
  8
0
 10
3.59884082
 20
6.40089678
  0
VERTEX
  8
0
 10
3.64677253
 20
6.39167485
  0
VERTEX
  8
0
 10
3.69540532
 20
6.40462134
 42
-0.00938687
  0
VERTEX
  8
0
 10
3.70279089
 20
6.35976221
 42
0.00067671
  0
VERTEX
  8
0
 10
3.71612533
 20
6.26683807
 42
0.01530474
  0
VERTEX
  8
0
 10
3.73669808
 20
6.14986516
 42
0.02075593
  0
VERTEX
  8
0
 10
3.76145876
 20
6.05246706
 42
0.02726037
  0
VERTEX
  8
0
 10
3.79537418
 20
5.95895830
 42
0.03538265
  0
VERTEX
  8
0
 10
3.81811440
 20
5.91593606
  0
VERTEX
  8
0
 10
3.83817111
 20
5.88293670
 42
-0.02678998
  0
VERTEX
  8
0
 10
3.85704582
 20
5.84760718
 42
-0.00852630
  0
VERTEX
  8
0
 10
3.86431137
 20
5.83092663
 42
0.00159461
  0
VERTEX
  8
0
 10
3.88019078
 20
5.79411133
 42
0.02149901
  0
VERTEX
  8
0
 10
3.90339114
 20
5.74686503
 42
0.02916889
  0
VERTEX
  8
0
 10
3.92816842
 20
5.70740514
 42
0.00970623
  0
VERTEX
  8
0
 10
3.94631479
 20
5.68325045
 42
-0.01262629
  0
VERTEX
  8
0
 10
3.96422061
 20
5.65883057
 42
-0.00768792
  0
VERTEX
  8
0
 10
3.97556115
 20
5.64143462
 42
0.05747140
  0
VERTEX
  8
0
 10
4.12078673
 20
5.46560665
 42
0.01707880
  0
VERTEX
  8
0
 10
4.19177008
 20
5.40142322
 42
0.00885017
  0
VERTEX
  8
0
 10
4.24630052
 20
5.35664202
  0
VERTEX
  8
0
 10
4.26557550
 20
5.34060307
 42
0.03251195
  0
VERTEX
  8
0
 10
4.26785910
 20
5.33904368
  0
VERTEX
  8
0
 10
4.27821250
 20
5.32767330
 42
0.07337118
  0
VERTEX
  8
0
 10
4.29687756
 20
5.31358556
 42
0.00492229
  0
VERTEX
  8
0
 10
4.31190321
 20
5.30531694
 42
-0.04156112
  0
VERTEX
  8
0
 10
4.32190512
 20
5.29833072
 42
0.03907057
  0
VERTEX
  8
0
 10
4.34293997
 20
5.28463660
 42
0.02408517
  0
VERTEX
  8
0
 10
4.38514921
 20
5.26363372
 42
0.02980618
  0
VERTEX
  8
0
 10
4.43655967
 20
5.24419688
 42
0.01305973
  0
VERTEX
  8
0
 10
4.44836908
 20
5.24100739
 42
0.05819443
  0
VERTEX
  8
0
 10
4.47891266
 20
5.21840054
 42
0.08870414
  0
VERTEX
  8
0
 10
4.50010752
 20
5.21107349
 42
-0.01551923
  0
VERTEX
  8
0
 10
4.56790004
 20
5.19552508
 42
-0.00483831
  0
VERTEX
  8
0
 10
4.62192652
 20
5.18096401
 42
0.00459085
  0
VERTEX
  8
0
 10
4.68264879
 20
5.16478335
 42
0.01568677
  0
VERTEX
  8
0
 10
4.74945193
 20
5.14993711
 42
0.04603735
  0
VERTEX
  8
0
 10
4.87942052
 20
5.13840177
 42
0.04316343
  0
VERTEX
  8
0
 10
5.05589665
 20
5.15407426
 42
0.02401724
  0
VERTEX
  8
0
 10
5.14497369
 20
5.17403779
 42
0.01979951
  0
VERTEX
  8
0
 10
5.18856647
 20
5.18797420
 42
0.00428987
  0
VERTEX
  8
0
 10
5.20064742
 20
5.19249430
  0
VERTEX
  8
0
 10
5.20085808
 20
5.19256054
  0
VERTEX
  8
0
 10
5.20948821
 20
5.19466205
 42
0.03459586
  0
VERTEX
  8
0
 10
5.26650625
 20
5.21489340
 42
0.01733701
  0
VERTEX
  8
0
 10
5.32560230
 20
5.24096900
 42
-0.00282433
  0
VERTEX
  8
0
 10
5.34225082
 20
5.24859336
 42
0.02175141
  0
VERTEX
  8
0
 10
5.48952853
 20
5.32976700
 42
0.02819067
  0
VERTEX
  8
0
 10
5.60822370
 20
5.41193843
 42
0.00786247
  0
VERTEX
  8
0
 10
5.66730286
 20
5.46016384
 42
0.01353431
  0
VERTEX
  8
0
 10
5.77622227
 20
5.55641294
 42
0.01377812
  0
VERTEX
  8
0
 10
5.84081907
 20
5.62019085
 42
0.01554839
  0
VERTEX
  8
0
 10
5.88681008
 20
5.67132026
 42
0.02168686
  0
VERTEX
  8
0
 10
5.92367687
 20
5.71916771
 42
0.01807930
  0
VERTEX
  8
0
 10
5.94166177
 20
5.74722217
 42
0.05251285
  0
VERTEX
  8
0
 10
5.97687268
 20
5.79472407
 42
0.00588844
  0
VERTEX
  8
0
 10
5.99234359
 20
5.82131081
 42
-0.02096000
  0
VERTEX
  8
0
 10
6.00736710
 20
5.84491907
 42
-0.03288883
  0
VERTEX
  8
0
 10
6.02948117
 20
5.87171727
 42
0.04636957
  0
VERTEX
  8
0
 10
6.03333105
 20
5.87762167
 42
0.01184180
  0
VERTEX
  8
0
 10
6.04422033
 20
5.89835857
 42
0.00733658
  0
VERTEX
  8
0
 10
6.07301629
 20
5.95716476
 42
0.00967921
  0
VERTEX
  8
0
 10
6.07426442
 20
5.96004578
 42
0.02387490
  0
VERTEX
  8
0
 10
6.12955037
 20
6.07094111
 42
0.04810357
  0
VERTEX
  8
0
 10
6.13401461
 20
6.08599873
 42
-0.08346050
  0
VERTEX
  8
0
 10
6.14099966
 20
6.10117826
 42
-0.00957217
  0
VERTEX
  8
0
 10
6.15558516
 20
6.12138589
 42
0.05534641
  0
VERTEX
  8
0
 10
6.16790445
 20
6.14284162
 42
0.05607120
  0
VERTEX
  8
0
 10
6.17246863
 20
6.15870188
 42
-0.02853302
  0
VERTEX
  8
0
 10
6.18455516
 20
6.20827382
 42
-0.01475204
  0
VERTEX
  8
0
 10
6.20016532
 20
6.24369525
  0
VERTEX
  8
0
 10
6.21758332
 20
6.24448933
  0
SEQEND
  0
ENDSEC
  0
EOF
