0
SECTION
2
HEADER
0
ENDSEC
0
SECTION
2
TABLES
0
ENDSEC
0
SECTION
2
BLOCKS
0
ENDSEC
0
SECTION
2
ENTITIES
0
POLYLINE
8
R2V
62
0
66
1
70
8
0
VERTEX
8
R2V
62
0
70
32
10
1.548780
20
0.768293
30
0
0
VERTEX
8
R2V
62
0
70
32
10
1.500000
20
0.756098
30
0
0
VERTEX
8
R2V
62
0
70
32
10
1.463415
20
0.695122
30
0
0
VERTEX
8
R2V
62
0
70
32
10
1.475610
20
0.548780
30
0
0
VERTEX
8
R2V
62
0
70
32
10
1.524390
20
0.585366
30
0
0
VERTEX
8
R2V
62
0
70
32
10
1.573171
20
0.500000
30
0
0
VERTEX
8
R2V
62
0
70
32
10
1.634146
20
0.524390
30
0
0
VERTEX
8
R2V
62
0
70
32
10
1.670732
20
0.548780
30
0
0
VERTEX
8
R2V
62
0
70
32
10
1.756098
20
0.512195
30
0
0
VERTEX
8
R2V
62
0
70
32
10
1.756098
20
0.634146
30
0
0
VERTEX
8
R2V
62
0
70
32
10
1.695122
20
0.682927
30
0
0
VERTEX
8
R2V
62
0
70
32
10
1.621951
20
0.695122
30
0
0
VERTEX
8
R2V
62
0
70
32
10
1.585366
20
0.743902
30
0
0
VERTEX
8
R2V
62
0
70
32
10
1.548780
20
0.768293
30
0
0
SEQEND
0
POLYLINE
8
R2V
62
0
66
1
70
8
0
VERTEX
8
R2V
62
0
70
32
10
6.756098
20
1.878049
30
0
0
VERTEX
8
R2V
62
0
70
32
10
6.853659
20
1.804878
30
0
0
VERTEX
8
R2V
62
0
70
32
10
6.853659
20
1.621951
30
0
0
VERTEX
8
R2V
62
0
70
32
10
6.804878
20
1.573171
30
0
0
VERTEX
8
R2V
62
0
70
32
10
6.658537
20
1.573171
30
0
0
VERTEX
8
R2V
62
0
70
32
10
6.621951
20
1.597561
30
0
0
VERTEX
8
R2V
62
0
70
32
10
6.585366
20
1.695122
30
0
0
VERTEX
8
R2V
62
0
70
32
10
6.597561
20
1.804878
30
0
0
VERTEX
8
R2V
62
0
70
32
10
6.658537
20
1.865854
30
0
0
VERTEX
8
R2V
62
0
70
32
10
6.756098
20
1.878049
30
0
0
SEQEND
0
POLYLINE
8
R2V
62
0
66
1
70
8
0
VERTEX
8
R2V
62
0
70
32
10
8.536585
20
1.865854
30
0
0
VERTEX
8
R2V
62
0
70
32
10
8.597561
20
1.817073
30
0
0
VERTEX
8
R2V
62
0
70
32
10
8.597561
20
1.719512
30
0
0
VERTEX
8
R2V
62
0
70
32
10
8.341463
20
1.731707
30
0
0
VERTEX
8
R2V
62
0
70
32
10
8.353659
20
1.804878
30
0
0
VERTEX
8
R2V
62
0
70
32
10
8.426829
20
1.865854
30
0
0
VERTEX
8
R2V
62
0
70
32
10
8.536585
20
1.865854
30
0
0
SEQEND
0
POLYLINE
8
R2V
62
0
66
1
70
8
0
VERTEX
8
R2V
62
0
70
32
10
8.500000
20
1.804878
30
0
0
VERTEX
8
R2V
62
0
70
32
10
8.426829
20
1.792683
30
0
0
VERTEX
8
R2V
62
0
70
32
10
8.524390
20
1.780488
30
0
0
VERTEX
8
R2V
62
0
70
32
10
8.500000
20
1.804878
30
0
0
SEQEND
0
POLYLINE
8
R2V
62
0
66
1
70
8
0
VERTEX
8
R2V
62
0
70
32
10
6.743902
20
1.817073
30
0
0
VERTEX
8
R2V
62
0
70
32
10
6.670732
20
1.792683
30
0
0
VERTEX
8
R2V
62
0
70
32
10
6.670732
20
1.646341
30
0
0
VERTEX
8
R2V
62
0
70
32
10
6.682927
20
1.646341
30
0
0
VERTEX
8
R2V
62
0
70
32
10
6.768293
20
1.634146
30
0
0
VERTEX
8
R2V
62
0
70
32
10
6.804878
20
1.719512
30
0
0
VERTEX
8
R2V
62
0
70
32
10
6.780488
20
1.792683
30
0
0
VERTEX
8
R2V
62
0
70
32
10
6.743902
20
1.817073
30
0
0
SEQEND
0
POLYLINE
8
R2V
62
0
66
1
70
8
0
VERTEX
8
R2V
62
0
70
32
10
5.792683
20
2.243902
30
0
0
VERTEX
8
R2V
62
0
70
32
10
5.853659
20
2.195122
30
0
0
VERTEX
8
R2V
62
0
70
32
10
5.853659
20
2.048780
30
0
0
VERTEX
8
R2V
62
0
70
32
10
5.817073
20
2.024390
30
0
0
VERTEX
8
R2V
62
0
70
32
10
5.500000
20
2.036585
30
0
0
VERTEX
8
R2V
62
0
70
32
10
5.475610
20
2.146341
30
0
0
VERTEX
8
R2V
62
0
70
32
10
5.500000
20
2.207317
30
0
0
VERTEX
8
R2V
62
0
70
32
10
5.548780
20
2.219512
30
0
0
VERTEX
8
R2V
62
0
70
32
10
5.548780
20
2.243902
30
0
0
VERTEX
8
R2V
62
0
70
32
10
5.792683
20
2.243902
30
0
0
SEQEND
0
POLYLINE
8
R2V
62
0
66
1
70
8
0
VERTEX
8
R2V
62
0
70
32
10
4.134146
20
2.121951
30
0
0
VERTEX
8
R2V
62
0
70
32
10
4.353659
20
2.097561
30
0
0
VERTEX
8
R2V
62
0
70
32
10
4.451220
20
2.073171
30
0
0
VERTEX
8
R2V
62
0
70
32
10
4.451220
20
1.743902
30
0
0
VERTEX
8
R2V
62
0
70
32
10
4.378049
20
1.756098
30
0
0
VERTEX
8
R2V
62
0
70
32
10
4.280488
20
1.780488
30
0
0
VERTEX
8
R2V
62
0
70
32
10
4.036585
20
1.768293
30
0
0
VERTEX
8
R2V
62
0
70
32
10
4.000000
20
1.682927
30
0
0
VERTEX
8
R2V
62
0
70
32
10
4.012195
20
1.682927
30
0
0
VERTEX
8
R2V
62
0
70
32
10
4.024390
20
1.634146
30
0
0
VERTEX
8
R2V
62
0
70
32
10
4.048780
20
1.634146
30
0
0
VERTEX
8
R2V
62
0
70
32
10
4.073171
20
1.609756
30
0
0
VERTEX
8
R2V
62
0
70
32
10
4.451220
20
1.646341
30
0
0
VERTEX
8
R2V
62
0
70
32
10
4.451220
20
1.353659
30
0
0
VERTEX
8
R2V
62
0
70
32
10
4.219512
20
1.304878
30
0
0
VERTEX
8
R2V
62
0
70
32
10
3.902439
20
1.317073
30
0
0
VERTEX
8
R2V
62
0
70
32
10
3.780488
20
1.353659
30
0
0
VERTEX
8
R2V
62
0
70
32
10
3.695122
20
1.402439
30
0
0
VERTEX
8
R2V
62
0
70
32
10
3.597561
20
1.524390
30
0
0
VERTEX
8
R2V
62
0
70
32
10
3.560976
20
1.756098
30
0
0
VERTEX
8
R2V
62
0
70
32
10
3.597561
20
1.902439
30
0
0
VERTEX
8
R2V
62
0
70
32
10
3.670732
20
2.012195
30
0
0
VERTEX
8
R2V
62
0
70
32
10
3.695122
20
2.012195
30
0
0
VERTEX
8
R2V
62
0
70
32
10
3.695122
20
2.036585
30
0
0
VERTEX
8
R2V
62
0
70
32
10
3.804878
20
2.073171
30
0
0
VERTEX
8
R2V
62
0
70
32
10
3.890244
20
2.109756
30
0
0
VERTEX
8
R2V
62
0
70
32
10
4.134146
20
2.121951
30
0
0
SEQEND
0
POLYLINE
8
R2V
62
0
66
1
70
8
0
VERTEX
8
R2V
62
0
70
32
10
3.073171
20
2.170732
30
0
0
VERTEX
8
R2V
62
0
70
32
10
3.073171
20
2.097561
30
0
0
VERTEX
8
R2V
62
0
70
32
10
3.000000
20
2.097561
30
0
0
VERTEX
8
R2V
62
0
70
32
10
3.000000
20
2.170732
30
0
0
VERTEX
8
R2V
62
0
70
32
10
3.073171
20
2.170732
30
0
0
SEQEND
0
POLYLINE
8
R2V
62
0
66
1
70
8
0
VERTEX
8
R2V
62
0
70
32
10
5.792683
20
2.170732
30
0
0
VERTEX
8
R2V
62
0
70
32
10
5.548780
20
2.170732
30
0
0
VERTEX
8
R2V
62
0
70
32
10
5.560976
20
2.073171
30
0
0
VERTEX
8
R2V
62
0
70
32
10
5.792683
20
2.085366
30
0
0
VERTEX
8
R2V
62
0
70
32
10
5.792683
20
2.170732
30
0
0
SEQEND
0
POLYLINE
8
R2V
62
0
66
1
70
8
0
VERTEX
8
R2V
62
0
70
32
10
8.597561
20
2.024390
30
0
0
VERTEX
8
R2V
62
0
70
32
10
8.792683
20
1.951220
30
0
0
VERTEX
8
R2V
62
0
70
32
10
8.865854
20
1.853659
30
0
0
VERTEX
8
R2V
62
0
70
32
10
8.878049
20
1.609756
30
0
0
VERTEX
8
R2V
62
0
70
32
10
8.414634
20
1.609756
30
0
0
VERTEX
8
R2V
62
0
70
32
10
8.439024
20
1.548780
30
0
0
VERTEX
8
R2V
62
0
70
32
10
8.487805
20
1.548780
30
0
0
VERTEX
8
R2V
62
0
70
32
10
8.573171
20
1.536585
30
0
0
VERTEX
8
R2V
62
0
70
32
10
8.890244
20
1.560976
30
0
0
VERTEX
8
R2V
62
0
70
32
10
8.829268
20
1.378049
30
0
0
VERTEX
8
R2V
62
0
70
32
10
8.560976
20
1.317073
30
0
0
VERTEX
8
R2V
62
0
70
32
10
8.231707
20
1.329268
30
0
0
VERTEX
8
R2V
62
0
70
32
10
8.207317
20
1.353659
30
0
0
VERTEX
8
R2V
62
0
70
32
10
8.146341
20
1.365854
30
0
0
VERTEX
8
R2V
62
0
70
32
10
8.060976
20
1.414634
30
0
0
VERTEX
8
R2V
62
0
70
32
10
8.000000
20
1.573171
30
0
0
VERTEX
8
R2V
62
0
70
32
10
8.012195
20
1.780488
30
0
0
VERTEX
8
R2V
62
0
70
32
10
8.097561
20
1.926829
30
0
0
VERTEX
8
R2V
62
0
70
32
10
8.170732
20
1.975610
30
0
0
VERTEX
8
R2V
62
0
70
32
10
8.256098
20
2.012195
30
0
0
VERTEX
8
R2V
62
0
70
32
10
8.597561
20
2.024390
30
0
0
SEQEND
0
POLYLINE
8
R2V
62
0
66
1
70
8
0
VERTEX
8
R2V
62
0
70
32
10
9.646341
20
2.012195
30
0
0
VERTEX
8
R2V
62
0
70
32
10
9.731707
20
1.975610
30
0
0
VERTEX
8
R2V
62
0
70
32
10
9.780488
20
1.939024
30
0
0
VERTEX
8
R2V
62
0
70
32
10
9.804878
20
1.878049
30
0
0
VERTEX
8
R2V
62
0
70
32
10
9.817073
20
1.878049
30
0
0
VERTEX
8
R2V
62
0
70
32
10
9.829268
20
1.341463
30
0
0
VERTEX
8
R2V
62
0
70
32
10
9.439024
20
1.341463
30
0
0
VERTEX
8
R2V
62
0
70
32
10
9.426829
20
1.682927
30
0
0
VERTEX
8
R2V
62
0
70
32
10
9.426829
20
1.707317
30
0
0
VERTEX
8
R2V
62
0
70
32
10
9.353659
20
1.707317
30
0
0
VERTEX
8
R2V
62
0
70
32
10
9.329268
20
1.670732
30
0
0
VERTEX
8
R2V
62
0
70
32
10
9.329268
20
1.341463
30
0
0
VERTEX
8
R2V
62
0
70
32
10
8.926829
20
1.341463
30
0
0
VERTEX
8
R2V
62
0
70
32
10
8.926829
20
2.000000
30
0
0
VERTEX
8
R2V
62
0
70
32
10
9.304878
20
2.000000
30
0
0
VERTEX
8
R2V
62
0
70
32
10
9.317073
20
1.939024
30
0
0
VERTEX
8
R2V
62
0
70
32
10
9.402439
20
2.000000
30
0
0
VERTEX
8
R2V
62
0
70
32
10
9.646341
20
2.012195
30
0
0
SEQEND
0
POLYLINE
8
R2V
62
0
66
1
70
8
0
VERTEX
8
R2V
62
0
70
32
10
7.939024
20
2.012195
30
0
0
VERTEX
8
R2V
62
0
70
32
10
7.975610
20
2.000000
30
0
0
VERTEX
8
R2V
62
0
70
32
10
7.975610
20
1.609756
30
0
0
VERTEX
8
R2V
62
0
70
32
10
7.768293
20
1.597561
30
0
0
VERTEX
8
R2V
62
0
70
32
10
7.731707
20
1.548780
30
0
0
VERTEX
8
R2V
62
0
70
32
10
7.731707
20
1.329268
30
0
0
VERTEX
8
R2V
62
0
70
32
10
7.329268
20
1.329268
30
0
0
VERTEX
8
R2V
62
0
70
32
10
7.329268
20
2.000000
30
0
0
VERTEX
8
R2V
62
0
70
32
10
7.707317
20
2.000000
30
0
0
VERTEX
8
R2V
62
0
70
32
10
7.719512
20
1.951220
30
0
0
VERTEX
8
R2V
62
0
70
32
10
7.719512
20
1.975610
30
0
0
VERTEX
8
R2V
62
0
70
32
10
7.756098
20
2.000000
30
0
0
VERTEX
8
R2V
62
0
70
32
10
7.939024
20
2.012195
30
0
0
SEQEND
0
POLYLINE
8
R2V
62
0
66
1
70
8
0
VERTEX
8
R2V
62
0
70
32
10
4.902439
20
2.134146
30
0
0
VERTEX
8
R2V
62
0
70
32
10
4.914634
20
1.951220
30
0
0
VERTEX
8
R2V
62
0
70
32
10
5.048780
20
2.000000
30
0
0
VERTEX
8
R2V
62
0
70
32
10
5.219512
20
2.000000
30
0
0
VERTEX
8
R2V
62
0
70
32
10
5.341463
20
1.939024
30
0
0
VERTEX
8
R2V
62
0
70
32
10
5.402439
20
1.865854
30
0
0
VERTEX
8
R2V
62
0
70
32
10
5.414634
20
1.329268
30
0
0
VERTEX
8
R2V
62
0
70
32
10
5.024390
20
1.329268
30
0
0
VERTEX
8
R2V
62
0
70
32
10
5.012195
20
1.695122
30
0
0
VERTEX
8
R2V
62
0
70
32
10
4.926829
20
1.695122
30
0
0
VERTEX
8
R2V
62
0
70
32
10
4.902439
20
1.670732
30
0
0
VERTEX
8
R2V
62
0
70
32
10
4.902439
20
1.329268
30
0
0
VERTEX
8
R2V
62
0
70
32
10
4.512195
20
1.329268
30
0
0
VERTEX
8
R2V
62
0
70
32
10
4.512195
20
2.134146
30
0
0
VERTEX
8
R2V
62
0
70
32
10
4.902439
20
2.134146
30
0
0
SEQEND
0
POLYLINE
8
R2V
62
0
66
1
70
8
0
VERTEX
8
R2V
62
0
70
32
10
7.219512
20
2.073171
30
0
0
VERTEX
8
R2V
62
0
70
32
10
6.951220
20
2.073171
30
0
0
VERTEX
8
R2V
62
0
70
32
10
6.939024
20
1.780488
30
0
0
VERTEX
8
R2V
62
0
70
32
10
6.878049
20
1.890244
30
0
0
VERTEX
8
R2V
62
0
70
32
10
6.792683
20
1.939024
30
0
0
VERTEX
8
R2V
62
0
70
32
10
6.573171
20
1.939024
30
0
0
VERTEX
8
R2V
62
0
70
32
10
6.560976
20
1.914634
30
0
0
VERTEX
8
R2V
62
0
70
32
10
6.487805
20
1.890244
30
0
0
VERTEX
8
R2V
62
0
70
32
10
6.426829
20
1.780488
30
0
0
VERTEX
8
R2V
62
0
70
32
10
6.426829
20
1.524390
30
0
0
VERTEX
8
R2V
62
0
70
32
10
6.439024
20
1.524390
30
0
0
VERTEX
8
R2V
62
0
70
32
10
6.475610
20
1.451220
30
0
0
VERTEX
8
R2V
62
0
70
32
10
6.500000
20
1.451220
30
0
0
VERTEX
8
R2V
62
0
70
32
10
6.536585
20
1.402439
30
0
0
VERTEX
8
R2V
62
0
70
32
10
6.560976
20
1.402439
30
0
0
VERTEX
8
R2V
62
0
70
32
10
6.597561
20
1.378049
30
0
0
VERTEX
8
R2V
62
0
70
32
10
6.780488
20
1.390244
30
0
0
VERTEX
8
R2V
62
0
70
32
10
6.890244
20
1.439024
30
0
0
VERTEX
8
R2V
62
0
70
32
10
6.951220
20
1.475610
30
0
0
VERTEX
8
R2V
62
0
70
32
10
6.951220
20
1.402439
30
0
0
VERTEX
8
R2V
62
0
70
32
10
7.219512
20
1.402439
30
0
0
VERTEX
8
R2V
62
0
70
32
10
7.219512
20
2.073171
30
0
0
SEQEND
0
POLYLINE
8
R2V
62
0
66
1
70
8
0
VERTEX
8
R2V
62
0
70
32
10
9.621951
20
1.951220
30
0
0
VERTEX
8
R2V
62
0
70
32
10
9.426829
20
1.939024
30
0
0
VERTEX
8
R2V
62
0
70
32
10
9.304878
20
1.853659
30
0
0
VERTEX
8
R2V
62
0
70
32
10
9.268293
20
1.743902
30
0
0
VERTEX
8
R2V
62
0
70
32
10
9.243902
20
1.719512
30
0
0
VERTEX
8
R2V
62
0
70
32
10
9.243902
20
1.939024
30
0
0
VERTEX
8
R2V
62
0
70
32
10
8.987805
20
1.939024
30
0
0
VERTEX
8
R2V
62
0
70
32
10
8.987805
20
1.414634
30
0
0
VERTEX
8
R2V
62
0
70
32
10
9.268293
20
1.414634
30
0
0
VERTEX
8
R2V
62
0
70
32
10
9.280488
20
1.719512
30
0
0
VERTEX
8
R2V
62
0
70
32
10
9.329268
20
1.780488
30
0
0
VERTEX
8
R2V
62
0
70
32
10
9.426829
20
1.780488
30
0
0
VERTEX
8
R2V
62
0
70
32
10
9.463415
20
1.756098
30
0
0
VERTEX
8
R2V
62
0
70
32
10
9.500000
20
1.695122
30
0
0
VERTEX
8
R2V
62
0
70
32
10
9.500000
20
1.414634
30
0
0
VERTEX
8
R2V
62
0
70
32
10
9.768293
20
1.414634
30
0
0
VERTEX
8
R2V
62
0
70
32
10
9.756098
20
1.841463
30
0
0
VERTEX
8
R2V
62
0
70
32
10
9.682927
20
1.939024
30
0
0
VERTEX
8
R2V
62
0
70
32
10
9.621951
20
1.951220
30
0
0
SEQEND
0
POLYLINE
8
R2V
62
0
66
1
70
8
0
VERTEX
8
R2V
62
0
70
32
10
7.914634
20
1.939024
30
0
0
VERTEX
8
R2V
62
0
70
32
10
7.768293
20
1.926829
30
0
0
VERTEX
8
R2V
62
0
70
32
10
7.707317
20
1.841463
30
0
0
VERTEX
8
R2V
62
0
70
32
10
7.695122
20
1.743902
30
0
0
VERTEX
8
R2V
62
0
70
32
10
7.646341
20
1.634146
30
0
0
VERTEX
8
R2V
62
0
70
32
10
7.646341
20
1.926829
30
0
0
VERTEX
8
R2V
62
0
70
32
10
7.402439
20
1.926829
30
0
0
VERTEX
8
R2V
62
0
70
32
10
7.402439
20
1.402439
30
0
0
VERTEX
8
R2V
62
0
70
32
10
7.670732
20
1.402439
30
0
0
VERTEX
8
R2V
62
0
70
32
10
7.682927
20
1.609756
30
0
0
VERTEX
8
R2V
62
0
70
32
10
7.695122
20
1.646341
30
0
0
VERTEX
8
R2V
62
0
70
32
10
7.743902
20
1.658537
30
0
0
VERTEX
8
R2V
62
0
70
32
10
7.914634
20
1.682927
30
0
0
VERTEX
8
R2V
62
0
70
32
10
7.914634
20
1.939024
30
0
0
SEQEND
0
POLYLINE
8
R2V
62
0
66
1
70
8
0
VERTEX
8
R2V
62
0
70
32
10
4.341463
20
2.048780
30
0
0
VERTEX
8
R2V
62
0
70
32
10
3.829268
20
2.036585
30
0
0
VERTEX
8
R2V
62
0
70
32
10
3.829268
20
2.012195
30
0
0
VERTEX
8
R2V
62
0
70
32
10
3.756098
20
2.000000
30
0
0
VERTEX
8
R2V
62
0
70
32
10
3.707317
20
1.963415
30
0
0
VERTEX
8
R2V
62
0
70
32
10
3.682927
20
1.914634
30
0
0
VERTEX
8
R2V
62
0
70
32
10
3.646341
20
1.853659
30
0
0
VERTEX
8
R2V
62
0
70
32
10
3.646341
20
1.585366
30
0
0
VERTEX
8
R2V
62
0
70
32
10
3.658537
20
1.585366
30
0
0
VERTEX
8
R2V
62
0
70
32
10
3.682927
20
1.512195
30
0
0
VERTEX
8
R2V
62
0
70
32
10
3.695122
20
1.512195
30
0
0
VERTEX
8
R2V
62
0
70
32
10
3.707317
20
1.463415
30
0
0
VERTEX
8
R2V
62
0
70
32
10
3.731707
20
1.463415
30
0
0
VERTEX
8
R2V
62
0
70
32
10
3.768293
20
1.426829
30
0
0
VERTEX
8
R2V
62
0
70
32
10
3.804878
20
1.426829
30
0
0
VERTEX
8
R2V
62
0
70
32
10
3.817073
20
1.402439
30
0
0
VERTEX
8
R2V
62
0
70
32
10
3.878049
20
1.402439
30
0
0
VERTEX
8
R2V
62
0
70
32
10
3.963415
20
1.365854
30
0
0
VERTEX
8
R2V
62
0
70
32
10
4.268293
20
1.378049
30
0
0
VERTEX
8
R2V
62
0
70
32
10
4.378049
20
1.402439
30
0
0
VERTEX
8
R2V
62
0
70
32
10
4.378049
20
1.573171
30
0
0
VERTEX
8
R2V
62
0
70
32
10
4.060976
20
1.548780
30
0
0
VERTEX
8
R2V
62
0
70
32
10
4.000000
20
1.573171
30
0
0
VERTEX
8
R2V
62
0
70
32
10
3.963415
20
1.609756
30
0
0
VERTEX
8
R2V
62
0
70
32
10
3.963415
20
1.780488
30
0
0
VERTEX
8
R2V
62
0
70
32
10
4.048780
20
1.829268
30
0
0
VERTEX
8
R2V
62
0
70
32
10
4.329268
20
1.829268
30
0
0
VERTEX
8
R2V
62
0
70
32
10
4.378049
20
1.817073
30
0
0
VERTEX
8
R2V
62
0
70
32
10
4.378049
20
2.036585
30
0
0
VERTEX
8
R2V
62
0
70
32
10
4.341463
20
2.048780
30
0
0
SEQEND
0
POLYLINE
8
R2V
62
0
66
1
70
8
0
VERTEX
8
R2V
62
0
70
32
10
8.548780
20
1.963415
30
0
0
VERTEX
8
R2V
62
0
70
32
10
8.280488
20
1.951220
30
0
0
VERTEX
8
R2V
62
0
70
32
10
8.158537
20
1.890244
30
0
0
VERTEX
8
R2V
62
0
70
32
10
8.073171
20
1.780488
30
0
0
VERTEX
8
R2V
62
0
70
32
10
8.048780
20
1.731707
30
0
0
VERTEX
8
R2V
62
0
70
32
10
8.060976
20
1.560976
30
0
0
VERTEX
8
R2V
62
0
70
32
10
8.073171
20
1.560976
30
0
0
VERTEX
8
R2V
62
0
70
32
10
8.085366
20
1.500000
30
0
0
VERTEX
8
R2V
62
0
70
32
10
8.097561
20
1.500000
30
0
0
VERTEX
8
R2V
62
0
70
32
10
8.121951
20
1.451220
30
0
0
VERTEX
8
R2V
62
0
70
32
10
8.146341
20
1.451220
30
0
0
VERTEX
8
R2V
62
0
70
32
10
8.182927
20
1.414634
30
0
0
VERTEX
8
R2V
62
0
70
32
10
8.219512
20
1.414634
30
0
0
VERTEX
8
R2V
62
0
70
32
10
8.243902
20
1.390244
30
0
0
VERTEX
8
R2V
62
0
70
32
10
8.317073
20
1.390244
30
0
0
VERTEX
8
R2V
62
0
70
32
10
8.524390
20
1.378049
30
0
0
VERTEX
8
R2V
62
0
70
32
10
8.780488
20
1.439024
30
0
0
VERTEX
8
R2V
62
0
70
32
10
8.804878
20
1.500000
30
0
0
VERTEX
8
R2V
62
0
70
32
10
8.390244
20
1.500000
30
0
0
VERTEX
8
R2V
62
0
70
32
10
8.353659
20
1.548780
30
0
0
VERTEX
8
R2V
62
0
70
32
10
8.365854
20
1.670732
30
0
0
VERTEX
8
R2V
62
0
70
32
10
8.829268
20
1.670732
30
0
0
VERTEX
8
R2V
62
0
70
32
10
8.817073
20
1.792683
30
0
0
VERTEX
8
R2V
62
0
70
32
10
8.768293
20
1.878049
30
0
0
VERTEX
8
R2V
62
0
70
32
10
8.695122
20
1.926829
30
0
0
VERTEX
8
R2V
62
0
70
32
10
8.548780
20
1.963415
30
0
0
SEQEND
0
POLYLINE
8
R2V
62
0
66
1
70
8
0
VERTEX
8
R2V
62
0
70
32
10
6.256098
20
2.073171
30
0
0
VERTEX
8
R2V
62
0
70
32
10
5.975610
20
2.073171
30
0
0
VERTEX
8
R2V
62
0
70
32
10
5.975610
20
1.402439
30
0
0
VERTEX
8
R2V
62
0
70
32
10
6.256098
20
1.402439
30
0
0
VERTEX
8
R2V
62
0
70
32
10
6.256098
20
2.073171
30
0
0
SEQEND
0
POLYLINE
8
R2V
62
0
66
1
70
8
0
VERTEX
8
R2V
62
0
70
32
10
5.817073
20
1.926829
30
0
0
VERTEX
8
R2V
62
0
70
32
10
5.536585
20
1.926829
30
0
0
VERTEX
8
R2V
62
0
70
32
10
5.536585
20
1.402439
30
0
0
VERTEX
8
R2V
62
0
70
32
10
5.817073
20
1.402439
30
0
0
VERTEX
8
R2V
62
0
70
32
10
5.817073
20
1.926829
30
0
0
SEQEND
0
POLYLINE
8
R2V
62
0
66
1
70
8
0
VERTEX
8
R2V
62
0
70
32
10
4.829268
20
2.060976
30
0
0
VERTEX
8
R2V
62
0
70
32
10
4.560976
20
2.060976
30
0
0
VERTEX
8
R2V
62
0
70
32
10
4.560976
20
1.402439
30
0
0
VERTEX
8
R2V
62
0
70
32
10
4.829268
20
1.402439
30
0
0
VERTEX
8
R2V
62
0
70
32
10
4.841463
20
1.682927
30
0
0
VERTEX
8
R2V
62
0
70
32
10
4.890244
20
1.756098
30
0
0
VERTEX
8
R2V
62
0
70
32
10
4.987805
20
1.780488
30
0
0
VERTEX
8
R2V
62
0
70
32
10
5.073171
20
1.731707
30
0
0
VERTEX
8
R2V
62
0
70
32
10
5.073171
20
1.402439
30
0
0
VERTEX
8
R2V
62
0
70
32
10
5.353659
20
1.402439
30
0
0
VERTEX
8
R2V
62
0
70
32
10
5.341463
20
1.841463
30
0
0
VERTEX
8
R2V
62
0
70
32
10
5.256098
20
1.914634
30
0
0
VERTEX
8
R2V
62
0
70
32
10
5.073171
20
1.939024
30
0
0
VERTEX
8
R2V
62
0
70
32
10
4.951220
20
1.890244
30
0
0
VERTEX
8
R2V
62
0
70
32
10
4.902439
20
1.829268
30
0
0
VERTEX
8
R2V
62
0
70
32
10
4.829268
20
1.853659
30
0
0
VERTEX
8
R2V
62
0
70
32
10
4.829268
20
2.060976
30
0
0
SEQEND
0
POLYLINE
8
R2V
62
0
66
1
70
8
0
VERTEX
8
R2V
62
0
70
32
10
7.280488
20
2.134146
30
0
0
VERTEX
8
R2V
62
0
70
32
10
7.280488
20
1.329268
30
0
0
VERTEX
8
R2V
62
0
70
32
10
6.890244
20
1.329268
30
0
0
VERTEX
8
R2V
62
0
70
32
10
6.878049
20
1.365854
30
0
0
VERTEX
8
R2V
62
0
70
32
10
6.817073
20
1.329268
30
0
0
VERTEX
8
R2V
62
0
70
32
10
6.634146
20
1.304878
30
0
0
VERTEX
8
R2V
62
0
70
32
10
6.512195
20
1.341463
30
0
0
VERTEX
8
R2V
62
0
70
32
10
6.414634
20
1.426829
30
0
0
VERTEX
8
R2V
62
0
70
32
10
6.402439
20
1.475610
30
0
0
VERTEX
8
R2V
62
0
70
32
10
6.365854
20
1.536585
30
0
0
VERTEX
8
R2V
62
0
70
32
10
6.378049
20
1.804878
30
0
0
VERTEX
8
R2V
62
0
70
32
10
6.426829
20
1.926829
30
0
0
VERTEX
8
R2V
62
0
70
32
10
6.475610
20
1.951220
30
0
0
VERTEX
8
R2V
62
0
70
32
10
6.487805
20
1.975610
30
0
0
VERTEX
8
R2V
62
0
70
32
10
6.548780
20
1.987805
30
0
0
VERTEX
8
R2V
62
0
70
32
10
6.621951
20
2.012195
30
0
0
VERTEX
8
R2V
62
0
70
32
10
6.743902
20
2.012195
30
0
0
VERTEX
8
R2V
62
0
70
32
10
6.890244
20
1.963415
30
0
0
VERTEX
8
R2V
62
0
70
32
10
6.890244
20
2.134146
30
0
0
VERTEX
8
R2V
62
0
70
32
10
7.280488
20
2.134146
30
0
0
SEQEND
0
POLYLINE
8
R2V
62
0
66
1
70
8
0
VERTEX
8
R2V
62
0
70
32
10
6.317073
20
2.134146
30
0
0
VERTEX
8
R2V
62
0
70
32
10
6.317073
20
1.329268
30
0
0
VERTEX
8
R2V
62
0
70
32
10
5.914634
20
1.329268
30
0
0
VERTEX
8
R2V
62
0
70
32
10
5.914634
20
2.134146
30
0
0
VERTEX
8
R2V
62
0
70
32
10
6.317073
20
2.134146
30
0
0
SEQEND
0
POLYLINE
8
R2V
62
0
66
1
70
8
0
VERTEX
8
R2V
62
0
70
32
10
5.878049
20
2.000000
30
0
0
VERTEX
8
R2V
62
0
70
32
10
5.878049
20
1.329268
30
0
0
VERTEX
8
R2V
62
0
70
32
10
5.475610
20
1.329268
30
0
0
VERTEX
8
R2V
62
0
70
32
10
5.475610
20
2.000000
30
0
0
VERTEX
8
R2V
62
0
70
32
10
5.560976
20
2.000000
30
0
0
VERTEX
8
R2V
62
0
70
32
10
5.768293
20
1.987805
30
0
0
VERTEX
8
R2V
62
0
70
32
10
5.878049
20
2.000000
30
0
0
SEQEND
0
POLYLINE
8
R2V
62
0
66
1
70
8
0
VERTEX
8
R2V
62
0
70
32
10
5.548780
20
2.646341
30
0
0
VERTEX
8
R2V
62
0
70
32
10
5.597561
20
2.609756
30
0
0
VERTEX
8
R2V
62
0
70
32
10
5.597561
20
2.451220
30
0
0
VERTEX
8
R2V
62
0
70
32
10
5.573171
20
2.426829
30
0
0
VERTEX
8
R2V
62
0
70
32
10
5.280488
20
2.426829
30
0
0
VERTEX
8
R2V
62
0
70
32
10
5.231707
20
2.475610
30
0
0
VERTEX
8
R2V
62
0
70
32
10
5.231707
20
2.597561
30
0
0
VERTEX
8
R2V
62
0
70
32
10
5.292683
20
2.646341
30
0
0
VERTEX
8
R2V
62
0
70
32
10
5.548780
20
2.646341
30
0
0
SEQEND
0
POLYLINE
8
R2V
62
0
66
1
70
8
0
VERTEX
8
R2V
62
0
70
32
10
5.524390
20
2.597561
30
0
0
VERTEX
8
R2V
62
0
70
32
10
5.304878
20
2.585366
30
0
0
VERTEX
8
R2V
62
0
70
32
10
5.280488
20
2.524390
30
0
0
VERTEX
8
R2V
62
0
70
32
10
5.292683
20
2.524390
30
0
0
VERTEX
8
R2V
62
0
70
32
10
5.304878
20
2.487805
30
0
0
VERTEX
8
R2V
62
0
70
32
10
5.548780
20
2.500000
30
0
0
VERTEX
8
R2V
62
0
70
32
10
5.548780
20
2.573171
30
0
0
VERTEX
8
R2V
62
0
70
32
10
5.524390
20
2.597561
30
0
0
SEQEND
0
POLYLINE
8
R2V
62
0
66
1
70
8
0
VERTEX
8
R2V
62
0
70
32
10
3.036585
20
2.329268
30
0
0
VERTEX
8
R2V
62
0
70
32
10
3.036585
20
2.268293
30
0
0
VERTEX
8
R2V
62
0
70
32
10
2.975610
20
2.268293
30
0
0
VERTEX
8
R2V
62
0
70
32
10
2.975610
20
2.329268
30
0
0
VERTEX
8
R2V
62
0
70
32
10
3.036585
20
2.329268
30
0
0
SEQEND
0
POLYLINE
8
R2V
62
0
66
1
70
8
0
VERTEX
8
R2V
62
0
70
32
10
2.939024
20
3.085366
30
0
0
VERTEX
8
R2V
62
0
70
32
10
2.939024
20
3.000000
30
0
0
VERTEX
8
R2V
62
0
70
32
10
2.878049
20
3.000000
30
0
0
VERTEX
8
R2V
62
0
70
32
10
2.878049
20
3.085366
30
0
0
VERTEX
8
R2V
62
0
70
32
10
2.939024
20
3.085366
30
0
0
SEQEND
0
POLYLINE
8
R2V
62
0
66
1
70
8
0
VERTEX
8
R2V
62
0
70
32
10
4.426829
20
2.939024
30
0
0
VERTEX
8
R2V
62
0
70
32
10
4.560976
20
2.926829
30
0
0
VERTEX
8
R2V
62
0
70
32
10
4.560976
20
2.731707
30
0
0
VERTEX
8
R2V
62
0
70
32
10
4.219512
20
2.719512
30
0
0
VERTEX
8
R2V
62
0
70
32
10
4.219512
20
2.695122
30
0
0
VERTEX
8
R2V
62
0
70
32
10
4.560976
20
2.695122
30
0
0
VERTEX
8
R2V
62
0
70
32
10
4.560976
20
2.463415
30
0
0
VERTEX
8
R2V
62
0
70
32
10
4.219512
20
2.463415
30
0
0
VERTEX
8
R2V
62
0
70
32
10
4.219512
20
2.292683
30
0
0
VERTEX
8
R2V
62
0
70
32
10
3.573171
20
2.292683
30
0
0
VERTEX
8
R2V
62
0
70
32
10
3.573171
20
2.463415
30
0
0
VERTEX
8
R2V
62
0
70
32
10
3.426829
20
2.463415
30
0
0
VERTEX
8
R2V
62
0
70
32
10
3.426829
20
2.695122
30
0
0
VERTEX
8
R2V
62
0
70
32
10
3.573171
20
2.695122
30
0
0
VERTEX
8
R2V
62
0
70
32
10
3.585366
20
2.829268
30
0
0
VERTEX
8
R2V
62
0
70
32
10
3.658537
20
2.890244
30
0
0
VERTEX
8
R2V
62
0
70
32
10
3.817073
20
2.926829
30
0
0
VERTEX
8
R2V
62
0
70
32
10
4.426829
20
2.939024
30
0
0
SEQEND
0
POLYLINE
8
R2V
62
0
66
1
70
8
0
VERTEX
8
R2V
62
0
70
32
10
5.743902
20
2.817073
30
0
0
VERTEX
8
R2V
62
0
70
32
10
5.987805
20
2.768293
30
0
0
VERTEX
8
R2V
62
0
70
32
10
6.000000
20
2.743902
30
0
0
VERTEX
8
R2V
62
0
70
32
10
6.036585
20
2.743902
30
0
0
VERTEX
8
R2V
62
0
70
32
10
6.146341
20
2.658537
30
0
0
VERTEX
8
R2V
62
0
70
32
10
6.170732
20
2.500000
30
0
0
VERTEX
8
R2V
62
0
70
32
10
6.134146
20
2.414634
30
0
0
VERTEX
8
R2V
62
0
70
32
10
6.024390
20
2.329268
30
0
0
VERTEX
8
R2V
62
0
70
32
10
5.890244
20
2.317073
30
0
0
VERTEX
8
R2V
62
0
70
32
10
5.829268
20
2.292683
30
0
0
VERTEX
8
R2V
62
0
70
32
10
4.975610
20
2.304878
30
0
0
VERTEX
8
R2V
62
0
70
32
10
4.804878
20
2.353659
30
0
0
VERTEX
8
R2V
62
0
70
32
10
4.707317
20
2.439024
30
0
0
VERTEX
8
R2V
62
0
70
32
10
4.682927
20
2.500000
30
0
0
VERTEX
8
R2V
62
0
70
32
10
4.695122
20
2.609756
30
0
0
VERTEX
8
R2V
62
0
70
32
10
4.743902
20
2.682927
30
0
0
VERTEX
8
R2V
62
0
70
32
10
4.780488
20
2.695122
30
0
0
VERTEX
8
R2V
62
0
70
32
10
4.780488
20
2.719512
30
0
0
VERTEX
8
R2V
62
0
70
32
10
4.951220
20
2.792683
30
0
0
VERTEX
8
R2V
62
0
70
32
10
5.109756
20
2.817073
30
0
0
VERTEX
8
R2V
62
0
70
32
10
5.743902
20
2.817073
30
0
0
SEQEND
0
POLYLINE
8
R2V
62
0
66
1
70
8
0
VERTEX
8
R2V
62
0
70
32
10
7.292683
20
2.731707
30
0
0
VERTEX
8
R2V
62
0
70
32
10
6.963415
20
2.719512
30
0
0
VERTEX
8
R2V
62
0
70
32
10
6.939024
20
2.670732
30
0
0
VERTEX
8
R2V
62
0
70
32
10
6.914634
20
2.670732
30
0
0
VERTEX
8
R2V
62
0
70
32
10
6.878049
20
2.585366
30
0
0
VERTEX
8
R2V
62
0
70
32
10
6.829268
20
2.536585
30
0
0
VERTEX
8
R2V
62
0
70
32
10
6.829268
20
2.731707
30
0
0
VERTEX
8
R2V
62
0
70
32
10
6.378049
20
2.731707
30
0
0
VERTEX
8
R2V
62
0
70
32
10
6.378049
20
2.365854
30
0
0
VERTEX
8
R2V
62
0
70
32
10
6.890244
20
2.365854
30
0
0
VERTEX
8
R2V
62
0
70
32
10
6.878049
20
2.500000
30
0
0
VERTEX
8
R2V
62
0
70
32
10
6.902439
20
2.500000
30
0
0
VERTEX
8
R2V
62
0
70
32
10
6.902439
20
2.524390
30
0
0
VERTEX
8
R2V
62
0
70
32
10
6.975610
20
2.560976
30
0
0
VERTEX
8
R2V
62
0
70
32
10
7.292683
20
2.573171
30
0
0
VERTEX
8
R2V
62
0
70
32
10
7.292683
20
2.731707
30
0
0
SEQEND
0
POLYLINE
8
R2V
62
0
66
1
70
8
0
VERTEX
8
R2V
62
0
70
32
10
4.512195
20
2.878049
30
0
0
VERTEX
8
R2V
62
0
70
32
10
3.768293
20
2.865854
30
0
0
VERTEX
8
R2V
62
0
70
32
10
3.670732
20
2.829268
30
0
0
VERTEX
8
R2V
62
0
70
32
10
3.634146
20
2.792683
30
0
0
VERTEX
8
R2V
62
0
70
32
10
3.634146
20
2.634146
30
0
0
VERTEX
8
R2V
62
0
70
32
10
3.487805
20
2.634146
30
0
0
VERTEX
8
R2V
62
0
70
32
10
3.487805
20
2.524390
30
0
0
VERTEX
8
R2V
62
0
70
32
10
3.634146
20
2.524390
30
0
0
VERTEX
8
R2V
62
0
70
32
10
3.634146
20
2.341463
30
0
0
VERTEX
8
R2V
62
0
70
32
10
4.146341
20
2.341463
30
0
0
VERTEX
8
R2V
62
0
70
32
10
4.146341
20
2.524390
30
0
0
VERTEX
8
R2V
62
0
70
32
10
4.512195
20
2.524390
30
0
0
VERTEX
8
R2V
62
0
70
32
10
4.512195
20
2.621951
30
0
0
VERTEX
8
R2V
62
0
70
32
10
4.158537
20
2.621951
30
0
0
VERTEX
8
R2V
62
0
70
32
10
4.170732
20
2.756098
30
0
0
VERTEX
8
R2V
62
0
70
32
10
4.207317
20
2.792683
30
0
0
VERTEX
8
R2V
62
0
70
32
10
4.512195
20
2.804878
30
0
0
VERTEX
8
R2V
62
0
70
32
10
4.512195
20
2.878049
30
0
0
SEQEND
0
POLYLINE
8
R2V
62
0
66
1
70
8
0
VERTEX
8
R2V
62
0
70
32
10
5.829268
20
2.743902
30
0
0
VERTEX
8
R2V
62
0
70
32
10
4.987805
20
2.731707
30
0
0
VERTEX
8
R2V
62
0
70
32
10
4.829268
20
2.670732
30
0
0
VERTEX
8
R2V
62
0
70
32
10
4.804878
20
2.634146
30
0
0
VERTEX
8
R2V
62
0
70
32
10
4.780488
20
2.634146
30
0
0
VERTEX
8
R2V
62
0
70
32
10
4.756098
20
2.585366
30
0
0
VERTEX
8
R2V
62
0
70
32
10
4.756098
20
2.487805
30
0
0
VERTEX
8
R2V
62
0
70
32
10
4.768293
20
2.487805
30
0
0
VERTEX
8
R2V
62
0
70
32
10
4.829268
20
2.402439
30
0
0
VERTEX
8
R2V
62
0
70
32
10
4.878049
20
2.402439
30
0
0
VERTEX
8
R2V
62
0
70
32
10
4.939024
20
2.365854
30
0
0
VERTEX
8
R2V
62
0
70
32
10
5.000000
20
2.365854
30
0
0
VERTEX
8
R2V
62
0
70
32
10
5.121951
20
2.341463
30
0
0
VERTEX
8
R2V
62
0
70
32
10
5.865854
20
2.353659
30
0
0
VERTEX
8
R2V
62
0
70
32
10
6.060976
20
2.426829
30
0
0
VERTEX
8
R2V
62
0
70
32
10
6.121951
20
2.512195
30
0
0
VERTEX
8
R2V
62
0
70
32
10
6.109756
20
2.597561
30
0
0
VERTEX
8
R2V
62
0
70
32
10
6.012195
20
2.682927
30
0
0
VERTEX
8
R2V
62
0
70
32
10
5.963415
20
2.695122
30
0
0
VERTEX
8
R2V
62
0
70
32
10
5.829268
20
2.743902
30
0
0
SEQEND
0
POLYLINE
8
R2V
62
0
66
1
70
8
0
VERTEX
8
R2V
62
0
70
32
10
7.353659
20
2.804878
30
0
0
VERTEX
8
R2V
62
0
70
32
10
7.353659
20
2.500000
30
0
0
VERTEX
8
R2V
62
0
70
32
10
6.963415
20
2.487805
30
0
0
VERTEX
8
R2V
62
0
70
32
10
6.951220
20
2.317073
30
0
0
VERTEX
8
R2V
62
0
70
32
10
6.304878
20
2.317073
30
0
0
VERTEX
8
R2V
62
0
70
32
10
6.304878
20
2.804878
30
0
0
VERTEX
8
R2V
62
0
70
32
10
6.890244
20
2.804878
30
0
0
VERTEX
8
R2V
62
0
70
32
10
6.902439
20
2.743902
30
0
0
VERTEX
8
R2V
62
0
70
32
10
6.963415
20
2.792683
30
0
0
VERTEX
8
R2V
62
0
70
32
10
7.353659
20
2.804878
30
0
0
SEQEND
0
POLYLINE
8
R2V
62
0
66
1
70
8
0
VERTEX
8
R2V
62
0
70
32
10
2.536585
20
3.829268
30
0
0
VERTEX
8
R2V
62
0
70
32
10
2.512195
20
3.804878
30
0
0
VERTEX
8
R2V
62
0
70
32
10
2.524390
20
3.695122
30
0
0
VERTEX
8
R2V
62
0
70
32
10
2.548780
20
3.695122
30
0
0
VERTEX
8
R2V
62
0
70
32
10
2.536585
20
3.829268
30
0
0
SEQEND
0
POLYLINE
8
R2V
62
0
66
1
70
8
0
VERTEX
8
R2V
62
0
70
32
10
2.560976
20
3.695122
30
0
0
VERTEX
8
R2V
62
0
70
32
10
2.548780
20
3.695122
30
0
0
VERTEX
8
R2V
62
0
70
32
10
2.548780
20
3.682927
30
0
0
VERTEX
8
R2V
62
0
70
32
10
2.560976
20
3.682927
30
0
0
VERTEX
8
R2V
62
0
70
32
10
2.560976
20
3.695122
30
0
0
SEQEND
0
POLYLINE
8
R2V
62
0
66
1
70
8
0
VERTEX
8
R2V
62
0
70
32
10
2.487805
20
4.170732
30
0
0
VERTEX
8
R2V
62
0
70
32
10
2.475610
20
4.170732
30
0
0
VERTEX
8
R2V
62
0
70
32
10
2.475610
20
4.158537
30
0
0
VERTEX
8
R2V
62
0
70
32
10
2.487805
20
4.158537
30
0
0
VERTEX
8
R2V
62
0
70
32
10
2.487805
20
4.170732
30
0
0
SEQEND
0
POLYLINE
8
R2V
62
0
66
1
70
8
0
VERTEX
8
R2V
62
0
70
32
10
2.695122
20
4.243902
30
0
0
VERTEX
8
R2V
62
0
70
32
10
2.621951
20
4.231707
30
0
0
VERTEX
8
R2V
62
0
70
32
10
2.609756
20
4.195122
30
0
0
VERTEX
8
R2V
62
0
70
32
10
2.500000
20
4.146341
30
0
0
VERTEX
8
R2V
62
0
70
32
10
2.475610
20
4.121951
30
0
0
VERTEX
8
R2V
62
0
70
32
10
2.487805
20
4.036585
30
0
0
VERTEX
8
R2V
62
0
70
32
10
2.500000
20
4.036585
30
0
0
VERTEX
8
R2V
62
0
70
32
10
2.512195
20
4.000000
30
0
0
VERTEX
8
R2V
62
0
70
32
10
2.536585
20
4.000000
30
0
0
VERTEX
8
R2V
62
0
70
32
10
2.548780
20
3.975610
30
0
0
VERTEX
8
R2V
62
0
70
32
10
2.609756
20
3.987805
30
0
0
VERTEX
8
R2V
62
0
70
32
10
2.609756
20
4.146341
30
0
0
VERTEX
8
R2V
62
0
70
32
10
2.695122
20
4.243902
30
0
0
VERTEX
8
R2V
62
0
70
32
10
2.743902
20
4.256098
30
0
0
VERTEX
8
R2V
62
0
70
32
10
2.695122
20
4.256098
30
0
0
VERTEX
8
R2V
62
0
70
32
10
2.695122
20
4.243902
30
0
0
SEQEND
0
POLYLINE
8
R2V
62
0
66
1
70
8
0
VERTEX
8
R2V
62
0
70
32
10
2.804878
20
3.963415
30
0
0
VERTEX
8
R2V
62
0
70
32
10
2.780488
20
3.963415
30
0
0
VERTEX
8
R2V
62
0
70
32
10
2.780488
20
3.951220
30
0
0
VERTEX
8
R2V
62
0
70
32
10
2.804878
20
3.951220
30
0
0
VERTEX
8
R2V
62
0
70
32
10
2.804878
20
3.963415
30
0
0
SEQEND
0
POLYLINE
8
R2V
62
0
66
1
70
8
0
VERTEX
8
R2V
62
0
70
32
10
2.853659
20
3.975610
30
0
0
VERTEX
8
R2V
62
0
70
32
10
2.817073
20
3.939024
30
0
0
VERTEX
8
R2V
62
0
70
32
10
2.670732
20
3.963415
30
0
0
VERTEX
8
R2V
62
0
70
32
10
3.097561
20
1.243902
30
0
0
VERTEX
8
R2V
62
0
70
32
10
3.195122
20
1.256098
30
0
0
VERTEX
8
R2V
62
0
70
32
10
2.853659
20
3.975610
30
0
0
SEQEND
0
POLYLINE
8
R2V
62
0
66
1
70
8
0
VERTEX
8
R2V
62
0
70
32
10
0.939024
20
4.012195
30
0
0
VERTEX
8
R2V
62
0
70
32
10
0.939024
20
3.878049
30
0
0
VERTEX
8
R2V
62
0
70
32
10
0.939024
20
4.012195
30
0
0
SEQEND
0
POLYLINE
8
R2V
62
0
66
1
70
8
0
VERTEX
8
R2V
62
0
70
32
10
0.707317
20
4.024390
30
0
0
VERTEX
8
R2V
62
0
70
32
10
0.585366
20
4.012195
30
0
0
VERTEX
8
R2V
62
0
70
32
10
0.463415
20
3.914634
30
0
0
VERTEX
8
R2V
62
0
70
32
10
0.463415
20
3.878049
30
0
0
VERTEX
8
R2V
62
0
70
32
10
0.487805
20
3.878049
30
0
0
VERTEX
8
R2V
62
0
70
32
10
0.597561
20
3.804878
30
0
0
VERTEX
8
R2V
62
0
70
32
10
0.573171
20
3.853659
30
0
0
VERTEX
8
R2V
62
0
70
32
10
0.560976
20
3.902439
30
0
0
VERTEX
8
R2V
62
0
70
32
10
0.634146
20
3.914634
30
0
0
VERTEX
8
R2V
62
0
70
32
10
0.658537
20
3.975610
30
0
0
VERTEX
8
R2V
62
0
70
32
10
0.707317
20
3.987805
30
0
0
VERTEX
8
R2V
62
0
70
32
10
0.707317
20
4.024390
30
0
0
SEQEND
0
POLYLINE
8
R2V
62
0
66
1
70
8
0
VERTEX
8
R2V
62
0
70
32
10
5.000000
20
4.195122
30
0
0
VERTEX
8
R2V
62
0
70
32
10
4.914634
20
4.182927
30
0
0
VERTEX
8
R2V
62
0
70
32
10
4.878049
20
4.073171
30
0
0
VERTEX
8
R2V
62
0
70
32
10
4.878049
20
3.731707
30
0
0
VERTEX
8
R2V
62
0
70
32
10
4.890244
20
3.731707
30
0
0
VERTEX
8
R2V
62
0
70
32
10
4.926829
20
3.634146
30
0
0
VERTEX
8
R2V
62
0
70
32
10
5.012195
20
3.646341
30
0
0
VERTEX
8
R2V
62
0
70
32
10
5.048780
20
3.707317
30
0
0
VERTEX
8
R2V
62
0
70
32
10
5.048780
20
4.121951
30
0
0
VERTEX
8
R2V
62
0
70
32
10
5.000000
20
4.195122
30
0
0
SEQEND
0
POLYLINE
8
R2V
62
0
66
1
70
8
0
VERTEX
8
R2V
62
0
70
32
10
8.536585
20
4.170732
30
0
0
VERTEX
8
R2V
62
0
70
32
10
8.463415
20
4.121951
30
0
0
VERTEX
8
R2V
62
0
70
32
10
8.426829
20
4.000000
30
0
0
VERTEX
8
R2V
62
0
70
32
10
8.439024
20
3.682927
30
0
0
VERTEX
8
R2V
62
0
70
32
10
8.451220
20
3.682927
30
0
0
VERTEX
8
R2V
62
0
70
32
10
8.475610
20
3.609756
30
0
0
VERTEX
8
R2V
62
0
70
32
10
8.500000
20
3.609756
30
0
0
VERTEX
8
R2V
62
0
70
32
10
8.560976
20
3.597561
30
0
0
VERTEX
8
R2V
62
0
70
32
10
8.597561
20
3.634146
30
0
0
VERTEX
8
R2V
62
0
70
32
10
8.597561
20
4.097561
30
0
0
VERTEX
8
R2V
62
0
70
32
10
8.536585
20
4.170732
30
0
0
SEQEND
0
POLYLINE
8
R2V
62
0
66
1
70
8
0
VERTEX
8
R2V
62
0
70
32
10
6.634146
20
4.146341
30
0
0
VERTEX
8
R2V
62
0
70
32
10
6.560976
20
4.134146
30
0
0
VERTEX
8
R2V
62
0
70
32
10
6.512195
20
4.036585
30
0
0
VERTEX
8
R2V
62
0
70
32
10
6.524390
20
3.682927
30
0
0
VERTEX
8
R2V
62
0
70
32
10
6.536585
20
3.682927
30
0
0
VERTEX
8
R2V
62
0
70
32
10
6.548780
20
3.621951
30
0
0
VERTEX
8
R2V
62
0
70
32
10
6.560976
20
3.621951
30
0
0
VERTEX
8
R2V
62
0
70
32
10
6.573171
20
3.597561
30
0
0
VERTEX
8
R2V
62
0
70
32
10
6.658537
20
3.609756
30
0
0
VERTEX
8
R2V
62
0
70
32
10
6.695122
20
3.682927
30
0
0
VERTEX
8
R2V
62
0
70
32
10
6.682927
20
4.085366
30
0
0
VERTEX
8
R2V
62
0
70
32
10
6.634146
20
4.146341
30
0
0
SEQEND
0
POLYLINE
8
R2V
62
0
66
1
70
8
0
VERTEX
8
R2V
62
0
70
32
10
2.560976
20
3.951220
30
0
0
VERTEX
8
R2V
62
0
70
32
10
2.560976
20
3.817073
30
0
0
VERTEX
8
R2V
62
0
70
32
10
2.573171
20
3.817073
30
0
0
VERTEX
8
R2V
62
0
70
32
10
2.987805
20
1.256098
30
0
0
VERTEX
8
R2V
62
0
70
32
10
3.060976
20
1.256098
30
0
0
VERTEX
8
R2V
62
0
70
32
10
2.951220
20
1.987805
30
0
0
VERTEX
8
R2V
62
0
70
32
10
2.878049
20
1.987805
30
0
0
VERTEX
8
R2V
62
0
70
32
10
2.878049
20
2.048780
30
0
0
VERTEX
8
R2V
62
0
70
32
10
2.939024
20
2.048780
30
0
0
VERTEX
8
R2V
62
0
70
32
10
2.914634
20
2.182927
30
0
0
VERTEX
8
R2V
62
0
70
32
10
2.914634
20
2.134146
30
0
0
VERTEX
8
R2V
62
0
70
32
10
2.865854
20
2.134146
30
0
0
VERTEX
8
R2V
62
0
70
32
10
2.865854
20
2.207317
30
0
0
VERTEX
8
R2V
62
0
70
32
10
2.914634
20
2.207317
30
0
0
VERTEX
8
R2V
62
0
70
32
10
2.817073
20
2.841463
30
0
0
VERTEX
8
R2V
62
0
70
32
10
2.743902
20
2.841463
30
0
0
VERTEX
8
R2V
62
0
70
32
10
2.743902
20
2.902439
30
0
0
VERTEX
8
R2V
62
0
70
32
10
2.804878
20
2.902439
30
0
0
VERTEX
8
R2V
62
0
70
32
10
2.658537
20
3.926829
30
0
0
VERTEX
8
R2V
62
0
70
32
10
2.560976
20
3.951220
30
0
0
SEQEND
0
POLYLINE
8
R2V
62
0
66
1
70
8
0
VERTEX
8
R2V
62
0
70
32
10
1.243902
20
4.573171
30
0
0
VERTEX
8
R2V
62
0
70
32
10
1.268293
20
4.536585
30
0
0
VERTEX
8
R2V
62
0
70
32
10
1.195122
20
4.573171
30
0
0
VERTEX
8
R2V
62
0
70
32
10
1.243902
20
4.573171
30
0
0
SEQEND
0
POLYLINE
8
R2V
62
0
66
1
70
8
0
VERTEX
8
R2V
62
0
70
32
10
2.219512
20
4.536585
30
0
0
VERTEX
8
R2V
62
0
70
32
10
2.158537
20
4.536585
30
0
0
VERTEX
8
R2V
62
0
70
32
10
2.158537
20
4.524390
30
0
0
VERTEX
8
R2V
62
0
70
32
10
2.219512
20
4.524390
30
0
0
VERTEX
8
R2V
62
0
70
32
10
2.219512
20
4.536585
30
0
0
SEQEND
0
POLYLINE
8
R2V
62
0
66
1
70
8
0
VERTEX
8
R2V
62
0
70
32
10
2.353659
20
4.524390
30
0
0
VERTEX
8
R2V
62
0
70
32
10
2.219512
20
4.512195
30
0
0
VERTEX
8
R2V
62
0
70
32
10
2.243902
20
4.512195
30
0
0
VERTEX
8
R2V
62
0
70
32
10
2.329268
20
4.500000
30
0
0
VERTEX
8
R2V
62
0
70
32
10
2.353659
20
4.524390
30
0
0
SEQEND
0
POLYLINE
8
R2V
62
0
66
1
70
8
0
VERTEX
8
R2V
62
0
70
32
10
2.902439
20
4.329268
30
0
0
VERTEX
8
R2V
62
0
70
32
10
2.695122
20
4.195122
30
0
0
VERTEX
8
R2V
62
0
70
32
10
2.634146
20
4.121951
30
0
0
VERTEX
8
R2V
62
0
70
32
10
2.634146
20
4.012195
30
0
0
VERTEX
8
R2V
62
0
70
32
10
2.646341
20
4.012195
30
0
0
VERTEX
8
R2V
62
0
70
32
10
2.658537
20
3.987805
30
0
0
VERTEX
8
R2V
62
0
70
32
10
2.695122
20
3.987805
30
0
0
VERTEX
8
R2V
62
0
70
32
10
2.780488
20
3.975610
30
0
0
VERTEX
8
R2V
62
0
70
32
10
2.878049
20
4.024390
30
0
0
VERTEX
8
R2V
62
0
70
32
10
2.914634
20
4.134146
30
0
0
VERTEX
8
R2V
62
0
70
32
10
2.951220
20
4.170732
30
0
0
VERTEX
8
R2V
62
0
70
32
10
2.951220
20
4.268293
30
0
0
VERTEX
8
R2V
62
0
70
32
10
2.902439
20
4.329268
30
0
0
SEQEND
0
POLYLINE
8
R2V
62
0
66
1
70
8
0
VERTEX
8
R2V
62
0
70
32
10
7.402439
20
4.646341
30
0
0
VERTEX
8
R2V
62
0
70
32
10
7.402439
20
3.207317
30
0
0
VERTEX
8
R2V
62
0
70
32
10
7.073171
20
3.207317
30
0
0
VERTEX
8
R2V
62
0
70
32
10
7.073171
20
4.646341
30
0
0
VERTEX
8
R2V
62
0
70
32
10
7.097561
20
4.646341
30
0
0
VERTEX
8
R2V
62
0
70
32
10
7.158537
20
4.621951
30
0
0
VERTEX
8
R2V
62
0
70
32
10
7.378049
20
4.634146
30
0
0
VERTEX
8
R2V
62
0
70
32
10
7.402439
20
4.646341
30
0
0
SEQEND
0
POLYLINE
8
R2V
62
0
66
1
70
8
0
VERTEX
8
R2V
62
0
70
32
10
9.890244
20
4.719512
30
0
0
VERTEX
8
R2V
62
0
70
32
10
10.060976
20
4.670732
30
0
0
VERTEX
8
R2V
62
0
70
32
10
10.060976
20
4.207317
30
0
0
VERTEX
8
R2V
62
0
70
32
10
9.987805
20
4.231707
30
0
0
VERTEX
8
R2V
62
0
70
32
10
9.731707
20
4.231707
30
0
0
VERTEX
8
R2V
62
0
70
32
10
9.731707
20
4.146341
30
0
0
VERTEX
8
R2V
62
0
70
32
10
9.768293
20
4.146341
30
0
0
VERTEX
8
R2V
62
0
70
32
10
9.841463
20
4.134146
30
0
0
VERTEX
8
R2V
62
0
70
32
10
9.963415
20
4.134146
30
0
0
VERTEX
8
R2V
62
0
70
32
10
10.012195
20
4.097561
30
0
0
VERTEX
8
R2V
62
0
70
32
10
10.048780
20
4.036585
30
0
0
VERTEX
8
R2V
62
0
70
32
10
10.060976
20
3.963415
30
0
0
VERTEX
8
R2V
62
0
70
32
10
10.073171
20
3.963415
30
0
0
VERTEX
8
R2V
62
0
70
32
10
10.073171
20
3.500000
30
0
0
VERTEX
8
R2V
62
0
70
32
10
10.024390
20
3.341463
30
0
0
VERTEX
8
R2V
62
0
70
32
10
9.951220
20
3.231707
30
0
0
VERTEX
8
R2V
62
0
70
32
10
9.865854
20
3.195122
30
0
0
VERTEX
8
R2V
62
0
70
32
10
9.780488
20
3.170732
30
0
0
VERTEX
8
R2V
62
0
70
32
10
9.560976
20
3.182927
30
0
0
VERTEX
8
R2V
62
0
70
32
10
9.439024
20
3.219512
30
0
0
VERTEX
8
R2V
62
0
70
32
10
9.414634
20
3.695122
30
0
0
VERTEX
8
R2V
62
0
70
32
10
9.426829
20
3.695122
30
0
0
VERTEX
8
R2V
62
0
70
32
10
9.548780
20
3.634146
30
0
0
VERTEX
8
R2V
62
0
70
32
10
9.585366
20
3.634146
30
0
0
VERTEX
8
R2V
62
0
70
32
10
9.621951
20
3.609756
30
0
0
VERTEX
8
R2V
62
0
70
32
10
9.768293
20
3.621951
30
0
0
VERTEX
8
R2V
62
0
70
32
10
9.780488
20
3.695122
30
0
0
VERTEX
8
R2V
62
0
70
32
10
9.573171
20
3.719512
30
0
0
VERTEX
8
R2V
62
0
70
32
10
9.487805
20
3.780488
30
0
0
VERTEX
8
R2V
62
0
70
32
10
9.426829
20
3.902439
30
0
0
VERTEX
8
R2V
62
0
70
32
10
9.426829
20
4.475610
30
0
0
VERTEX
8
R2V
62
0
70
32
10
9.500000
20
4.621951
30
0
0
VERTEX
8
R2V
62
0
70
32
10
9.573171
20
4.682927
30
0
0
VERTEX
8
R2V
62
0
70
32
10
9.682927
20
4.719512
30
0
0
VERTEX
8
R2V
62
0
70
32
10
9.890244
20
4.719512
30
0
0
SEQEND
0
POLYLINE
8
R2V
62
0
66
1
70
8
0
VERTEX
8
R2V
62
0
70
32
10
5.829268
20
4.719512
30
0
0
VERTEX
8
R2V
62
0
70
32
10
6.060976
20
4.682927
30
0
0
VERTEX
8
R2V
62
0
70
32
10
6.109756
20
4.658537
30
0
0
VERTEX
8
R2V
62
0
70
32
10
6.109756
20
4.195122
30
0
0
VERTEX
8
R2V
62
0
70
32
10
5.975610
20
4.231707
30
0
0
VERTEX
8
R2V
62
0
70
32
10
5.768293
20
4.219512
30
0
0
VERTEX
8
R2V
62
0
70
32
10
5.780488
20
4.134146
30
0
0
VERTEX
8
R2V
62
0
70
32
10
5.963415
20
4.134146
30
0
0
VERTEX
8
R2V
62
0
70
32
10
6.024390
20
4.109756
30
0
0
VERTEX
8
R2V
62
0
70
32
10
6.097561
20
4.000000
30
0
0
VERTEX
8
R2V
62
0
70
32
10
6.121951
20
3.902439
30
0
0
VERTEX
8
R2V
62
0
70
32
10
6.121951
20
3.524390
30
0
0
VERTEX
8
R2V
62
0
70
32
10
6.060976
20
3.329268
30
0
0
VERTEX
8
R2V
62
0
70
32
10
6.036585
20
3.280488
30
0
0
VERTEX
8
R2V
62
0
70
32
10
6.000000
20
3.268293
30
0
0
VERTEX
8
R2V
62
0
70
32
10
6.000000
20
3.243902
30
0
0
VERTEX
8
R2V
62
0
70
32
10
5.939024
20
3.219512
30
0
0
VERTEX
8
R2V
62
0
70
32
10
5.926829
20
3.195122
30
0
0
VERTEX
8
R2V
62
0
70
32
10
5.878049
20
3.182927
30
0
0
VERTEX
8
R2V
62
0
70
32
10
5.585366
20
3.182927
30
0
0
VERTEX
8
R2V
62
0
70
32
10
5.475610
20
3.219512
30
0
0
VERTEX
8
R2V
62
0
70
32
10
5.463415
20
3.682927
30
0
0
VERTEX
8
R2V
62
0
70
32
10
5.487805
20
3.682927
30
0
0
VERTEX
8
R2V
62
0
70
32
10
5.597561
20
3.621951
30
0
0
VERTEX
8
R2V
62
0
70
32
10
5.634146
20
3.621951
30
0
0
VERTEX
8
R2V
62
0
70
32
10
5.792683
20
3.609756
30
0
0
VERTEX
8
R2V
62
0
70
32
10
5.817073
20
3.621951
30
0
0
VERTEX
8
R2V
62
0
70
32
10
5.804878
20
3.695122
30
0
0
VERTEX
8
R2V
62
0
70
32
10
5.609756
20
3.707317
30
0
0
VERTEX
8
R2V
62
0
70
32
10
5.560976
20
3.743902
30
0
0
VERTEX
8
R2V
62
0
70
32
10
5.560976
20
3.768293
30
0
0
VERTEX
8
R2V
62
0
70
32
10
5.524390
20
3.780488
30
0
0
VERTEX
8
R2V
62
0
70
32
10
5.463415
20
3.902439
30
0
0
VERTEX
8
R2V
62
0
70
32
10
5.439024
20
4.012195
30
0
0
VERTEX
8
R2V
62
0
70
32
10
5.451220
20
4.378049
30
0
0
VERTEX
8
R2V
62
0
70
32
10
5.487805
20
4.524390
30
0
0
VERTEX
8
R2V
62
0
70
32
10
5.548780
20
4.621951
30
0
0
VERTEX
8
R2V
62
0
70
32
10
5.621951
20
4.682927
30
0
0
VERTEX
8
R2V
62
0
70
32
10
5.682927
20
4.707317
30
0
0
VERTEX
8
R2V
62
0
70
32
10
5.829268
20
4.719512
30
0
0
SEQEND
0
POLYLINE
8
R2V
62
0
66
1
70
8
0
VERTEX
8
R2V
62
0
70
32
10
5.048780
20
4.695122
30
0
0
VERTEX
8
R2V
62
0
70
32
10
5.158537
20
4.646341
30
0
0
VERTEX
8
R2V
62
0
70
32
10
5.207317
20
4.585366
30
0
0
VERTEX
8
R2V
62
0
70
32
10
5.231707
20
4.585366
30
0
0
VERTEX
8
R2V
62
0
70
32
10
5.256098
20
4.536585
30
0
0
VERTEX
8
R2V
62
0
70
32
10
5.280488
20
4.536585
30
0
0
VERTEX
8
R2V
62
0
70
32
10
5.329268
20
4.414634
30
0
0
VERTEX
8
R2V
62
0
70
32
10
5.353659
20
4.158537
30
0
0
VERTEX
8
R2V
62
0
70
32
10
5.341463
20
3.524390
30
0
0
VERTEX
8
R2V
62
0
70
32
10
5.243902
20
3.304878
30
0
0
VERTEX
8
R2V
62
0
70
32
10
5.219512
20
3.268293
30
0
0
VERTEX
8
R2V
62
0
70
32
10
5.158537
20
3.231707
30
0
0
VERTEX
8
R2V
62
0
70
32
10
5.134146
20
3.195122
30
0
0
VERTEX
8
R2V
62
0
70
32
10
5.036585
20
3.158537
30
0
0
VERTEX
8
R2V
62
0
70
32
10
4.865854
20
3.170732
30
0
0
VERTEX
8
R2V
62
0
70
32
10
4.756098
20
3.243902
30
0
0
VERTEX
8
R2V
62
0
70
32
10
4.695122
20
3.292683
30
0
0
VERTEX
8
R2V
62
0
70
32
10
4.670732
20
3.341463
30
0
0
VERTEX
8
R2V
62
0
70
32
10
4.609756
20
3.439024
30
0
0
VERTEX
8
R2V
62
0
70
32
10
4.560976
20
3.719512
30
0
0
VERTEX
8
R2V
62
0
70
32
10
4.573171
20
4.219512
30
0
0
VERTEX
8
R2V
62
0
70
32
10
4.646341
20
4.512195
30
0
0
VERTEX
8
R2V
62
0
70
32
10
4.756098
20
4.634146
30
0
0
VERTEX
8
R2V
62
0
70
32
10
4.780488
20
4.634146
30
0
0
VERTEX
8
R2V
62
0
70
32
10
4.792683
20
4.670732
30
0
0
VERTEX
8
R2V
62
0
70
32
10
4.890244
20
4.695122
30
0
0
VERTEX
8
R2V
62
0
70
32
10
5.048780
20
4.695122
30
0
0
SEQEND
0
POLYLINE
8
R2V
62
0
66
1
70
8
0
VERTEX
8
R2V
62
0
70
32
10
8.439024
20
4.682927
30
0
0
VERTEX
8
R2V
62
0
70
32
10
8.536585
20
4.621951
30
0
0
VERTEX
8
R2V
62
0
70
32
10
8.560976
20
4.573171
30
0
0
VERTEX
8
R2V
62
0
70
32
10
8.573171
20
4.573171
30
0
0
VERTEX
8
R2V
62
0
70
32
10
8.609756
20
4.512195
30
0
0
VERTEX
8
R2V
62
0
70
32
10
8.609756
20
4.658537
30
0
0
VERTEX
8
R2V
62
0
70
32
10
8.914634
20
4.658537
30
0
0
VERTEX
8
R2V
62
0
70
32
10
8.914634
20
3.219512
30
0
0
VERTEX
8
R2V
62
0
70
32
10
8.609756
20
3.219512
30
0
0
VERTEX
8
R2V
62
0
70
32
10
8.597561
20
3.329268
30
0
0
VERTEX
8
R2V
62
0
70
32
10
8.560976
20
3.231707
30
0
0
VERTEX
8
R2V
62
0
70
32
10
8.500000
20
3.182927
30
0
0
VERTEX
8
R2V
62
0
70
32
10
8.329268
20
3.182927
30
0
0
VERTEX
8
R2V
62
0
70
32
10
8.317073
20
3.219512
30
0
0
VERTEX
8
R2V
62
0
70
32
10
8.268293
20
3.243902
30
0
0
VERTEX
8
R2V
62
0
70
32
10
8.170732
20
3.390244
30
0
0
VERTEX
8
R2V
62
0
70
32
10
8.134146
20
3.548780
30
0
0
VERTEX
8
R2V
62
0
70
32
10
8.109756
20
4.073171
30
0
0
VERTEX
8
R2V
62
0
70
32
10
8.170732
20
4.463415
30
0
0
VERTEX
8
R2V
62
0
70
32
10
8.243902
20
4.597561
30
0
0
VERTEX
8
R2V
62
0
70
32
10
8.317073
20
4.658537
30
0
0
VERTEX
8
R2V
62
0
70
32
10
8.439024
20
4.682927
30
0
0
SEQEND
0
POLYLINE
8
R2V
62
0
66
1
70
8
0
VERTEX
8
R2V
62
0
70
32
10
6.780488
20
4.670732
30
0
0
VERTEX
8
R2V
62
0
70
32
10
6.841463
20
4.646341
30
0
0
VERTEX
8
R2V
62
0
70
32
10
6.951220
20
4.500000
30
0
0
VERTEX
8
R2V
62
0
70
32
10
7.000000
20
4.207317
30
0
0
VERTEX
8
R2V
62
0
70
32
10
7.000000
20
3.609756
30
0
0
VERTEX
8
R2V
62
0
70
32
10
6.975610
20
3.548780
30
0
0
VERTEX
8
R2V
62
0
70
32
10
6.963415
20
3.390244
30
0
0
VERTEX
8
R2V
62
0
70
32
10
6.902439
20
3.268293
30
0
0
VERTEX
8
R2V
62
0
70
32
10
6.792683
20
3.170732
30
0
0
VERTEX
8
R2V
62
0
70
32
10
6.646341
20
3.170732
30
0
0
VERTEX
8
R2V
62
0
70
32
10
6.621951
20
3.207317
30
0
0
VERTEX
8
R2V
62
0
70
32
10
6.573171
20
3.231707
30
0
0
VERTEX
8
R2V
62
0
70
32
10
6.536585
20
3.268293
30
0
0
VERTEX
8
R2V
62
0
70
32
10
6.512195
20
3.341463
30
0
0
VERTEX
8
R2V
62
0
70
32
10
6.512195
20
2.878049
30
0
0
VERTEX
8
R2V
62
0
70
32
10
6.195122
20
2.878049
30
0
0
VERTEX
8
R2V
62
0
70
32
10
6.195122
20
4.658537
30
0
0
VERTEX
8
R2V
62
0
70
32
10
6.512195
20
4.658537
30
0
0
VERTEX
8
R2V
62
0
70
32
10
6.524390
20
4.524390
30
0
0
VERTEX
8
R2V
62
0
70
32
10
6.646341
20
4.658537
30
0
0
VERTEX
8
R2V
62
0
70
32
10
6.780488
20
4.670732
30
0
0
SEQEND
0
POLYLINE
8
R2V
62
0
66
1
70
8
0
VERTEX
8
R2V
62
0
70
32
10
7.865854
20
4.914634
30
0
0
VERTEX
8
R2V
62
0
70
32
10
7.865854
20
4.621951
30
0
0
VERTEX
8
R2V
62
0
70
32
10
8.073171
20
4.621951
30
0
0
VERTEX
8
R2V
62
0
70
32
10
8.073171
20
4.085366
30
0
0
VERTEX
8
R2V
62
0
70
32
10
7.865854
20
4.085366
30
0
0
VERTEX
8
R2V
62
0
70
32
10
7.878049
20
3.658537
30
0
0
VERTEX
8
R2V
62
0
70
32
10
7.890244
20
3.658537
30
0
0
VERTEX
8
R2V
62
0
70
32
10
7.902439
20
3.634146
30
0
0
VERTEX
8
R2V
62
0
70
32
10
8.048780
20
3.658537
30
0
0
VERTEX
8
R2V
62
0
70
32
10
8.012195
20
3.231707
30
0
0
VERTEX
8
R2V
62
0
70
32
10
7.890244
20
3.182927
30
0
0
VERTEX
8
R2V
62
0
70
32
10
7.634146
20
3.182927
30
0
0
VERTEX
8
R2V
62
0
70
32
10
7.573171
20
3.256098
30
0
0
VERTEX
8
R2V
62
0
70
32
10
7.536585
20
3.341463
30
0
0
VERTEX
8
R2V
62
0
70
32
10
7.524390
20
4.085366
30
0
0
VERTEX
8
R2V
62
0
70
32
10
7.439024
20
4.085366
30
0
0
VERTEX
8
R2V
62
0
70
32
10
7.451220
20
4.402439
30
0
0
VERTEX
8
R2V
62
0
70
32
10
7.512195
20
4.500000
30
0
0
VERTEX
8
R2V
62
0
70
32
10
7.524390
20
4.573171
30
0
0
VERTEX
8
R2V
62
0
70
32
10
7.621951
20
4.792683
30
0
0
VERTEX
8
R2V
62
0
70
32
10
7.670732
20
4.914634
30
0
0
VERTEX
8
R2V
62
0
70
32
10
7.865854
20
4.914634
30
0
0
SEQEND
0
POLYLINE
8
R2V
62
0
66
1
70
8
0
VERTEX
8
R2V
62
0
70
32
10
1.219512
20
4.865854
30
0
0
VERTEX
8
R2V
62
0
70
32
10
1.121951
20
4.865854
30
0
0
VERTEX
8
R2V
62
0
70
32
10
1.073171
20
4.707317
30
0
0
VERTEX
8
R2V
62
0
70
32
10
1.048780
20
4.609756
30
0
0
VERTEX
8
R2V
62
0
70
32
10
1.060976
20
4.609756
30
0
0
VERTEX
8
R2V
62
0
70
32
10
1.146341
20
4.573171
30
0
0
VERTEX
8
R2V
62
0
70
32
10
1.036585
20
4.560976
30
0
0
VERTEX
8
R2V
62
0
70
32
10
1.012195
20
4.500000
30
0
0
VERTEX
8
R2V
62
0
70
32
10
1.024390
20
4.500000
30
0
0
VERTEX
8
R2V
62
0
70
32
10
1.024390
20
4.256098
30
0
0
VERTEX
8
R2V
62
0
70
32
10
0.975610
20
4.158537
30
0
0
VERTEX
8
R2V
62
0
70
32
10
0.975610
20
3.682927
30
0
0
VERTEX
8
R2V
62
0
70
32
10
0.987805
20
3.682927
30
0
0
VERTEX
8
R2V
62
0
70
32
10
1.036585
20
3.426829
30
0
0
VERTEX
8
R2V
62
0
70
32
10
1.036585
20
2.756098
30
0
0
VERTEX
8
R2V
62
0
70
32
10
1.048780
20
2.756098
30
0
0
VERTEX
8
R2V
62
0
70
32
10
1.085366
20
2.658537
30
0
0
VERTEX
8
R2V
62
0
70
32
10
1.097561
20
2.658537
30
0
0
VERTEX
8
R2V
62
0
70
32
10
1.121951
20
2.609756
30
0
0
VERTEX
8
R2V
62
0
70
32
10
1.146341
20
2.609756
30
0
0
VERTEX
8
R2V
62
0
70
32
10
1.304878
20
2.597561
30
0
0
VERTEX
8
R2V
62
0
70
32
10
1.390244
20
2.634146
30
0
0
VERTEX
8
R2V
62
0
70
32
10
1.280488
20
2.365854
30
0
0
VERTEX
8
R2V
62
0
70
32
10
1.243902
20
2.329268
30
0
0
VERTEX
8
R2V
62
0
70
32
10
1.231707
20
2.280488
30
0
0
VERTEX
8
R2V
62
0
70
32
10
1.146341
20
2.146341
30
0
0
VERTEX
8
R2V
62
0
70
32
10
1.158537
20
2.036585
30
0
0
VERTEX
8
R2V
62
0
70
32
10
1.170732
20
2.036585
30
0
0
VERTEX
8
R2V
62
0
70
32
10
1.207317
20
1.926829
30
0
0
VERTEX
8
R2V
62
0
70
32
10
1.219512
20
1.926829
30
0
0
VERTEX
8
R2V
62
0
70
32
10
1.256098
20
1.829268
30
0
0
VERTEX
8
R2V
62
0
70
32
10
1.268293
20
1.829268
30
0
0
VERTEX
8
R2V
62
0
70
32
10
1.414634
20
1.646341
30
0
0
VERTEX
8
R2V
62
0
70
32
10
1.414634
20
1.536585
30
0
0
VERTEX
8
R2V
62
0
70
32
10
1.378049
20
1.560976
30
0
0
VERTEX
8
R2V
62
0
70
32
10
1.378049
20
1.304878
30
0
0
VERTEX
8
R2V
62
0
70
32
10
1.390244
20
1.304878
30
0
0
VERTEX
8
R2V
62
0
70
32
10
1.402439
20
1.243902
30
0
0
VERTEX
8
R2V
62
0
70
32
10
1.548780
20
1.353659
30
0
0
VERTEX
8
R2V
62
0
70
32
10
1.670732
20
1.378049
30
0
0
VERTEX
8
R2V
62
0
70
32
10
1.804878
20
1.329268
30
0
0
VERTEX
8
R2V
62
0
70
32
10
1.817073
20
1.292683
30
0
0
VERTEX
8
R2V
62
0
70
32
10
1.841463
20
1.292683
30
0
0
VERTEX
8
R2V
62
0
70
32
10
1.878049
20
1.268293
30
0
0
VERTEX
8
R2V
62
0
70
32
10
1.890244
20
1.243902
30
0
0
VERTEX
8
R2V
62
0
70
32
10
1.865854
20
1.475610
30
0
0
VERTEX
8
R2V
62
0
70
32
10
1.804878
20
1.536585
30
0
0
VERTEX
8
R2V
62
0
70
32
10
1.792683
20
1.487805
30
0
0
VERTEX
8
R2V
62
0
70
32
10
1.658537
20
1.475610
30
0
0
VERTEX
8
R2V
62
0
70
32
10
1.658537
20
1.560976
30
0
0
VERTEX
8
R2V
62
0
70
32
10
1.695122
20
1.634146
30
0
0
VERTEX
8
R2V
62
0
70
32
10
1.719512
20
1.634146
30
0
0
VERTEX
8
R2V
62
0
70
32
10
1.719512
20
1.658537
30
0
0
VERTEX
8
R2V
62
0
70
32
10
1.756098
20
1.670732
30
0
0
VERTEX
8
R2V
62
0
70
32
10
1.768293
20
1.756098
30
0
0
VERTEX
8
R2V
62
0
70
32
10
1.743902
20
1.756098
30
0
0
VERTEX
8
R2V
62
0
70
32
10
1.743902
20
1.780488
30
0
0
VERTEX
8
R2V
62
0
70
32
10
1.646341
20
1.780488
30
0
0
VERTEX
8
R2V
62
0
70
32
10
1.597561
20
1.695122
30
0
0
VERTEX
8
R2V
62
0
70
32
10
1.609756
20
1.865854
30
0
0
VERTEX
8
R2V
62
0
70
32
10
1.670732
20
1.939024
30
0
0
VERTEX
8
R2V
62
0
70
32
10
1.719512
20
1.963415
30
0
0
VERTEX
8
R2V
62
0
70
32
10
1.682927
20
1.975610
30
0
0
VERTEX
8
R2V
62
0
70
32
10
1.682927
20
2.060976
30
0
0
VERTEX
8
R2V
62
0
70
32
10
1.682927
20
2.109756
30
0
0
VERTEX
8
R2V
62
0
70
32
10
1.743902
20
2.182927
30
0
0
VERTEX
8
R2V
62
0
70
32
10
1.768293
20
2.231707
30
0
0
VERTEX
8
R2V
62
0
70
32
10
1.756098
20
2.365854
30
0
0
VERTEX
8
R2V
62
0
70
32
10
1.682927
20
2.548780
30
0
0
VERTEX
8
R2V
62
0
70
32
10
1.621951
20
2.585366
30
0
0
VERTEX
8
R2V
62
0
70
32
10
1.719512
20
2.609756
30
0
0
VERTEX
8
R2V
62
0
70
32
10
1.792683
20
2.682927
30
0
0
VERTEX
8
R2V
62
0
70
32
10
1.792683
20
2.841463
30
0
0
VERTEX
8
R2V
62
0
70
32
10
1.743902
20
2.853659
30
0
0
VERTEX
8
R2V
62
0
70
32
10
1.731707
20
2.804878
30
0
0
VERTEX
8
R2V
62
0
70
32
10
1.719512
20
2.768293
30
0
0
VERTEX
8
R2V
62
0
70
32
10
1.609756
20
2.719512
30
0
0
VERTEX
8
R2V
62
0
70
32
10
1.390244
20
2.731707
30
0
0
VERTEX
8
R2V
62
0
70
32
10
1.256098
20
2.817073
30
0
0
VERTEX
8
R2V
62
0
70
32
10
1.182927
20
2.914634
30
0
0
VERTEX
8
R2V
62
0
70
32
10
1.182927
20
2.939024
30
0
0
VERTEX
8
R2V
62
0
70
32
10
1.219512
20
2.939024
30
0
0
VERTEX
8
R2V
62
0
70
32
10
1.256098
20
2.853659
30
0
0
VERTEX
8
R2V
62
0
70
32
10
1.280488
20
2.853659
30
0
0
VERTEX
8
R2V
62
0
70
32
10
1.292683
20
2.829268
30
0
0
VERTEX
8
R2V
62
0
70
32
10
1.329268
20
2.829268
30
0
0
VERTEX
8
R2V
62
0
70
32
10
1.451220
20
2.780488
30
0
0
VERTEX
8
R2V
62
0
70
32
10
1.560976
20
2.792683
30
0
0
VERTEX
8
R2V
62
0
70
32
10
1.560976
20
2.878049
30
0
0
VERTEX
8
R2V
62
0
70
32
10
1.524390
20
2.914634
30
0
0
VERTEX
8
R2V
62
0
70
32
10
1.500000
20
2.963415
30
0
0
VERTEX
8
R2V
62
0
70
32
10
1.475610
20
2.963415
30
0
0
VERTEX
8
R2V
62
0
70
32
10
1.451220
20
3.012195
30
0
0
VERTEX
8
R2V
62
0
70
32
10
1.390244
20
3.048780
30
0
0
VERTEX
8
R2V
62
0
70
32
10
1.414634
20
3.097561
30
0
0
VERTEX
8
R2V
62
0
70
32
10
1.463415
20
3.121951
30
0
0
VERTEX
8
R2V
62
0
70
32
10
1.475610
20
3.158537
30
0
0
VERTEX
8
R2V
62
0
70
32
10
1.524390
20
3.182927
30
0
0
VERTEX
8
R2V
62
0
70
32
10
1.536585
20
3.231707
30
0
0
VERTEX
8
R2V
62
0
70
32
10
1.597561
20
3.317073
30
0
0
VERTEX
8
R2V
62
0
70
32
10
1.609756
20
3.402439
30
0
0
VERTEX
8
R2V
62
0
70
32
10
1.512195
20
3.390244
30
0
0
VERTEX
8
R2V
62
0
70
32
10
1.560976
20
3.536585
30
0
0
VERTEX
8
R2V
62
0
70
32
10
1.609756
20
3.597561
30
0
0
VERTEX
8
R2V
62
0
70
32
10
1.597561
20
3.695122
30
0
0
VERTEX
8
R2V
62
0
70
32
10
1.512195
20
3.829268
30
0
0
VERTEX
8
R2V
62
0
70
32
10
1.365854
20
3.914634
30
0
0
VERTEX
8
R2V
62
0
70
32
10
1.256098
20
3.939024
30
0
0
VERTEX
8
R2V
62
0
70
32
10
1.207317
20
4.012195
30
0
0
VERTEX
8
R2V
62
0
70
32
10
1.219512
20
4.060976
30
0
0
VERTEX
8
R2V
62
0
70
32
10
1.231707
20
4.060976
30
0
0
VERTEX
8
R2V
62
0
70
32
10
1.268293
20
4.024390
30
0
0
VERTEX
8
R2V
62
0
70
32
10
1.292683
20
4.024390
30
0
0
VERTEX
8
R2V
62
0
70
32
10
1.365854
20
4.012195
30
0
0
VERTEX
8
R2V
62
0
70
32
10
1.378049
20
4.036585
30
0
0
VERTEX
8
R2V
62
0
70
32
10
1.451220
20
4.060976
30
0
0
VERTEX
8
R2V
62
0
70
32
10
1.512195
20
4.109756
30
0
0
VERTEX
8
R2V
62
0
70
32
10
1.524390
20
4.134146
30
0
0
VERTEX
8
R2V
62
0
70
32
10
1.524390
20
4.073171
30
0
0
VERTEX
8
R2V
62
0
70
32
10
1.585366
20
4.073171
30
0
0
VERTEX
8
R2V
62
0
70
32
10
1.609756
20
4.109756
30
0
0
VERTEX
8
R2V
62
0
70
32
10
1.658537
20
4.097561
30
0
0
VERTEX
8
R2V
62
0
70
32
10
1.731707
20
4.158537
30
0
0
VERTEX
8
R2V
62
0
70
32
10
1.743902
20
4.378049
30
0
0
VERTEX
8
R2V
62
0
70
32
10
1.817073
20
4.378049
30
0
0
VERTEX
8
R2V
62
0
70
32
10
1.829268
20
4.317073
30
0
0
VERTEX
8
R2V
62
0
70
32
10
1.853659
20
4.317073
30
0
0
VERTEX
8
R2V
62
0
70
32
10
1.890244
20
4.304878
30
0
0
VERTEX
8
R2V
62
0
70
32
10
1.926829
20
4.329268
30
0
0
VERTEX
8
R2V
62
0
70
32
10
1.987805
20
4.329268
30
0
0
VERTEX
8
R2V
62
0
70
32
10
1.987805
20
4.439024
30
0
0
VERTEX
8
R2V
62
0
70
32
10
1.951220
20
4.512195
30
0
0
VERTEX
8
R2V
62
0
70
32
10
2.158537
20
4.536585
30
0
0
VERTEX
8
R2V
62
0
70
32
10
1.987805
20
4.548780
30
0
0
VERTEX
8
R2V
62
0
70
32
10
2.000000
20
4.585366
30
0
0
VERTEX
8
R2V
62
0
70
32
10
2.036585
20
4.597561
30
0
0
VERTEX
8
R2V
62
0
70
32
10
2.048780
20
4.682927
30
0
0
VERTEX
8
R2V
62
0
70
32
10
2.036585
20
4.719512
30
0
0
VERTEX
8
R2V
62
0
70
32
10
1.987805
20
4.743902
30
0
0
VERTEX
8
R2V
62
0
70
32
10
1.719512
20
4.743902
30
0
0
VERTEX
8
R2V
62
0
70
32
10
1.560976
20
4.792683
30
0
0
VERTEX
8
R2V
62
0
70
32
10
1.439024
20
4.804878
30
0
0
VERTEX
8
R2V
62
0
70
32
10
1.329268
20
4.853659
30
0
0
VERTEX
8
R2V
62
0
70
32
10
1.219512
20
4.865854
30
0
0
SEQEND
0
POLYLINE
8
R2V
62
0
66
1
70
8
0
VERTEX
8
R2V
62
0
70
32
10
9.329268
20
4.987805
30
0
0
VERTEX
8
R2V
62
0
70
32
10
9.329268
20
3.219512
30
0
0
VERTEX
8
R2V
62
0
70
32
10
9.000000
20
3.219512
30
0
0
VERTEX
8
R2V
62
0
70
32
10
9.000000
20
4.987805
30
0
0
VERTEX
8
R2V
62
0
70
32
10
9.329268
20
4.987805
30
0
0
SEQEND
0
POLYLINE
8
R2V
62
0
66
1
70
8
0
VERTEX
8
R2V
62
0
70
32
10
4.463415
20
4.902439
30
0
0
VERTEX
8
R2V
62
0
70
32
10
4.463415
20
3.207317
30
0
0
VERTEX
8
R2V
62
0
70
32
10
4.121951
20
3.207317
30
0
0
VERTEX
8
R2V
62
0
70
32
10
4.121951
20
3.719512
30
0
0
VERTEX
8
R2V
62
0
70
32
10
3.975610
20
3.719512
30
0
0
VERTEX
8
R2V
62
0
70
32
10
3.975610
20
3.207317
30
0
0
VERTEX
8
R2V
62
0
70
32
10
3.621951
20
3.207317
30
0
0
VERTEX
8
R2V
62
0
70
32
10
3.621951
20
4.902439
30
0
0
VERTEX
8
R2V
62
0
70
32
10
3.975610
20
4.902439
30
0
0
VERTEX
8
R2V
62
0
70
32
10
3.975610
20
4.292683
30
0
0
VERTEX
8
R2V
62
0
70
32
10
4.121951
20
4.292683
30
0
0
VERTEX
8
R2V
62
0
70
32
10
4.121951
20
4.902439
30
0
0
VERTEX
8
R2V
62
0
70
32
10
4.463415
20
4.902439
30
0
0
SEQEND
0
POLYLINE
8
R2V
62
0
66
1
70
8
0
VERTEX
8
R2V
62
0
70
32
10
1.000000
20
5.414634
30
0
0
VERTEX
8
R2V
62
0
70
32
10
1.000000
20
5.402439
30
0
0
VERTEX
8
R2V
62
0
70
32
10
1.000000
20
5.414634
30
0
0
SEQEND
0
POLYLINE
8
R2V
62
0
66
1
70
8
0
VERTEX
8
R2V
62
0
70
32
10
1.158537
20
5.231707
30
0
0
VERTEX
8
R2V
62
0
70
32
10
1.109756
20
5.158537
30
0
0
VERTEX
8
R2V
62
0
70
32
10
1.158537
20
5.231707
30
0
0
SEQEND
0
POLYLINE
8
R2V
62
0
66
1
70
8
0
VERTEX
8
R2V
62
0
70
32
10
1.109756
20
5.146341
30
0
0
VERTEX
8
R2V
62
0
70
32
10
1.085366
20
5.121951
30
0
0
VERTEX
8
R2V
62
0
70
32
10
1.109756
20
5.146341
30
0
0
SEQEND
0
POLYLINE
8
R2V
62
0
66
1
70
8
0
VERTEX
8
R2V
62
0
70
32
10
1.085366
20
5.109756
30
0
0
VERTEX
8
R2V
62
0
70
32
10
1.085366
20
5.097561
30
0
0
VERTEX
8
R2V
62
0
70
32
10
1.073171
20
5.097561
30
0
0
VERTEX
8
R2V
62
0
70
32
10
1.073171
20
5.109756
30
0
0
VERTEX
8
R2V
62
0
70
32
10
1.085366
20
5.109756
30
0
0
SEQEND
0
POLYLINE
8
R2V
62
0
66
1
70
8
0
VERTEX
8
R2V
62
0
70
32
10
7.280488
20
5.097561
30
0
0
VERTEX
8
R2V
62
0
70
32
10
7.390244
20
5.073171
30
0
0
VERTEX
8
R2V
62
0
70
32
10
7.390244
20
4.780488
30
0
0
VERTEX
8
R2V
62
0
70
32
10
7.341463
20
4.756098
30
0
0
VERTEX
8
R2V
62
0
70
32
10
7.097561
20
4.768293
30
0
0
VERTEX
8
R2V
62
0
70
32
10
7.085366
20
5.073171
30
0
0
VERTEX
8
R2V
62
0
70
32
10
7.280488
20
5.097561
30
0
0
SEQEND
0
POLYLINE
8
R2V
62
0
66
1
70
8
0
VERTEX
8
R2V
62
0
70
32
10
2.719512
20
5.780488
30
0
0
VERTEX
8
R2V
62
0
70
32
10
2.719512
20
5.768293
30
0
0
VERTEX
8
R2V
62
0
70
32
10
2.707317
20
5.768293
30
0
0
VERTEX
8
R2V
62
0
70
32
10
2.707317
20
5.780488
30
0
0
VERTEX
8
R2V
62
0
70
32
10
2.719512
20
5.780488
30
0
0
SEQEND
0
POLYLINE
8
R2V
62
0
66
1
70
8
0
VERTEX
8
R2V
62
0
70
32
10
0.682927
20
5.768293
30
0
0
VERTEX
8
R2V
62
0
70
32
10
0.670732
20
5.768293
30
0
0
VERTEX
8
R2V
62
0
70
32
10
0.670732
20
5.756098
30
0
0
VERTEX
8
R2V
62
0
70
32
10
0.682927
20
5.756098
30
0
0
VERTEX
8
R2V
62
0
70
32
10
0.682927
20
5.768293
30
0
0
SEQEND
0
POLYLINE
8
R2V
62
0
66
1
70
8
0
VERTEX
8
R2V
62
0
70
32
10
1.926829
20
5.646341
30
0
0
VERTEX
8
R2V
62
0
70
32
10
1.926829
20
5.634146
30
0
0
VERTEX
8
R2V
62
0
70
32
10
1.987805
20
5.670732
30
0
0
VERTEX
8
R2V
62
0
70
32
10
2.024390
20
5.621951
30
0
0
VERTEX
8
R2V
62
0
70
32
10
2.024390
20
5.695122
30
0
0
VERTEX
8
R2V
62
0
70
32
10
2.048780
20
5.695122
30
0
0
VERTEX
8
R2V
62
0
70
32
10
2.048780
20
5.719512
30
0
0
VERTEX
8
R2V
62
0
70
32
10
2.000000
20
5.719512
30
0
0
VERTEX
8
R2V
62
0
70
32
10
1.987805
20
5.780488
30
0
0
VERTEX
8
R2V
62
0
70
32
10
1.975610
20
5.719512
30
0
0
VERTEX
8
R2V
62
0
70
32
10
1.926829
20
5.719512
30
0
0
VERTEX
8
R2V
62
0
70
32
10
1.951220
20
5.682927
30
0
0
VERTEX
8
R2V
62
0
70
32
10
1.926829
20
5.646341
30
0
0
SEQEND
0
POLYLINE
8
R2V
62
0
66
1
70
8
0
VERTEX
8
R2V
62
0
70
32
10
1.817073
20
5.634146
30
0
0
VERTEX
8
R2V
62
0
70
32
10
1.804878
20
5.634146
30
0
0
VERTEX
8
R2V
62
0
70
32
10
1.804878
20
5.621951
30
0
0
VERTEX
8
R2V
62
0
70
32
10
1.817073
20
5.621951
30
0
0
VERTEX
8
R2V
62
0
70
32
10
1.817073
20
5.634146
30
0
0
SEQEND
0
POLYLINE
8
R2V
62
0
66
1
70
8
0
VERTEX
8
R2V
62
0
70
32
10
1.060976
20
5.500000
30
0
0
VERTEX
8
R2V
62
0
70
32
10
1.048780
20
5.500000
30
0
0
VERTEX
8
R2V
62
0
70
32
10
1.048780
20
5.487805
30
0
0
VERTEX
8
R2V
62
0
70
32
10
1.036585
20
5.487805
30
0
0
VERTEX
8
R2V
62
0
70
32
10
1.036585
20
5.475610
30
0
0
VERTEX
8
R2V
62
0
70
32
10
1.060976
20
5.475610
30
0
0
VERTEX
8
R2V
62
0
70
32
10
1.060976
20
5.500000
30
0
0
SEQEND
0
POLYLINE
8
R2V
62
0
66
1
70
8
0
VERTEX
8
R2V
62
0
70
32
10
1.024390
20
5.451220
30
0
0
VERTEX
8
R2V
62
0
70
32
10
1.012195
20
5.451220
30
0
0
VERTEX
8
R2V
62
0
70
32
10
1.012195
20
5.439024
30
0
0
VERTEX
8
R2V
62
0
70
32
10
1.024390
20
5.439024
30
0
0
VERTEX
8
R2V
62
0
70
32
10
1.024390
20
5.451220
30
0
0
SEQEND
0
POLYLINE
8
R2V
62
0
66
1
70
8
0
VERTEX
8
R2V
62
0
70
32
10
1.329268
20
5.597561
30
0
0
VERTEX
8
R2V
62
0
70
32
10
1.158537
20
5.256098
30
0
0
VERTEX
8
R2V
62
0
70
32
10
1.170732
20
5.378049
30
0
0
VERTEX
8
R2V
62
0
70
32
10
1.329268
20
5.597561
30
0
0
SEQEND
0
POLYLINE
8
R2V
62
0
66
1
70
8
0
VERTEX
8
R2V
62
0
70
32
10
2.719512
20
5.487805
30
0
0
VERTEX
8
R2V
62
0
70
32
10
2.682927
20
5.451220
30
0
0
VERTEX
8
R2V
62
0
70
32
10
2.621951
20
5.146341
30
0
0
VERTEX
8
R2V
62
0
70
32
10
2.609756
20
4.926829
30
0
0
VERTEX
8
R2V
62
0
70
32
10
2.548780
20
4.890244
30
0
0
VERTEX
8
R2V
62
0
70
32
10
2.439024
20
4.878049
30
0
0
VERTEX
8
R2V
62
0
70
32
10
2.451220
20
4.719512
30
0
0
VERTEX
8
R2V
62
0
70
32
10
2.463415
20
4.719512
30
0
0
VERTEX
8
R2V
62
0
70
32
10
2.536585
20
4.524390
30
0
0
VERTEX
8
R2V
62
0
70
32
10
2.524390
20
4.280488
30
0
0
VERTEX
8
R2V
62
0
70
32
10
2.487805
20
4.231707
30
0
0
VERTEX
8
R2V
62
0
70
32
10
2.487805
20
4.182927
30
0
0
VERTEX
8
R2V
62
0
70
32
10
2.621951
20
4.243902
30
0
0
VERTEX
8
R2V
62
0
70
32
10
2.695122
20
4.292683
30
0
0
VERTEX
8
R2V
62
0
70
32
10
2.804878
20
4.292683
30
0
0
VERTEX
8
R2V
62
0
70
32
10
2.804878
20
4.317073
30
0
0
VERTEX
8
R2V
62
0
70
32
10
2.865854
20
4.341463
30
0
0
VERTEX
8
R2V
62
0
70
32
10
2.902439
20
4.365854
30
0
0
VERTEX
8
R2V
62
0
70
32
10
2.939024
20
4.341463
30
0
0
VERTEX
8
R2V
62
0
70
32
10
2.926829
20
4.609756
30
0
0
VERTEX
8
R2V
62
0
70
32
10
2.890244
20
4.865854
30
0
0
VERTEX
8
R2V
62
0
70
32
10
2.865854
20
5.304878
30
0
0
VERTEX
8
R2V
62
0
70
32
10
2.853659
20
5.268293
30
0
0
VERTEX
8
R2V
62
0
70
32
10
2.792683
20
5.280488
30
0
0
VERTEX
8
R2V
62
0
70
32
10
2.731707
20
5.463415
30
0
0
VERTEX
8
R2V
62
0
70
32
10
2.719512
20
5.487805
30
0
0
SEQEND
0
POLYLINE
8
R2V
62
0
66
1
70
8
0
VERTEX
8
R2V
62
0
70
32
10
3.109756
20
5.536585
30
0
0
VERTEX
8
R2V
62
0
70
32
10
2.890244
20
5.439024
30
0
0
VERTEX
8
R2V
62
0
70
32
10
2.890244
20
5.219512
30
0
0
VERTEX
8
R2V
62
0
70
32
10
2.902439
20
5.219512
30
0
0
VERTEX
8
R2V
62
0
70
32
10
2.914634
20
4.853659
30
0
0
VERTEX
8
R2V
62
0
70
32
10
2.926829
20
4.853659
30
0
0
VERTEX
8
R2V
62
0
70
32
10
2.975610
20
4.402439
30
0
0
VERTEX
8
R2V
62
0
70
32
10
2.975610
20
4.268293
30
0
0
VERTEX
8
R2V
62
0
70
32
10
2.987805
20
4.268293
30
0
0
VERTEX
8
R2V
62
0
70
32
10
2.975610
20
4.158537
30
0
0
VERTEX
8
R2V
62
0
70
32
10
2.865854
20
3.975610
30
0
0
VERTEX
8
R2V
62
0
70
32
10
2.902439
20
3.658537
30
0
0
VERTEX
8
R2V
62
0
70
32
10
2.951220
20
3.670732
30
0
0
VERTEX
8
R2V
62
0
70
32
10
3.048780
20
3.804878
30
0
0
VERTEX
8
R2V
62
0
70
32
10
3.073171
20
3.890244
30
0
0
VERTEX
8
R2V
62
0
70
32
10
3.121951
20
3.987805
30
0
0
VERTEX
8
R2V
62
0
70
32
10
3.195122
20
4.451220
30
0
0
VERTEX
8
R2V
62
0
70
32
10
3.231707
20
4.609756
30
0
0
VERTEX
8
R2V
62
0
70
32
10
3.231707
20
5.073171
30
0
0
VERTEX
8
R2V
62
0
70
32
10
3.158537
20
5.378049
30
0
0
VERTEX
8
R2V
62
0
70
32
10
3.121951
20
5.512195
30
0
0
VERTEX
8
R2V
62
0
70
32
10
3.109756
20
5.536585
30
0
0
SEQEND
0
POLYLINE
8
R2V
62
0
66
1
70
8
0
VERTEX
8
R2V
62
0
70
32
10
2.085366
20
6.158537
30
0
0
VERTEX
8
R2V
62
0
70
32
10
2.048780
20
6.158537
30
0
0
VERTEX
8
R2V
62
0
70
32
10
2.073171
20
6.121951
30
0
0
VERTEX
8
R2V
62
0
70
32
10
2.085366
20
6.158537
30
0
0
SEQEND
0
POLYLINE
8
R2V
62
0
66
1
70
8
0
VERTEX
8
R2V
62
0
70
32
10
0.621951
20
6.146341
30
0
0
VERTEX
8
R2V
62
0
70
32
10
0.475610
20
6.121951
30
0
0
VERTEX
8
R2V
62
0
70
32
10
0.426829
20
6.146341
30
0
0
VERTEX
8
R2V
62
0
70
32
10
0.378049
20
6.085366
30
0
0
VERTEX
8
R2V
62
0
70
32
10
0.451220
20
6.121951
30
0
0
VERTEX
8
R2V
62
0
70
32
10
0.573171
20
6.109756
30
0
0
VERTEX
8
R2V
62
0
70
32
10
0.621951
20
6.146341
30
0
0
SEQEND
0
POLYLINE
8
R2V
62
0
66
1
70
8
0
VERTEX
8
R2V
62
0
70
32
10
0.439024
20
6.024390
30
0
0
VERTEX
8
R2V
62
0
70
32
10
0.439024
20
6.012195
30
0
0
VERTEX
8
R2V
62
0
70
32
10
0.487805
20
6.024390
30
0
0
VERTEX
8
R2V
62
0
70
32
10
0.439024
20
6.024390
30
0
0
SEQEND
0
POLYLINE
8
R2V
62
0
66
1
70
8
0
VERTEX
8
R2V
62
0
70
32
10
0.341463
20
6.097561
30
0
0
VERTEX
8
R2V
62
0
70
32
10
0.329268
20
6.036585
30
0
0
VERTEX
8
R2V
62
0
70
32
10
0.219512
20
6.000000
30
0
0
VERTEX
8
R2V
62
0
70
32
10
0.329268
20
6.012195
30
0
0
VERTEX
8
R2V
62
0
70
32
10
0.329268
20
5.951220
30
0
0
VERTEX
8
R2V
62
0
70
32
10
0.207317
20
5.951220
30
0
0
VERTEX
8
R2V
62
0
70
32
10
0.207317
20
6.073171
30
0
0
VERTEX
8
R2V
62
0
70
32
10
0.341463
20
6.097561
30
0
0
SEQEND
0
POLYLINE
8
R2V
62
0
66
1
70
8
0
VERTEX
8
R2V
62
0
70
32
10
0.500000
20
5.890244
30
0
0
VERTEX
8
R2V
62
0
70
32
10
0.451220
20
5.878049
30
0
0
VERTEX
8
R2V
62
0
70
32
10
0.414634
20
5.829268
30
0
0
VERTEX
8
R2V
62
0
70
32
10
0.329268
20
5.817073
30
0
0
VERTEX
8
R2V
62
0
70
32
10
0.243902
20
5.792683
30
0
0
VERTEX
8
R2V
62
0
70
32
10
0.243902
20
5.695122
30
0
0
VERTEX
8
R2V
62
0
70
32
10
0.280488
20
5.695122
30
0
0
VERTEX
8
R2V
62
0
70
32
10
0.292683
20
5.560976
30
0
0
VERTEX
8
R2V
62
0
70
32
10
0.304878
20
5.560976
30
0
0
VERTEX
8
R2V
62
0
70
32
10
0.341463
20
5.512195
30
0
0
VERTEX
8
R2V
62
0
70
32
10
0.292683
20
5.500000
30
0
0
VERTEX
8
R2V
62
0
70
32
10
0.304878
20
5.414634
30
0
0
VERTEX
8
R2V
62
0
70
32
10
0.329268
20
5.414634
30
0
0
VERTEX
8
R2V
62
0
70
32
10
0.365854
20
5.353659
30
0
0
VERTEX
8
R2V
62
0
70
32
10
0.329268
20
5.341463
30
0
0
VERTEX
8
R2V
62
0
70
32
10
0.329268
20
5.317073
30
0
0
VERTEX
8
R2V
62
0
70
32
10
0.353659
20
5.317073
30
0
0
VERTEX
8
R2V
62
0
70
32
10
0.475610
20
5.304878
30
0
0
VERTEX
8
R2V
62
0
70
32
10
0.487805
20
5.439024
30
0
0
VERTEX
8
R2V
62
0
70
32
10
0.524390
20
5.463415
30
0
0
VERTEX
8
R2V
62
0
70
32
10
0.512195
20
5.512195
30
0
0
VERTEX
8
R2V
62
0
70
32
10
0.426829
20
5.487805
30
0
0
VERTEX
8
R2V
62
0
70
32
10
0.451220
20
5.536585
30
0
0
VERTEX
8
R2V
62
0
70
32
10
0.536585
20
5.585366
30
0
0
VERTEX
8
R2V
62
0
70
32
10
0.573171
20
5.634146
30
0
0
VERTEX
8
R2V
62
0
70
32
10
0.524390
20
5.646341
30
0
0
VERTEX
8
R2V
62
0
70
32
10
0.524390
20
5.682927
30
0
0
VERTEX
8
R2V
62
0
70
32
10
0.560976
20
5.682927
30
0
0
VERTEX
8
R2V
62
0
70
32
10
0.621951
20
5.670732
30
0
0
VERTEX
8
R2V
62
0
70
32
10
0.609756
20
5.731707
30
0
0
VERTEX
8
R2V
62
0
70
32
10
0.609756
20
5.780488
30
0
0
VERTEX
8
R2V
62
0
70
32
10
0.658537
20
5.792683
30
0
0
VERTEX
8
R2V
62
0
70
32
10
0.646341
20
5.853659
30
0
0
VERTEX
8
R2V
62
0
70
32
10
0.524390
20
5.865854
30
0
0
VERTEX
8
R2V
62
0
70
32
10
0.500000
20
5.890244
30
0
0
SEQEND
0
POLYLINE
8
R2V
62
0
66
1
70
8
0
VERTEX
8
R2V
62
0
70
32
10
0.695122
20
5.865854
30
0
0
VERTEX
8
R2V
62
0
70
32
10
0.695122
20
5.817073
30
0
0
VERTEX
8
R2V
62
0
70
32
10
0.695122
20
5.865854
30
0
0
SEQEND
0
POLYLINE
8
R2V
62
0
66
1
70
8
0
VERTEX
8
R2V
62
0
70
32
10
1.804878
20
6.012195
30
0
0
VERTEX
8
R2V
62
0
70
32
10
1.743902
20
5.890244
30
0
0
VERTEX
8
R2V
62
0
70
32
10
1.743902
20
5.743902
30
0
0
VERTEX
8
R2V
62
0
70
32
10
1.756098
20
5.743902
30
0
0
VERTEX
8
R2V
62
0
70
32
10
1.780488
20
5.670732
30
0
0
VERTEX
8
R2V
62
0
70
32
10
1.792683
20
5.670732
30
0
0
VERTEX
8
R2V
62
0
70
32
10
1.780488
20
5.646341
30
0
0
VERTEX
8
R2V
62
0
70
32
10
1.743902
20
5.695122
30
0
0
VERTEX
8
R2V
62
0
70
32
10
1.731707
20
5.768293
30
0
0
VERTEX
8
R2V
62
0
70
32
10
1.731707
20
5.890244
30
0
0
VERTEX
8
R2V
62
0
70
32
10
1.792683
20
6.012195
30
0
0
VERTEX
8
R2V
62
0
70
32
10
1.804878
20
6.012195
30
0
0
SEQEND
0
POLYLINE
8
R2V
62
0
66
1
70
8
0
VERTEX
8
R2V
62
0
70
32
10
0.780488
20
5.865854
30
0
0
VERTEX
8
R2V
62
0
70
32
10
0.731707
20
5.853659
30
0
0
VERTEX
8
R2V
62
0
70
32
10
0.670732
20
5.719512
30
0
0
VERTEX
8
R2V
62
0
70
32
10
0.658537
20
5.634146
30
0
0
VERTEX
8
R2V
62
0
70
32
10
0.646341
20
5.695122
30
0
0
VERTEX
8
R2V
62
0
70
32
10
0.621951
20
5.621951
30
0
0
VERTEX
8
R2V
62
0
70
32
10
0.536585
20
5.451220
30
0
0
VERTEX
8
R2V
62
0
70
32
10
0.500000
20
5.365854
30
0
0
VERTEX
8
R2V
62
0
70
32
10
0.512195
20
5.268293
30
0
0
VERTEX
8
R2V
62
0
70
32
10
0.524390
20
5.268293
30
0
0
VERTEX
8
R2V
62
0
70
32
10
0.573171
20
5.207317
30
0
0
VERTEX
8
R2V
62
0
70
32
10
0.597561
20
5.073171
30
0
0
VERTEX
8
R2V
62
0
70
32
10
0.609756
20
5.073171
30
0
0
VERTEX
8
R2V
62
0
70
32
10
0.646341
20
5.012195
30
0
0
VERTEX
8
R2V
62
0
70
32
10
0.670732
20
5.012195
30
0
0
VERTEX
8
R2V
62
0
70
32
10
0.743902
20
4.951220
30
0
0
VERTEX
8
R2V
62
0
70
32
10
0.780488
20
4.951220
30
0
0
VERTEX
8
R2V
62
0
70
32
10
0.841463
20
4.926829
30
0
0
VERTEX
8
R2V
62
0
70
32
10
0.878049
20
4.951220
30
0
0
VERTEX
8
R2V
62
0
70
32
10
0.865854
20
5.073171
30
0
0
VERTEX
8
R2V
62
0
70
32
10
0.841463
20
5.097561
30
0
0
VERTEX
8
R2V
62
0
70
32
10
0.853659
20
5.243902
30
0
0
VERTEX
8
R2V
62
0
70
32
10
0.914634
20
5.329268
30
0
0
VERTEX
8
R2V
62
0
70
32
10
0.951220
20
5.341463
30
0
0
VERTEX
8
R2V
62
0
70
32
10
0.951220
20
5.365854
30
0
0
VERTEX
8
R2V
62
0
70
32
10
1.048780
20
5.524390
30
0
0
VERTEX
8
R2V
62
0
70
32
10
1.085366
20
5.573171
30
0
0
VERTEX
8
R2V
62
0
70
32
10
1.085366
20
5.621951
30
0
0
VERTEX
8
R2V
62
0
70
32
10
1.060976
20
5.621951
30
0
0
VERTEX
8
R2V
62
0
70
32
10
1.000000
20
5.731707
30
0
0
VERTEX
8
R2V
62
0
70
32
10
0.975610
20
5.780488
30
0
0
VERTEX
8
R2V
62
0
70
32
10
0.829268
20
5.853659
30
0
0
VERTEX
8
R2V
62
0
70
32
10
0.780488
20
5.865854
30
0
0
SEQEND
0
POLYLINE
8
R2V
62
0
66
1
70
8
0
VERTEX
8
R2V
62
0
70
32
10
0.219512
20
6.597561
30
0
0
VERTEX
8
R2V
62
0
70
32
10
0.182927
20
6.585366
30
0
0
VERTEX
8
R2V
62
0
70
32
10
0.243902
20
6.609756
30
0
0
VERTEX
8
R2V
62
0
70
32
10
0.219512
20
6.597561
30
0
0
SEQEND
0
POLYLINE
8
R2V
62
0
66
1
70
8
0
VERTEX
8
R2V
62
0
70
32
10
0.280488
20
6.548780
30
0
0
VERTEX
8
R2V
62
0
70
32
10
0.195122
20
6.536585
30
0
0
VERTEX
8
R2V
62
0
70
32
10
0.195122
20
6.512195
30
0
0
VERTEX
8
R2V
62
0
70
32
10
0.280488
20
6.536585
30
0
0
VERTEX
8
R2V
62
0
70
32
10
0.280488
20
6.548780
30
0
0
SEQEND
0
POLYLINE
8
R2V
62
0
66
1
70
8
0
VERTEX
8
R2V
62
0
70
32
10
0.707317
20
6.512195
30
0
0
VERTEX
8
R2V
62
0
70
32
10
0.439024
20
6.463415
30
0
0
VERTEX
8
R2V
62
0
70
32
10
0.451220
20
6.439024
30
0
0
VERTEX
8
R2V
62
0
70
32
10
0.780488
20
6.524390
30
0
0
VERTEX
8
R2V
62
0
70
32
10
0.853659
20
6.548780
30
0
0
VERTEX
8
R2V
62
0
70
32
10
0.853659
20
6.573171
30
0
0
VERTEX
8
R2V
62
0
70
32
10
0.707317
20
6.512195
30
0
0
SEQEND
0
POLYLINE
8
R2V
62
0
66
1
70
8
0
VERTEX
8
R2V
62
0
70
32
10
0.292683
20
6.451220
30
0
0
VERTEX
8
R2V
62
0
70
32
10
0.280488
20
6.451220
30
0
0
VERTEX
8
R2V
62
0
70
32
10
0.280488
20
6.439024
30
0
0
VERTEX
8
R2V
62
0
70
32
10
0.292683
20
6.439024
30
0
0
VERTEX
8
R2V
62
0
70
32
10
0.292683
20
6.451220
30
0
0
SEQEND
0
POLYLINE
8
R2V
62
0
66
1
70
8
0
VERTEX
8
R2V
62
0
70
32
10
0.268293
20
6.439024
30
0
0
VERTEX
8
R2V
62
0
70
32
10
0.219512
20
6.439024
30
0
0
VERTEX
8
R2V
62
0
70
32
10
0.219512
20
6.426829
30
0
0
VERTEX
8
R2V
62
0
70
32
10
0.268293
20
6.426829
30
0
0
VERTEX
8
R2V
62
0
70
32
10
0.268293
20
6.439024
30
0
0
SEQEND
0
POLYLINE
8
R2V
62
0
66
1
70
8
0
VERTEX
8
R2V
62
0
70
32
10
1.902439
20
6.500000
30
0
0
VERTEX
8
R2V
62
0
70
32
10
1.853659
20
6.475610
30
0
0
VERTEX
8
R2V
62
0
70
32
10
1.792683
20
6.365854
30
0
0
VERTEX
8
R2V
62
0
70
32
10
1.707317
20
6.439024
30
0
0
VERTEX
8
R2V
62
0
70
32
10
1.634146
20
6.487805
30
0
0
VERTEX
8
R2V
62
0
70
32
10
1.560976
20
6.475610
30
0
0
VERTEX
8
R2V
62
0
70
32
10
1.560976
20
6.402439
30
0
0
VERTEX
8
R2V
62
0
70
32
10
1.573171
20
6.402439
30
0
0
VERTEX
8
R2V
62
0
70
32
10
1.646341
20
6.378049
30
0
0
VERTEX
8
R2V
62
0
70
32
10
1.670732
20
6.402439
30
0
0
VERTEX
8
R2V
62
0
70
32
10
1.695122
20
6.365854
30
0
0
VERTEX
8
R2V
62
0
70
32
10
1.719512
20
6.365854
30
0
0
VERTEX
8
R2V
62
0
70
32
10
1.756098
20
6.329268
30
0
0
VERTEX
8
R2V
62
0
70
32
10
1.780488
20
6.329268
30
0
0
VERTEX
8
R2V
62
0
70
32
10
1.780488
20
6.243902
30
0
0
VERTEX
8
R2V
62
0
70
32
10
1.695122
20
6.243902
30
0
0
VERTEX
8
R2V
62
0
70
32
10
1.695122
20
6.182927
30
0
0
VERTEX
8
R2V
62
0
70
32
10
1.768293
20
6.195122
30
0
0
VERTEX
8
R2V
62
0
70
32
10
1.817073
20
6.268293
30
0
0
VERTEX
8
R2V
62
0
70
32
10
1.841463
20
6.268293
30
0
0
VERTEX
8
R2V
62
0
70
32
10
1.926829
20
6.231707
30
0
0
VERTEX
8
R2V
62
0
70
32
10
2.085366
20
6.170732
30
0
0
VERTEX
8
R2V
62
0
70
32
10
2.219512
20
6.170732
30
0
0
VERTEX
8
R2V
62
0
70
32
10
2.378049
20
6.158537
30
0
0
VERTEX
8
R2V
62
0
70
32
10
2.548780
20
6.182927
30
0
0
VERTEX
8
R2V
62
0
70
32
10
2.548780
20
6.219512
30
0
0
VERTEX
8
R2V
62
0
70
32
10
2.378049
20
6.329268
30
0
0
VERTEX
8
R2V
62
0
70
32
10
2.341463
20
6.304878
30
0
0
VERTEX
8
R2V
62
0
70
32
10
1.951220
20
6.317073
30
0
0
VERTEX
8
R2V
62
0
70
32
10
1.853659
20
6.341463
30
0
0
VERTEX
8
R2V
62
0
70
32
10
1.865854
20
6.439024
30
0
0
VERTEX
8
R2V
62
0
70
32
10
1.926829
20
6.439024
30
0
0
VERTEX
8
R2V
62
0
70
32
10
1.926829
20
6.487805
30
0
0
VERTEX
8
R2V
62
0
70
32
10
1.902439
20
6.500000
30
0
0
SEQEND
0
POLYLINE
8
R2V
62
0
66
1
70
8
0
VERTEX
8
R2V
62
0
70
32
10
0.426829
20
6.439024
30
0
0
VERTEX
8
R2V
62
0
70
32
10
0.365854
20
6.365854
30
0
0
VERTEX
8
R2V
62
0
70
32
10
0.414634
20
6.378049
30
0
0
VERTEX
8
R2V
62
0
70
32
10
0.426829
20
6.439024
30
0
0
SEQEND
0
POLYLINE
8
R2V
62
0
66
1
70
8
0
VERTEX
8
R2V
62
0
70
32
10
1.402439
20
6.365854
30
0
0
VERTEX
8
R2V
62
0
70
32
10
1.390244
20
6.365854
30
0
0
VERTEX
8
R2V
62
0
70
32
10
1.390244
20
6.341463
30
0
0
VERTEX
8
R2V
62
0
70
32
10
1.402439
20
6.341463
30
0
0
VERTEX
8
R2V
62
0
70
32
10
1.402439
20
6.365854
30
0
0
SEQEND
0
POLYLINE
8
R2V
62
0
66
1
70
8
0
VERTEX
8
R2V
62
0
70
32
10
0.756098
20
6.439024
30
0
0
VERTEX
8
R2V
62
0
70
32
10
0.524390
20
6.341463
30
0
0
VERTEX
8
R2V
62
0
70
32
10
0.451220
20
6.365854
30
0
0
VERTEX
8
R2V
62
0
70
32
10
0.426829
20
6.329268
30
0
0
VERTEX
8
R2V
62
0
70
32
10
0.585366
20
6.341463
30
0
0
VERTEX
8
R2V
62
0
70
32
10
0.658537
20
6.390244
30
0
0
VERTEX
8
R2V
62
0
70
32
10
0.756098
20
6.426829
30
0
0
VERTEX
8
R2V
62
0
70
32
10
0.756098
20
6.439024
30
0
0
SEQEND
0
POLYLINE
8
R2V
62
0
66
1
70
8
0
VERTEX
8
R2V
62
0
70
32
10
0.451220
20
6.231707
30
0
0
VERTEX
8
R2V
62
0
70
32
10
0.426829
20
6.219512
30
0
0
VERTEX
8
R2V
62
0
70
32
10
0.512195
20
6.219512
30
0
0
VERTEX
8
R2V
62
0
70
32
10
0.560976
20
6.207317
30
0
0
VERTEX
8
R2V
62
0
70
32
10
0.621951
20
6.243902
30
0
0
VERTEX
8
R2V
62
0
70
32
10
0.707317
20
6.268293
30
0
0
VERTEX
8
R2V
62
0
70
32
10
0.609756
20
6.256098
30
0
0
VERTEX
8
R2V
62
0
70
32
10
0.524390
20
6.219512
30
0
0
VERTEX
8
R2V
62
0
70
32
10
0.512195
20
6.243902
30
0
0
VERTEX
8
R2V
62
0
70
32
10
0.451220
20
6.231707
30
0
0
SEQEND
0
POLYLINE
8
R2V
62
0
66
1
70
8
0
VERTEX
8
R2V
62
0
70
32
10
7.719512
20
6.390244
30
0
0
VERTEX
8
R2V
62
0
70
32
10
7.634146
20
6.378049
30
0
0
VERTEX
8
R2V
62
0
70
32
10
7.597561
20
6.317073
30
0
0
VERTEX
8
R2V
62
0
70
32
10
7.585366
20
6.170732
30
0
0
VERTEX
8
R2V
62
0
70
32
10
7.768293
20
6.170732
30
0
0
VERTEX
8
R2V
62
0
70
32
10
7.756098
20
6.329268
30
0
0
VERTEX
8
R2V
62
0
70
32
10
7.719512
20
6.390244
30
0
0
SEQEND
0
POLYLINE
8
R2V
62
0
66
1
70
8
0
VERTEX
8
R2V
62
0
70
32
10
0.390244
20
6.292683
30
0
0
VERTEX
8
R2V
62
0
70
32
10
0.402439
20
6.207317
30
0
0
VERTEX
8
R2V
62
0
70
32
10
0.268293
20
6.170732
30
0
0
VERTEX
8
R2V
62
0
70
32
10
0.365854
20
6.182927
30
0
0
VERTEX
8
R2V
62
0
70
32
10
0.365854
20
6.182927
30
0
0
VERTEX
8
R2V
62
0
70
32
10
0.341463
20
6.109756
30
0
0
VERTEX
8
R2V
62
0
70
32
10
0.207317
20
6.085366
30
0
0
VERTEX
8
R2V
62
0
70
32
10
0.219512
20
6.158537
30
0
0
VERTEX
8
R2V
62
0
70
32
10
0.243902
20
6.170732
30
0
0
VERTEX
8
R2V
62
0
70
32
10
0.219512
20
6.170732
30
0
0
VERTEX
8
R2V
62
0
70
32
10
0.231707
20
6.243902
30
0
0
VERTEX
8
R2V
62
0
70
32
10
0.341463
20
6.268293
30
0
0
VERTEX
8
R2V
62
0
70
32
10
0.390244
20
6.292683
30
0
0
SEQEND
0
POLYLINE
8
R2V
62
0
66
1
70
8
0
VERTEX
8
R2V
62
0
70
32
10
1.463415
20
6.548780
30
0
0
VERTEX
8
R2V
62
0
70
32
10
1.439024
20
6.256098
30
0
0
VERTEX
8
R2V
62
0
70
32
10
1.451220
20
6.256098
30
0
0
VERTEX
8
R2V
62
0
70
32
10
1.451220
20
6.012195
30
0
0
VERTEX
8
R2V
62
0
70
32
10
1.402439
20
5.890244
30
0
0
VERTEX
8
R2V
62
0
70
32
10
1.365854
20
5.902439
30
0
0
VERTEX
8
R2V
62
0
70
32
10
1.426829
20
6.048780
30
0
0
VERTEX
8
R2V
62
0
70
32
10
1.402439
20
6.329268
30
0
0
VERTEX
8
R2V
62
0
70
32
10
1.378049
20
6.329268
30
0
0
VERTEX
8
R2V
62
0
70
32
10
1.329268
20
6.195122
30
0
0
VERTEX
8
R2V
62
0
70
32
10
1.292683
20
6.207317
30
0
0
VERTEX
8
R2V
62
0
70
32
10
1.378049
20
6.378049
30
0
0
VERTEX
8
R2V
62
0
70
32
10
1.426829
20
6.548780
30
0
0
VERTEX
8
R2V
62
0
70
32
10
1.463415
20
6.548780
30
0
0
SEQEND
0
POLYLINE
8
R2V
62
0
66
1
70
8
0
VERTEX
8
R2V
62
0
70
32
10
0.743902
20
6.987805
30
0
0
VERTEX
8
R2V
62
0
70
32
10
0.500000
20
6.963415
30
0
0
VERTEX
8
R2V
62
0
70
32
10
0.743902
20
6.975610
30
0
0
VERTEX
8
R2V
62
0
70
32
10
0.743902
20
6.987805
30
0
0
SEQEND
0
POLYLINE
8
R2V
62
0
66
1
70
8
0
VERTEX
8
R2V
62
0
70
32
10
1.048780
20
6.951220
30
0
0
VERTEX
8
R2V
62
0
70
32
10
1.024390
20
6.951220
30
0
0
VERTEX
8
R2V
62
0
70
32
10
1.024390
20
6.939024
30
0
0
VERTEX
8
R2V
62
0
70
32
10
1.048780
20
6.939024
30
0
0
VERTEX
8
R2V
62
0
70
32
10
1.048780
20
6.951220
30
0
0
SEQEND
0
POLYLINE
8
R2V
62
0
66
1
70
8
0
VERTEX
8
R2V
62
0
70
32
10
0.987805
20
6.878049
30
0
0
VERTEX
8
R2V
62
0
70
32
10
0.975610
20
6.878049
30
0
0
VERTEX
8
R2V
62
0
70
32
10
0.975610
20
6.853659
30
0
0
VERTEX
8
R2V
62
0
70
32
10
1.000000
20
6.853659
30
0
0
VERTEX
8
R2V
62
0
70
32
10
1.000000
20
6.865854
30
0
0
VERTEX
8
R2V
62
0
70
32
10
0.987805
20
6.865854
30
0
0
VERTEX
8
R2V
62
0
70
32
10
0.987805
20
6.878049
30
0
0
SEQEND
0
POLYLINE
8
R2V
62
0
66
1
70
8
0
VERTEX
8
R2V
62
0
70
32
10
1.024390
20
6.853659
30
0
0
VERTEX
8
R2V
62
0
70
32
10
1.000000
20
6.853659
30
0
0
VERTEX
8
R2V
62
0
70
32
10
1.000000
20
6.829268
30
0
0
VERTEX
8
R2V
62
0
70
32
10
1.024390
20
6.829268
30
0
0
VERTEX
8
R2V
62
0
70
32
10
1.024390
20
6.853659
30
0
0
SEQEND
0
POLYLINE
8
R2V
62
0
66
1
70
8
0
VERTEX
8
R2V
62
0
70
32
10
0.621951
20
6.817073
30
0
0
VERTEX
8
R2V
62
0
70
32
10
0.500000
20
6.804878
30
0
0
VERTEX
8
R2V
62
0
70
32
10
0.634146
20
6.817073
30
0
0
VERTEX
8
R2V
62
0
70
32
10
0.719512
20
6.865854
30
0
0
VERTEX
8
R2V
62
0
70
32
10
0.768293
20
6.865854
30
0
0
VERTEX
8
R2V
62
0
70
32
10
0.817073
20
6.853659
30
0
0
VERTEX
8
R2V
62
0
70
32
10
0.853659
20
6.890244
30
0
0
VERTEX
8
R2V
62
0
70
32
10
0.951220
20
6.890244
30
0
0
VERTEX
8
R2V
62
0
70
32
10
0.975610
20
6.878049
30
0
0
VERTEX
8
R2V
62
0
70
32
10
0.951220
20
6.914634
30
0
0
VERTEX
8
R2V
62
0
70
32
10
0.841463
20
6.902439
30
0
0
VERTEX
8
R2V
62
0
70
32
10
0.817073
20
6.878049
30
0
0
VERTEX
8
R2V
62
0
70
32
10
0.682927
20
6.865854
30
0
0
VERTEX
8
R2V
62
0
70
32
10
0.621951
20
6.841463
30
0
0
VERTEX
8
R2V
62
0
70
32
10
0.621951
20
6.817073
30
0
0
SEQEND
0
POLYLINE
8
R2V
62
0
66
1
70
8
0
VERTEX
8
R2V
62
0
70
32
10
9.195122
20
6.756098
30
0
0
VERTEX
8
R2V
62
0
70
32
10
9.353659
20
6.719512
30
0
0
VERTEX
8
R2V
62
0
70
32
10
9.353659
20
6.243902
30
0
0
VERTEX
8
R2V
62
0
70
32
10
9.231707
20
6.280488
30
0
0
VERTEX
8
R2V
62
0
70
32
10
9.024390
20
6.280488
30
0
0
VERTEX
8
R2V
62
0
70
32
10
9.024390
20
6.182927
30
0
0
VERTEX
8
R2V
62
0
70
32
10
9.182927
20
6.182927
30
0
0
VERTEX
8
R2V
62
0
70
32
10
9.292683
20
6.158537
30
0
0
VERTEX
8
R2V
62
0
70
32
10
9.329268
20
6.109756
30
0
0
VERTEX
8
R2V
62
0
70
32
10
9.341463
20
6.036585
30
0
0
VERTEX
8
R2V
62
0
70
32
10
9.353659
20
6.036585
30
0
0
VERTEX
8
R2V
62
0
70
32
10
9.378049
20
5.914634
30
0
0
VERTEX
8
R2V
62
0
70
32
10
9.365854
20
5.548780
30
0
0
VERTEX
8
R2V
62
0
70
32
10
9.329268
20
5.463415
30
0
0
VERTEX
8
R2V
62
0
70
32
10
9.317073
20
5.378049
30
0
0
VERTEX
8
R2V
62
0
70
32
10
9.280488
20
5.329268
30
0
0
VERTEX
8
R2V
62
0
70
32
10
9.207317
20
5.292683
30
0
0
VERTEX
8
R2V
62
0
70
32
10
9.207317
20
5.268293
30
0
0
VERTEX
8
R2V
62
0
70
32
10
9.146341
20
5.243902
30
0
0
VERTEX
8
R2V
62
0
70
32
10
8.963415
20
5.219512
30
0
0
VERTEX
8
R2V
62
0
70
32
10
8.841463
20
5.243902
30
0
0
VERTEX
8
R2V
62
0
70
32
10
8.719512
20
5.268293
30
0
0
VERTEX
8
R2V
62
0
70
32
10
8.707317
20
5.731707
30
0
0
VERTEX
8
R2V
62
0
70
32
10
8.731707
20
5.731707
30
0
0
VERTEX
8
R2V
62
0
70
32
10
8.743902
20
5.707317
30
0
0
VERTEX
8
R2V
62
0
70
32
10
8.780488
20
5.707317
30
0
0
VERTEX
8
R2V
62
0
70
32
10
8.878049
20
5.658537
30
0
0
VERTEX
8
R2V
62
0
70
32
10
8.926829
20
5.658537
30
0
0
VERTEX
8
R2V
62
0
70
32
10
9.000000
20
5.646341
30
0
0
VERTEX
8
R2V
62
0
70
32
10
9.060976
20
5.670732
30
0
0
VERTEX
8
R2V
62
0
70
32
10
9.060976
20
5.756098
30
0
0
VERTEX
8
R2V
62
0
70
32
10
8.865854
20
5.768293
30
0
0
VERTEX
8
R2V
62
0
70
32
10
8.829268
20
5.804878
30
0
0
VERTEX
8
R2V
62
0
70
32
10
8.780488
20
5.829268
30
0
0
VERTEX
8
R2V
62
0
70
32
10
8.731707
20
5.902439
30
0
0
VERTEX
8
R2V
62
0
70
32
10
8.695122
20
6.024390
30
0
0
VERTEX
8
R2V
62
0
70
32
10
8.695122
20
6.402439
30
0
0
VERTEX
8
R2V
62
0
70
32
10
8.743902
20
6.585366
30
0
0
VERTEX
8
R2V
62
0
70
32
10
8.792683
20
6.670732
30
0
0
VERTEX
8
R2V
62
0
70
32
10
8.841463
20
6.719512
30
0
0
VERTEX
8
R2V
62
0
70
32
10
8.951220
20
6.756098
30
0
0
VERTEX
8
R2V
62
0
70
32
10
9.195122
20
6.756098
30
0
0
SEQEND
0
POLYLINE
8
R2V
62
0
66
1
70
8
0
VERTEX
8
R2V
62
0
70
32
10
7.768293
20
6.743902
30
0
0
VERTEX
8
R2V
62
0
70
32
10
7.878049
20
6.695122
30
0
0
VERTEX
8
R2V
62
0
70
32
10
7.975610
20
6.536585
30
0
0
VERTEX
8
R2V
62
0
70
32
10
8.024390
20
6.317073
30
0
0
VERTEX
8
R2V
62
0
70
32
10
8.036585
20
5.817073
30
0
0
VERTEX
8
R2V
62
0
70
32
10
7.597561
20
5.817073
30
0
0
VERTEX
8
R2V
62
0
70
32
10
7.621951
20
5.670732
30
0
0
VERTEX
8
R2V
62
0
70
32
10
7.634146
20
5.670732
30
0
0
VERTEX
8
R2V
62
0
70
32
10
7.695122
20
5.621951
30
0
0
VERTEX
8
R2V
62
0
70
32
10
7.817073
20
5.646341
30
0
0
VERTEX
8
R2V
62
0
70
32
10
8.036585
20
5.756098
30
0
0
VERTEX
8
R2V
62
0
70
32
10
7.963415
20
5.329268
30
0
0
VERTEX
8
R2V
62
0
70
32
10
7.890244
20
5.317073
30
0
0
VERTEX
8
R2V
62
0
70
32
10
7.853659
20
5.280488
30
0
0
VERTEX
8
R2V
62
0
70
32
10
7.792683
20
5.256098
30
0
0
VERTEX
8
R2V
62
0
70
32
10
7.707317
20
5.219512
30
0
0
VERTEX
8
R2V
62
0
70
32
10
7.536585
20
5.231707
30
0
0
VERTEX
8
R2V
62
0
70
32
10
7.402439
20
5.317073
30
0
0
VERTEX
8
R2V
62
0
70
32
10
7.329268
20
5.402439
30
0
0
VERTEX
8
R2V
62
0
70
32
10
7.280488
20
5.524390
30
0
0
VERTEX
8
R2V
62
0
70
32
10
7.256098
20
5.719512
30
0
0
VERTEX
8
R2V
62
0
70
32
10
7.268293
20
6.292683
30
0
0
VERTEX
8
R2V
62
0
70
32
10
7.292683
20
6.414634
30
0
0
VERTEX
8
R2V
62
0
70
32
10
7.317073
20
6.439024
30
0
0
VERTEX
8
R2V
62
0
70
32
10
7.341463
20
6.548780
30
0
0
VERTEX
8
R2V
62
0
70
32
10
7.451220
20
6.695122
30
0
0
VERTEX
8
R2V
62
0
70
32
10
7.573171
20
6.743902
30
0
0
VERTEX
8
R2V
62
0
70
32
10
7.768293
20
6.743902
30
0
0
SEQEND
0
POLYLINE
8
R2V
62
0
66
1
70
8
0
VERTEX
8
R2V
62
0
70
32
10
8.585366
20
6.731707
30
0
0
VERTEX
8
R2V
62
0
70
32
10
8.634146
20
6.719512
30
0
0
VERTEX
8
R2V
62
0
70
32
10
8.634146
20
5.914634
30
0
0
VERTEX
8
R2V
62
0
70
32
10
8.475610
20
5.902439
30
0
0
VERTEX
8
R2V
62
0
70
32
10
8.463415
20
5.865854
30
0
0
VERTEX
8
R2V
62
0
70
32
10
8.439024
20
5.865854
30
0
0
VERTEX
8
R2V
62
0
70
32
10
8.426829
20
5.280488
30
0
0
VERTEX
8
R2V
62
0
70
32
10
8.085366
20
5.268293
30
0
0
VERTEX
8
R2V
62
0
70
32
10
8.085366
20
6.719512
30
0
0
VERTEX
8
R2V
62
0
70
32
10
8.390244
20
6.719512
30
0
0
VERTEX
8
R2V
62
0
70
32
10
8.402439
20
6.512195
30
0
0
VERTEX
8
R2V
62
0
70
32
10
8.414634
20
6.609756
30
0
0
VERTEX
8
R2V
62
0
70
32
10
8.439024
20
6.670732
30
0
0
VERTEX
8
R2V
62
0
70
32
10
8.475610
20
6.719512
30
0
0
VERTEX
8
R2V
62
0
70
32
10
8.585366
20
6.731707
30
0
0
SEQEND
0
POLYLINE
8
R2V
62
0
66
1
70
8
0
VERTEX
8
R2V
62
0
70
32
10
0.926829
20
6.780488
30
0
0
VERTEX
8
R2V
62
0
70
32
10
0.804878
20
6.768293
30
0
0
VERTEX
8
R2V
62
0
70
32
10
0.695122
20
6.719512
30
0
0
VERTEX
8
R2V
62
0
70
32
10
0.768293
20
6.719512
30
0
0
VERTEX
8
R2V
62
0
70
32
10
0.768293
20
6.743902
30
0
0
VERTEX
8
R2V
62
0
70
32
10
0.914634
20
6.768293
30
0
0
VERTEX
8
R2V
62
0
70
32
10
0.963415
20
6.743902
30
0
0
VERTEX
8
R2V
62
0
70
32
10
0.926829
20
6.780488
30
0
0
SEQEND
0
POLYLINE
8
R2V
62
0
66
1
70
8
0
VERTEX
8
R2V
62
0
70
32
10
0.658537
20
6.719512
30
0
0
VERTEX
8
R2V
62
0
70
32
10
0.500000
20
6.707317
30
0
0
VERTEX
8
R2V
62
0
70
32
10
0.439024
20
6.670732
30
0
0
VERTEX
8
R2V
62
0
70
32
10
0.658537
20
6.719512
30
0
0
SEQEND
0
POLYLINE
8
R2V
62
0
66
1
70
8
0
VERTEX
8
R2V
62
0
70
32
10
0.890244
20
6.695122
30
0
0
VERTEX
8
R2V
62
0
70
32
10
0.646341
20
6.634146
30
0
0
VERTEX
8
R2V
62
0
70
32
10
0.426829
20
6.573171
30
0
0
VERTEX
8
R2V
62
0
70
32
10
0.463415
20
6.560976
30
0
0
VERTEX
8
R2V
62
0
70
32
10
0.768293
20
6.658537
30
0
0
VERTEX
8
R2V
62
0
70
32
10
0.853659
20
6.670732
30
0
0
VERTEX
8
R2V
62
0
70
32
10
0.890244
20
6.670732
30
0
0
VERTEX
8
R2V
62
0
70
32
10
0.914634
20
6.658537
30
0
0
VERTEX
8
R2V
62
0
70
32
10
0.890244
20
6.695122
30
0
0
SEQEND
0
POLYLINE
8
R2V
62
0
66
1
70
8
0
VERTEX
8
R2V
62
0
70
32
10
1.256098
20
6.890244
30
0
0
VERTEX
8
R2V
62
0
70
32
10
1.121951
20
6.865854
30
0
0
VERTEX
8
R2V
62
0
70
32
10
1.024390
20
6.792683
30
0
0
VERTEX
8
R2V
62
0
70
32
10
0.865854
20
6.500000
30
0
0
VERTEX
8
R2V
62
0
70
32
10
0.792683
20
6.353659
30
0
0
VERTEX
8
R2V
62
0
70
32
10
0.719512
20
6.170732
30
0
0
VERTEX
8
R2V
62
0
70
32
10
0.695122
20
6.109756
30
0
0
VERTEX
8
R2V
62
0
70
32
10
0.670732
20
6.109756
30
0
0
VERTEX
8
R2V
62
0
70
32
10
0.585366
20
5.951220
30
0
0
VERTEX
8
R2V
62
0
70
32
10
0.585366
20
5.890244
30
0
0
VERTEX
8
R2V
62
0
70
32
10
0.902439
20
5.890244
30
0
0
VERTEX
8
R2V
62
0
70
32
10
0.975610
20
5.829268
30
0
0
VERTEX
8
R2V
62
0
70
32
10
1.024390
20
5.743902
30
0
0
VERTEX
8
R2V
62
0
70
32
10
1.036585
20
5.743902
30
0
0
VERTEX
8
R2V
62
0
70
32
10
1.073171
20
5.695122
30
0
0
VERTEX
8
R2V
62
0
70
32
10
1.097561
20
5.695122
30
0
0
VERTEX
8
R2V
62
0
70
32
10
1.097561
20
5.670732
30
0
0
VERTEX
8
R2V
62
0
70
32
10
1.121951
20
5.670732
30
0
0
VERTEX
8
R2V
62
0
70
32
10
1.146341
20
5.634146
30
0
0
VERTEX
8
R2V
62
0
70
32
10
1.134146
20
5.560976
30
0
0
VERTEX
8
R2V
62
0
70
32
10
1.085366
20
5.487805
30
0
0
VERTEX
8
R2V
62
0
70
32
10
1.073171
20
5.292683
30
0
0
VERTEX
8
R2V
62
0
70
32
10
0.975610
20
5.121951
30
0
0
VERTEX
8
R2V
62
0
70
32
10
0.975610
20
4.939024
30
0
0
VERTEX
8
R2V
62
0
70
32
10
0.987805
20
4.939024
30
0
0
VERTEX
8
R2V
62
0
70
32
10
1.048780
20
4.926829
30
0
0
VERTEX
8
R2V
62
0
70
32
10
1.158537
20
5.000000
30
0
0
VERTEX
8
R2V
62
0
70
32
10
1.280488
20
5.060976
30
0
0
VERTEX
8
R2V
62
0
70
32
10
1.402439
20
5.060976
30
0
0
VERTEX
8
R2V
62
0
70
32
10
1.451220
20
5.036585
30
0
0
VERTEX
8
R2V
62
0
70
32
10
1.524390
20
5.121951
30
0
0
VERTEX
8
R2V
62
0
70
32
10
1.548780
20
5.280488
30
0
0
VERTEX
8
R2V
62
0
70
32
10
1.585366
20
5.292683
30
0
0
VERTEX
8
R2V
62
0
70
32
10
1.646341
20
5.060976
30
0
0
VERTEX
8
R2V
62
0
70
32
10
1.658537
20
5.060976
30
0
0
VERTEX
8
R2V
62
0
70
32
10
1.682927
20
5.012195
30
0
0
VERTEX
8
R2V
62
0
70
32
10
1.707317
20
5.012195
30
0
0
VERTEX
8
R2V
62
0
70
32
10
1.743902
20
5.000000
30
0
0
VERTEX
8
R2V
62
0
70
32
10
2.085366
20
5.036585
30
0
0
VERTEX
8
R2V
62
0
70
32
10
2.170732
20
5.073171
30
0
0
VERTEX
8
R2V
62
0
70
32
10
2.304878
20
5.073171
30
0
0
VERTEX
8
R2V
62
0
70
32
10
2.329268
20
5.048780
30
0
0
VERTEX
8
R2V
62
0
70
32
10
2.317073
20
4.975610
30
0
0
VERTEX
8
R2V
62
0
70
32
10
2.268293
20
5.012195
30
0
0
VERTEX
8
R2V
62
0
70
32
10
2.280488
20
4.963415
30
0
0
VERTEX
8
R2V
62
0
70
32
10
2.292683
20
4.963415
30
0
0
VERTEX
8
R2V
62
0
70
32
10
2.329268
20
4.926829
30
0
0
VERTEX
8
R2V
62
0
70
32
10
2.573171
20
4.939024
30
0
0
VERTEX
8
R2V
62
0
70
32
10
2.609756
20
5.109756
30
0
0
VERTEX
8
R2V
62
0
70
32
10
2.621951
20
5.341463
30
0
0
VERTEX
8
R2V
62
0
70
32
10
2.682927
20
5.548780
30
0
0
VERTEX
8
R2V
62
0
70
32
10
2.707317
20
5.670732
30
0
0
VERTEX
8
R2V
62
0
70
32
10
2.731707
20
5.560976
30
0
0
VERTEX
8
R2V
62
0
70
32
10
2.829268
20
5.560976
30
0
0
VERTEX
8
R2V
62
0
70
32
10
2.792683
20
5.524390
30
0
0
VERTEX
8
R2V
62
0
70
32
10
2.768293
20
5.524390
30
0
0
VERTEX
8
R2V
62
0
70
32
10
2.768293
20
5.439024
30
0
0
VERTEX
8
R2V
62
0
70
32
10
2.780488
20
5.439024
30
0
0
VERTEX
8
R2V
62
0
70
32
10
2.792683
20
5.341463
30
0
0
VERTEX
8
R2V
62
0
70
32
10
2.914634
20
5.512195
30
0
0
VERTEX
8
R2V
62
0
70
32
10
2.987805
20
5.548780
30
0
0
VERTEX
8
R2V
62
0
70
32
10
3.085366
20
5.560976
30
0
0
VERTEX
8
R2V
62
0
70
32
10
3.060976
20
5.621951
30
0
0
VERTEX
8
R2V
62
0
70
32
10
3.024390
20
5.682927
30
0
0
VERTEX
8
R2V
62
0
70
32
10
3.012195
20
5.756098
30
0
0
VERTEX
8
R2V
62
0
70
32
10
2.951220
20
5.902439
30
0
0
VERTEX
8
R2V
62
0
70
32
10
2.878049
20
6.000000
30
0
0
VERTEX
8
R2V
62
0
70
32
10
2.890244
20
6.000000
30
0
0
VERTEX
8
R2V
62
0
70
32
10
2.926829
20
5.963415
30
0
0
VERTEX
8
R2V
62
0
70
32
10
2.951220
20
5.963415
30
0
0
VERTEX
8
R2V
62
0
70
32
10
2.890244
20
6.097561
30
0
0
VERTEX
8
R2V
62
0
70
32
10
2.865854
20
6.292683
30
0
0
VERTEX
8
R2V
62
0
70
32
10
2.841463
20
6.317073
30
0
0
VERTEX
8
R2V
62
0
70
32
10
2.841463
20
6.378049
30
0
0
VERTEX
8
R2V
62
0
70
32
10
2.804878
20
6.390244
30
0
0
VERTEX
8
R2V
62
0
70
32
10
2.731707
20
6.182927
30
0
0
VERTEX
8
R2V
62
0
70
32
10
2.670732
20
5.914634
30
0
0
VERTEX
8
R2V
62
0
70
32
10
2.646341
20
6.353659
30
0
0
VERTEX
8
R2V
62
0
70
32
10
2.609756
20
6.426829
30
0
0
VERTEX
8
R2V
62
0
70
32
10
2.646341
20
6.426829
30
0
0
VERTEX
8
R2V
62
0
70
32
10
2.695122
20
6.304878
30
0
0
VERTEX
8
R2V
62
0
70
32
10
2.707317
20
6.195122
30
0
0
VERTEX
8
R2V
62
0
70
32
10
2.780488
20
6.475610
30
0
0
VERTEX
8
R2V
62
0
70
32
10
2.731707
20
6.536585
30
0
0
VERTEX
8
R2V
62
0
70
32
10
2.670732
20
6.560976
30
0
0
VERTEX
8
R2V
62
0
70
32
10
2.548780
20
6.634146
30
0
0
VERTEX
8
R2V
62
0
70
32
10
2.463415
20
6.658537
30
0
0
VERTEX
8
R2V
62
0
70
32
10
2.378049
20
6.780488
30
0
0
VERTEX
8
R2V
62
0
70
32
10
2.000000
20
6.817073
30
0
0
VERTEX
8
R2V
62
0
70
32
10
1.707317
20
6.865854
30
0
0
VERTEX
8
R2V
62
0
70
32
10
1.353659
20
6.865854
30
0
0
VERTEX
8
R2V
62
0
70
32
10
1.256098
20
6.890244
30
0
0
SEQEND
0
POLYLINE
8
R2V
62
0
66
1
70
8
0
VERTEX
8
R2V
62
0
70
32
10
7.024390
20
6.719512
30
0
0
VERTEX
8
R2V
62
0
70
32
10
7.097561
20
6.634146
30
0
0
VERTEX
8
R2V
62
0
70
32
10
7.158537
20
6.475610
30
0
0
VERTEX
8
R2V
62
0
70
32
10
7.170732
20
5.268293
30
0
0
VERTEX
8
R2V
62
0
70
32
10
6.853659
20
5.268293
30
0
0
VERTEX
8
R2V
62
0
70
32
10
6.841463
20
6.097561
30
0
0
VERTEX
8
R2V
62
0
70
32
10
6.804878
20
6.158537
30
0
0
VERTEX
8
R2V
62
0
70
32
10
6.743902
20
6.158537
30
0
0
VERTEX
8
R2V
62
0
70
32
10
6.743902
20
6.134146
30
0
0
VERTEX
8
R2V
62
0
70
32
10
6.719512
20
6.134146
30
0
0
VERTEX
8
R2V
62
0
70
32
10
6.707317
20
5.268293
30
0
0
VERTEX
8
R2V
62
0
70
32
10
6.390244
20
5.268293
30
0
0
VERTEX
8
R2V
62
0
70
32
10
6.390244
20
6.707317
30
0
0
VERTEX
8
R2V
62
0
70
32
10
6.695122
20
6.707317
30
0
0
VERTEX
8
R2V
62
0
70
32
10
6.707317
20
6.536585
30
0
0
VERTEX
8
R2V
62
0
70
32
10
6.743902
20
6.634146
30
0
0
VERTEX
8
R2V
62
0
70
32
10
6.792683
20
6.695122
30
0
0
VERTEX
8
R2V
62
0
70
32
10
6.829268
20
6.719512
30
0
0
VERTEX
8
R2V
62
0
70
32
10
7.024390
20
6.719512
30
0
0
SEQEND
0
POLYLINE
8
R2V
62
0
66
1
70
8
0
VERTEX
8
R2V
62
0
70
32
10
6.292683
20
6.707317
30
0
0
VERTEX
8
R2V
62
0
70
32
10
6.292683
20
5.268293
30
0
0
VERTEX
8
R2V
62
0
70
32
10
5.963415
20
5.268293
30
0
0
VERTEX
8
R2V
62
0
70
32
10
5.963415
20
6.707317
30
0
0
VERTEX
8
R2V
62
0
70
32
10
5.987805
20
6.707317
30
0
0
VERTEX
8
R2V
62
0
70
32
10
6.036585
20
6.682927
30
0
0
VERTEX
8
R2V
62
0
70
32
10
6.268293
20
6.695122
30
0
0
VERTEX
8
R2V
62
0
70
32
10
6.292683
20
6.707317
30
0
0
SEQEND
0
POLYLINE
8
R2V
62
0
66
1
70
8
0
VERTEX
8
R2V
62
0
70
32
10
5.878049
20
6.719512
30
0
0
VERTEX
8
R2V
62
0
70
32
10
5.890244
20
5.914634
30
0
0
VERTEX
8
R2V
62
0
70
32
10
5.743902
20
5.902439
30
0
0
VERTEX
8
R2V
62
0
70
32
10
5.743902
20
5.878049
30
0
0
VERTEX
8
R2V
62
0
70
32
10
5.695122
20
5.865854
30
0
0
VERTEX
8
R2V
62
0
70
32
10
5.682927
20
5.268293
30
0
0
VERTEX
8
R2V
62
0
70
32
10
5.341463
20
5.268293
30
0
0
VERTEX
8
R2V
62
0
70
32
10
5.341463
20
6.707317
30
0
0
VERTEX
8
R2V
62
0
70
32
10
5.646341
20
6.707317
30
0
0
VERTEX
8
R2V
62
0
70
32
10
5.658537
20
6.487805
30
0
0
VERTEX
8
R2V
62
0
70
32
10
5.682927
20
6.658537
30
0
0
VERTEX
8
R2V
62
0
70
32
10
5.743902
20
6.719512
30
0
0
VERTEX
8
R2V
62
0
70
32
10
5.878049
20
6.719512
30
0
0
SEQEND
0
POLYLINE
8
R2V
62
0
66
1
70
8
0
VERTEX
8
R2V
62
0
70
32
10
6.207317
20
7.158537
30
0
0
VERTEX
8
R2V
62
0
70
32
10
6.280488
20
7.134146
30
0
0
VERTEX
8
R2V
62
0
70
32
10
6.268293
20
6.817073
30
0
0
VERTEX
8
R2V
62
0
70
32
10
5.987805
20
6.817073
30
0
0
VERTEX
8
R2V
62
0
70
32
10
5.963415
20
7.073171
30
0
0
VERTEX
8
R2V
62
0
70
32
10
5.987805
20
7.134146
30
0
0
VERTEX
8
R2V
62
0
70
32
10
6.060976
20
7.158537
30
0
0
VERTEX
8
R2V
62
0
70
32
10
6.207317
20
7.158537
30
0
0
SEQEND
0
POLYLINE
8
R2V
62
0
66
1
70
8
0
VERTEX
8
R2V
62
0
70
32
10
0.560976
20
7.109756
30
0
0
VERTEX
8
R2V
62
0
70
32
10
0.548780
20
7.109756
30
0
0
VERTEX
8
R2V
62
0
70
32
10
0.548780
20
7.097561
30
0
0
VERTEX
8
R2V
62
0
70
32
10
0.560976
20
7.097561
30
0
0
VERTEX
8
R2V
62
0
70
32
10
0.560976
20
7.109756
30
0
0
SEQEND
0
POLYLINE
8
R2V
62
0
66
1
70
8
0
VERTEX
8
R2V
62
0
70
32
10
0.500000
20
7.085366
30
0
0
VERTEX
8
R2V
62
0
70
32
10
0.487805
20
7.085366
30
0
0
VERTEX
8
R2V
62
0
70
32
10
0.487805
20
7.073171
30
0
0
VERTEX
8
R2V
62
0
70
32
10
0.500000
20
7.073171
30
0
0
VERTEX
8
R2V
62
0
70
32
10
0.500000
20
7.085366
30
0
0
SEQEND
0
POLYLINE
8
R2V
62
0
66
1
70
8
0
VERTEX
8
R2V
62
0
70
32
10
0.780488
20
7.085366
30
0
0
VERTEX
8
R2V
62
0
70
32
10
0.658537
20
7.073171
30
0
0
VERTEX
8
R2V
62
0
70
32
10
0.670732
20
7.048780
30
0
0
VERTEX
8
R2V
62
0
70
32
10
0.939024
20
7.048780
30
0
0
VERTEX
8
R2V
62
0
70
32
10
1.024390
20
7.036585
30
0
0
VERTEX
8
R2V
62
0
70
32
10
1.012195
20
7.060976
30
0
0
VERTEX
8
R2V
62
0
70
32
10
0.780488
20
7.085366
30
0
0
SEQEND
0
POLYLINE
8
R2V
62
0
66
1
70
8
0
VERTEX
8
R2V
62
0
70
32
10
4.134146
20
7.000000
30
0
0
VERTEX
8
R2V
62
0
70
32
10
4.365854
20
6.939024
30
0
0
VERTEX
8
R2V
62
0
70
32
10
4.378049
20
6.451220
30
0
0
VERTEX
8
R2V
62
0
70
32
10
4.256098
20
6.475610
30
0
0
VERTEX
8
R2V
62
0
70
32
10
4.195122
20
6.512195
30
0
0
VERTEX
8
R2V
62
0
70
32
10
4.000000
20
6.512195
30
0
0
VERTEX
8
R2V
62
0
70
32
10
3.975610
20
6.475610
30
0
0
VERTEX
8
R2V
62
0
70
32
10
3.987805
20
6.390244
30
0
0
VERTEX
8
R2V
62
0
70
32
10
4.158537
20
6.390244
30
0
0
VERTEX
8
R2V
62
0
70
32
10
4.256098
20
6.353659
30
0
0
VERTEX
8
R2V
62
0
70
32
10
4.317073
20
6.280488
30
0
0
VERTEX
8
R2V
62
0
70
32
10
4.378049
20
6.134146
30
0
0
VERTEX
8
R2V
62
0
70
32
10
4.402439
20
6.000000
30
0
0
VERTEX
8
R2V
62
0
70
32
10
4.378049
20
5.536585
30
0
0
VERTEX
8
R2V
62
0
70
32
10
4.341463
20
5.475610
30
0
0
VERTEX
8
R2V
62
0
70
32
10
4.329268
20
5.402439
30
0
0
VERTEX
8
R2V
62
0
70
32
10
4.292683
20
5.329268
30
0
0
VERTEX
8
R2V
62
0
70
32
10
4.256098
20
5.329268
30
0
0
VERTEX
8
R2V
62
0
70
32
10
4.231707
20
5.268293
30
0
0
VERTEX
8
R2V
62
0
70
32
10
4.121951
20
5.219512
30
0
0
VERTEX
8
R2V
62
0
70
32
10
3.804878
20
5.219512
30
0
0
VERTEX
8
R2V
62
0
70
32
10
3.658537
20
5.280488
30
0
0
VERTEX
8
R2V
62
0
70
32
10
3.670732
20
5.780488
30
0
0
VERTEX
8
R2V
62
0
70
32
10
3.695122
20
5.780488
30
0
0
VERTEX
8
R2V
62
0
70
32
10
3.780488
20
5.743902
30
0
0
VERTEX
8
R2V
62
0
70
32
10
4.024390
20
5.756098
30
0
0
VERTEX
8
R2V
62
0
70
32
10
4.024390
20
5.853659
30
0
0
VERTEX
8
R2V
62
0
70
32
10
3.987805
20
5.878049
30
0
0
VERTEX
8
R2V
62
0
70
32
10
3.780488
20
5.890244
30
0
0
VERTEX
8
R2V
62
0
70
32
10
3.695122
20
5.963415
30
0
0
VERTEX
8
R2V
62
0
70
32
10
3.634146
20
6.146341
30
0
0
VERTEX
8
R2V
62
0
70
32
10
3.646341
20
6.621951
30
0
0
VERTEX
8
R2V
62
0
70
32
10
3.707317
20
6.841463
30
0
0
VERTEX
8
R2V
62
0
70
32
10
3.804878
20
6.963415
30
0
0
VERTEX
8
R2V
62
0
70
32
10
3.865854
20
6.987805
30
0
0
VERTEX
8
R2V
62
0
70
32
10
4.134146
20
7.000000
30
0
0
SEQEND
0
POLYLINE
8
R2V
62
0
66
1
70
8
0
VERTEX
8
R2V
62
0
70
32
10
0.890244
20
7.012195
30
0
0
VERTEX
8
R2V
62
0
70
32
10
0.780488
20
6.987805
30
0
0
VERTEX
8
R2V
62
0
70
32
10
0.926829
20
6.987805
30
0
0
VERTEX
8
R2V
62
0
70
32
10
1.024390
20
6.951220
30
0
0
VERTEX
8
R2V
62
0
70
32
10
0.987805
20
6.987805
30
0
0
VERTEX
8
R2V
62
0
70
32
10
0.890244
20
7.012195
30
0
0
SEQEND
0
POLYLINE
8
R2V
62
0
66
1
70
8
0
VERTEX
8
R2V
62
0
70
32
10
1.719512
20
7.085366
30
0
0
VERTEX
8
R2V
62
0
70
32
10
1.500000
20
7.073171
30
0
0
VERTEX
8
R2V
62
0
70
32
10
1.451220
20
6.987805
30
0
0
VERTEX
8
R2V
62
0
70
32
10
1.402439
20
6.987805
30
0
0
VERTEX
8
R2V
62
0
70
32
10
1.390244
20
6.951220
30
0
0
VERTEX
8
R2V
62
0
70
32
10
1.365854
20
6.939024
30
0
0
VERTEX
8
R2V
62
0
70
32
10
1.512195
20
6.939024
30
0
0
VERTEX
8
R2V
62
0
70
32
10
1.597561
20
6.926829
30
0
0
VERTEX
8
R2V
62
0
70
32
10
1.768293
20
6.951220
30
0
0
VERTEX
8
R2V
62
0
70
32
10
1.890244
20
6.878049
30
0
0
VERTEX
8
R2V
62
0
70
32
10
2.036585
20
6.878049
30
0
0
VERTEX
8
R2V
62
0
70
32
10
2.329268
20
6.829268
30
0
0
VERTEX
8
R2V
62
0
70
32
10
2.304878
20
6.878049
30
0
0
VERTEX
8
R2V
62
0
70
32
10
2.256098
20
6.902439
30
0
0
VERTEX
8
R2V
62
0
70
32
10
2.243902
20
6.939024
30
0
0
VERTEX
8
R2V
62
0
70
32
10
2.134146
20
6.987805
30
0
0
VERTEX
8
R2V
62
0
70
32
10
2.048780
20
7.000000
30
0
0
VERTEX
8
R2V
62
0
70
32
10
2.000000
20
7.036585
30
0
0
VERTEX
8
R2V
62
0
70
32
10
1.719512
20
7.085366
30
0
0
SEQEND
0
POLYLINE
8
R2V
62
0
66
1
70
8
0
VERTEX
8
R2V
62
0
70
32
10
0.402439
20
7.121951
30
0
0
VERTEX
8
R2V
62
0
70
32
10
0.378049
20
7.121951
30
0
0
VERTEX
8
R2V
62
0
70
32
10
0.390244
20
6.939024
30
0
0
VERTEX
8
R2V
62
0
70
32
10
0.414634
20
6.963415
30
0
0
VERTEX
8
R2V
62
0
70
32
10
0.402439
20
6.695122
30
0
0
VERTEX
8
R2V
62
0
70
32
10
0.365854
20
6.609756
30
0
0
VERTEX
8
R2V
62
0
70
32
10
0.317073
20
6.548780
30
0
0
VERTEX
8
R2V
62
0
70
32
10
0.329268
20
6.512195
30
0
0
VERTEX
8
R2V
62
0
70
32
10
0.426829
20
6.682927
30
0
0
VERTEX
8
R2V
62
0
70
32
10
0.451220
20
6.743902
30
0
0
VERTEX
8
R2V
62
0
70
32
10
0.439024
20
6.951220
30
0
0
VERTEX
8
R2V
62
0
70
32
10
0.402439
20
7.121951
30
0
0
SEQEND
0
POLYLINE
8
R2V
62
0
66
1
70
8
0
VERTEX
8
R2V
62
0
70
32
10
0.256098
20
7.134146
30
0
0
VERTEX
8
R2V
62
0
70
32
10
0.182927
20
6.914634
30
0
0
VERTEX
8
R2V
62
0
70
32
10
0.158537
20
6.743902
30
0
0
VERTEX
8
R2V
62
0
70
32
10
0.243902
20
6.926829
30
0
0
VERTEX
8
R2V
62
0
70
32
10
0.256098
20
7.134146
30
0
0
SEQEND
0
POLYLINE
8
R2V
62
0
66
1
70
8
0
VERTEX
8
R2V
62
0
70
32
10
0.329268
20
7.000000
30
0
0
VERTEX
8
R2V
62
0
70
32
10
0.304878
20
6.987805
30
0
0
VERTEX
8
R2V
62
0
70
32
10
0.268293
20
6.780488
30
0
0
VERTEX
8
R2V
62
0
70
32
10
0.243902
20
6.768293
30
0
0
VERTEX
8
R2V
62
0
70
32
10
0.256098
20
6.731707
30
0
0
VERTEX
8
R2V
62
0
70
32
10
0.304878
20
6.804878
30
0
0
VERTEX
8
R2V
62
0
70
32
10
0.304878
20
6.646341
30
0
0
VERTEX
8
R2V
62
0
70
32
10
0.329268
20
7.000000
30
0
0
SEQEND
0
POLYLINE
8
R2V
62
0
66
1
70
8
0
VERTEX
8
R2V
62
0
70
32
10
4.792683
20
7.024390
30
0
0
VERTEX
8
R2V
62
0
70
32
10
4.804878
20
6.585366
30
0
0
VERTEX
8
R2V
62
0
70
32
10
4.902439
20
6.707317
30
0
0
VERTEX
8
R2V
62
0
70
32
10
5.121951
20
6.719512
30
0
0
VERTEX
8
R2V
62
0
70
32
10
5.170732
20
6.634146
30
0
0
VERTEX
8
R2V
62
0
70
32
10
5.182927
20
6.634146
30
0
0
VERTEX
8
R2V
62
0
70
32
10
5.231707
20
6.536585
30
0
0
VERTEX
8
R2V
62
0
70
32
10
5.268293
20
6.317073
30
0
0
VERTEX
8
R2V
62
0
70
32
10
5.268293
20
5.268293
30
0
0
VERTEX
8
R2V
62
0
70
32
10
4.939024
20
5.268293
30
0
0
VERTEX
8
R2V
62
0
70
32
10
4.926829
20
6.109756
30
0
0
VERTEX
8
R2V
62
0
70
32
10
4.902439
20
6.146341
30
0
0
VERTEX
8
R2V
62
0
70
32
10
4.829268
20
6.146341
30
0
0
VERTEX
8
R2V
62
0
70
32
10
4.804878
20
6.121951
30
0
0
VERTEX
8
R2V
62
0
70
32
10
4.792683
20
5.268293
30
0
0
VERTEX
8
R2V
62
0
70
32
10
4.475610
20
5.268293
30
0
0
VERTEX
8
R2V
62
0
70
32
10
4.475610
20
7.024390
30
0
0
VERTEX
8
R2V
62
0
70
32
10
4.792683
20
7.024390
30
0
0
SEQEND
0
POLYLINE
8
R2V
62
0
66
1
70
8
0
VERTEX
8
R2V
62
0
70
32
10
1.829268
20
7.646341
30
0
0
VERTEX
8
R2V
62
0
70
32
10
1.829268
20
7.621951
30
0
0
VERTEX
8
R2V
62
0
70
32
10
1.817073
20
7.621951
30
0
0
VERTEX
8
R2V
62
0
70
32
10
1.817073
20
7.646341
30
0
0
VERTEX
8
R2V
62
0
70
32
10
1.829268
20
7.646341
30
0
0
SEQEND
0
POLYLINE
8
R2V
62
0
66
1
70
8
0
VERTEX
8
R2V
62
0
70
32
10
1.670732
20
7.585366
30
0
0
VERTEX
8
R2V
62
0
70
32
10
1.695122
20
7.573171
30
0
0
VERTEX
8
R2V
62
0
70
32
10
1.695122
20
7.463415
30
0
0
VERTEX
8
R2V
62
0
70
32
10
1.609756
20
7.463415
30
0
0
VERTEX
8
R2V
62
0
70
32
10
1.621951
20
7.585366
30
0
0
VERTEX
8
R2V
62
0
70
32
10
1.670732
20
7.585366
30
0
0
SEQEND
0
POLYLINE
8
R2V
62
0
66
1
70
8
0
VERTEX
8
R2V
62
0
70
32
10
1.804878
20
7.560976
30
0
0
VERTEX
8
R2V
62
0
70
32
10
1.804878
20
7.548780
30
0
0
VERTEX
8
R2V
62
0
70
32
10
1.792683
20
7.548780
30
0
0
VERTEX
8
R2V
62
0
70
32
10
1.792683
20
7.560976
30
0
0
VERTEX
8
R2V
62
0
70
32
10
1.804878
20
7.560976
30
0
0
SEQEND
0
POLYLINE
8
R2V
62
0
66
1
70
8
0
VERTEX
8
R2V
62
0
70
32
10
0.487805
20
7.597561
30
0
0
VERTEX
8
R2V
62
0
70
32
10
0.426829
20
7.573171
30
0
0
VERTEX
8
R2V
62
0
70
32
10
0.426829
20
7.548780
30
0
0
VERTEX
8
R2V
62
0
70
32
10
0.451220
20
7.548780
30
0
0
VERTEX
8
R2V
62
0
70
32
10
0.475610
20
7.536585
30
0
0
VERTEX
8
R2V
62
0
70
32
10
0.487805
20
7.597561
30
0
0
SEQEND
0
POLYLINE
8
R2V
62
0
66
1
70
8
0
VERTEX
8
R2V
62
0
70
32
10
0.402439
20
7.731707
30
0
0
VERTEX
8
R2V
62
0
70
32
10
0.329268
20
7.731707
30
0
0
VERTEX
8
R2V
62
0
70
32
10
0.304878
20
7.585366
30
0
0
VERTEX
8
R2V
62
0
70
32
10
0.268293
20
7.548780
30
0
0
VERTEX
8
R2V
62
0
70
32
10
0.280488
20
7.487805
30
0
0
VERTEX
8
R2V
62
0
70
32
10
0.317073
20
7.524390
30
0
0
VERTEX
8
R2V
62
0
70
32
10
0.341463
20
7.658537
30
0
0
VERTEX
8
R2V
62
0
70
32
10
0.402439
20
7.731707
30
0
0
SEQEND
0
POLYLINE
8
R2V
62
0
66
1
70
8
0
VERTEX
8
R2V
62
0
70
32
10
0.439024
20
7.536585
30
0
0
VERTEX
8
R2V
62
0
70
32
10
0.353659
20
7.524390
30
0
0
VERTEX
8
R2V
62
0
70
32
10
0.256098
20
7.463415
30
0
0
VERTEX
8
R2V
62
0
70
32
10
0.256098
20
7.439024
30
0
0
VERTEX
8
R2V
62
0
70
32
10
0.304878
20
7.439024
30
0
0
VERTEX
8
R2V
62
0
70
32
10
0.317073
20
7.414634
30
0
0
VERTEX
8
R2V
62
0
70
32
10
0.378049
20
7.426829
30
0
0
VERTEX
8
R2V
62
0
70
32
10
0.353659
20
7.439024
30
0
0
VERTEX
8
R2V
62
0
70
32
10
0.426829
20
7.451220
30
0
0
VERTEX
8
R2V
62
0
70
32
10
0.487805
20
7.475610
30
0
0
VERTEX
8
R2V
62
0
70
32
10
0.439024
20
7.500000
30
0
0
VERTEX
8
R2V
62
0
70
32
10
0.475610
20
7.500000
30
0
0
VERTEX
8
R2V
62
0
70
32
10
0.475610
20
7.524390
30
0
0
VERTEX
8
R2V
62
0
70
32
10
0.439024
20
7.536585
30
0
0
SEQEND
0
POLYLINE
8
R2V
62
0
66
1
70
8
0
VERTEX
8
R2V
62
0
70
32
10
2.268293
20
7.439024
30
0
0
VERTEX
8
R2V
62
0
70
32
10
2.268293
20
7.426829
30
0
0
VERTEX
8
R2V
62
0
70
32
10
2.256098
20
7.426829
30
0
0
VERTEX
8
R2V
62
0
70
32
10
2.256098
20
7.439024
30
0
0
VERTEX
8
R2V
62
0
70
32
10
2.268293
20
7.439024
30
0
0
SEQEND
0
POLYLINE
8
R2V
62
0
66
1
70
8
0
VERTEX
8
R2V
62
0
70
32
10
2.243902
20
7.439024
30
0
0
VERTEX
8
R2V
62
0
70
32
10
2.243902
20
7.426829
30
0
0
VERTEX
8
R2V
62
0
70
32
10
2.219512
20
7.426829
30
0
0
VERTEX
8
R2V
62
0
70
32
10
2.219512
20
7.439024
30
0
0
VERTEX
8
R2V
62
0
70
32
10
2.243902
20
7.439024
30
0
0
SEQEND
0
POLYLINE
8
R2V
62
0
66
1
70
8
0
VERTEX
8
R2V
62
0
70
32
10
2.060976
20
7.439024
30
0
0
VERTEX
8
R2V
62
0
70
32
10
2.060976
20
7.426829
30
0
0
VERTEX
8
R2V
62
0
70
32
10
2.012195
20
7.426829
30
0
0
VERTEX
8
R2V
62
0
70
32
10
2.012195
20
7.439024
30
0
0
VERTEX
8
R2V
62
0
70
32
10
2.060976
20
7.439024
30
0
0
SEQEND
0
POLYLINE
8
R2V
62
0
66
1
70
8
0
VERTEX
8
R2V
62
0
70
32
10
1.951220
20
7.439024
30
0
0
VERTEX
8
R2V
62
0
70
32
10
1.951220
20
7.426829
30
0
0
VERTEX
8
R2V
62
0
70
32
10
1.939024
20
7.426829
30
0
0
VERTEX
8
R2V
62
0
70
32
10
1.939024
20
7.439024
30
0
0
VERTEX
8
R2V
62
0
70
32
10
1.951220
20
7.439024
30
0
0
SEQEND
0
POLYLINE
8
R2V
62
0
66
1
70
8
0
VERTEX
8
R2V
62
0
70
32
10
1.646341
20
7.621951
30
0
0
VERTEX
8
R2V
62
0
70
32
10
1.597561
20
7.609756
30
0
0
VERTEX
8
R2V
62
0
70
32
10
1.597561
20
7.426829
30
0
0
VERTEX
8
R2V
62
0
70
32
10
1.719512
20
7.426829
30
0
0
VERTEX
8
R2V
62
0
70
32
10
1.719512
20
7.597561
30
0
0
VERTEX
8
R2V
62
0
70
32
10
1.646341
20
7.621951
30
0
0
SEQEND
0
POLYLINE
8
R2V
62
0
66
1
70
8
0
VERTEX
8
R2V
62
0
70
32
10
2.170732
20
7.439024
30
0
0
VERTEX
8
R2V
62
0
70
32
10
2.170732
20
7.414634
30
0
0
VERTEX
8
R2V
62
0
70
32
10
2.146341
20
7.414634
30
0
0
VERTEX
8
R2V
62
0
70
32
10
2.146341
20
7.426829
30
0
0
VERTEX
8
R2V
62
0
70
32
10
2.158537
20
7.426829
30
0
0
VERTEX
8
R2V
62
0
70
32
10
2.158537
20
7.439024
30
0
0
VERTEX
8
R2V
62
0
70
32
10
2.170732
20
7.439024
30
0
0
SEQEND
0
POLYLINE
8
R2V
62
0
66
1
70
8
0
VERTEX
8
R2V
62
0
70
32
10
2.109756
20
7.426829
30
0
0
VERTEX
8
R2V
62
0
70
32
10
2.109756
20
7.414634
30
0
0
VERTEX
8
R2V
62
0
70
32
10
2.085366
20
7.414634
30
0
0
VERTEX
8
R2V
62
0
70
32
10
2.085366
20
7.426829
30
0
0
VERTEX
8
R2V
62
0
70
32
10
2.109756
20
7.426829
30
0
0
SEQEND
0
POLYLINE
8
R2V
62
0
66
1
70
8
0
VERTEX
8
R2V
62
0
70
32
10
0.707317
20
7.621951
30
0
0
VERTEX
8
R2V
62
0
70
32
10
0.658537
20
7.621951
30
0
0
VERTEX
8
R2V
62
0
70
32
10
0.646341
20
7.512195
30
0
0
VERTEX
8
R2V
62
0
70
32
10
0.646341
20
7.475610
30
0
0
VERTEX
8
R2V
62
0
70
32
10
0.658537
20
7.475610
30
0
0
VERTEX
8
R2V
62
0
70
32
10
0.707317
20
7.365854
30
0
0
VERTEX
8
R2V
62
0
70
32
10
0.597561
20
7.463415
30
0
0
VERTEX
8
R2V
62
0
70
32
10
0.536585
20
7.426829
30
0
0
VERTEX
8
R2V
62
0
70
32
10
0.536585
20
7.207317
30
0
0
VERTEX
8
R2V
62
0
70
32
10
0.548780
20
7.207317
30
0
0
VERTEX
8
R2V
62
0
70
32
10
0.548780
20
7.158537
30
0
0
VERTEX
8
R2V
62
0
70
32
10
0.573171
20
7.158537
30
0
0
VERTEX
8
R2V
62
0
70
32
10
0.573171
20
7.109756
30
0
0
VERTEX
8
R2V
62
0
70
32
10
0.780488
20
7.158537
30
0
0
VERTEX
8
R2V
62
0
70
32
10
0.804878
20
7.207317
30
0
0
VERTEX
8
R2V
62
0
70
32
10
0.829268
20
7.243902
30
0
0
VERTEX
8
R2V
62
0
70
32
10
0.817073
20
7.463415
30
0
0
VERTEX
8
R2V
62
0
70
32
10
0.731707
20
7.609756
30
0
0
VERTEX
8
R2V
62
0
70
32
10
0.707317
20
7.621951
30
0
0
SEQEND
0
POLYLINE
8
R2V
62
0
66
1
70
8
0
VERTEX
8
R2V
62
0
70
32
10
0.402439
20
7.414634
30
0
0
VERTEX
8
R2V
62
0
70
32
10
0.378049
20
7.402439
30
0
0
VERTEX
8
R2V
62
0
70
32
10
0.390244
20
7.402439
30
0
0
VERTEX
8
R2V
62
0
70
32
10
0.402439
20
7.365854
30
0
0
VERTEX
8
R2V
62
0
70
32
10
0.426829
20
7.365854
30
0
0
VERTEX
8
R2V
62
0
70
32
10
0.426829
20
7.390244
30
0
0
VERTEX
8
R2V
62
0
70
32
10
0.402439
20
7.390244
30
0
0
VERTEX
8
R2V
62
0
70
32
10
0.402439
20
7.414634
30
0
0
SEQEND
0
POLYLINE
8
R2V
62
0
66
1
70
8
0
VERTEX
8
R2V
62
0
70
32
10
1.817073
20
7.390244
30
0
0
VERTEX
8
R2V
62
0
70
32
10
1.780488
20
7.378049
30
0
0
VERTEX
8
R2V
62
0
70
32
10
1.743902
20
7.219512
30
0
0
VERTEX
8
R2V
62
0
70
32
10
1.719512
20
7.207317
30
0
0
VERTEX
8
R2V
62
0
70
32
10
1.719512
20
7.170732
30
0
0
VERTEX
8
R2V
62
0
70
32
10
1.695122
20
7.158537
30
0
0
VERTEX
8
R2V
62
0
70
32
10
1.707317
20
7.158537
30
0
0
VERTEX
8
R2V
62
0
70
32
10
1.963415
20
7.134146
30
0
0
VERTEX
8
R2V
62
0
70
32
10
2.109756
20
7.048780
30
0
0
VERTEX
8
R2V
62
0
70
32
10
2.146341
20
7.048780
30
0
0
VERTEX
8
R2V
62
0
70
32
10
2.170732
20
7.109756
30
0
0
VERTEX
8
R2V
62
0
70
32
10
2.219512
20
7.109756
30
0
0
VERTEX
8
R2V
62
0
70
32
10
2.219512
20
7.134146
30
0
0
VERTEX
8
R2V
62
0
70
32
10
2.243902
20
7.134146
30
0
0
VERTEX
8
R2V
62
0
70
32
10
2.268293
20
7.195122
30
0
0
VERTEX
8
R2V
62
0
70
32
10
2.256098
20
7.317073
30
0
0
VERTEX
8
R2V
62
0
70
32
10
2.121951
20
7.317073
30
0
0
VERTEX
8
R2V
62
0
70
32
10
1.817073
20
7.390244
30
0
0
SEQEND
0
POLYLINE
8
R2V
62
0
66
1
70
8
0
VERTEX
8
R2V
62
0
70
32
10
1.926829
20
8.158537
30
0
0
VERTEX
8
R2V
62
0
70
32
10
1.878049
20
8.146341
30
0
0
VERTEX
8
R2V
62
0
70
32
10
1.902439
20
8.121951
30
0
0
VERTEX
8
R2V
62
0
70
32
10
1.926829
20
8.158537
30
0
0
SEQEND
0
POLYLINE
8
R2V
62
0
66
1
70
8
0
VERTEX
8
R2V
62
0
70
32
10
2.182927
20
8.085366
30
0
0
VERTEX
8
R2V
62
0
70
32
10
1.902439
20
8.085366
30
0
0
VERTEX
8
R2V
62
0
70
32
10
1.890244
20
8.060976
30
0
0
VERTEX
8
R2V
62
0
70
32
10
1.890244
20
8.085366
30
0
0
VERTEX
8
R2V
62
0
70
32
10
1.804878
20
8.073171
30
0
0
VERTEX
8
R2V
62
0
70
32
10
1.804878
20
7.963415
30
0
0
VERTEX
8
R2V
62
0
70
32
10
1.780488
20
7.560976
30
0
0
VERTEX
8
R2V
62
0
70
32
10
1.768293
20
7.439024
30
0
0
VERTEX
8
R2V
62
0
70
32
10
1.853659
20
7.439024
30
0
0
VERTEX
8
R2V
62
0
70
32
10
1.963415
20
7.414634
30
0
0
VERTEX
8
R2V
62
0
70
32
10
1.987805
20
7.414634
30
0
0
VERTEX
8
R2V
62
0
70
32
10
2.158537
20
7.378049
30
0
0
VERTEX
8
R2V
62
0
70
32
10
2.182927
20
7.378049
30
0
0
VERTEX
8
R2V
62
0
70
32
10
2.256098
20
7.365854
30
0
0
VERTEX
8
R2V
62
0
70
32
10
2.280488
20
7.378049
30
0
0
VERTEX
8
R2V
62
0
70
32
10
2.256098
20
7.939024
30
0
0
VERTEX
8
R2V
62
0
70
32
10
2.231707
20
7.939024
30
0
0
VERTEX
8
R2V
62
0
70
32
10
2.231707
20
8.024390
30
0
0
VERTEX
8
R2V
62
0
70
32
10
2.207317
20
8.060976
30
0
0
VERTEX
8
R2V
62
0
70
32
10
2.195122
20
8.048780
30
0
0
VERTEX
8
R2V
62
0
70
32
10
2.182927
20
8.085366
30
0
0
SEQEND
0
POLYLINE
8
R2V
62
0
66
1
70
8
0
VERTEX
8
R2V
62
0
70
32
10
1.951220
20
8.073171
30
0
0
VERTEX
8
R2V
62
0
70
32
10
1.951220
20
8.060976
30
0
0
VERTEX
8
R2V
62
0
70
32
10
1.939024
20
8.060976
30
0
0
VERTEX
8
R2V
62
0
70
32
10
1.939024
20
8.073171
30
0
0
VERTEX
8
R2V
62
0
70
32
10
1.951220
20
8.073171
30
0
0
SEQEND
0
POLYLINE
8
R2V
62
0
66
1
70
8
0
VERTEX
8
R2V
62
0
70
32
10
1.926829
20
8.073171
30
0
0
VERTEX
8
R2V
62
0
70
32
10
1.926829
20
8.060976
30
0
0
VERTEX
8
R2V
62
0
70
32
10
1.914634
20
8.060976
30
0
0
VERTEX
8
R2V
62
0
70
32
10
1.914634
20
8.073171
30
0
0
VERTEX
8
R2V
62
0
70
32
10
1.926829
20
8.073171
30
0
0
SEQEND
0
POLYLINE
8
R2V
62
0
66
1
70
8
0
VERTEX
8
R2V
62
0
70
32
10
1.853659
20
8.060976
30
0
0
VERTEX
8
R2V
62
0
70
32
10
1.853659
20
8.036585
30
0
0
VERTEX
8
R2V
62
0
70
32
10
1.841463
20
8.036585
30
0
0
VERTEX
8
R2V
62
0
70
32
10
1.841463
20
8.060976
30
0
0
VERTEX
8
R2V
62
0
70
32
10
1.853659
20
8.060976
30
0
0
SEQEND
0
POLYLINE
8
R2V
62
0
66
1
70
8
0
VERTEX
8
R2V
62
0
70
32
10
2.219512
20
8.012195
30
0
0
VERTEX
8
R2V
62
0
70
32
10
2.219512
20
8.000000
30
0
0
VERTEX
8
R2V
62
0
70
32
10
2.231707
20
8.000000
30
0
0
VERTEX
8
R2V
62
0
70
32
10
2.231707
20
7.987805
30
0
0
VERTEX
8
R2V
62
0
70
32
10
2.207317
20
7.987805
30
0
0
VERTEX
8
R2V
62
0
70
32
10
2.207317
20
8.012195
30
0
0
VERTEX
8
R2V
62
0
70
32
10
2.219512
20
8.012195
30
0
0
SEQEND
0
POLYLINE
8
R2V
62
0
66
1
70
8
0
VERTEX
8
R2V
62
0
70
32
10
1.841463
20
8.000000
30
0
0
VERTEX
8
R2V
62
0
70
32
10
1.841463
20
7.987805
30
0
0
VERTEX
8
R2V
62
0
70
32
10
1.829268
20
7.987805
30
0
0
VERTEX
8
R2V
62
0
70
32
10
1.829268
20
8.000000
30
0
0
VERTEX
8
R2V
62
0
70
32
10
1.841463
20
8.000000
30
0
0
SEQEND
0
POLYLINE
8
R2V
62
0
66
1
70
8
0
VERTEX
8
R2V
62
0
70
32
10
2.195122
20
8.000000
30
0
0
VERTEX
8
R2V
62
0
70
32
10
2.195122
20
7.975610
30
0
0
VERTEX
8
R2V
62
0
70
32
10
2.182927
20
7.975610
30
0
0
VERTEX
8
R2V
62
0
70
32
10
2.182927
20
8.000000
30
0
0
VERTEX
8
R2V
62
0
70
32
10
2.195122
20
8.000000
30
0
0
SEQEND
0
POLYLINE
8
R2V
62
0
66
1
70
8
0
VERTEX
8
R2V
62
0
70
32
10
2.170732
20
7.975610
30
0
0
VERTEX
8
R2V
62
0
70
32
10
2.170732
20
7.963415
30
0
0
VERTEX
8
R2V
62
0
70
32
10
2.158537
20
7.963415
30
0
0
VERTEX
8
R2V
62
0
70
32
10
2.158537
20
7.975610
30
0
0
VERTEX
8
R2V
62
0
70
32
10
2.170732
20
7.975610
30
0
0
SEQEND
0
POLYLINE
8
R2V
62
0
66
1
70
8
0
VERTEX
8
R2V
62
0
70
32
10
2.219512
20
7.975610
30
0
0
VERTEX
8
R2V
62
0
70
32
10
2.219512
20
7.951220
30
0
0
VERTEX
8
R2V
62
0
70
32
10
2.207317
20
7.951220
30
0
0
VERTEX
8
R2V
62
0
70
32
10
2.207317
20
7.975610
30
0
0
VERTEX
8
R2V
62
0
70
32
10
2.219512
20
7.975610
30
0
0
SEQEND
0
POLYLINE
8
R2V
62
0
66
1
70
8
0
VERTEX
8
R2V
62
0
70
32
10
2.195122
20
7.951220
30
0
0
VERTEX
8
R2V
62
0
70
32
10
2.195122
20
7.939024
30
0
0
VERTEX
8
R2V
62
0
70
32
10
2.182927
20
7.939024
30
0
0
VERTEX
8
R2V
62
0
70
32
10
2.182927
20
7.951220
30
0
0
VERTEX
8
R2V
62
0
70
32
10
2.195122
20
7.951220
30
0
0
SEQEND
0
POLYLINE
8
R2V
62
0
66
1
70
8
0
VERTEX
8
R2V
62
0
70
32
10
0.500000
20
7.817073
30
0
0
VERTEX
8
R2V
62
0
70
32
10
0.451220
20
7.792683
30
0
0
VERTEX
8
R2V
62
0
70
32
10
0.402439
20
7.658537
30
0
0
VERTEX
8
R2V
62
0
70
32
10
0.365854
20
7.634146
30
0
0
VERTEX
8
R2V
62
0
70
32
10
0.365854
20
7.609756
30
0
0
VERTEX
8
R2V
62
0
70
32
10
0.390244
20
7.609756
30
0
0
VERTEX
8
R2V
62
0
70
32
10
0.439024
20
7.585366
30
0
0
VERTEX
8
R2V
62
0
70
32
10
0.451220
20
7.670732
30
0
0
VERTEX
8
R2V
62
0
70
32
10
0.536585
20
7.707317
30
0
0
VERTEX
8
R2V
62
0
70
32
10
0.670732
20
7.707317
30
0
0
VERTEX
8
R2V
62
0
70
32
10
0.658537
20
7.768293
30
0
0
VERTEX
8
R2V
62
0
70
32
10
0.560976
20
7.804878
30
0
0
VERTEX
8
R2V
62
0
70
32
10
0.560976
20
7.780488
30
0
0
VERTEX
8
R2V
62
0
70
32
10
0.512195
20
7.792683
30
0
0
VERTEX
8
R2V
62
0
70
32
10
0.500000
20
7.817073
30
0
0
SEQEND
0
POLYLINE
8
R2V
62
0
66
1
70
8
0
VERTEX
8
R2V
62
0
70
32
10
0.268293
20
7.792683
30
0
0
VERTEX
8
R2V
62
0
70
32
10
0.207317
20
7.768293
30
0
0
VERTEX
8
R2V
62
0
70
32
10
0.109756
20
7.682927
30
0
0
VERTEX
8
R2V
62
0
70
32
10
0.146341
20
7.597561
30
0
0
VERTEX
8
R2V
62
0
70
32
10
0.073171
20
7.597561
30
0
0
VERTEX
8
R2V
62
0
70
32
10
0.073171
20
7.573171
30
0
0
VERTEX
8
R2V
62
0
70
32
10
0.097561
20
7.573171
30
0
0
VERTEX
8
R2V
62
0
70
32
10
0.097561
20
7.548780
30
0
0
VERTEX
8
R2V
62
0
70
32
10
0.036585
20
7.536585
30
0
0
VERTEX
8
R2V
62
0
70
32
10
0.048780
20
7.475610
30
0
0
VERTEX
8
R2V
62
0
70
32
10
0.170732
20
7.512195
30
0
0
VERTEX
8
R2V
62
0
70
32
10
0.231707
20
7.487805
30
0
0
VERTEX
8
R2V
62
0
70
32
10
0.292683
20
7.621951
30
0
0
VERTEX
8
R2V
62
0
70
32
10
0.280488
20
7.780488
30
0
0
VERTEX
8
R2V
62
0
70
32
10
0.268293
20
7.792683
30
0
0
SEQEND
0
POLYLINE
8
R2V
62
0
66
1
70
8
0
VERTEX
8
R2V
62
0
70
32
10
0.707317
20
4.243902
30
0
0
VERTEX
8
R2V
62
0
70
32
10
0.646341
20
4.243902
30
0
0
VERTEX
8
R2V
62
0
70
32
10
0.646341
20
4.158537
30
0
0
VERTEX
8
R2V
62
0
70
32
10
0.646341
20
4.073171
30
0
0
VERTEX
8
R2V
62
0
70
32
10
0.682927
20
4.073171
30
0
0
VERTEX
8
R2V
62
0
70
32
10
0.756098
20
4.048780
30
0
0
VERTEX
8
R2V
62
0
70
32
10
0.817073
20
3.987805
30
0
0
VERTEX
8
R2V
62
0
70
32
10
0.865854
20
4.000000
30
0
0
VERTEX
8
R2V
62
0
70
32
10
0.878049
20
4.048780
30
0
0
VERTEX
8
R2V
62
0
70
32
10
0.914634
20
4.073171
30
0
0
VERTEX
8
R2V
62
0
70
32
10
0.890244
20
4.146341
30
0
0
VERTEX
8
R2V
62
0
70
32
10
0.792683
20
4.207317
30
0
0
VERTEX
8
R2V
62
0
70
32
10
0.707317
20
4.243902
30
0
0
VERTEX
8
R2V
62
0
70
32
10
0.780488
20
4.243902
30
0
0
VERTEX
8
R2V
62
0
70
32
10
0.817073
20
4.207317
30
0
0
VERTEX
8
R2V
62
0
70
32
10
0.853659
20
4.207317
30
0
0
VERTEX
8
R2V
62
0
70
32
10
0.914634
20
4.158537
30
0
0
VERTEX
8
R2V
62
0
70
32
10
0.975610
20
4.280488
30
0
0
VERTEX
8
R2V
62
0
70
32
10
1.000000
20
4.487805
30
0
0
VERTEX
8
R2V
62
0
70
32
10
1.000000
20
4.621951
30
0
0
VERTEX
8
R2V
62
0
70
32
10
1.060976
20
4.829268
30
0
0
VERTEX
8
R2V
62
0
70
32
10
1.073171
20
4.865854
30
0
0
VERTEX
8
R2V
62
0
70
32
10
0.963415
20
4.902439
30
0
0
VERTEX
8
R2V
62
0
70
32
10
0.926829
20
4.963415
30
0
0
VERTEX
8
R2V
62
0
70
32
10
0.939024
20
5.085366
30
0
0
VERTEX
8
R2V
62
0
70
32
10
0.975610
20
5.121951
30
0
0
VERTEX
8
R2V
62
0
70
32
10
1.012195
20
5.231707
30
0
0
VERTEX
8
R2V
62
0
70
32
10
1.060976
20
5.304878
30
0
0
VERTEX
8
R2V
62
0
70
32
10
1.060976
20
5.439024
30
0
0
VERTEX
8
R2V
62
0
70
32
10
1.036585
20
5.451220
30
0
0
VERTEX
8
R2V
62
0
70
32
10
1.012195
20
5.390244
30
0
0
VERTEX
8
R2V
62
0
70
32
10
0.975610
20
5.353659
30
0
0
VERTEX
8
R2V
62
0
70
32
10
0.865854
20
5.195122
30
0
0
VERTEX
8
R2V
62
0
70
32
10
0.878049
20
5.073171
30
0
0
VERTEX
8
R2V
62
0
70
32
10
0.890244
20
5.073171
30
0
0
VERTEX
8
R2V
62
0
70
32
10
0.890244
20
4.939024
30
0
0
VERTEX
8
R2V
62
0
70
32
10
0.829268
20
4.841463
30
0
0
VERTEX
8
R2V
62
0
70
32
10
0.817073
20
4.792683
30
0
0
VERTEX
8
R2V
62
0
70
32
10
0.768293
20
4.719512
30
0
0
VERTEX
8
R2V
62
0
70
32
10
0.707317
20
4.548780
30
0
0
VERTEX
8
R2V
62
0
70
32
10
0.719512
20
4.621951
30
0
0
VERTEX
8
R2V
62
0
70
32
10
0.792683
20
4.792683
30
0
0
VERTEX
8
R2V
62
0
70
32
10
0.853659
20
4.914634
30
0
0
VERTEX
8
R2V
62
0
70
32
10
0.756098
20
4.926829
30
0
0
VERTEX
8
R2V
62
0
70
32
10
0.634146
20
5.012195
30
0
0
VERTEX
8
R2V
62
0
70
32
10
0.597561
20
5.073171
30
0
0
VERTEX
8
R2V
62
0
70
32
10
0.573171
20
5.073171
30
0
0
VERTEX
8
R2V
62
0
70
32
10
0.548780
20
5.207317
30
0
0
VERTEX
8
R2V
62
0
70
32
10
0.487805
20
5.268293
30
0
0
VERTEX
8
R2V
62
0
70
32
10
0.451220
20
5.243902
30
0
0
VERTEX
8
R2V
62
0
70
32
10
0.353659
20
5.256098
30
0
0
VERTEX
8
R2V
62
0
70
32
10
0.292683
20
5.329268
30
0
0
VERTEX
8
R2V
62
0
70
32
10
0.268293
20
5.573171
30
0
0
VERTEX
8
R2V
62
0
70
32
10
0.219512
20
5.646341
30
0
0
VERTEX
8
R2V
62
0
70
32
10
0.207317
20
5.926829
30
0
0
VERTEX
8
R2V
62
0
70
32
10
0.329268
20
5.926829
30
0
0
VERTEX
8
R2V
62
0
70
32
10
0.329268
20
5.878049
30
0
0
VERTEX
8
R2V
62
0
70
32
10
0.219512
20
5.853659
30
0
0
VERTEX
8
R2V
62
0
70
32
10
0.341463
20
5.865854
30
0
0
VERTEX
8
R2V
62
0
70
32
10
0.426829
20
5.951220
30
0
0
VERTEX
8
R2V
62
0
70
32
10
0.463415
20
5.951220
30
0
0
VERTEX
8
R2V
62
0
70
32
10
0.463415
20
5.975610
30
0
0
VERTEX
8
R2V
62
0
70
32
10
0.560976
20
5.987805
30
0
0
VERTEX
8
R2V
62
0
70
32
10
0.573171
20
6.024390
30
0
0
VERTEX
8
R2V
62
0
70
32
10
0.487805
20
6.000000
30
0
0
VERTEX
8
R2V
62
0
70
32
10
0.500000
20
6.000000
30
0
0
VERTEX
8
R2V
62
0
70
32
10
0.439024
20
5.975610
30
0
0
VERTEX
8
R2V
62
0
70
32
10
0.353659
20
5.902439
30
0
0
VERTEX
8
R2V
62
0
70
32
10
0.365854
20
5.951220
30
0
0
VERTEX
8
R2V
62
0
70
32
10
0.426829
20
5.987805
30
0
0
VERTEX
8
R2V
62
0
70
32
10
0.414634
20
6.012195
30
0
0
VERTEX
8
R2V
62
0
70
32
10
0.341463
20
5.951220
30
0
0
VERTEX
8
R2V
62
0
70
32
10
0.353659
20
6.048780
30
0
0
VERTEX
8
R2V
62
0
70
32
10
0.378049
20
6.085366
30
0
0
VERTEX
8
R2V
62
0
70
32
10
0.353659
20
6.073171
30
0
0
VERTEX
8
R2V
62
0
70
32
10
0.390244
20
6.170732
30
0
0
VERTEX
8
R2V
62
0
70
32
10
0.414634
20
6.170732
30
0
0
VERTEX
8
R2V
62
0
70
32
10
0.414634
20
6.304878
30
0
0
VERTEX
8
R2V
62
0
70
32
10
0.304878
20
6.280488
30
0
0
VERTEX
8
R2V
62
0
70
32
10
0.231707
20
6.256098
30
0
0
VERTEX
8
R2V
62
0
70
32
10
0.243902
20
6.329268
30
0
0
VERTEX
8
R2V
62
0
70
32
10
0.341463
20
6.341463
30
0
0
VERTEX
8
R2V
62
0
70
32
10
0.365854
20
6.365854
30
0
0
VERTEX
8
R2V
62
0
70
32
10
0.231707
20
6.341463
30
0
0
VERTEX
8
R2V
62
0
70
32
10
0.170732
20
6.573171
30
0
0
VERTEX
8
R2V
62
0
70
32
10
0.158537
20
6.682927
30
0
0
VERTEX
8
R2V
62
0
70
32
10
0.109756
20
6.719512
30
0
0
VERTEX
8
R2V
62
0
70
32
10
0.134146
20
6.963415
30
0
0
VERTEX
8
R2V
62
0
70
32
10
0.109756
20
6.975610
30
0
0
VERTEX
8
R2V
62
0
70
32
10
0.085366
20
7.219512
30
0
0
VERTEX
8
R2V
62
0
70
32
10
0.085366
20
7.231707
30
0
0
VERTEX
8
R2V
62
0
70
32
10
0.097561
20
7.231707
30
0
0
VERTEX
8
R2V
62
0
70
32
10
0.134146
20
7.109756
30
0
0
VERTEX
8
R2V
62
0
70
32
10
0.182927
20
7.109756
30
0
0
VERTEX
8
R2V
62
0
70
32
10
0.170732
20
7.134146
30
0
0
VERTEX
8
R2V
62
0
70
32
10
0.158537
20
7.121951
30
0
0
VERTEX
8
R2V
62
0
70
32
10
0.182927
20
7.317073
30
0
0
VERTEX
8
R2V
62
0
70
32
10
0.207317
20
7.195122
30
0
0
VERTEX
8
R2V
62
0
70
32
10
0.219512
20
7.353659
30
0
0
VERTEX
8
R2V
62
0
70
32
10
0.231707
20
7.353659
30
0
0
VERTEX
8
R2V
62
0
70
32
10
0.268293
20
7.195122
30
0
0
VERTEX
8
R2V
62
0
70
32
10
0.292683
20
7.195122
30
0
0
VERTEX
8
R2V
62
0
70
32
10
0.292683
20
7.109756
30
0
0
VERTEX
8
R2V
62
0
70
32
10
0.329268
20
7.109756
30
0
0
VERTEX
8
R2V
62
0
70
32
10
0.317073
20
7.207317
30
0
0
VERTEX
8
R2V
62
0
70
32
10
0.365854
20
7.207317
30
0
0
VERTEX
8
R2V
62
0
70
32
10
0.402439
20
7.158537
30
0
0
VERTEX
8
R2V
62
0
70
32
10
0.390244
20
7.268293
30
0
0
VERTEX
8
R2V
62
0
70
32
10
0.353659
20
7.341463
30
0
0
VERTEX
8
R2V
62
0
70
32
10
0.256098
20
7.353659
30
0
0
VERTEX
8
R2V
62
0
70
32
10
0.231707
20
7.426829
30
0
0
VERTEX
8
R2V
62
0
70
32
10
0.243902
20
7.439024
30
0
0
VERTEX
8
R2V
62
0
70
32
10
0.182927
20
7.451220
30
0
0
VERTEX
8
R2V
62
0
70
32
10
0.146341
20
7.487805
30
0
0
VERTEX
8
R2V
62
0
70
32
10
0.073171
20
7.439024
30
0
0
VERTEX
8
R2V
62
0
70
32
10
0.060976
20
7.378049
30
0
0
VERTEX
8
R2V
62
0
70
32
10
0.060976
20
7.268293
30
0
0
VERTEX
8
R2V
62
0
70
32
10
0.073171
20
7.268293
30
0
0
VERTEX
8
R2V
62
0
70
32
10
0.048780
20
7.268293
30
0
0
VERTEX
8
R2V
62
0
70
32
10
0.012195
20
7.402439
30
0
0
VERTEX
8
R2V
62
0
70
32
10
0.024390
20
7.621951
30
0
0
VERTEX
8
R2V
62
0
70
32
10
0.085366
20
7.719512
30
0
0
VERTEX
8
R2V
62
0
70
32
10
0.182927
20
7.817073
30
0
0
VERTEX
8
R2V
62
0
70
32
10
0.329268
20
7.865854
30
0
0
VERTEX
8
R2V
62
0
70
32
10
0.439024
20
7.865854
30
0
0
VERTEX
8
R2V
62
0
70
32
10
0.670732
20
7.804878
30
0
0
VERTEX
8
R2V
62
0
70
32
10
0.731707
20
7.731707
30
0
0
VERTEX
8
R2V
62
0
70
32
10
0.780488
20
7.585366
30
0
0
VERTEX
8
R2V
62
0
70
32
10
0.792683
20
7.585366
30
0
0
VERTEX
8
R2V
62
0
70
32
10
0.841463
20
7.512195
30
0
0
VERTEX
8
R2V
62
0
70
32
10
0.878049
20
7.378049
30
0
0
VERTEX
8
R2V
62
0
70
32
10
0.865854
20
7.243902
30
0
0
VERTEX
8
R2V
62
0
70
32
10
0.792683
20
7.121951
30
0
0
VERTEX
8
R2V
62
0
70
32
10
0.768293
20
7.109756
30
0
0
VERTEX
8
R2V
62
0
70
32
10
0.792683
20
7.109756
30
0
0
VERTEX
8
R2V
62
0
70
32
10
0.804878
20
7.085366
30
0
0
VERTEX
8
R2V
62
0
70
32
10
0.914634
20
7.109756
30
0
0
VERTEX
8
R2V
62
0
70
32
10
1.000000
20
7.109756
30
0
0
VERTEX
8
R2V
62
0
70
32
10
1.060976
20
7.060976
30
0
0
VERTEX
8
R2V
62
0
70
32
10
1.097561
20
7.060976
30
0
0
VERTEX
8
R2V
62
0
70
32
10
1.109756
20
6.926829
30
0
0
VERTEX
8
R2V
62
0
70
32
10
1.121951
20
6.926829
30
0
0
VERTEX
8
R2V
62
0
70
32
10
1.134146
20
6.902439
30
0
0
VERTEX
8
R2V
62
0
70
32
10
1.109756
20
7.036585
30
0
0
VERTEX
8
R2V
62
0
70
32
10
1.146341
20
7.073171
30
0
0
VERTEX
8
R2V
62
0
70
32
10
1.219512
20
7.073171
30
0
0
VERTEX
8
R2V
62
0
70
32
10
1.219512
20
6.926829
30
0
0
VERTEX
8
R2V
62
0
70
32
10
1.243902
20
6.926829
30
0
0
VERTEX
8
R2V
62
0
70
32
10
1.243902
20
7.073171
30
0
0
VERTEX
8
R2V
62
0
70
32
10
1.329268
20
7.073171
30
0
0
VERTEX
8
R2V
62
0
70
32
10
1.292683
20
6.939024
30
0
0
VERTEX
8
R2V
62
0
70
32
10
1.341463
20
7.073171
30
0
0
VERTEX
8
R2V
62
0
70
32
10
1.487805
20
7.097561
30
0
0
VERTEX
8
R2V
62
0
70
32
10
1.512195
20
7.158537
30
0
0
VERTEX
8
R2V
62
0
70
32
10
1.524390
20
7.390244
30
0
0
VERTEX
8
R2V
62
0
70
32
10
1.560976
20
7.402439
30
0
0
VERTEX
8
R2V
62
0
70
32
10
1.536585
20
7.548780
30
0
0
VERTEX
8
R2V
62
0
70
32
10
1.573171
20
7.634146
30
0
0
VERTEX
8
R2V
62
0
70
32
10
1.597561
20
8.000000
30
0
0
VERTEX
8
R2V
62
0
70
32
10
1.634146
20
8.085366
30
0
0
VERTEX
8
R2V
62
0
70
32
10
1.682927
20
8.109756
30
0
0
VERTEX
8
R2V
62
0
70
32
10
1.768293
20
8.207317
30
0
0
VERTEX
8
R2V
62
0
70
32
10
1.817073
20
8.231707
30
0
0
VERTEX
8
R2V
62
0
70
32
10
1.768293
20
8.243902
30
0
0
VERTEX
8
R2V
62
0
70
32
10
1.987805
20
8.243902
30
0
0
VERTEX
8
R2V
62
0
70
32
10
1.951220
20
8.219512
30
0
0
VERTEX
8
R2V
62
0
70
32
10
1.975610
20
8.219512
30
0
0
VERTEX
8
R2V
62
0
70
32
10
2.012195
20
8.158537
30
0
0
VERTEX
8
R2V
62
0
70
32
10
2.000000
20
8.146341
30
0
0
VERTEX
8
R2V
62
0
70
32
10
2.182927
20
8.146341
30
0
0
VERTEX
8
R2V
62
0
70
32
10
2.292683
20
8.073171
30
0
0
VERTEX
8
R2V
62
0
70
32
10
2.329268
20
7.829268
30
0
0
VERTEX
8
R2V
62
0
70
32
10
2.329268
20
7.134146
30
0
0
VERTEX
8
R2V
62
0
70
32
10
2.219512
20
7.012195
30
0
0
VERTEX
8
R2V
62
0
70
32
10
2.195122
20
7.012195
30
0
0
VERTEX
8
R2V
62
0
70
32
10
2.195122
20
6.987805
30
0
0
VERTEX
8
R2V
62
0
70
32
10
2.231707
20
6.987805
30
0
0
VERTEX
8
R2V
62
0
70
32
10
2.280488
20
6.951220
30
0
0
VERTEX
8
R2V
62
0
70
32
10
2.280488
20
6.926829
30
0
0
VERTEX
8
R2V
62
0
70
32
10
2.304878
20
6.926829
30
0
0
VERTEX
8
R2V
62
0
70
32
10
2.378049
20
6.841463
30
0
0
VERTEX
8
R2V
62
0
70
32
10
2.414634
20
6.780488
30
0
0
VERTEX
8
R2V
62
0
70
32
10
2.426829
20
6.780488
30
0
0
VERTEX
8
R2V
62
0
70
32
10
2.439024
20
6.731707
30
0
0
VERTEX
8
R2V
62
0
70
32
10
2.451220
20
6.731707
30
0
0
VERTEX
8
R2V
62
0
70
32
10
2.463415
20
6.707317
30
0
0
VERTEX
8
R2V
62
0
70
32
10
2.500000
20
6.707317
30
0
0
VERTEX
8
R2V
62
0
70
32
10
2.682927
20
6.597561
30
0
0
VERTEX
8
R2V
62
0
70
32
10
2.817073
20
6.500000
30
0
0
VERTEX
8
R2V
62
0
70
32
10
2.829268
20
6.414634
30
0
0
VERTEX
8
R2V
62
0
70
32
10
2.841463
20
6.414634
30
0
0
VERTEX
8
R2V
62
0
70
32
10
2.890244
20
6.317073
30
0
0
VERTEX
8
R2V
62
0
70
32
10
2.914634
20
6.158537
30
0
0
VERTEX
8
R2V
62
0
70
32
10
2.926829
20
6.158537
30
0
0
VERTEX
8
R2V
62
0
70
32
10
2.987805
20
5.926829
30
0
0
VERTEX
8
R2V
62
0
70
32
10
3.000000
20
5.926829
30
0
0
VERTEX
8
R2V
62
0
70
32
10
3.036585
20
5.817073
30
0
0
VERTEX
8
R2V
62
0
70
32
10
3.048780
20
5.817073
30
0
0
VERTEX
8
R2V
62
0
70
32
10
3.060976
20
5.719512
30
0
0
VERTEX
8
R2V
62
0
70
32
10
3.073171
20
5.719512
30
0
0
VERTEX
8
R2V
62
0
70
32
10
3.134146
20
5.548780
30
0
0
VERTEX
8
R2V
62
0
70
32
10
3.146341
20
5.548780
30
0
0
VERTEX
8
R2V
62
0
70
32
10
3.158537
20
5.451220
30
0
0
VERTEX
8
R2V
62
0
70
32
10
3.170732
20
5.451220
30
0
0
VERTEX
8
R2V
62
0
70
32
10
3.195122
20
5.353659
30
0
0
VERTEX
8
R2V
62
0
70
32
10
3.207317
20
5.353659
30
0
0
VERTEX
8
R2V
62
0
70
32
10
3.219512
20
5.243902
30
0
0
VERTEX
8
R2V
62
0
70
32
10
3.231707
20
5.243902
30
0
0
VERTEX
8
R2V
62
0
70
32
10
3.268293
20
5.060976
30
0
0
VERTEX
8
R2V
62
0
70
32
10
3.256098
20
4.548780
30
0
0
VERTEX
8
R2V
62
0
70
32
10
3.146341
20
4.048780
30
0
0
VERTEX
8
R2V
62
0
70
32
10
3.121951
20
3.890244
30
0
0
VERTEX
8
R2V
62
0
70
32
10
3.097561
20
3.878049
30
0
0
VERTEX
8
R2V
62
0
70
32
10
3.060976
20
3.768293
30
0
0
VERTEX
8
R2V
62
0
70
32
10
2.963415
20
3.634146
30
0
0
VERTEX
8
R2V
62
0
70
32
10
2.914634
20
3.621951
30
0
0
VERTEX
8
R2V
62
0
70
32
10
3.207317
20
1.243902
30
0
0
VERTEX
8
R2V
62
0
70
32
10
2.963415
20
1.231707
30
0
0
VERTEX
8
R2V
62
0
70
32
10
2.560976
20
3.646341
30
0
0
VERTEX
8
R2V
62
0
70
32
10
2.512195
20
3.670732
30
0
0
VERTEX
8
R2V
62
0
70
32
10
2.487805
20
3.695122
30
0
0
VERTEX
8
R2V
62
0
70
32
10
2.487805
20
3.829268
30
0
0
VERTEX
8
R2V
62
0
70
32
10
2.524390
20
3.865854
30
0
0
VERTEX
8
R2V
62
0
70
32
10
2.500000
20
3.987805
30
0
0
VERTEX
8
R2V
62
0
70
32
10
2.475610
20
3.975610
30
0
0
VERTEX
8
R2V
62
0
70
32
10
2.463415
20
3.902439
30
0
0
VERTEX
8
R2V
62
0
70
32
10
2.414634
20
3.817073
30
0
0
VERTEX
8
R2V
62
0
70
32
10
2.365854
20
3.573171
30
0
0
VERTEX
8
R2V
62
0
70
32
10
2.353659
20
2.865854
30
0
0
VERTEX
8
R2V
62
0
70
32
10
2.304878
20
2.402439
30
0
0
VERTEX
8
R2V
62
0
70
32
10
2.243902
20
2.219512
30
0
0
VERTEX
8
R2V
62
0
70
32
10
2.109756
20
1.243902
30
0
0
VERTEX
8
R2V
62
0
70
32
10
2.085366
20
0.682927
30
0
0
VERTEX
8
R2V
62
0
70
32
10
2.097561
20
0.682927
30
0
0
VERTEX
8
R2V
62
0
70
32
10
2.109756
20
0.585366
30
0
0
VERTEX
8
R2V
62
0
70
32
10
2.121951
20
0.585366
30
0
0
VERTEX
8
R2V
62
0
70
32
10
2.195122
20
0.487805
30
0
0
VERTEX
8
R2V
62
0
70
32
10
2.231707
20
0.402439
30
0
0
VERTEX
8
R2V
62
0
70
32
10
2.170732
20
0.317073
30
0
0
VERTEX
8
R2V
62
0
70
32
10
2.000000
20
0.243902
30
0
0
VERTEX
8
R2V
62
0
70
32
10
1.878049
20
0.231707
30
0
0
VERTEX
8
R2V
62
0
70
32
10
1.853659
20
0.134146
30
0
0
VERTEX
8
R2V
62
0
70
32
10
1.817073
20
0.097561
30
0
0
VERTEX
8
R2V
62
0
70
32
10
1.780488
20
0.024390
30
0
0
VERTEX
8
R2V
62
0
70
32
10
1.609756
20
0.036585
30
0
0
VERTEX
8
R2V
62
0
70
32
10
1.524390
20
0.134146
30
0
0
VERTEX
8
R2V
62
0
70
32
10
1.487805
20
0.243902
30
0
0
VERTEX
8
R2V
62
0
70
32
10
1.414634
20
0.439024
30
0
0
VERTEX
8
R2V
62
0
70
32
10
1.426829
20
0.646341
30
0
0
VERTEX
8
R2V
62
0
70
32
10
1.451220
20
0.682927
30
0
0
VERTEX
8
R2V
62
0
70
32
10
1.451220
20
0.890244
30
0
0
VERTEX
8
R2V
62
0
70
32
10
1.426829
20
0.975610
30
0
0
VERTEX
8
R2V
62
0
70
32
10
1.463415
20
0.987805
30
0
0
VERTEX
8
R2V
62
0
70
32
10
1.463415
20
0.914634
30
0
0
VERTEX
8
R2V
62
0
70
32
10
1.524390
20
0.914634
30
0
0
VERTEX
8
R2V
62
0
70
32
10
1.524390
20
1.109756
30
0
0
VERTEX
8
R2V
62
0
70
32
10
1.573171
20
1.195122
30
0
0
VERTEX
8
R2V
62
0
70
32
10
1.621951
20
1.219512
30
0
0
VERTEX
8
R2V
62
0
70
32
10
1.658537
20
1.256098
30
0
0
VERTEX
8
R2V
62
0
70
32
10
1.707317
20
1.256098
30
0
0
VERTEX
8
R2V
62
0
70
32
10
1.853659
20
1.195122
30
0
0
VERTEX
8
R2V
62
0
70
32
10
1.804878
20
1.231707
30
0
0
VERTEX
8
R2V
62
0
70
32
10
1.792683
20
1.292683
30
0
0
VERTEX
8
R2V
62
0
70
32
10
1.670732
20
1.304878
30
0
0
VERTEX
8
R2V
62
0
70
32
10
1.597561
20
1.292683
30
0
0
VERTEX
8
R2V
62
0
70
32
10
1.524390
20
1.231707
30
0
0
VERTEX
8
R2V
62
0
70
32
10
1.475610
20
1.109756
30
0
0
VERTEX
8
R2V
62
0
70
32
10
1.463415
20
1.012195
30
0
0
VERTEX
8
R2V
62
0
70
32
10
1.414634
20
1.048780
30
0
0
VERTEX
8
R2V
62
0
70
32
10
1.390244
20
1.097561
30
0
0
VERTEX
8
R2V
62
0
70
32
10
1.365854
20
1.158537
30
0
0
VERTEX
8
R2V
62
0
70
32
10
1.341463
20
1.585366
30
0
0
VERTEX
8
R2V
62
0
70
32
10
1.304878
20
1.743902
30
0
0
VERTEX
8
R2V
62
0
70
32
10
1.243902
20
1.817073
30
0
0
VERTEX
8
R2V
62
0
70
32
10
1.219512
20
1.878049
30
0
0
VERTEX
8
R2V
62
0
70
32
10
1.146341
20
2.000000
30
0
0
VERTEX
8
R2V
62
0
70
32
10
1.121951
20
2.146341
30
0
0
VERTEX
8
R2V
62
0
70
32
10
1.231707
20
2.390244
30
0
0
VERTEX
8
R2V
62
0
70
32
10
1.195122
20
2.426829
30
0
0
VERTEX
8
R2V
62
0
70
32
10
1.097561
20
2.597561
30
0
0
VERTEX
8
R2V
62
0
70
32
10
1.073171
20
2.597561
30
0
0
VERTEX
8
R2V
62
0
70
32
10
1.048780
20
2.658537
30
0
0
VERTEX
8
R2V
62
0
70
32
10
1.000000
20
2.731707
30
0
0
VERTEX
8
R2V
62
0
70
32
10
0.975610
20
2.914634
30
0
0
VERTEX
8
R2V
62
0
70
32
10
0.975610
20
3.402439
30
0
0
VERTEX
8
R2V
62
0
70
32
10
0.890244
20
3.426829
30
0
0
VERTEX
8
R2V
62
0
70
32
10
0.878049
20
3.292683
30
0
0
VERTEX
8
R2V
62
0
70
32
10
0.731707
20
3.292683
30
0
0
VERTEX
8
R2V
62
0
70
32
10
0.597561
20
3.378049
30
0
0
VERTEX
8
R2V
62
0
70
32
10
0.524390
20
3.463415
30
0
0
VERTEX
8
R2V
62
0
70
32
10
0.512195
20
3.609756
30
0
0
VERTEX
8
R2V
62
0
70
32
10
0.439024
20
3.621951
30
0
0
VERTEX
8
R2V
62
0
70
32
10
0.390244
20
3.695122
30
0
0
VERTEX
8
R2V
62
0
70
32
10
0.353659
20
3.780488
30
0
0
VERTEX
8
R2V
62
0
70
32
10
0.365854
20
3.853659
30
0
0
VERTEX
8
R2V
62
0
70
32
10
0.414634
20
3.890244
30
0
0
VERTEX
8
R2V
62
0
70
32
10
0.426829
20
3.975610
30
0
0
VERTEX
8
R2V
62
0
70
32
10
0.487805
20
4.012195
30
0
0
VERTEX
8
R2V
62
0
70
32
10
0.512195
20
4.048780
30
0
0
VERTEX
8
R2V
62
0
70
32
10
0.573171
20
4.060976
30
0
0
VERTEX
8
R2V
62
0
70
32
10
0.585366
20
4.170732
30
0
0
VERTEX
8
R2V
62
0
70
32
10
0.609756
20
4.256098
30
0
0
VERTEX
8
R2V
62
0
70
32
10
0.682927
20
4.268293
30
0
0
VERTEX
8
R2V
62
0
70
32
10
0.695122
20
4.524390
30
0
0
VERTEX
8
R2V
62
0
70
32
10
0.707317
20
4.524390
30
0
0
VERTEX
8
R2V
62
0
70
32
10
0.707317
20
4.243902
30
0
0
SEQEND
0
POLYLINE
8
R2V
62
0
66
1
70
8
0
VERTEX
8
R2V
62
0
70
32
10
2.097561
20
5.585366
30
0
0
VERTEX
8
R2V
62
0
70
32
10
2.097561
20
5.573171
30
0
0
VERTEX
8
R2V
62
0
70
32
10
2.207317
20
5.646341
30
0
0
VERTEX
8
R2V
62
0
70
32
10
2.268293
20
5.780488
30
0
0
VERTEX
8
R2V
62
0
70
32
10
2.256098
20
5.926829
30
0
0
VERTEX
8
R2V
62
0
70
32
10
2.219512
20
5.987805
30
0
0
VERTEX
8
R2V
62
0
70
32
10
2.195122
20
5.987805
30
0
0
VERTEX
8
R2V
62
0
70
32
10
2.170732
20
6.036585
30
0
0
VERTEX
8
R2V
62
0
70
32
10
2.048780
20
6.109756
30
0
0
VERTEX
8
R2V
62
0
70
32
10
1.926829
20
6.097561
30
0
0
VERTEX
8
R2V
62
0
70
32
10
1.865854
20
6.073171
30
0
0
VERTEX
8
R2V
62
0
70
32
10
1.865854
20
6.048780
30
0
0
VERTEX
8
R2V
62
0
70
32
10
1.804878
20
6.024390
30
0
0
VERTEX
8
R2V
62
0
70
32
10
1.804878
20
6.048780
30
0
0
VERTEX
8
R2V
62
0
70
32
10
1.914634
20
6.109756
30
0
0
VERTEX
8
R2V
62
0
70
32
10
2.012195
20
6.121951
30
0
0
VERTEX
8
R2V
62
0
70
32
10
2.012195
20
6.195122
30
0
0
VERTEX
8
R2V
62
0
70
32
10
1.865854
20
6.231707
30
0
0
VERTEX
8
R2V
62
0
70
32
10
1.817073
20
6.256098
30
0
0
VERTEX
8
R2V
62
0
70
32
10
1.817073
20
6.231707
30
0
0
VERTEX
8
R2V
62
0
70
32
10
1.792683
20
6.231707
30
0
0
VERTEX
8
R2V
62
0
70
32
10
1.780488
20
6.182927
30
0
0
VERTEX
8
R2V
62
0
70
32
10
1.670732
20
6.182927
30
0
0
VERTEX
8
R2V
62
0
70
32
10
1.682927
20
6.256098
30
0
0
VERTEX
8
R2V
62
0
70
32
10
1.768293
20
6.256098
30
0
0
VERTEX
8
R2V
62
0
70
32
10
1.768293
20
6.317073
30
0
0
VERTEX
8
R2V
62
0
70
32
10
1.707317
20
6.341463
30
0
0
VERTEX
8
R2V
62
0
70
32
10
1.658537
20
6.378049
30
0
0
VERTEX
8
R2V
62
0
70
32
10
1.560976
20
6.378049
30
0
0
VERTEX
8
R2V
62
0
70
32
10
1.536585
20
6.402439
30
0
0
VERTEX
8
R2V
62
0
70
32
10
1.548780
20
6.487805
30
0
0
VERTEX
8
R2V
62
0
70
32
10
1.670732
20
6.487805
30
0
0
VERTEX
8
R2V
62
0
70
32
10
1.707317
20
6.439024
30
0
0
VERTEX
8
R2V
62
0
70
32
10
1.743902
20
6.439024
30
0
0
VERTEX
8
R2V
62
0
70
32
10
1.756098
20
6.402439
30
0
0
VERTEX
8
R2V
62
0
70
32
10
1.780488
20
6.402439
30
0
0
VERTEX
8
R2V
62
0
70
32
10
1.792683
20
6.390244
30
0
0
VERTEX
8
R2V
62
0
70
32
10
1.865854
20
6.512195
30
0
0
VERTEX
8
R2V
62
0
70
32
10
1.926829
20
6.512195
30
0
0
VERTEX
8
R2V
62
0
70
32
10
1.951220
20
6.439024
30
0
0
VERTEX
8
R2V
62
0
70
32
10
1.878049
20
6.426829
30
0
0
VERTEX
8
R2V
62
0
70
32
10
1.865854
20
6.353659
30
0
0
VERTEX
8
R2V
62
0
70
32
10
1.902439
20
6.353659
30
0
0
VERTEX
8
R2V
62
0
70
32
10
1.987805
20
6.329268
30
0
0
VERTEX
8
R2V
62
0
70
32
10
2.121951
20
6.329268
30
0
0
VERTEX
8
R2V
62
0
70
32
10
2.292683
20
6.317073
30
0
0
VERTEX
8
R2V
62
0
70
32
10
2.414634
20
6.341463
30
0
0
VERTEX
8
R2V
62
0
70
32
10
2.439024
20
6.304878
30
0
0
VERTEX
8
R2V
62
0
70
32
10
2.463415
20
6.304878
30
0
0
VERTEX
8
R2V
62
0
70
32
10
2.487805
20
6.268293
30
0
0
VERTEX
8
R2V
62
0
70
32
10
2.512195
20
6.268293
30
0
0
VERTEX
8
R2V
62
0
70
32
10
2.536585
20
6.231707
30
0
0
VERTEX
8
R2V
62
0
70
32
10
2.560976
20
6.231707
30
0
0
VERTEX
8
R2V
62
0
70
32
10
2.585366
20
6.195122
30
0
0
VERTEX
8
R2V
62
0
70
32
10
2.560976
20
6.170732
30
0
0
VERTEX
8
R2V
62
0
70
32
10
2.195122
20
6.146341
30
0
0
VERTEX
8
R2V
62
0
70
32
10
2.109756
20
6.146341
30
0
0
VERTEX
8
R2V
62
0
70
32
10
2.097561
20
6.097561
30
0
0
VERTEX
8
R2V
62
0
70
32
10
2.121951
20
6.097561
30
0
0
VERTEX
8
R2V
62
0
70
32
10
2.207317
20
6.024390
30
0
0
VERTEX
8
R2V
62
0
70
32
10
2.207317
20
6.000000
30
0
0
VERTEX
8
R2V
62
0
70
32
10
2.231707
20
6.000000
30
0
0
VERTEX
8
R2V
62
0
70
32
10
2.280488
20
5.902439
30
0
0
VERTEX
8
R2V
62
0
70
32
10
2.268293
20
5.719512
30
0
0
VERTEX
8
R2V
62
0
70
32
10
2.195122
20
5.621951
30
0
0
VERTEX
8
R2V
62
0
70
32
10
2.048780
20
5.536585
30
0
0
VERTEX
8
R2V
62
0
70
32
10
2.073171
20
5.597561
30
0
0
VERTEX
8
R2V
62
0
70
32
10
2.109756
20
5.621951
30
0
0
VERTEX
8
R2V
62
0
70
32
10
2.134146
20
5.780488
30
0
0
VERTEX
8
R2V
62
0
70
32
10
2.085366
20
5.853659
30
0
0
VERTEX
8
R2V
62
0
70
32
10
2.012195
20
5.841463
30
0
0
VERTEX
8
R2V
62
0
70
32
10
2.012195
20
5.731707
30
0
0
VERTEX
8
R2V
62
0
70
32
10
2.048780
20
5.731707
30
0
0
VERTEX
8
R2V
62
0
70
32
10
2.097561
20
5.707317
30
0
0
VERTEX
8
R2V
62
0
70
32
10
2.024390
20
5.682927
30
0
0
VERTEX
8
R2V
62
0
70
32
10
2.048780
20
5.585366
30
0
0
VERTEX
8
R2V
62
0
70
32
10
2.000000
20
5.621951
30
0
0
VERTEX
8
R2V
62
0
70
32
10
1.975610
20
5.658537
30
0
0
VERTEX
8
R2V
62
0
70
32
10
1.890244
20
5.609756
30
0
0
VERTEX
8
R2V
62
0
70
32
10
1.939024
20
5.695122
30
0
0
VERTEX
8
R2V
62
0
70
32
10
1.865854
20
5.756098
30
0
0
VERTEX
8
R2V
62
0
70
32
10
1.902439
20
5.756098
30
0
0
VERTEX
8
R2V
62
0
70
32
10
1.902439
20
5.743902
30
0
0
SEQEND
0
POLYLINE
8
R2V
62
0
66
1
70
8
0
VERTEX
8
R2V
62
0
70
32
10
1.902439
20
5.743902
30
0
0
VERTEX
8
R2V
62
0
70
32
10
1.902439
20
5.731707
30
0
0
VERTEX
8
R2V
62
0
70
32
10
1.975610
20
5.743902
30
0
0
VERTEX
8
R2V
62
0
70
32
10
2.000000
20
5.829268
30
0
0
VERTEX
8
R2V
62
0
70
32
10
1.926829
20
5.865854
30
0
0
VERTEX
8
R2V
62
0
70
32
10
1.853659
20
5.829268
30
0
0
VERTEX
8
R2V
62
0
70
32
10
1.817073
20
5.670732
30
0
0
VERTEX
8
R2V
62
0
70
32
10
1.829268
20
5.670732
30
0
0
VERTEX
8
R2V
62
0
70
32
10
1.841463
20
5.609756
30
0
0
VERTEX
8
R2V
62
0
70
32
10
1.853659
20
5.609756
30
0
0
VERTEX
8
R2V
62
0
70
32
10
1.890244
20
5.548780
30
0
0
VERTEX
8
R2V
62
0
70
32
10
1.792683
20
5.634146
30
0
0
VERTEX
8
R2V
62
0
70
32
10
1.817073
20
5.792683
30
0
0
VERTEX
8
R2V
62
0
70
32
10
1.841463
20
5.841463
30
0
0
VERTEX
8
R2V
62
0
70
32
10
1.902439
20
5.878049
30
0
0
VERTEX
8
R2V
62
0
70
32
10
1.951220
20
5.878049
30
0
0
VERTEX
8
R2V
62
0
70
32
10
1.963415
20
5.853659
30
0
0
VERTEX
8
R2V
62
0
70
32
10
2.109756
20
5.853659
30
0
0
VERTEX
8
R2V
62
0
70
32
10
2.146341
20
5.792683
30
0
0
VERTEX
8
R2V
62
0
70
32
10
2.134146
20
5.646341
30
0
0
VERTEX
8
R2V
62
0
70
32
10
2.097561
20
5.585366
30
0
0
SEQEND
0
ENDSEC
0
EOF
