  0
SECTION
  2
HEADER
  9
$ACADVER
  1
AC1009
  9
$DWGCODEPAGE
  3
ansi_1252
  9
$INSBASE
 10
0.0
 20
0.0
 30
0.0
  9
$EXTMIN
 10
0.0
 20
0.3010368083210828
 30
0.0
  9
$EXTMAX
 10
130.0132837713033
 20
84.0635789750169
 30
0.0
  9
$LIMMIN
 10
0.0
 20
0.0
  9
$LIMMAX
 10
12.0
 20
9.0
  9
$ORTHOMODE
 70
     0
  9
$REGENMODE
 70
     1
  9
$FILLMODE
 70
     1
  9
$QTEXTMODE
 70
     0
  9
$MIRRTEXT
 70
     1
  9
$DRAGMODE
 70
     2
  9
$LTSCALE
 40
1.0
  9
$OSMODE
 70
    37
  9
$ATTMODE
 70
     1
  9
$TEXTSIZE
 40
0.2
  9
$TRACEWID
 40
0.05
  9
$TEXTSTYLE
  7
STANDARD
  9
$CLAYER
  8
0
  9
$CELTYPE
  6
BYBLOCK
  9
$CECOLOR
 62
     2
  9
$DIMSCALE
 40
1.0
  9
$DIMASZ
 40
0.18
  9
$DIMEXO
 40
0.0625
  9
$DIMDLI
 40
0.38
  9
$DIMRND
 40
0.0
  9
$DIMDLE
 40
0.0
  9
$DIMEXE
 40
0.18
  9
$DIMTP
 40
0.0
  9
$DIMTM
 40
0.0
  9
$DIMTXT
 40
0.18
  9
$DIMCEN
 40
0.09
  9
$DIMTSZ
 40
0.0
  9
$DIMTOL
 70
     0
  9
$DIMLIM
 70
     0
  9
$DIMTIH
 70
     1
  9
$DIMTOH
 70
     1
  9
$DIMSE1
 70
     0
  9
$DIMSE2
 70
     0
  9
$DIMTAD
 70
     0
  9
$DIMZIN
 70
     0
  9
$DIMBLK
  1

  9
$DIMASO
 70
     1
  9
$DIMSHO
 70
     1
  9
$DIMPOST
  1

  9
$DIMAPOST
  1

  9
$DIMALT
 70
     0
  9
$DIMALTD
 70
     2
  9
$DIMALTF
 40
25.4
  9
$DIMLFAC
 40
1.0
  9
$DIMTOFL
 70
     0
  9
$DIMTVP
 40
0.0
  9
$DIMTIX
 70
     0
  9
$DIMSOXD
 70
     0
  9
$DIMSAH
 70
     0
  9
$DIMBLK1
  1

  9
$DIMBLK2
  1

  9
$DIMSTYLE
  2
STANDARD
  9
$DIMCLRD
 70
     0
  9
$DIMCLRE
 70
     0
  9
$DIMCLRT
 70
     0
  9
$DIMTFAC
 40
1.0
  9
$DIMGAP
 40
0.09
  9
$LUNITS
 70
     2
  9
$LUPREC
 70
     4
  9
$SKETCHINC
 40
0.1
  9
$FILLETRAD
 40
0.5
  9
$AUNITS
 70
     0
  9
$AUPREC
 70
     0
  9
$MENU
  1
.
  9
$ELEVATION
 40
0.0
  9
$PELEVATION
 40
0.0
  9
$THICKNESS
 40
0.0
  9
$LIMCHECK
 70
     0
  9
$CHAMFERA
 40
0.5
  9
$CHAMFERB
 40
0.5
  9
$SKPOLY
 70
     0
  9
$TDCREATE
 40
2453353.508792488
  9
$TDUPDATE
 40
4910531.851842963
  9
$TDINDWG
 40
4895786.051922963
  9
$TDUSRTIMER
 40
4895786.051922963
  9
$USRTIMER
 70
     1
  9
$ANGBASE
 50
0.0
  9
$ANGDIR
 70
     0
  9
$PDMODE
 70
     0
  9
$PDSIZE
 40
0.0
  9
$PLINEWID
 40
0.0
  9
$COORDS
 70
     1
  9
$SPLFRAME
 70
     0
  9
$SPLINETYPE
 70
     6
  9
$SPLINESEGS
 70
     8
  9
$ATTDIA
 70
     0
  9
$ATTREQ
 70
     1
  9
$HANDLING
 70
     1
  9
$HANDSEED
  5
DE
  9
$SURFTAB1
 70
     6
  9
$SURFTAB2
 70
     6
  9
$SURFTYPE
 70
     6
  9
$SURFU
 70
     6
  9
$SURFV
 70
     6
  9
$UCSNAME
  2

  9
$UCSORG
 10
0.0
 20
0.0
 30
0.0
  9
$UCSXDIR
 10
1.0
 20
0.0
 30
0.0
  9
$UCSYDIR
 10
0.0
 20
1.0
 30
0.0
  9
$PUCSNAME
  2

  9
$PUCSORG
 10
0.0
 20
0.0
 30
0.0
  9
$PUCSXDIR
 10
1.0
 20
0.0
 30
0.0
  9
$PUCSYDIR
 10
0.0
 20
1.0
 30
0.0
  9
$USERI1
 70
     0
  9
$USERI2
 70
     0
  9
$USERI3
 70
     0
  9
$USERI4
 70
     0
  9
$USERI5
 70
     0
  9
$USERR1
 40
0.0
  9
$USERR2
 40
0.0
  9
$USERR3
 40
0.0
  9
$USERR4
 40
0.0
  9
$USERR5
 40
0.0
  9
$WORLDVIEW
 70
     1
  9
$SHADEDGE
 70
     3
  9
$SHADEDIF
 70
    70
  9
$TILEMODE
 70
     1
  9
$MAXACTVP
 70
    64
  9
$PLIMCHECK
 70
     0
  9
$PEXTMIN
 10
0.0
 20
0.0
 30
0.0
  9
$PEXTMAX
 10
0.0
 20
0.0
 30
0.0
  9
$PLIMMIN
 10
0.0
 20
0.0
  9
$PLIMMAX
 10
0.0
 20
0.0
  9
$UNITMODE
 70
     0
  9
$VISRETAIN
 70
     1
  9
$PLINEGEN
 70
     0
  9
$PSLTSCALE
 70
     1
  0
ENDSEC
  0
SECTION
  2
TABLES
  0
TABLE
  2
VPORT
 70
     1
  0
VPORT
  2
*ACTIVE
 70
     0
 10
0.0
 20
0.0
 11
1.0
 21
1.0
 12
82.51716690863191
 22
41.69914583434927
 13
0.0
 23
0.0
 14
10.0
 24
10.0
 15
10.0
 25
10.0
 16
0.0
 26
0.0
 36
1.0
 17
0.0
 27
0.0
 37
0.0
 40
93.24947872951223
 41
1.972972972850329
 42
50.0
 43
0.0
 44
0.0
 50
0.0
 51
0.0
 71
    16
 72
   100
 73
     1
 74
     3
 75
     0
 76
     0
 77
     0
 78
     0
  0
ENDTAB
  0
TABLE
  2
LTYPE
 70
     1
  0
LTYPE
  2
CONTINUOUS
 70
     0
  3
Solid line
 72
    65
 73
     0
 40
0.0
  0
ENDTAB
  0
TABLE
  2
LAYER
 70
     2
  0
LAYER
  2
0
 70
     0
 62
     7
  6
CONTINUOUS
  0
LAYER
  2
DEFAULT
 70
     0
 62
    14
  6
CONTINUOUS
  0
ENDTAB
  0
TABLE
  2
STYLE
 70
     1
  0
STYLE
  2
STANDARD
 70
     0
 40
0.0
 41
1.0
 50
0.0
 71
     0
 42
0.2
  3
txt
  4

  0
ENDTAB
  0
TABLE
  2
VIEW
 70
     0
  0
ENDTAB
  0
TABLE
  2
UCS
 70
     0
  0
ENDTAB
  0
TABLE
  2
APPID
 70
     1
  0
APPID
  2
ACAD
 70
     0
  0
ENDTAB
  0
TABLE
  2
DIMSTYLE
 70
     1
  0
DIMSTYLE
  2
STANDARD
 70
     0
  3

  4

  5

  6

  7

 40
1.0
 41
0.18
 42
0.0625
 43
0.38
 44
0.18
 45
0.0
 46
0.0
 47
0.0
 48
0.0
140
0.18
141
0.09
142
0.0
143
25.4
144
1.0
145
0.0
146
1.0
147
0.09
 71
     0
 72
     0
 73
     1
 74
     1
 75
     0
 76
     0
 77
     0
 78
     0
170
     0
171
     2
172
     0
173
     0
174
     0
175
     0
176
     0
177
     0
178
     0
  0
ENDTAB
  0
ENDSEC
  0
SECTION
  2
BLOCKS
  0
BLOCK
  8
0
  2
$MODEL_SPACE
 70
     0
 10
0.0
 20
0.0
 30
0.0
  3
$MODEL_SPACE
  1

  0
ENDBLK
  5
21
  8
0
  0
BLOCK
 67
     1
  8
0
  2
$PAPER_SPACE
 70
     0
 10
0.0
 20
0.0
 30
0.0
  3
$PAPER_SPACE
  1

  0
ENDBLK
  5
76
 67
     1
  8
0
  0
ENDSEC
  0
SECTION
  2
ENTITIES
  0
POLYLINE
  5
24
  8
DEFAULT
 66
     1
 10
0.0
 20
0.0
 30
0.0
 70
     1
  0
VERTEX
  5
BE
  8
DEFAULT
 10
0.0
 20
42.0
 30
0.0
  0
VERTEX
  5
BF
  8
DEFAULT
 10
0.0
 20
84.0
 30
0.0
  0
VERTEX
  5
C0
  8
DEFAULT
 10
62.0
 20
84.0
 30
0.0
  0
VERTEX
  5
C1
  8
DEFAULT
 10
62.0
 20
42.0
 30
0.0
  0
VERTEX
  5
C2
  8
DEFAULT
 10
61.9013500213623
 20
39.0664393901825
 30
0.0
  0
VERTEX
  5
C3
  8
DEFAULT
 10
60.8789176940918
 20
34.9767122268677
 30
0.0
  0
VERTEX
  5
C4
  8
DEFAULT
 10
58.9476585388184
 20
30.3189678192139
 30
0.0
  0
VERTEX
  5
C5
  8
DEFAULT
 10
57.2436065673828
 20
26.7972583770752
 30
0.0
  0
VERTEX
  5
C6
  8
DEFAULT
 10
55.3123455047607
 20
23.5027561187744
 30
0.0
  0
VERTEX
  5
C7
  8
DEFAULT
 10
52.6994647979736
 20
19.6402359008789
 30
0.0
  0
VERTEX
  5
C8
  8
DEFAULT
 10
50.4273948669434
 20
16.572940826416
 30
0.0
  0
VERTEX
  5
C9
  8
DEFAULT
 10
48.7139000892639
 20
14.5666446685791
 30
0.0
  0
VERTEX
  5
CA
  8
DEFAULT
 10
44.8342633247375
 20
10.4753913879395
 30
0.0
  0
VERTEX
  5
CB
  8
DEFAULT
 10
41.0251665115356
 20
7.0189876556397
 30
0.0
  0
VERTEX
  5
CC
  8
DEFAULT
 10
38.3963143825531
 20
4.7656993865967
 30
0.0
  0
VERTEX
  5
CD
  8
DEFAULT
 10
35.2154239416122
 20
2.4344730377197
 30
0.0
  0
VERTEX
  5
CE
  8
DEFAULT
 10
32.1481289863586
 20
0.6168155670166
 30
0.0
  0
VERTEX
  5
CF
  8
DEFAULT
 10
32.0345253944397
 20
0.6168155670166
 30
0.0
  0
VERTEX
  5
D0
  8
DEFAULT
 10
30.6712832450867
 20
0.7304210662842
 30
0.0
  0
VERTEX
  5
D1
  8
DEFAULT
 10
28.8536269664764
 20
1.5256443023682
 30
0.0
  0
VERTEX
  5
D2
  8
DEFAULT
 10
26.1271421909332
 20
3.3433017730713
 30
0.0
  0
VERTEX
  5
D3
  8
DEFAULT
 10
22.7190363407135
 20
5.8425769805908
 30
0.0
  0
VERTEX
  5
D4
  8
DEFAULT
 10
18.4021027088165
 20
9.705099105835
 30
0.0
  0
VERTEX
  5
D5
  8
DEFAULT
 10
15.1076004505157
 20
13.1132030487061
 30
0.0
  0
VERTEX
  5
D6
  8
DEFAULT
 10
12.0403053760529
 20
16.7485179901123
 30
0.0
  0
VERTEX
  5
D7
  8
DEFAULT
 10
10.1090462207794
 20
19.2477951049805
 30
0.0
  0
VERTEX
  5
D8
  8
DEFAULT
 10
8.0641815662384
 20
22.2014865875244
 30
0.0
  0
VERTEX
  5
D9
  8
DEFAULT
 10
6.019318819046
 20
25.4959888458252
 30
0.0
  0
VERTEX
  5
DA
  8
DEFAULT
 10
4.3152668476105
 20
28.676887512207
 30
0.0
  0
VERTEX
  5
DB
  8
DEFAULT
 10
2.7248165607452
 20
31.8577871322632
 30
0.0
  0
VERTEX
  5
DC
  8
DEFAULT
 10
1.0207645893097
 20
36.9699459075928
 30
0.0
  0
VERTEX
  5
DD
  8
DEFAULT
 10
0.2255375385284
 20
40.3780517578125
 30
0.0
  0
SEQEND
  5
BD
  8
DEFAULT
  0
LINE
  5
65
  8
DEFAULT
 10
3.179230928421
 20
81.3889217376709
 30
0.0
 11
59.4129726886749
 21
81.3889217376709
 31
0.0
  0
LINE
  5
66
  8
DEFAULT
 10
59.4129726886749
 20
81.3889217376709
 30
0.0
 11
59.4129726886749
 21
40.9460692405701
 31
0.0
  0
LINE
  5
67
  8
DEFAULT
 10
59.4129726886749
 20
40.9460692405701
 30
0.0
 11
58.9585583209991
 21
38.7876024246216
 31
0.0
  0
LINE
  5
68
  8
DEFAULT
 10
58.9585583209991
 20
38.7876024246216
 30
0.0
 11
58.1633331775665
 21
36.401927947998
 31
0.0
  0
LINE
  5
69
  8
DEFAULT
 10
58.1633331775665
 20
36.401927947998
 30
0.0
 11
56.459281206131
 21
31.7441835403442
 31
0.0
  0
LINE
  5
6A
  8
DEFAULT
 10
56.459281206131
 20
31.7441835403442
 30
0.0
 11
53.2783825397491
 21
25.7231960296631
 31
0.0
  0
LINE
  5
AE
  8
DEFAULT
 10
53.2783825397491
 20
25.7231960296631
 30
0.0
 11
49.6430704593658
 21
20.6110382080078
 31
0.0
  0
LINE
  5
AF
  8
DEFAULT
 10
49.6430704593658
 20
20.6110382080078
 30
0.0
 11
46.1213610172272
 21
16.1805000305176
 31
0.0
  0
LINE
  5
6D
  8
DEFAULT
 10
46.1213610172272
 20
16.1805000305176
 30
0.0
 11
40.2139785289764
 21
10.3867206573486
 31
0.0
  0
LINE
  5
6E
  8
DEFAULT
 10
40.2139785289764
 20
10.3867206573486
 30
0.0
 11
33.7385782599449
 21
4.820146560669
 31
0.0
  0
LINE
  5
6F
  8
DEFAULT
 10
33.7385782599449
 20
4.820146560669
 30
0.0
 11
31.5801112651825
 21
3.7977161407471
 31
0.0
  0
LINE
  5
70
  8
DEFAULT
 10
31.5801112651825
 20
3.7977161407471
 30
0.0
 11
30.898490190506
 21
3.9113178253174
 31
0.0
  0
LINE
  5
71
  8
DEFAULT
 10
30.898490190506
 20
3.9113178253174
 30
0.0
 11
26.1271421909332
 21
6.86501121521
 31
0.0
  0
LINE
  5
72
  8
DEFAULT
 10
26.1271421909332
 20
6.86501121521
 30
0.0
 11
20.6741735935211
 21
11.8635654449463
 31
0.0
  0
LINE
  5
B0
  8
DEFAULT
 10
20.6741735935211
 20
11.8635654449463
 30
0.0
 11
14.9939968585968
 21
17.7709503173828
 31
0.0
  0
LINE
  5
B1
  8
DEFAULT
 10
14.9939968585968
 20
17.7709503173828
 30
0.0
 11
9.4274246692658
 21
25.3823852539063
 31
0.0
  0
LINE
  5
B2
  8
DEFAULT
 10
9.4274246692658
 20
25.3823852539063
 30
0.0
 11
5.6785080432892
 21
32.6530122756958
 31
0.0
  0
LINE
  5
B3
  8
DEFAULT
 10
5.6785080432892
 20
32.6530122756958
 30
0.0
 11
3.7472488880158
 21
38.333188533783
 31
0.0
  0
LINE
  5
77
  8
DEFAULT
 10
3.7472488880158
 20
38.333188533783
 30
0.0
 11
3.4064381122589
 21
40.7188625335693
 31
0.0
  0
LINE
  5
78
  8
DEFAULT
 10
3.4064381122589
 20
40.7188625335693
 30
0.0
 11
3.29283452034
 21
42.5365188121796
 31
0.0
  0
LINE
  5
79
  8
DEFAULT
 10
3.29283452034
 20
42.5365188121796
 30
0.0
 11
3.0656273365021
 21
81.50252723693851
 31
0.0
  0
LINE
  5
7A
  8
DEFAULT
 10
3.0656273365021
 20
81.50252723693851
 30
0.0
 11
3.179230928421
 21
81.3889217376709
 31
0.0
  0
ARC
  5
B4
  8
0
  6
BYBLOCK
 62
     2
 10
121.0623492568638
 20
50.08321905809735
 30
0.0
 40
54.67841614928275
 50
187.7980912491568
 51
245.5681654104684
  0
ARC
  5
B5
  8
0
  6
BYBLOCK
 62
     2
 10
122.2275271337295
 20
50.35581410704395
 30
0.0
 40
52.3155745097487
 50
188.4543447899666
 51
242.9631639855315
  0
LINE
  5
94
  8
0
  6
BYBLOCK
 62
     2
 10
66.87673702094479
 20
84.02256274485117
 30
0.0
 11
66.88957935310403
 21
42.66431121742146
 31
0.0
  0
LINE
  5
95
  8
0
  6
BYBLOCK
 62
     2
 10
70.44661791401714
 20
80.02642967761275
 30
0.0
 11
70.48044876611536
 21
42.66431121742146
 31
0.0
  0
LINE
  5
9A
  8
0
  6
BYBLOCK
 62
     2
 10
130.0048914774044
 20
84.0635789750169
 30
0.0
 11
130.0132837713033
 21
42.66431121742146
 31
0.0
  0
LINE
  5
9B
  8
0
  6
BYBLOCK
 62
     2
 10
126.3377331312976
 20
80.03976856823911
 30
0.0
 11
126.422414358292
 21
42.66431121742146
 31
0.0
  0
ARC
  5
9C
  8
0
  6
BYBLOCK
 62
     2
 10
74.69341585016537
 20
50.3484869380215
 30
0.0
 40
52.29661406973518
 50
297.0137825076739
 51
351.5506833475192
  0
ARC
  5
9D
  8
0
  6
BYBLOCK
 62
     2
 10
75.85524847131242
 20
50.07719456453334
 30
0.0
 40
54.66300053119062
 50
294.4115260524646
 51
352.2060694920232
  0
ARC
  5
A2
  8
0
  6
BYBLOCK
 62
     2
 10
98.45482883223187
 20
238.3977787133333
 30
0.0
 40
157.5260348697346
 50
258.4463890239047
 51
281.5536109760953
  0
ARC
  5
A4
  8
0
  6
BYBLOCK
 62
     2
 10
98.35663974599184
 20
228.9311029812484
 30
0.0
 40
151.4977592254215
 50
259.3839148558256
 51
280.6434333951011
  0
ENDSEC
  0
EOF
