  0
SECTION
  2
HEADER
  9
$ACADVER
  1
AC1009
  9
$DWGCODEPAGE
  3
ansi_1252
  9
$INSBASE
 10
0.0
 20
0.0
 30
0.0
  9
$EXTMIN
 10
107.2544862666722
 20
17.34684277656862
 30
0.0
  9
$EXTMAX
 10
494.9642868704158
 20
478.2423136066366
 30
0.0
  9
$LIMMIN
 10
0.0
 20
0.0
  9
$LIMMAX
 10
420.0
 20
297.0
  9
$ORTHOMODE
 70
     0
  9
$REGENMODE
 70
     1
  9
$FILLMODE
 70
     1
  9
$QTEXTMODE
 70
     0
  9
$MIRRTEXT
 70
     0
  9
$DRAGMODE
 70
     2
  9
$LTSCALE
 40
1.0
  9
$OSMODE
 70
    37
  9
$ATTMODE
 70
     1
  9
$TEXTSIZE
 40
2.5
  9
$TRACEWID
 40
1.0
  9
$TEXTSTYLE
  7
STANDARD
  9
$CLAYER
  8
0
  9
$CELTYPE
  6
BYLAYER
  9
$CECOLOR
 62
   256
  9
$DIMSCALE
 40
1.0
  9
$DIMASZ
 40
2.5
  9
$DIMEXO
 40
0.625
  9
$DIMDLI
 40
3.75
  9
$DIMRND
 40
0.0
  9
$DIMDLE
 40
0.0
  9
$DIMEXE
 40
1.25
  9
$DIMTP
 40
0.0
  9
$DIMTM
 40
0.0
  9
$DIMTXT
 40
2.5
  9
$DIMCEN
 40
2.5
  9
$DIMTSZ
 40
0.0
  9
$DIMTOL
 70
     0
  9
$DIMLIM
 70
     0
  9
$DIMTIH
 70
     0
  9
$DIMTOH
 70
     0
  9
$DIMSE1
 70
     0
  9
$DIMSE2
 70
     0
  9
$DIMTAD
 70
     1
  9
$DIMZIN
 70
     8
  9
$DIMBLK
  1

  9
$DIMASO
 70
     1
  9
$DIMSHO
 70
     1
  9
$DIMPOST
  1

  9
$DIMAPOST
  1

  9
$DIMALT
 70
     0
  9
$DIMALTD
 70
     3
  9
$DIMALTF
 40
0.03937007874016
  9
$DIMLFAC
 40
1.0
  9
$DIMTOFL
 70
     1
  9
$DIMTVP
 40
0.0
  9
$DIMTIX
 70
     0
  9
$DIMSOXD
 70
     0
  9
$DIMSAH
 70
     0
  9
$DIMBLK1
  1

  9
$DIMBLK2
  1

  9
$DIMSTYLE
  2
ISO-25
  9
$DIMCLRD
 70
     0
  9
$DIMCLRE
 70
     0
  9
$DIMCLRT
 70
     0
  9
$DIMTFAC
 40
1.0
  9
$DIMGAP
 40
0.625
  9
$LUNITS
 70
     2
  9
$LUPREC
 70
     4
  9
$SKETCHINC
 40
1.0
  9
$FILLETRAD
 40
0.0
  9
$AUNITS
 70
     0
  9
$AUPREC
 70
     0
  9
$MENU
  1
.
  9
$ELEVATION
 40
0.0
  9
$PELEVATION
 40
0.0
  9
$THICKNESS
 40
0.0
  9
$LIMCHECK
 70
     0
  9
$CHAMFERA
 40
0.0
  9
$CHAMFERB
 40
0.0
  9
$SKPOLY
 70
     0
  9
$TDCREATE
 40
2453353.550459155
  9
$TDUPDATE
 40
4910251.905127407
  9
$TDINDWG
 40
9791572.06217926
  9
$TDUSRTIMER
 40
9791572.06217926
  9
$USRTIMER
 70
     1
  9
$ANGBASE
 50
0.0
  9
$ANGDIR
 70
     0
  9
$PDMODE
 70
     0
  9
$PDSIZE
 40
0.0
  9
$PLINEWID
 40
0.0
  9
$COORDS
 70
     1
  9
$SPLFRAME
 70
     0
  9
$SPLINETYPE
 70
     6
  9
$SPLINESEGS
 70
     8
  9
$ATTDIA
 70
     0
  9
$ATTREQ
 70
     1
  9
$HANDLING
 70
     1
  9
$HANDSEED
  5
1F8
  9
$SURFTAB1
 70
     6
  9
$SURFTAB2
 70
     6
  9
$SURFTYPE
 70
     6
  9
$SURFU
 70
     6
  9
$SURFV
 70
     6
  9
$UCSNAME
  2

  9
$UCSORG
 10
0.0
 20
0.0
 30
0.0
  9
$UCSXDIR
 10
1.0
 20
0.0
 30
0.0
  9
$UCSYDIR
 10
0.0
 20
1.0
 30
0.0
  9
$PUCSNAME
  2

  9
$PUCSORG
 10
0.0
 20
0.0
 30
0.0
  9
$PUCSXDIR
 10
1.0
 20
0.0
 30
0.0
  9
$PUCSYDIR
 10
0.0
 20
1.0
 30
0.0
  9
$USERI1
 70
     0
  9
$USERI2
 70
     0
  9
$USERI3
 70
     0
  9
$USERI4
 70
     0
  9
$USERI5
 70
     0
  9
$USERR1
 40
0.0
  9
$USERR2
 40
0.0
  9
$USERR3
 40
0.0
  9
$USERR4
 40
0.0
  9
$USERR5
 40
0.0
  9
$WORLDVIEW
 70
     1
  9
$SHADEDGE
 70
     3
  9
$SHADEDIF
 70
    70
  9
$TILEMODE
 70
     1
  9
$MAXACTVP
 70
    64
  9
$PLIMCHECK
 70
     0
  9
$PEXTMIN
 10
0.0
 20
0.0
 30
0.0
  9
$PEXTMAX
 10
0.0
 20
0.0
 30
0.0
  9
$PLIMMIN
 10
0.0
 20
0.0
  9
$PLIMMAX
 10
420.0
 20
297.0
  9
$UNITMODE
 70
     0
  9
$VISRETAIN
 70
     1
  9
$PLINEGEN
 70
     0
  9
$PSLTSCALE
 70
     1
  0
ENDSEC
  0
SECTION
  2
TABLES
  0
TABLE
  2
VPORT
 70
     1
  0
VPORT
  2
*ACTIVE
 70
     0
 10
0.0
 20
0.0
 11
1.0
 21
1.0
 12
335.773831855833
 22
247.5344309731592
 13
0.0
 23
0.0
 14
10.0
 24
10.0
 15
10.0
 25
10.0
 16
0.0
 26
0.0
 36
1.0
 17
0.0
 27
0.0
 37
0.0
 40
473.4201660553396
 41
1.664827586206897
 42
50.0
 43
0.0
 44
0.0
 50
0.0
 51
0.0
 71
    16
 72
  1000
 73
     1
 74
     3
 75
     0
 76
     0
 77
     0
 78
     0
  0
ENDTAB
  0
TABLE
  2
LTYPE
 70
     1
  0
LTYPE
  2
CONTINUOUS
 70
     0
  3
Solid line
 72
    65
 73
     0
 40
0.0
  0
ENDTAB
  0
TABLE
  2
LAYER
 70
     1
  0
LAYER
  2
0
 70
     0
 62
     7
  6
CONTINUOUS
  0
ENDTAB
  0
TABLE
  2
STYLE
 70
     1
  0
STYLE
  2
STANDARD
 70
     0
 40
0.0
 41
1.0
 50
0.0
 71
     0
 42
2.5
  3
txt
  4

  0
ENDTAB
  0
TABLE
  2
VIEW
 70
     0
  0
ENDTAB
  0
TABLE
  2
UCS
 70
     0
  0
ENDTAB
  0
TABLE
  2
APPID
 70
     1
  0
APPID
  2
ACAD
 70
     0
  0
ENDTAB
  0
TABLE
  2
DIMSTYLE
 70
     2
  0
DIMSTYLE
  2
STANDARD
 70
     0
  3

  4

  5

  6

  7

 40
1.0
 41
0.18
 42
0.0625
 43
0.38
 44
0.18
 45
0.0
 46
0.0
 47
0.0
 48
0.0
140
0.18
141
0.09
142
0.0
143
25.4
144
1.0
145
0.0
146
1.0
147
0.09
 71
     0
 72
     0
 73
     1
 74
     1
 75
     0
 76
     0
 77
     0
 78
     0
170
     0
171
     2
172
     0
173
     0
174
     0
175
     0
176
     0
177
     0
178
     0
  0
DIMSTYLE
  2
ISO-25
 70
     0
  3

  4

  5

  6

  7

 40
1.0
 41
2.5
 42
0.625
 43
3.75
 44
1.25
 45
0.0
 46
0.0
 47
0.0
 48
0.0
140
2.5
141
2.5
142
0.0
143
0.03937007874016
144
1.0
145
0.0
146
1.0
147
0.625
 71
     0
 72
     0
 73
     0
 74
     0
 75
     0
 76
     0
 77
     1
 78
     8
170
     0
171
     3
172
     1
173
     0
174
     0
175
     0
176
     0
177
     0
178
     0
  0
ENDTAB
  0
ENDSEC
  0
SECTION
  2
BLOCKS
  0
BLOCK
  8
0
  2
$MODEL_SPACE
 70
     0
 10
0.0
 20
0.0
 30
0.0
  3
$MODEL_SPACE
  1

  0
ENDBLK
  5
21
  8
0
  0
BLOCK
 67
     1
  8
0
  2
$PAPER_SPACE
 70
     0
 10
0.0
 20
0.0
 30
0.0
  3
$PAPER_SPACE
  1

  0
ENDBLK
  5
76
 67
     1
  8
0
  0
ENDSEC
  0
SECTION
  2
ENTITIES
  0
ARC
  5
D0
  8
0
 62
     2
 10
337.4094494892589
 20
285.5812468585834
 30
0.0
 40
26.66418332768535
 50
148.6183814425086
 51
24.03931055606925
  0
LINE
  5
D1
  8
0
 62
     2
 10
360.720450934846
 20
381.8280280034284
 30
0.0
 11
305.98253035856
 21
305.6758997214005
 31
0.0
  0
ARC
  5
D2
  8
0
 62
     2
 10
337.1405355857518
 20
285.709971611545
 30
0.0
 40
36.99118508782507
 50
147.5782708932215
 51
169.7187392909909
  0
ARC
  5
D3
  8
0
 62
     2
 10
337.8104299916267
 20
395.3978448193328
 30
0.0
 40
26.64116681727035
 50
329.3103692203904
 51
209.5767722880177
  0
ARC
  5
D4
  8
0
 62
     2
 10
337.3425550014726
 20
395.8228072863765
 30
0.0
 40
37.54268055535363
 50
329.5859267672444
 51
351.7987535618004
  0
LINE
  5
D5
  8
0
 62
     2
 10
369.7190548071501
 20
376.8444866048744
 30
0.0
 11
314.7129249815889
 21
299.599457502854
 31
0.0
  0
ARC
  5
D6
  8
0
 62
     2
 10
309.7254075381887
 20
380.0841045461878
 30
0.0
 40
5.370579712900814
 50
207.1481414295583
 51
23.76120517908386
  0
ARC
  5
D7
  8
0
 62
     2
 10
366.8156657599179
 20
298.4172718793877
 30
0.0
 40
5.426501766284859
 50
25.42233047616582
 51
201.3320870390192
  0
ARC
  5
D8
  8
0
 62
     2
 10
412.3992819750777
 20
285.4084411418949
 30
0.0
 40
26.66418332768543
 50
156.0751673057988
 51
31.49609641935945
  0
LINE
  5
D9
  8
0
 62
     2
 10
388.8960246157925
 20
381.6084544612447
 30
0.0
 11
443.7859889732348
 21
305.5658453283584
 31
0.0
  0
ARC
  5
DA
  8
0
 62
     2
 10
406.2390071042026
 20
287.6322270682284
 30
0.0
 40
30.94961819845713
 50
155.4214614626943
 51
171.3099167768747
  0
ARC
  5
DB
  8
0
 62
     2
 10
411.7788871420779
 20
395.2240187403729
 30
0.0
 40
26.64116681727039
 50
330.5377055738503
 51
210.8041086414775
  0
ARC
  5
DC
  8
0
 62
     2
 10
412.2293411814282
 20
395.5978430760156
 30
0.0
 40
37.14220552432511
 50
330.8843668207205
 51
82.36964374696197
  0
LINE
  5
DD
  8
0
 62
     2
 10
379.9073958918779
 20
376.6069436709568
 30
0.0
 11
435.0677525946873
 21
299.4719717854537
 31
0.0
  0
ARC
  5
DE
  8
0
 62
     2
 10
439.8944506086569
 20
379.9664233098923
 30
0.0
 40
5.370579712900874
 50
156.3532726827835
 51
332.9663364323091
  0
ARC
  5
DF
  8
0
 62
     2
 10
382.9674778388818
 20
298.1856865015208
 30
0.0
 40
5.426501766284846
 50
338.7823908228486
 51
154.692147385702
  0
ARC
  5
F0
  8
0
 62
     2
 10
263.2394729575462
 20
285.5812468585834
 30
0.0
 40
26.66418332768533
 50
155.9606894439308
 51
31.38161855749141
  0
LINE
  5
F1
  8
0
 62
     2
 10
239.9284715119592
 20
381.8280280034284
 30
0.0
 11
294.6663920882451
 21
305.6758997214005
 31
0.0
  0
ARC
  5
F2
  8
0
 62
     2
 10
263.9030981245776
 20
285.2225868443782
 30
0.0
 40
38.26178167593557
 50
156.0626933552457
 51
169.4247430976582
  0
ARC
  5
F3
  8
0
 62
     2
 10
262.8384924551784
 20
395.3978448193328
 30
0.0
 40
26.64116681727037
 50
330.4232277119823
 51
210.6896307796095
  0
ARC
  5
F4
  8
0
 62
     2
 10
262.0327292348686
 20
396.2320940320197
 30
0.0
 40
38.4649677664428
 50
331.0845077491547
 51
351.409009675627
  0
LINE
  5
F5
  8
0
 62
     2
 10
230.929867639655
 20
376.8444866048744
 30
0.0
 11
285.9359974652163
 21
299.599457502854
 31
0.0
  0
ARC
  5
F6
  8
0
 62
     2
 10
290.9235149086164
 20
380.0841045461878
 30
0.0
 40
5.370579712900829
 50
156.2387948209163
 51
332.8518585704418
  0
ARC
  5
F7
  8
0
 62
     2
 10
233.8332566868873
 20
298.4172718793877
 30
0.0
 40
5.42650176628485
 50
338.6679129609804
 51
154.5776695238339
  0
ARC
  5
F8
  8
0
 62
     2
 10
188.2496404717274
 20
285.4084411418949
 30
0.0
 40
26.66418332768542
 50
148.5039035806406
 51
23.92483269420121
  0
LINE
  5
F9
  8
0
 62
     2
 10
211.7528978310126
 20
381.6084544612447
 30
0.0
 11
156.8629334735703
 21
305.5658453283584
 31
0.0
  0
ARC
  5
FA
  8
0
 62
     2
 10
188.1836466662918
 20
285.3373706012071
 30
0.0
 40
37.26983330387069
 50
147.3717194471413
 51
263.7285410973783
  0
ARC
  5
FB
  8
0
 62
     2
 10
188.8700353047272
 20
395.2240187403729
 30
0.0
 40
26.64116681727035
 50
329.1958913585225
 51
209.4622944261497
  0
ARC
  5
FC
  8
0
 62
     2
 10
189.7424123691238
 20
394.9208947049681
 30
0.0
 40
36.01867090363529
 50
329.3880757093641
 51
352.6542379672243
  0
LINE
  5
FD
  8
0
 62
     2
 10
220.7415265549272
 20
376.6069436709568
 30
0.0
 11
165.5811698521179
 21
299.4719717854537
 31
0.0
  0
ARC
  5
FE
  8
0
 62
     2
 10
160.7544718381483
 20
379.9664233098923
 30
0.0
 40
5.370579712900844
 50
207.0336635676908
 51
23.64672731721633
  0
ARC
  5
FF
  8
0
 62
     2
 10
217.6814446079234
 20
298.1856865015208
 30
0.0
 40
5.426501766284825
 50
25.30785261429819
 51
201.2176091771516
  0
POLYLINE
  5
119
  8
0
 62
     2
 66
     1
 10
0.0
 20
0.0
 30
0.0
 70
     1
  0
VERTEX
  5
1E7
  8
0
 62
     2
 10
107.2544862666723
 20
478.2423136066366
 30
0.0
  0
VERTEX
  5
1E8
  8
0
 62
     2
 10
494.9642868704158
 20
478.2423136066366
 30
0.0
  0
VERTEX
  5
1E9
  8
0
 62
     2
 10
494.9642868704157
 20
17.34684277656862
 30
0.0
  0
VERTEX
  5
1EA
  8
0
 62
     2
 10
107.2544862666722
 20
17.34684277656862
 30
0.0
  0
SEQEND
  5
1E6
  8
0
 62
     2
  0
POLYLINE
  5
11C
  8
0
 62
     2
 66
     1
 10
0.0
 20
0.0
 30
0.0
  0
VERTEX
  5
1EC
  8
0
 62
     2
 10
194.6020111148747
 20
453.0641605833149
 30
0.0
  0
VERTEX
  5
1ED
  8
0
 62
     2
 10
470.1704415313723
 20
453.0307988781933
 30
0.0
  0
VERTEX
  5
1EE
  8
0
 62
     2
 10
470.1704415313723
 20
42.0813700200417
 30
0.0
  0
VERTEX
  5
1EF
  8
0
 62
     2
 10
416.6088531258817
 20
42.05443459897057
 30
0.0
  0
SEQEND
  5
1EB
  8
0
 62
     2
  0
ARC
  5
128
  8
0
 62
     2
 10
264.4552517701457
 20
396.28261635131
 30
0.0
 40
38.76668430021822
 50
188.5622797083283
 51
210.1405258152275
  0
ARC
  5
129
  8
0
 62
     2
 10
188.1210065114679
 20
395.1986719155256
 30
0.0
 40
37.77265124384095
 50
9.236204963778798
 51
80.12034510328917
  0
ARC
  5
12A
  8
0
 62
     2
 10
263.2469920939883
 20
395.8546663350135
 30
0.0
 40
36.9631722439339
 50
8.167423759105715
 51
171.5775241726889
  0
ARC
  5
12B
  8
0
 62
     2
 10
337.5646376194899
 20
395.6207080359287
 30
0.0
 40
37.24889837997091
 50
187.9716502191033
 51
208.8743924331617
  0
ARC
  5
12C
  8
0
 62
     2
 10
337.6937533985748
 20
395.7374781633699
 30
0.0
 40
37.09470497138516
 50
8.337851161472987
 51
171.6788434205913
  0
ARC
  5
12D
  8
0
 62
     2
 10
411.1328842817682
 20
395.0371994484422
 30
0.0
 40
36.27272464850463
 50
187.2451405097031
 51
210.5879488458539
  0
LINE
  5
12E
  8
0
 62
     2
 10
374.3963750350619
 20
401.1165767795863
 30
0.0
 11
375.8401563433097
 21
401.1782462638382
 31
0.0
  0
LINE
  5
131
  8
0
 62
     2
 10
299.8352529589789
 20
401.1058823094448
 30
0.0
 11
300.9895659829881
 21
401.1058823094448
 31
0.0
  0
LINE
  5
134
  8
0
 62
     2
 10
374.5012913629751
 20
390.4673264211615
 30
0.0
 11
375.1497737781097
 21
390.462670848932
 31
0.0
  0
LINE
  5
13E
  8
0
 62
     2
 10
300.0661155637807
 20
390.4862024885601
 30
0.0
 11
300.6578853300962
 21
390.476683763275
 31
0.0
  0
LINE
  5
140
  8
0
 62
     2
 10
225.4039368332816
 20
401.261368395445
 30
0.0
 11
226.6824694439827
 21
401.2687023260241
 31
0.0
  0
LINE
  5
143
  8
0
 62
     2
 10
225.4517168573335
 20
390.5108629837646
 30
0.0
 11
226.1206371940603
 21
390.5108629837646
 31
0.0
  0
LINE
  5
146
  8
0
 62
     2
 10
225.1710571433004
 20
292.2446512751245
 30
0.0
 11
226.2912044186313
 21
292.2446512751245
 31
0.0
  0
LINE
  5
147
  8
0
 62
     2
 10
299.9040063121398
 20
292.3099025426083
 30
0.0
 11
300.7433007641884
 21
292.3121736340299
 31
0.0
  0
LINE
  5
148
  8
0
 62
     2
 10
225.5817778109217
 20
281.7899433720353
 30
0.0
 11
225.917821993521
 21
281.7899433720353
 31
0.0
  0
LINE
  5
149
  8
0
 62
     2
 10
299.794590174314
 20
281.7547275826075
 30
0.0
 11
300.2567825129707
 21
281.7547275826075
 31
0.0
  0
LINE
  5
14A
  8
0
 62
     2
 10
374.3375030302609
 20
292.3083964962676
 30
0.0
 11
375.6446889044038
 21
292.3083964962676
 31
0.0
  0
LINE
  5
14B
  8
0
 62
     2
 10
374.7838591824072
 20
281.7552617562351
 30
0.0
 11
375.0708024230728
 21
281.7552617562351
 31
0.0
  0
ARC
  5
14E
  8
0
 62
     2
 10
187.2231770436721
 20
284.909252488945
 30
0.0
 40
38.65035160781915
 50
10.9404514210947
 51
23.79837493073642
  0
ARC
  5
152
  8
0
 62
     2
 10
263.4500345984918
 20
285.4517641506697
 30
0.0
 40
37.71042182791866
 50
185.5724117779248
 51
261.0494639286168
  0
ARC
  5
156
  8
0
 62
     2
 10
263.7401576829121
 20
285.8061074410492
 30
0.0
 40
36.74402398214921
 50
10.19522976867154
 51
32.488955562318
  0
ARC
  5
15B
  8
0
 62
     2
 10
339.1448381922095
 20
286.2562850090714
 30
0.0
 40
39.11606072961991
 50
186.6083590179878
 51
260.0777924286019
  0
ARC
  5
160
  8
0
 62
     2
 10
339.1668987720393
 20
286.1343569424097
 30
0.0
 40
35.70840472915351
 50
9.956566030612654
 51
24.15558051517262
  0
ARC
  5
161
  8
0
 62
     2
 10
413.7814825239235
 20
285.9942788758642
 30
0.0
 40
38.94208546047459
 50
186.2492806331106
 51
259.3316573549892
  0
ARC
  5
167
  8
0
 62
     2
 10
336.5167127248832
 20
210.5254282835632
 30
0.0
 40
26.66418332768536
 50
335.7886301752965
 51
211.2095592888571
  0
LINE
  5
168
  8
0
 62
     2
 10
359.5385803398965
 20
114.2090782662548
 30
0.0
 11
305.0295911314231
 21
190.5252409473589
 31
0.0
  0
ARC
  5
169
  8
0
 62
     2
 10
336.2474134739616
 20
210.3975116584611
 30
0.0
 40
36.99118508782509
 50
190.1092014403748
 51
212.2496698381441
  0
ARC
  5
16A
  8
0
 62
     2
 10
336.5879125892615
 20
100.7081213432842
 30
0.0
 40
26.64116681727033
 50
150.2511684433479
 51
30.51757151097522
  0
ARC
  5
16B
  8
0
 62
     2
 10
336.1187635480697
 20
100.2845658192305
 30
0.0
 40
37.54268055535365
 50
8.029187169565207
 51
30.24201396412122
  0
LINE
  5
16C
  8
0
 62
     2
 10
368.5521091935111
 20
119.1655744204756
 30
0.0
 11
313.778193922164
 21
196.575438425044
 31
0.0
  0
ARC
  5
16D
  8
0
 62
     2
 10
308.5490038756331
 20
116.1061317833466
 30
0.0
 40
5.370579712900794
 50
336.0667355522821
 51
152.6797993018076
  0
ARC
  5
16E
  8
0
 62
     2
 10
365.8842498680338
 20
197.6011543837591
 30
0.0
 40
5.426501766284878
 50
158.4958536923465
 51
334.4056102551999
  0
ARC
  5
16F
  8
0
 62
     2
 10
411.5067260162122
 20
210.4730390366223
 30
0.0
 40
26.66418332768543
 50
328.3318443120062
 51
203.7527734255668
  0
LINE
  5
170
  8
0
 62
     2
 10
387.7146863556068
 20
114.3440396767619
 30
0.0
 11
442.8327588827686
 21
190.2214715770887
 31
0.0
  0
ARC
  5
171
  8
0
 62
     2
 10
405.339800901278
 20
208.2677624195768
 30
0.0
 40
30.94961819845712
 50
188.518023954491
 51
204.4064792686714
  0
ARC
  5
172
  8
0
 62
     2
 10
410.5565582147517
 20
100.6598196402981
 30
0.0
 40
26.64116681727037
 50
149.0238320898882
 51
29.29023515751537
  0
ARC
  5
173
  8
0
 62
     2
 10
411.4114835848304
 20
100.4086882759134
 30
0.0
 40
37.23416382359346
 50
188.6425234058491
 51
262.8232641807663
  0
LINE
  5
174
  8
0
 62
     2
 10
378.7411176795105
 20
119.3725207334162
 30
0.0
 11
434.1328616940702
 21
196.341498473698
 31
0.0
  0
ARC
  5
175
  8
0
 62
     2
 10
438.717813409759
 20
115.8329153430587
 30
0.0
 40
5.370579712900887
 50
26.86160429905662
 51
203.4746680485822
  0
ARC
  5
176
  8
0
 62
     2
 10
382.0366845684401
 20
197.784234886582
 30
0.0
 40
5.426501766284829
 50
205.1357933456638
 51
21.04554990851715
  0
ARC
  5
177
  8
0
 62
     2
 10
262.3470706258433
 20
210.7481604436694
 30
0.0
 40
26.66418332768533
 50
328.4463221738742
 51
203.8672512874349
  0
LINE
  5
178
  8
0
 62
     2
 10
238.7471455684498
 20
114.5718161254055
 30
0.0
 11
293.7135038856135
 21
190.5592232679537
 31
0.0
  0
ARC
  5
179
  8
0
 62
     2
 10
263.0117698552581
 20
211.1048259767989
 30
0.0
 40
38.26178167593558
 50
190.4031976337075
 51
203.76524737612
  0
ARC
  5
17A
  8
0
 62
     2
 10
261.6163131015309
 20
100.9332617892664
 30
0.0
 40
26.64116681727039
 50
149.1383099517561
 51
29.40471301938326
  0
ARC
  5
17B
  8
0
 62
     2
 10
260.8080482671672
 20
100.101436042127
 30
0.0
 40
38.46496776644281
 50
8.418931055738682
 51
28.74343298221092
  0
LINE
  5
17C
  8
0
 62
     2
 10
229.7635478269262
 20
119.5823578266829
 30
0.0
 11
285.001396161054
 21
196.6618554299651
 31
0.0
  0
ARC
  5
17D
  8
0
 62
     2
 10
289.7471960238577
 20
116.1625937960814
 30
0.0
 40
5.370579712900844
 50
26.97608216092415
 51
203.5891459104497
  0
ARC
  5
17E
  8
0
 62
     2
 10
232.9024404131315
 20
198.0005000572245
 30
0.0
 40
5.426501766284843
 50
205.2502712075316
 51
21.16002777038504
  0
ARC
  5
17F
  8
0
 62
     2
 10
187.3580952043468
 20
211.1461595656242
 30
0.0
 40
26.66418332768544
 50
335.9031080371645
 51
211.3240371507252
  0
LINE
  5
180
  8
0
 62
     2
 10
210.5723583097795
 20
114.8759998191502
 30
0.0
 11
155.9109971201233
 21
191.083100431837
 31
0.0
  0
ARC
  5
181
  8
0
 62
     2
 10
187.2564483640708
 20
211.1402196228468
 30
0.0
 40
37.60884988320463
 50
5.358696257373155
 51
80.20236219055018
  0
ARC
  5
182
  8
0
 62
     2
 10
187.6487114741612
 20
101.3292140826074
 30
0.0
 40
26.64116681727033
 50
150.3656463052159
 51
30.63204937284311
  0
ARC
  5
183
  8
0
 62
     2
 10
188.5219948853431
 20
101.629717006187
 30
0.0
 40
36.01867090363529
 50
7.173702764141347
 51
30.43986502200161
  0
LINE
  5
184
  8
0
 62
     2
 10
219.5759660219982
 20
119.8504952394139
 30
0.0
 11
164.6474940674059
 21
197.1507656664446
 31
0.0
  0
ARC
  5
185
  8
0
 62
     2
 10
159.5790932823504
 20
116.6711716477102
 30
0.0
 40
5.370579712900835
 50
336.1812134141494
 51
152.7942771636749
  0
ARC
  5
186
  8
0
 62
     2
 10
216.7513966127597
 20
198.2805882216971
 30
0.0
 40
5.426501766284829
 50
158.6103315542142
 51
334.5200881170676
  0
ARC
  5
187
  8
0
 62
     2
 10
263.2304081609476
 20
100.0436391245949
 30
0.0
 40
38.76668430021822
 50
149.6874149161382
 51
171.2656610230374
  0
ARC
  5
188
  8
0
 62
     2
 10
187.1468929193877
 20
101.1060545384728
 30
0.0
 40
37.02549284108316
 50
150.875791004634
 51
266.0744099891336
  0
ARC
  5
189
  8
0
 62
     2
 10
262.0234390651239
 20
100.475215610519
 30
0.0
 40
36.96317224393389
 50
188.2504165586767
 51
351.6605169722599
  0
ARC
  5
18A
  8
0
 62
     2
 10
336.3414520680034
 20
100.4859972451468
 30
0.0
 40
37.24889837997093
 50
150.953548298204
 51
171.8562905122624
  0
ARC
  5
18B
  8
0
 62
     2
 10
336.4702166046521
 20
100.3688399100243
 30
0.0
 40
37.09470497138514
 50
188.1490973107744
 51
351.4900895698927
  0
ARC
  5
18C
  8
0
 62
     2
 10
409.9111192849009
 20
100.8485780340159
 30
0.0
 40
36.27272464850462
 50
149.2399918855118
 51
172.5828002216625
  0
LINE
  5
18D
  8
0
 62
     2
 10
373.1565193360152
 20
94.87954771367598
 30
0.0
 11
374.6001089410194
 21
94.81354283766247
 31
0.0
  0
LINE
  5
18E
  8
0
 62
     2
 10
298.5957655717352
 20
95.11414890429846
 30
0.0
 11
299.750073390943
 21
95.11068250663597
 31
0.0
  0
LINE
  5
18F
  8
0
 62
     2
 10
373.2934148495681
 20
105.5284349912577
 30
0.0
 11
373.9419083213591
 21
105.5311431522456
 31
0.0
  0
LINE
  5
190
  8
0
 62
     2
 10
298.8585179940716
 20
105.7330875614788
 30
0.0
 11
299.4503136767914
 21
105.740829161465
 31
0.0
  0
LINE
  5
191
  8
0
 62
     2
 10
224.1643181329613
 20
95.18218048130801
 30
0.0
 11
225.4428229549886
 21
95.1710071551843
 31
0.0
  0
LINE
  5
192
  8
0
 62
     2
 10
224.2443816688241
 20
105.9324939356912
 30
0.0
 11
224.9132989893869
 21
105.93048517044
 31
0.0
  0
LINE
  5
193
  8
0
 62
     2
 10
224.258816283852
 20
204.1991053817173
 30
0.0
 11
225.3789585084352
 21
204.1957415836694
 31
0.0
  0
LINE
  5
194
  8
0
 62
     2
 10
298.9912325322626
 20
203.9094316436371
 30
0.0
 11
299.8305163798508
 21
203.9046401643781
 31
0.0
  0
LINE
  5
195
  8
0
 62
     2
 10
224.7009305479797
 20
214.6525327518759
 30
0.0
 11
225.0369732153547
 21
214.6515236124615
 31
0.0
  0
LINE
  5
196
  8
0
 62
     2
 10
298.9135140384353
 20
214.4648875865682
 30
0.0
 11
299.3757042930652
 21
214.4634996247164
 31
0.0
  0
LINE
  5
197
  8
0
 62
     2
 10
373.424398152149
 20
203.6874141729537
 30
0.0
 11
374.7315781321865
 21
203.6834886986982
 31
0.0
  0
LINE
  5
198
  8
0
 62
     2
 10
373.9024433155418
 20
214.2391609230228
 30
0.0
 11
374.1893852623793
 21
214.2382992335521
 31
0.0
  0
ARC
  5
199
  8
0
 62
     2
 10
186.3331354662628
 20
211.6484284335383
 30
0.0
 40
38.65035160781915
 50
336.0295658006293
 51
348.887489310271
  0
ARC
  5
19A
  8
0
 62
     2
 10
261.4967546323954
 20
210.9324526785079
 30
0.0
 40
37.58313426031891
 50
5.393185022486753
 51
80.6894640621976
  0
ARC
  5
19B
  8
0
 62
     2
 10
262.8470778381381
 20
210.5217973207567
 30
0.0
 40
36.74402398214919
 50
327.3389851690477
 51
349.6327109626941
  0
ARC
  5
19C
  8
0
 62
     2
 10
335.7297326996183
 20
210.1762169975872
 30
0.0
 40
38.38832308278489
 50
6.075450343391808
 51
79.637665441594
  0
ARC
  5
19D
  8
0
 62
     2
 10
338.2724930958209
 20
209.9670430801367
 30
0.0
 40
35.7084047291535
 50
335.6723602161929
 51
349.8713747007529
  0
ARC
  5
19E
  8
0
 62
     2
 10
410.9658981167352
 20
210.5802537541731
 30
0.0
 40
37.82793850673543
 50
327.6775066234397
 51
80.96093129501924
  0
LINE
  5
19F
  8
0
 62
     2
 10
417.1611402101296
 20
453.0641605833149
 30
0.0
 11
417.1611402101296
 21
432.4111666091021
 31
0.0
  0
LINE
  5
1A0
  8
0
 62
     2
 10
406.3722627609137
 20
453.0641605833149
 30
0.0
 11
406.3722627609136
 21
432.7194202505083
 31
0.0
  0
LINE
  5
1A5
  8
0
 62
     2
 10
184.4296409484711
 20
453.0641605833149
 30
0.0
 11
184.4296409484711
 21
433.0276738919145
 31
0.0
  0
LINE
  5
1A6
  8
0
 62
     2
 10
194.6020111148747
 20
453.0641605833149
 30
0.0
 11
194.6020111148747
 21
432.4111666091021
 31
0.0
  0
ARC
  5
1AB
  8
0
 62
     2
 10
189.3539050910468
 20
395.4554043891289
 30
0.0
 40
37.89358537979485
 50
97.46669192045182
 51
208.2400537481664
  0
ARC
  5
1B2
  8
0
 62
     2
 10
413.9530419192607
 20
394.8329184394891
 30
0.0
 40
38.63748480587199
 50
101.3149910245902
 51
170.5476532767098
  0
ARC
  5
1B6
  8
0
 62
     2
 10
187.2128877476123
 20
211.2172612005599
 30
0.0
 40
37.20274711084625
 50
94.78071390472948
 51
212.5216513016882
  0
ARC
  5
1B7
  8
0
 62
     2
 10
188.1166556691292
 20
285.4324574176726
 30
0.0
 40
37.64177580391358
 50
278.4628179786241
 51
354.4469204707008
  0
ARC
  5
1BA
  8
0
 62
     2
 10
262.0340633824713
 20
285.565855094478
 30
0.0
 40
37.95236588816577
 50
278.3983105237572
 51
354.2367180075472
  0
ARC
  5
1BB
  8
0
 62
     2
 10
262.453011155051
 20
210.915108274604
 30
0.0
 40
37.60213683664503
 50
97.44154905099299
 51
174.2972734715769
  0
LINE
  5
1BE
  8
0
 62
     2
 10
184.6120951140307
 20
64.16743084712417
 30
0.0
 11
184.6120951140307
 21
41.94678430932486
 31
0.0
  0
LINE
  5
1BF
  8
0
 62
     2
 10
194.4879380197193
 20
64.71608878632908
 30
0.0
 11
194.4879380197193
 21
42.22111327892732
 31
0.0
  0
ARC
  5
1C0
  8
0
 62
     2
 10
187.8312995919258
 20
100.8867956557458
 30
0.0
 40
36.778130330288
 50
280.4276905707639
 51
351.076888112143
  0
POLYLINE
  5
1C4
  8
0
 62
     2
 66
     1
 10
0.0
 20
0.0
 30
0.0
  0
VERTEX
  5
1F1
  8
0
 62
     2
 10
184.6120951140307
 20
41.94678430932486
 30
0.0
  0
VERTEX
  5
1F2
  8
0
 62
     2
 10
133.3266473853463
 20
42.0813700200417
 30
0.0
  0
VERTEX
  5
1F3
  8
0
 62
     2
 10
133.3266473853463
 20
453.0307988781933
 30
0.0
  0
VERTEX
  5
1F4
  8
0
 62
     2
 10
184.4296409484711
 20
453.0641605833149
 30
0.0
  0
SEQEND
  5
1F0
  8
0
 62
     2
  0
LINE
  5
1C9
  8
0
 62
     2
 10
406.830348808367
 20
42.25097858918721
 30
0.0
 11
406.8305850661173
 21
42.05443459897057
 31
0.0
  0
POLYLINE
  5
1CA
  8
0
 62
     2
 66
     1
 10
0.0
 20
0.0
 30
0.0
  0
VERTEX
  5
1F6
  8
0
 62
     2
 10
407.1267753490666
 20
42.0328597061436
 30
0.0
  0
VERTEX
  5
1F7
  8
0
 62
     2
 10
194.4879380197193
 20
42.22111327892732
 30
0.0
  0
SEQEND
  5
1F5
  8
0
 62
     2
  0
ARC
  5
1CF
  8
0
 62
     2
 10
411.0755419965057
 20
100.2857257305581
 30
0.0
 40
37.08074232278732
 50
278.5542181654737
 51
28.99419764832224
  0
LINE
  5
1D0
  8
0
 62
     2
 10
416.5911257711928
 20
63.61748624686652
 30
0.0
 11
416.6088531258817
 21
42.05443459897057
 31
0.0
  0
LINE
  5
1D1
  8
0
 62
     2
 10
406.7598050361849
 20
63.46623515863563
 30
0.0
 11
407.1267753490666
 21
42.0328597061436
 31
0.0
  0
ARC
  5
1D5
  8
0
 62
     2
 10
336.4293683526661
 20
286.0280124609491
 30
0.0
 40
38.59175255664517
 50
279.2530557683759
 51
353.643369352732
  0
ARC
  5
1D6
  8
0
 62
     2
 10
336.5006034541136
 20
210.6638313931976
 30
0.0
 40
37.28711091878651
 50
96.3065144961962
 51
174.1513840098484
  0
ARC
  5
1D9
  8
0
 62
     2
 10
412.0053816787744
 20
285.3150020450073
 30
0.0
 40
37.69686651552647
 50
277.4741791204785
 51
32.25389274704369
  0
ARC
  5
1DA
  8
0
 62
     2
 10
411.5910895832601
 20
210.4708529609287
 30
0.0
 40
37.59097148949058
 50
97.67237416877225
 51
174.2480396196064
  0
ENDSEC
  0
EOF
