  0
SECTION
  2
HEADER
  9
$ACADVER
  1
AC1009
  9
$DWGCODEPAGE
  3
ansi_1252
  9
$INSBASE
 10
0.0
 20
0.0
 30
0.0
  9
$EXTMIN
 10
-0.4546327139268276
 20
-23.43518810041621
 30
0.0
  9
$EXTMAX
 10
1828.086565613438
 20
542.6723466222732
 30
0.0
  9
$LIMMIN
 10
0.0
 20
0.0
  9
$LIMMAX
 10
420.0
 20
297.0
  9
$ORTHOMODE
 70
     0
  9
$REGENMODE
 70
     1
  9
$FILLMODE
 70
     1
  9
$QTEXTMODE
 70
     0
  9
$MIRRTEXT
 70
     0
  9
$DRAGMODE
 70
     2
  9
$LTSCALE
 40
1.0
  9
$OSMODE
 70
    37
  9
$ATTMODE
 70
     1
  9
$TEXTSIZE
 40
2.5
  9
$TRACEWID
 40
1.0
  9
$TEXTSTYLE
  7
STANDARD
  9
$CLAYER
  8
0
  9
$CELTYPE
  6
BYLAYER
  9
$CECOLOR
 62
   256
  9
$DIMSCALE
 40
1.0
  9
$DIMASZ
 40
2.5
  9
$DIMEXO
 40
0.625
  9
$DIMDLI
 40
3.75
  9
$DIMRND
 40
0.0
  9
$DIMDLE
 40
0.0
  9
$DIMEXE
 40
1.25
  9
$DIMTP
 40
0.0
  9
$DIMTM
 40
0.0
  9
$DIMTXT
 40
2.5
  9
$DIMCEN
 40
2.5
  9
$DIMTSZ
 40
0.0
  9
$DIMTOL
 70
     0
  9
$DIMLIM
 70
     0
  9
$DIMTIH
 70
     0
  9
$DIMTOH
 70
     0
  9
$DIMSE1
 70
     0
  9
$DIMSE2
 70
     0
  9
$DIMTAD
 70
     1
  9
$DIMZIN
 70
     8
  9
$DIMBLK
  1

  9
$DIMASO
 70
     1
  9
$DIMSHO
 70
     1
  9
$DIMPOST
  1

  9
$DIMAPOST
  1

  9
$DIMALT
 70
     0
  9
$DIMALTD
 70
     3
  9
$DIMALTF
 40
0.03937007874016
  9
$DIMLFAC
 40
1.0
  9
$DIMTOFL
 70
     1
  9
$DIMTVP
 40
0.0
  9
$DIMTIX
 70
     0
  9
$DIMSOXD
 70
     0
  9
$DIMSAH
 70
     0
  9
$DIMBLK1
  1

  9
$DIMBLK2
  1

  9
$DIMSTYLE
  2
ISO-25
  9
$DIMCLRD
 70
     0
  9
$DIMCLRE
 70
     0
  9
$DIMCLRT
 70
     0
  9
$DIMTFAC
 40
1.0
  9
$DIMGAP
 40
0.625
  9
$LUNITS
 70
     2
  9
$LUPREC
 70
     4
  9
$SKETCHINC
 40
1.0
  9
$FILLETRAD
 40
0.0
  9
$AUNITS
 70
     0
  9
$AUPREC
 70
     0
  9
$MENU
  1
.
  9
$ELEVATION
 40
0.0
  9
$PELEVATION
 40
0.0
  9
$THICKNESS
 40
0.0
  9
$LIMCHECK
 70
     0
  9
$CHAMFERA
 40
0.0
  9
$CHAMFERB
 40
0.0
  9
$SKPOLY
 70
     0
  9
$TDCREATE
 40
2453353.550459155
  9
$TDUPDATE
 40
9820503.893588148
  9
$TDINDWG
 40
2440852.080755556
  9
$TDUSRTIMER
 40
2440852.080755556
  9
$USRTIMER
 70
     1
  9
$ANGBASE
 50
0.0
  9
$ANGDIR
 70
     0
  9
$PDMODE
 70
     0
  9
$PDSIZE
 40
0.0
  9
$PLINEWID
 40
0.0
  9
$COORDS
 70
     1
  9
$SPLFRAME
 70
     0
  9
$SPLINETYPE
 70
     6
  9
$SPLINESEGS
 70
     8
  9
$ATTDIA
 70
     0
  9
$ATTREQ
 70
     1
  9
$HANDLING
 70
     1
  9
$HANDSEED
  5
1EE
  9
$SURFTAB1
 70
     6
  9
$SURFTAB2
 70
     6
  9
$SURFTYPE
 70
     6
  9
$SURFU
 70
     6
  9
$SURFV
 70
     6
  9
$UCSNAME
  2

  9
$UCSORG
 10
0.0
 20
0.0
 30
0.0
  9
$UCSXDIR
 10
1.0
 20
0.0
 30
0.0
  9
$UCSYDIR
 10
0.0
 20
1.0
 30
0.0
  9
$PUCSNAME
  2

  9
$PUCSORG
 10
0.0
 20
0.0
 30
0.0
  9
$PUCSXDIR
 10
1.0
 20
0.0
 30
0.0
  9
$PUCSYDIR
 10
0.0
 20
1.0
 30
0.0
  9
$USERI1
 70
     0
  9
$USERI2
 70
     0
  9
$USERI3
 70
     0
  9
$USERI4
 70
     0
  9
$USERI5
 70
     0
  9
$USERR1
 40
0.0
  9
$USERR2
 40
0.0
  9
$USERR3
 40
0.0
  9
$USERR4
 40
0.0
  9
$USERR5
 40
0.0
  9
$WORLDVIEW
 70
     1
  9
$SHADEDGE
 70
     3
  9
$SHADEDIF
 70
    70
  9
$TILEMODE
 70
     1
  9
$MAXACTVP
 70
    64
  9
$PLIMCHECK
 70
     0
  9
$PEXTMIN
 10
0.0
 20
0.0
 30
0.0
  9
$PEXTMAX
 10
0.0
 20
0.0
 30
0.0
  9
$PLIMMIN
 10
0.0
 20
0.0
  9
$PLIMMAX
 10
420.0
 20
297.0
  9
$UNITMODE
 70
     0
  9
$VISRETAIN
 70
     1
  9
$PLINEGEN
 70
     0
  9
$PSLTSCALE
 70
     1
  0
ENDSEC
  0
SECTION
  2
TABLES
  0
TABLE
  2
VPORT
 70
     1
  0
VPORT
  2
*ACTIVE
 70
     0
 10
0.0
 20
0.0
 11
1.0
 21
1.0
 12
75.34646523757778
 22
91.283004346049
 13
0.0
 23
0.0
 14
10.0
 24
10.0
 15
10.0
 25
10.0
 16
0.0
 26
0.0
 36
1.0
 17
0.0
 27
0.0
 37
0.0
 40
221.0707593327023
 41
1.664827586206897
 42
50.0
 43
0.0
 44
0.0
 50
0.0
 51
0.0
 71
    16
 72
  1000
 73
     1
 74
     1
 75
     0
 76
     0
 77
     0
 78
     0
  0
ENDTAB
  0
TABLE
  2
LTYPE
 70
     1
  0
LTYPE
  2
CONTINUOUS
 70
     0
  3
Solid line
 72
    65
 73
     0
 40
0.0
  0
ENDTAB
  0
TABLE
  2
LAYER
 70
     1
  0
LAYER
  2
0
 70
     0
 62
     7
  6
CONTINUOUS
  0
ENDTAB
  0
TABLE
  2
STYLE
 70
     1
  0
STYLE
  2
STANDARD
 70
     0
 40
0.0
 41
1.0
 50
0.0
 71
     0
 42
2.5
  3
txt
  4

  0
ENDTAB
  0
TABLE
  2
VIEW
 70
     0
  0
ENDTAB
  0
TABLE
  2
UCS
 70
     0
  0
ENDTAB
  0
TABLE
  2
APPID
 70
     1
  0
APPID
  2
ACAD
 70
     0
  0
ENDTAB
  0
TABLE
  2
DIMSTYLE
 70
     2
  0
DIMSTYLE
  2
STANDARD
 70
     0
  3

  4

  5

  6

  7

 40
1.0
 41
0.18
 42
0.0625
 43
0.38
 44
0.18
 45
0.0
 46
0.0
 47
0.0
 48
0.0
140
0.18
141
0.09
142
0.0
143
25.4
144
1.0
145
0.0
146
1.0
147
0.09
 71
     0
 72
     0
 73
     1
 74
     1
 75
     0
 76
     0
 77
     0
 78
     0
170
     0
171
     2
172
     0
173
     0
174
     0
175
     0
176
     0
177
     0
178
     0
  0
DIMSTYLE
  2
ISO-25
 70
     0
  3

  4

  5

  6

  7

 40
1.0
 41
2.5
 42
0.625
 43
3.75
 44
1.25
 45
0.0
 46
0.0
 47
0.0
 48
0.0
140
2.5
141
2.5
142
0.0
143
0.03937007874016
144
1.0
145
0.0
146
1.0
147
0.625
 71
     0
 72
     0
 73
     0
 74
     0
 75
     0
 76
     0
 77
     1
 78
     8
170
     0
171
     3
172
     1
173
     0
174
     0
175
     0
176
     0
177
     0
178
     0
  0
ENDTAB
  0
ENDSEC
  0
SECTION
  2
BLOCKS
  0
BLOCK
  8
0
  2
$MODEL_SPACE
 70
     0
 10
0.0
 20
0.0
 30
0.0
  3
$MODEL_SPACE
  1

  0
ENDBLK
  5
21
  8
0
  0
BLOCK
 67
     1
  8
0
  2
$PAPER_SPACE
 70
     0
 10
0.0
 20
0.0
 30
0.0
  3
$PAPER_SPACE
  1

  0
ENDBLK
  5
76
 67
     1
  8
0
  0
ENDSEC
  0
SECTION
  2
ENTITIES
  0
ARC
  5
F0
  8
0
 10
111.8490024462817
 20
37.69742843620507
 30
0.0
 40
26.66418332768529
 50
155.9606894439308
 51
31.38161855749141
  0
LINE
  5
F1
  8
0
 10
88.53800100069479
 20
133.9442095810501
 30
0.0
 11
143.3189533994408
 21
57.77250109415499
 31
0.0
  0
ARC
  5
F2
  8
0
 10
112.5126276133131
 20
37.33876842199985
 30
0.0
 40
38.26178167593534
 50
156.0626933552456
 51
169.4247430976581
  0
ARC
  5
F3
  8
0
 10
111.448021943914
 20
147.5140263969545
 30
0.0
 40
26.64116681727039
 50
330.4232277119824
 51
210.6896307796096
  0
LINE
  5
F5
  8
0
 10
79.53939712839046
 20
128.9606681824961
 30
0.0
 11
134.5455269539519
 21
51.71563908047565
 31
0.0
  0
ARC
  5
F6
  8
0
 10
139.5419989689929
 20
132.2036148868144
 30
0.0
 40
5.377438103110238
 50
156.3096987926018
 51
333.5036350776325
  0
ARC
  5
F7
  8
0
 10
82.44278617562286
 20
50.53345345700936
 30
0.0
 40
5.426501766284956
 50
338.6679129609808
 51
154.5776695238343
  0
ARC
  5
F8
  8
0
 10
36.85916996046289
 20
37.52462271951655
 30
0.0
 40
26.66418332768527
 50
148.5039035806404
 51
23.92483269420101
  0
LINE
  5
F9
  8
0
 10
60.36242731974816
 20
133.7246360388664
 30
0.0
 11
5.472462962305869
 21
57.68202690598005
 31
0.0
  0
ARC
  5
FA
  8
0
 10
36.95095963296653
 20
37.44388111005012
 30
0.0
 40
37.40801001104427
 50
147.4895487807853
 51
354.5733047080952
  0
ARC
  5
FB
  8
0
 10
37.47956479346276
 20
147.3402003179945
 30
0.0
 40
26.64116681727038
 50
329.1958913585224
 51
209.4622944261496
  0
ARC
  5
FC
  8
0
 10
38.35194185785944
 20
147.0370762825897
 30
0.0
 40
36.01867090363525
 50
329.388075709364
 51
352.6542379672241
  0
LINE
  5
FD
  8
0
 10
69.35105604366281
 20
128.7231252485784
 30
0.0
 11
14.19069934085364
 21
51.58815336307535
 31
0.0
  0
ARC
  5
FE
  8
0
 10
9.364001326883951
 20
132.082604887514
 30
0.0
 40
5.370579712900946
 50
207.0336635676902
 51
23.64672731721571
  0
ARC
  5
FF
  8
0
 10
66.2909740966591
 20
50.30186807914245
 30
0.0
 40
5.426501766284825
 50
25.30785261429819
 51
201.2176091771516
  0
ARC
  5
128
  8
0
 10
113.0647812588814
 20
148.3987979289317
 30
0.0
 40
38.76668430021829
 50
188.5622797083283
 51
210.1405258152274
  0
ARC
  5
129
  8
0
 10
37.22620399611428
 20
147.5666742035124
 30
0.0
 40
37.24337453351925
 50
8.976213857870308
 51
208.7700544186455
  0
ARC
  5
12A
  8
0
 10
111.9690245443176
 20
147.8791327968582
 30
0.0
 40
37.08796978757105
 50
330.8338155669833
 51
171.4628219353645
  0
LINE
  5
140
  8
0
 10
74.01346632201721
 20
153.3775499730666
 30
0.0
 11
75.29199893271839
 21
153.3848839036457
 31
0.0
  0
LINE
  5
143
  8
0
 10
74.06124634606913
 20
142.6270445613862
 30
0.0
 11
74.73016668279597
 21
142.6270445613862
 31
0.0
  0
LINE
  5
146
  8
0
 10
73.78058663203596
 20
44.36083285274615
 30
0.0
 11
74.90073390736693
 21
44.36083285274615
 31
0.0
  0
LINE
  5
148
  8
0
 10
74.19130729965745
 20
33.90612494965692
 30
0.0
 11
74.52735148225661
 21
33.90612494965692
 31
0.0
  0
ARC
  5
14E
  8
0
 10
35.8327065324077
 20
37.02543406656665
 30
0.0
 40
38.65035160781913
 50
10.94045142109471
 51
23.79837493073643
  0
ARC
  5
152
  8
0
 10
111.7697225635862
 20
37.63445956920217
 30
0.0
 40
37.42852765999154
 50
185.7168344995326
 51
32.55030621910897
  0
ENDSEC
  0
EOF
