  0
SECTION
  2
HEADER
  9
$ACADVER
  1
AC1009
  9
$DWGCODEPAGE
  3
ansi_1252
  9
$INSBASE
 10
0.0
 20
0.0
 30
0.0
  9
$EXTMIN
 10
2.679653
 20
10.71160658027636
 30
0.0
  9
$EXTMAX
 10
6.821167802020672
 20
34.100702
 30
0.0
  9
$LIMMIN
 10
0.0
 20
0.0
  9
$LIMMAX
 10
12.0
 20
9.0
  9
$ORTHOMODE
 70
     0
  9
$REGENMODE
 70
     1
  9
$FILLMODE
 70
     1
  9
$QTEXTMODE
 70
     0
  9
$MIRRTEXT
 70
     1
  9
$DRAGMODE
 70
     2
  9
$LTSCALE
 40
1.0
  9
$OSMODE
 70
    37
  9
$ATTMODE
 70
     1
  9
$TEXTSIZE
 40
0.2
  9
$TRACEWID
 40
0.05
  9
$TEXTSTYLE
  7
STANDARD
  9
$CLAYER
  8
0
  9
$CELTYPE
  6
BYBLOCK
  9
$CECOLOR
 62
   256
  9
$DIMSCALE
 40
1.0
  9
$DIMASZ
 40
0.18
  9
$DIMEXO
 40
0.0625
  9
$DIMDLI
 40
0.38
  9
$DIMRND
 40
0.0
  9
$DIMDLE
 40
0.0
  9
$DIMEXE
 40
0.18
  9
$DIMTP
 40
0.0
  9
$DIMTM
 40
0.0
  9
$DIMTXT
 40
0.18
  9
$DIMCEN
 40
0.09
  9
$DIMTSZ
 40
0.0
  9
$DIMTOL
 70
     0
  9
$DIMLIM
 70
     0
  9
$DIMTIH
 70
     1
  9
$DIMTOH
 70
     1
  9
$DIMSE1
 70
     0
  9
$DIMSE2
 70
     0
  9
$DIMTAD
 70
     0
  9
$DIMZIN
 70
     0
  9
$DIMBLK
  1

  9
$DIMASO
 70
     1
  9
$DIMSHO
 70
     1
  9
$DIMPOST
  1

  9
$DIMAPOST
  1

  9
$DIMALT
 70
     0
  9
$DIMALTD
 70
     2
  9
$DIMALTF
 40
25.4
  9
$DIMLFAC
 40
1.0
  9
$DIMTOFL
 70
     0
  9
$DIMTVP
 40
0.0
  9
$DIMTIX
 70
     0
  9
$DIMSOXD
 70
     0
  9
$DIMSAH
 70
     0
  9
$DIMBLK1
  1

  9
$DIMBLK2
  1

  9
$DIMSTYLE
  2
STANDARD
  9
$DIMCLRD
 70
     0
  9
$DIMCLRE
 70
     0
  9
$DIMCLRT
 70
     0
  9
$DIMTFAC
 40
1.0
  9
$DIMGAP
 40
0.09
  9
$LUNITS
 70
     2
  9
$LUPREC
 70
     4
  9
$SKETCHINC
 40
0.1
  9
$FILLETRAD
 40
0.5
  9
$AUNITS
 70
     0
  9
$AUPREC
 70
     0
  9
$MENU
  1
.
  9
$ELEVATION
 40
0.0
  9
$PELEVATION
 40
0.0
  9
$THICKNESS
 40
0.0
  9
$LIMCHECK
 70
     0
  9
$CHAMFERA
 40
0.5
  9
$CHAMFERB
 40
0.5
  9
$SKPOLY
 70
     0
  9
$TDCREATE
 40
2453353.508792488
  9
$TDUPDATE
 40
4910353.859588148
  9
$TDINDWG
 40
4895786.051922963
  9
$TDUSRTIMER
 40
4895786.051922963
  9
$USRTIMER
 70
     1
  9
$ANGBASE
 50
0.0
  9
$ANGDIR
 70
     0
  9
$PDMODE
 70
     0
  9
$PDSIZE
 40
0.0
  9
$PLINEWID
 40
0.0
  9
$COORDS
 70
     1
  9
$SPLFRAME
 70
     0
  9
$SPLINETYPE
 70
     6
  9
$SPLINESEGS
 70
     8
  9
$ATTDIA
 70
     0
  9
$ATTREQ
 70
     1
  9
$HANDLING
 70
     1
  9
$HANDSEED
  5
22D
  9
$SURFTAB1
 70
     6
  9
$SURFTAB2
 70
     6
  9
$SURFTYPE
 70
     6
  9
$SURFU
 70
     6
  9
$SURFV
 70
     6
  9
$UCSNAME
  2

  9
$UCSORG
 10
0.0
 20
0.0
 30
0.0
  9
$UCSXDIR
 10
1.0
 20
0.0
 30
0.0
  9
$UCSYDIR
 10
0.0
 20
1.0
 30
0.0
  9
$PUCSNAME
  2

  9
$PUCSORG
 10
0.0
 20
0.0
 30
0.0
  9
$PUCSXDIR
 10
1.0
 20
0.0
 30
0.0
  9
$PUCSYDIR
 10
0.0
 20
1.0
 30
0.0
  9
$USERI1
 70
     0
  9
$USERI2
 70
     0
  9
$USERI3
 70
     0
  9
$USERI4
 70
     0
  9
$USERI5
 70
     0
  9
$USERR1
 40
0.0
  9
$USERR2
 40
0.0
  9
$USERR3
 40
0.0
  9
$USERR4
 40
0.0
  9
$USERR5
 40
0.0
  9
$WORLDVIEW
 70
     1
  9
$SHADEDGE
 70
     3
  9
$SHADEDIF
 70
    70
  9
$TILEMODE
 70
     1
  9
$MAXACTVP
 70
    64
  9
$PLIMCHECK
 70
     0
  9
$PEXTMIN
 10
0.0
 20
0.0
 30
0.0
  9
$PEXTMAX
 10
0.0
 20
0.0
 30
0.0
  9
$PLIMMIN
 10
0.0
 20
0.0
  9
$PLIMMAX
 10
0.0
 20
0.0
  9
$UNITMODE
 70
     0
  9
$VISRETAIN
 70
     1
  9
$PLINEGEN
 70
     0
  9
$PSLTSCALE
 70
     1
  0
ENDSEC
  0
SECTION
  2
TABLES
  0
TABLE
  2
VPORT
 70
     1
  0
VPORT
  2
*ACTIVE
 70
     0
 10
0.0
 20
0.0
 11
1.0
 21
1.0
 12
4.684989110116915
 22
21.4185586005788
 13
0.0
 23
0.0
 14
0.5
 24
0.5
 15
0.5
 25
0.5
 16
0.0
 26
0.0
 36
1.0
 17
0.0
 27
0.0
 37
0.0
 40
29.23182816250546
 41
1.972972972850329
 42
50.0
 43
0.0
 44
0.0
 50
0.0
 51
0.0
 71
    16
 72
   100
 73
     1
 74
     3
 75
     0
 76
     0
 77
     0
 78
     0
  0
ENDTAB
  0
TABLE
  2
LTYPE
 70
     1
  0
LTYPE
  2
CONTINUOUS
 70
     0
  3
Solid line
 72
    65
 73
     0
 40
0.0
  0
ENDTAB
  0
TABLE
  2
LAYER
 70
     2
  0
LAYER
  2
0
 70
     0
 62
     7
  6
CONTINUOUS
  0
LAYER
  2
LAYER_1
 70
     0
 62
     7
  6
CONTINUOUS
  0
ENDTAB
  0
TABLE
  2
STYLE
 70
     1
  0
STYLE
  2
STANDARD
 70
     0
 40
0.0
 41
1.0
 50
0.0
 71
     0
 42
0.2
  3
txt
  4

  0
ENDTAB
  0
TABLE
  2
VIEW
 70
     0
  0
ENDTAB
  0
TABLE
  2
UCS
 70
     0
  0
ENDTAB
  0
TABLE
  2
APPID
 70
     1
  0
APPID
  2
ACAD
 70
     0
  0
ENDTAB
  0
TABLE
  2
DIMSTYLE
 70
     1
  0
DIMSTYLE
  2
STANDARD
 70
     0
  3

  4

  5

  6

  7

 40
1.0
 41
0.18
 42
0.0625
 43
0.38
 44
0.18
 45
0.0
 46
0.0
 47
0.0
 48
0.0
140
0.18
141
0.09
142
0.0
143
25.4
144
1.0
145
0.0
146
1.0
147
0.09
 71
     0
 72
     0
 73
     1
 74
     1
 75
     0
 76
     0
 77
     0
 78
     0
170
     0
171
     2
172
     0
173
     0
174
     0
175
     0
176
     0
177
     0
178
     0
  0
ENDTAB
  0
ENDSEC
  0
SECTION
  2
BLOCKS
  0
BLOCK
  8
0
  2
$MODEL_SPACE
 70
     0
 10
0.0
 20
0.0
 30
0.0
  3
$MODEL_SPACE
  1

  0
ENDBLK
  5
21
  8
0
  0
BLOCK
 67
     1
  8
0
  2
$PAPER_SPACE
 70
     0
 10
0.0
 20
0.0
 30
0.0
  3
$PAPER_SPACE
  1

  0
ENDBLK
  5
76
 67
     1
  8
0
  0
ENDSEC
  0
SECTION
  2
ENTITIES
  0
LINE
  5
105
  8
LAYER_1
 10
4.105314868459939
 20
20.2427830107722
 30
0.0
 11
3.897234
 21
20.448326
 31
0.0
  0
LINE
  5
106
  8
LAYER_1
 10
3.897234
 20
20.448326
 30
0.0
 11
3.769305
 21
23.334511
 31
0.0
  0
LINE
  5
107
  8
LAYER_1
 10
3.769305
 20
23.334511
 30
0.0
 11
3.593659
 21
25.429299
 31
0.0
  0
LINE
  5
108
  8
LAYER_1
 10
3.593659
 20
25.429299
 30
0.0
 11
3.269271
 21
26.438955
 31
0.0
  0
LINE
  5
109
  8
LAYER_1
 10
3.269271
 20
26.438955
 30
0.0
 11
2.883768
 21
27.789227
 31
0.0
  0
LINE
  5
10A
  8
LAYER_1
 10
2.883768
 20
27.789227
 30
0.0
 11
2.679653
 21
30.109733
 31
0.0
  0
LINE
  5
10B
  8
LAYER_1
 10
2.679653
 20
30.109733
 30
0.0
 11
2.697246
 21
32.403085
 31
0.0
  0
LINE
  5
10C
  8
LAYER_1
 10
2.697246
 20
32.403085
 30
0.0
 11
2.801784
 21
33.227895
 31
0.0
  0
LINE
  5
10D
  8
LAYER_1
 10
2.801784
 20
33.227895
 30
0.0
 11
2.97687
 21
33.671896
 31
0.0
  0
LINE
  5
10E
  8
LAYER_1
 10
2.97687
 20
33.671896
 30
0.0
 11
3.701021
 21
33.996732
 31
0.0
  0
LINE
  5
10F
  8
LAYER_1
 10
3.701021
 20
33.996732
 30
0.0
 11
4.764018
 21
34.100702
 31
0.0
  0
LINE
  5
125
  8
LAYER_1
 10
5.485448105334189
 20
20.26411874360303
 30
0.0
 11
5.285474657573577
 21
19.13753009404602
 31
0.0
  0
LINE
  5
126
  8
LAYER_1
 10
5.285474657573577
 20
19.13753009404602
 30
0.0
 11
5.263763657573577
 21
15.87150809404602
 31
0.0
  0
LINE
  5
127
  8
LAYER_1
 10
5.263763657573577
 20
15.87150809404602
 30
0.0
 11
5.261446981490345
 21
12.71014402266922
 31
0.0
  0
LINE
  5
1FE
  8
LAYER_1
 10
5.485448105334189
 20
20.26411874360303
 30
0.0
 11
5.64721707852513
 21
20.45227630040299
 31
0.0
  0
LINE
  5
1FF
  8
LAYER_1
 10
5.64721707852513
 20
20.45227630040299
 30
0.0
 11
5.762114660599016
 21
23.33900944167178
 31
0.0
  0
LINE
  5
200
  8
LAYER_1
 10
5.762114660599016
 20
23.33900944167178
 30
0.0
 11
5.928301636599016
 21
25.43456907367178
 31
0.0
  0
LINE
  5
201
  8
LAYER_1
 10
5.928301636599016
 20
25.43456907367178
 30
0.0
 11
6.248128087595195
 21
26.44567928236478
 31
0.0
  0
LINE
  5
202
  8
LAYER_1
 10
6.248128087595195
 20
26.44567928236478
 30
0.0
 11
6.627531153847424
 21
27.7976779326272
 31
0.0
  0
LINE
  5
203
  8
LAYER_1
 10
6.627531153847424
 20
27.7976779326272
 30
0.0
 11
6.821167802020672
 21
30.11908179187815
 31
0.0
  0
LINE
  5
204
  8
LAYER_1
 10
6.821167802020672
 20
30.11908179187815
 30
0.0
 11
6.793221300435959
 21
32.41233099390617
 31
0.0
  0
LINE
  5
205
  8
LAYER_1
 10
6.793221300435959
 20
32.41233099390617
 30
0.0
 11
6.684960637587551
 21
33.23666063575076
 31
0.0
  0
LINE
  5
206
  8
LAYER_1
 10
6.684960637587551
 20
33.23666063575076
 30
0.0
 11
6.507871912930226
 21
33.67986665894566
 31
0.0
  0
LINE
  5
207
  8
LAYER_1
 10
6.507871912930226
 20
33.67986665894566
 30
0.0
 11
5.78226177206908
 21
34.00143006043356
 31
0.0
  0
LINE
  5
208
  8
LAYER_1
 10
5.78226177206908
 20
34.00143006043356
 30
0.0
 11
4.718806217032138
 21
34.10059994179917
 31
0.0
  0
LINE
  5
213
  8
0
  6
BYBLOCK
 10
5.261446981490345
 20
12.71014402266922
 30
0.0
 11
5.353962748730008
 21
11.67594677690554
 31
0.0
  0
LINE
  5
214
  8
0
  6
BYBLOCK
 10
5.353962748730008
 20
11.67594677690554
 30
0.0
 11
5.24932963431457
 21
10.71160658027636
 31
0.0
  0
LINE
  5
21A
  8
LAYER_1
 10
4.105314868459939
 20
20.2427830107722
 30
0.0
 11
4.308185148480949
 21
19.13753009404602
 31
0.0
  0
LINE
  5
21B
  8
LAYER_1
 10
4.308185148480949
 20
19.13753009404602
 30
0.0
 11
4.329896148480949
 21
15.87150809404602
 31
0.0
  0
LINE
  5
21C
  8
LAYER_1
 10
4.329896148480949
 20
15.87150809404602
 30
0.0
 11
4.332212824564181
 21
12.71014402266922
 31
0.0
  0
LINE
  5
21D
  8
0
  6
BYBLOCK
 10
4.332212824564181
 20
12.71014402266922
 30
0.0
 11
4.239697057324518
 21
11.67594677690554
 31
0.0
  0
LINE
  5
21E
  8
0
  6
BYBLOCK
 10
4.239697057324518
 20
11.67594677690554
 30
0.0
 11
4.351480644627597
 21
10.71160658027636
 31
0.0
  0
LINE
  5
222
  8
0
  6
BYBLOCK
 10
4.351480644627597
 20
10.71160658027636
 30
0.0
 11
5.24932963431457
 21
10.71160658027636
 31
0.0
  0
ENDSEC
  0
EOF
