  0
SECTION
  2
HEADER
  9
$ACADVER
  1
AC1009
  9
$DWGCODEPAGE
  3
ansi_1252
  9
$INSBASE
 10
0.0
 20
0.0
 30
0.0
  9
$EXTMIN
 10
0.1665522600922443
 20
0.074487568253808
 30
0.0
  9
$EXTMAX
 10
91.10682958471617
 20
87.997805
 30
0.0
  9
$LIMMIN
 10
0.0
 20
0.0
  9
$LIMMAX
 10
12.0
 20
9.0
  9
$ORTHOMODE
 70
     0
  9
$REGENMODE
 70
     1
  9
$FILLMODE
 70
     1
  9
$QTEXTMODE
 70
     0
  9
$MIRRTEXT
 70
     1
  9
$DRAGMODE
 70
     2
  9
$LTSCALE
 40
1.0
  9
$OSMODE
 70
    37
  9
$ATTMODE
 70
     1
  9
$TEXTSIZE
 40
0.2
  9
$TRACEWID
 40
0.05
  9
$TEXTSTYLE
  7
STANDARD
  9
$CLAYER
  8
0
  9
$CELTYPE
  6
BYBLOCK
  9
$CECOLOR
 62
   256
  9
$DIMSCALE
 40
1.0
  9
$DIMASZ
 40
0.18
  9
$DIMEXO
 40
0.0625
  9
$DIMDLI
 40
0.38
  9
$DIMRND
 40
0.0
  9
$DIMDLE
 40
0.0
  9
$DIMEXE
 40
0.18
  9
$DIMTP
 40
0.0
  9
$DIMTM
 40
0.0
  9
$DIMTXT
 40
0.18
  9
$DIMCEN
 40
0.09
  9
$DIMTSZ
 40
0.0
  9
$DIMTOL
 70
     0
  9
$DIMLIM
 70
     0
  9
$DIMTIH
 70
     1
  9
$DIMTOH
 70
     1
  9
$DIMSE1
 70
     0
  9
$DIMSE2
 70
     0
  9
$DIMTAD
 70
     0
  9
$DIMZIN
 70
     0
  9
$DIMBLK
  1

  9
$DIMASO
 70
     1
  9
$DIMSHO
 70
     1
  9
$DIMPOST
  1

  9
$DIMAPOST
  1

  9
$DIMALT
 70
     0
  9
$DIMALTD
 70
     2
  9
$DIMALTF
 40
25.4
  9
$DIMLFAC
 40
1.0
  9
$DIMTOFL
 70
     0
  9
$DIMTVP
 40
0.0
  9
$DIMTIX
 70
     0
  9
$DIMSOXD
 70
     0
  9
$DIMSAH
 70
     0
  9
$DIMBLK1
  1

  9
$DIMBLK2
  1

  9
$DIMSTYLE
  2
STANDARD
  9
$DIMCLRD
 70
     0
  9
$DIMCLRE
 70
     0
  9
$DIMCLRT
 70
     0
  9
$DIMTFAC
 40
1.0
  9
$DIMGAP
 40
0.09
  9
$LUNITS
 70
     2
  9
$LUPREC
 70
     4
  9
$SKETCHINC
 40
0.1
  9
$FILLETRAD
 40
0.5
  9
$AUNITS
 70
     0
  9
$AUPREC
 70
     0
  9
$MENU
  1
.
  9
$ELEVATION
 40
0.0
  9
$PELEVATION
 40
0.0
  9
$THICKNESS
 40
0.0
  9
$LIMCHECK
 70
     0
  9
$CHAMFERA
 40
0.5
  9
$CHAMFERB
 40
0.5
  9
$SKPOLY
 70
     0
  9
$TDCREATE
 40
2453353.508792488
  9
$TDUPDATE
 40
4910427.857651852
  9
$TDINDWG
 40
4895786.051922963
  9
$TDUSRTIMER
 40
4895786.051922963
  9
$USRTIMER
 70
     1
  9
$ANGBASE
 50
0.0
  9
$ANGDIR
 70
     0
  9
$PDMODE
 70
     0
  9
$PDSIZE
 40
0.0
  9
$PLINEWID
 40
0.0
  9
$COORDS
 70
     1
  9
$SPLFRAME
 70
     0
  9
$SPLINETYPE
 70
     6
  9
$SPLINESEGS
 70
     8
  9
$ATTDIA
 70
     0
  9
$ATTREQ
 70
     1
  9
$HANDLING
 70
     1
  9
$HANDSEED
  5
2E1
  9
$SURFTAB1
 70
     6
  9
$SURFTAB2
 70
     6
  9
$SURFTYPE
 70
     6
  9
$SURFU
 70
     6
  9
$SURFV
 70
     6
  9
$UCSNAME
  2

  9
$UCSORG
 10
0.0
 20
0.0
 30
0.0
  9
$UCSXDIR
 10
1.0
 20
0.0
 30
0.0
  9
$UCSYDIR
 10
0.0
 20
1.0
 30
0.0
  9
$PUCSNAME
  2

  9
$PUCSORG
 10
0.0
 20
0.0
 30
0.0
  9
$PUCSXDIR
 10
1.0
 20
0.0
 30
0.0
  9
$PUCSYDIR
 10
0.0
 20
1.0
 30
0.0
  9
$USERI1
 70
     0
  9
$USERI2
 70
     0
  9
$USERI3
 70
     0
  9
$USERI4
 70
     0
  9
$USERI5
 70
     0
  9
$USERR1
 40
0.0
  9
$USERR2
 40
0.0
  9
$USERR3
 40
0.0
  9
$USERR4
 40
0.0
  9
$USERR5
 40
0.0
  9
$WORLDVIEW
 70
     1
  9
$SHADEDGE
 70
     3
  9
$SHADEDIF
 70
    70
  9
$TILEMODE
 70
     1
  9
$MAXACTVP
 70
    64
  9
$PLIMCHECK
 70
     0
  9
$PEXTMIN
 10
0.0
 20
0.0
 30
0.0
  9
$PEXTMAX
 10
0.0
 20
0.0
 30
0.0
  9
$PLIMMIN
 10
0.0
 20
0.0
  9
$PLIMMAX
 10
0.0
 20
0.0
  9
$UNITMODE
 70
     0
  9
$VISRETAIN
 70
     1
  9
$PLINEGEN
 70
     0
  9
$PSLTSCALE
 70
     1
  0
ENDSEC
  0
SECTION
  2
TABLES
  0
TABLE
  2
VPORT
 70
     1
  0
VPORT
  2
*ACTIVE
 70
     0
 10
0.0
 20
0.0
 11
1.0
 21
1.0
 12
48.10045045049336
 22
49.74748077187708
 13
0.0
 23
0.0
 14
0.5
 24
0.5
 15
0.5
 25
0.5
 16
0.0
 26
0.0
 36
1.0
 17
0.0
 27
0.0
 37
0.0
 40
115.0369487884233
 41
1.972972972850329
 42
50.0
 43
0.0
 44
0.0
 50
0.0
 51
0.0
 71
    16
 72
   100
 73
     1
 74
     3
 75
     0
 76
     0
 77
     0
 78
     0
  0
ENDTAB
  0
TABLE
  2
LTYPE
 70
     1
  0
LTYPE
  2
CONTINUOUS
 70
     0
  3
Solid line
 72
    65
 73
     0
 40
0.0
  0
ENDTAB
  0
TABLE
  2
LAYER
 70
     2
  0
LAYER
  2
0
 70
     0
 62
     7
  6
CONTINUOUS
  0
LAYER
  2
LAYER_1
 70
     0
 62
     7
  6
CONTINUOUS
  0
ENDTAB
  0
TABLE
  2
STYLE
 70
     1
  0
STYLE
  2
STANDARD
 70
     0
 40
0.0
 41
1.0
 50
0.0
 71
     0
 42
0.2
  3
txt
  4

  0
ENDTAB
  0
TABLE
  2
VIEW
 70
     0
  0
ENDTAB
  0
TABLE
  2
UCS
 70
     0
  0
ENDTAB
  0
TABLE
  2
APPID
 70
     1
  0
APPID
  2
ACAD
 70
     0
  0
ENDTAB
  0
TABLE
  2
DIMSTYLE
 70
     1
  0
DIMSTYLE
  2
STANDARD
 70
     0
  3

  4

  5

  6

  7

 40
1.0
 41
0.18
 42
0.0625
 43
0.38
 44
0.18
 45
0.0
 46
0.0
 47
0.0
 48
0.0
140
0.18
141
0.09
142
0.0
143
25.4
144
1.0
145
0.0
146
1.0
147
0.09
 71
     0
 72
     0
 73
     1
 74
     1
 75
     0
 76
     0
 77
     0
 78
     0
170
     0
171
     2
172
     0
173
     0
174
     0
175
     0
176
     0
177
     0
178
     0
  0
ENDTAB
  0
ENDSEC
  0
SECTION
  2
BLOCKS
  0
BLOCK
  8
0
  2
$MODEL_SPACE
 70
     0
 10
0.0
 20
0.0
 30
0.0
  3
$MODEL_SPACE
  1

  0
ENDBLK
  5
21
  8
0
  0
BLOCK
 67
     1
  8
0
  2
$PAPER_SPACE
 70
     0
 10
0.0
 20
0.0
 30
0.0
  3
$PAPER_SPACE
  1

  0
ENDBLK
  5
76
 67
     1
  8
0
  0
ENDSEC
  0
SECTION
  2
ENTITIES
  0
LINE
  5
222
  8
LAYER_1
 10
86.54477243003362
 20
0.2289298473779908
 30
0.0
 11
80.82065690773251
 21
1.698151049358298
 31
0.0
  0
LINE
  5
223
  8
LAYER_1
 10
80.82065690773251
 20
1.698151049358298
 30
0.0
 11
72.50327795640794
 21
4.326357140163925
 31
0.0
  0
LINE
  5
224
  8
LAYER_1
 10
72.50327795640794
 20
4.326357140163925
 30
0.0
 11
63.12279172564532
 21
7.603013976496047
 31
0.0
  0
LINE
  5
225
  8
LAYER_1
 10
63.12279172564532
 20
7.603013976496047
 30
0.0
 11
54.2093537710528
 21
11.0175852593214
 31
0.0
  0
LINE
  5
226
  8
LAYER_1
 10
54.2093537710528
 20
11.0175852593214
 30
0.0
 11
47.50104938065112
 21
13.68786945573786
 31
0.0
  0
LINE
  5
227
  8
LAYER_1
 10
47.50104938065112
 20
13.68786945573786
 30
0.0
 11
43.55921879267396
 21
15.30335551505521
 31
0.0
  0
LINE
  5
228
  8
LAYER_1
 10
43.55921879267396
 20
15.30335551505521
 30
0.0
 11
41.81711587289015
 21
16.05715829282316
 31
0.0
  0
LINE
  5
229
  8
LAYER_1
 10
41.81711587289015
 20
16.05715829282316
 30
0.0
 11
40.22891053861497
 21
16.68137754247657
 31
0.0
  0
LINE
  5
22A
  8
LAYER_1
 10
40.22891053861497
 20
16.68137754247657
 30
0.0
 11
37.25582068393196
 21
15.43300295485915
 31
0.0
  0
LINE
  5
22B
  8
LAYER_1
 10
37.25582068393196
 20
15.43300295485915
 30
0.0
 11
34.08783848803506
 21
13.96794983586132
 31
0.0
  0
LINE
  5
22C
  8
LAYER_1
 10
34.08783848803506
 20
13.96794983586132
 30
0.0
 11
31.55924264240409
 21
12.42274074711935
 31
0.0
  0
LINE
  5
22D
  8
LAYER_1
 10
31.55924264240409
 20
12.42274074711935
 30
0.0
 11
29.86549525539957
 21
11.39284186559148
 31
0.0
  0
LINE
  5
22E
  8
LAYER_1
 10
29.86549525539957
 20
11.39284186559148
 30
0.0
 11
28.7098053119563
 21
10.44494941506342
 31
0.0
  0
LINE
  5
22F
  8
LAYER_1
 10
28.7098053119563
 20
10.44494941506342
 30
0.0
 11
27.78480573245557
 21
9.264684723531705
 31
0.0
  0
LINE
  5
230
  8
LAYER_1
 10
27.78480573245557
 20
9.264684723531705
 30
0.0
 11
26.78312943727865
 21
7.537669118992856
 31
0.0
  0
LINE
  5
231
  8
LAYER_1
 10
26.78312943727865
 20
7.537669118992856
 30
0.0
 11
25.2880625160975
 21
5.188908951954961
 31
0.0
  0
LINE
  5
232
  8
LAYER_1
 10
25.2880625160975
 20
5.188908951954961
 30
0.0
 11
23.5973907243883
 21
3.335989013307906
 31
0.0
  0
LINE
  5
233
  8
LAYER_1
 10
23.5973907243883
 20
3.335989013307906
 30
0.0
 11
21.64130738629341
 21
1.916262709730855
 31
0.0
  0
LINE
  5
234
  8
LAYER_1
 10
21.64130738629341
 20
1.916262709730855
 30
0.0
 11
19.35000641993253
 21
0.8670856036373742
 31
0.0
  0
LINE
  5
235
  8
LAYER_1
 10
19.35000641993253
 20
0.8670856036373742
 30
0.0
 11
17.60279245429227
 21
0.3938902357134744
 31
0.0
  0
LINE
  5
236
  8
LAYER_1
 10
17.60279245429227
 20
0.3938902357134744
 30
0.0
 11
15.66563307476525
 21
0.1320735322767419
 31
0.0
  0
LINE
  5
237
  8
LAYER_1
 10
15.66563307476525
 20
0.1320735322767419
 30
0.0
 11
13.60318063018075
 21
0.074487568253808
 31
0.0
  0
LINE
  5
238
  8
LAYER_1
 10
13.60318063018075
 20
0.074487568253808
 30
0.0
 11
11.48009021907983
 21
0.2139859803284026
 31
0.0
  0
LINE
  5
239
  8
LAYER_1
 10
11.48009021907983
 20
0.2139859803284026
 30
0.0
 11
9.36101552776741
 21
0.5434223304237627
 31
0.0
  0
LINE
  5
23A
  8
LAYER_1
 10
9.36101552776741
 20
0.5434223304237627
 30
0.0
 11
7.310610986046711
 21
1.055649511725317
 31
0.0
  0
LINE
  5
23B
  8
LAYER_1
 10
7.310610986046711
 20
1.055649511725317
 30
0.0
 11
5.393531098481471
 21
1.74351900518236
 31
0.0
  0
LINE
  5
23C
  8
LAYER_1
 10
5.393531098481471
 20
1.74351900518236
 30
0.0
 11
3.674428807878305
 21
2.599885041455938
 31
0.0
  0
LINE
  5
23D
  8
LAYER_1
 10
3.674428807878305
 20
2.599885041455938
 30
0.0
 11
2.521121299144874
 21
3.416820774548274
 31
0.0
  0
LINE
  5
23E
  8
LAYER_1
 10
2.521121299144874
 20
3.416820774548274
 30
0.0
 11
1.58255283489238
 21
4.36835651927662
 31
0.0
  0
LINE
  5
23F
  8
LAYER_1
 10
1.58255283489238
 20
4.36835651927662
 30
0.0
 11
0.8698512357437971
 21
5.418816882746388
 31
0.0
  0
LINE
  5
240
  8
LAYER_1
 10
0.8698512357437971
 20
5.418816882746388
 30
0.0
 11
0.3941422413481382
 21
6.532525653804175
 31
0.0
  0
LINE
  5
241
  8
LAYER_1
 10
0.3941422413481382
 20
6.532525653804175
 30
0.0
 11
0.1665522600922443
 21
7.673807364794921
 31
0.0
  0
LINE
  5
242
  8
LAYER_1
 10
0.1665522600922443
 20
7.673807364794921
 30
0.0
 11
0.1982098560974053
 21
8.806985954086198
 31
0.0
  0
LINE
  5
243
  8
LAYER_1
 10
0.1982098560974053
 20
8.806985954086198
 30
0.0
 11
0.5002406942521477
 21
9.896386622760748
 31
0.0
  0
LINE
  5
244
  8
LAYER_1
 10
0.5002406942521477
 20
9.896386622760748
 30
0.0
 11
1.0837705142055
 21
10.90633315966515
 31
0.0
  0
LINE
  5
245
  8
LAYER_1
 10
1.0837705142055
 20
10.90633315966515
 30
0.0
 11
1.757165810614429
 21
11.65761005489043
 31
0.0
  0
LINE
  5
246
  8
LAYER_1
 10
1.757165810614429
 20
11.65761005489043
 30
0.0
 11
2.821769626997203
 21
12.21137886320058
 31
0.0
  0
LINE
  5
247
  8
LAYER_1
 10
2.821769626997203
 20
12.21137886320058
 30
0.0
 11
4.971782058985625
 21
12.81828729238839
 31
0.0
  0
LINE
  5
248
  8
LAYER_1
 10
4.971782058985625
 20
12.81828729238839
 30
0.0
 11
8.901405133664438
 21
13.72898669297775
 31
0.0
  0
LINE
  5
249
  8
LAYER_1
 10
8.901405133664438
 20
13.72898669297775
 30
0.0
 11
20.49612916826332
 21
16.24443104581104
 31
0.0
  0
LINE
  5
24A
  8
LAYER_1
 10
20.49612916826332
 20
16.24443104581104
 30
0.0
 11
22.86781801179946
 21
16.5535427018744
 31
0.0
  0
LINE
  5
24B
  8
LAYER_1
 10
22.86781801179946
 20
16.5535427018744
 30
0.0
 11
24.49030649779952
 21
16.50335778850132
 31
0.0
  0
LINE
  5
24C
  8
LAYER_1
 10
24.49030649779952
 20
16.50335778850132
 30
0.0
 11
26.70840642449719
 21
16.50259747822312
 31
0.0
  0
LINE
  5
24D
  8
LAYER_1
 10
26.70840642449719
 20
16.50259747822312
 30
0.0
 11
29.14865624159784
 21
17.05825264570767
 31
0.0
  0
LINE
  5
24E
  8
LAYER_1
 10
29.14865624159784
 20
17.05825264570767
 30
0.0
 11
32.29660950264486
 21
17.83290891304207
 31
0.0
  0
LINE
  5
24F
  8
LAYER_1
 10
32.29660950264486
 20
17.83290891304207
 30
0.0
 11
33.09923668836256
 21
18.01288222385475
 31
0.0
  0
LINE
  5
250
  8
LAYER_1
 10
33.09923668836256
 20
18.01288222385475
 30
0.0
 11
34.06233931264822
 21
18.43803565614839
 31
0.0
  0
LINE
  5
251
  8
LAYER_1
 10
34.06233931264822
 20
18.43803565614839
 30
0.0
 11
34.90673362216418
 21
18.96179958608065
 31
0.0
  0
LINE
  5
252
  8
LAYER_1
 10
34.90673362216418
 20
18.96179958608065
 30
0.0
 11
35.35323578881224
 21
19.43760580204527
 31
0.0
  0
LINE
  5
253
  8
LAYER_1
 10
35.35323578881224
 20
19.43760580204527
 30
0.0
 11
35.21942121290956
 21
19.95357047912695
 31
0.0
  0
LINE
  5
254
  8
LAYER_1
 10
35.21942121290956
 20
19.95357047912695
 30
0.0
 11
34.62824186712653
 21
20.6602916282569
 31
0.0
  0
LINE
  5
255
  8
LAYER_1
 10
34.62824186712653
 20
20.6602916282569
 30
0.0
 11
33.72451433987673
 21
21.4160872488237
 31
0.0
  0
LINE
  5
256
  8
LAYER_1
 10
33.72451433987673
 20
21.4160872488237
 30
0.0
 11
32.65305707626613
 21
22.07928039518309
 31
0.0
  0
LINE
  5
257
  8
LAYER_1
 10
32.65305707626613
 20
22.07928039518309
 30
0.0
 11
28.87267775585878
 21
23.99560295820986
 31
0.0
  0
LINE
  5
258
  8
LAYER_1
 10
28.87267775585878
 20
23.99560295820986
 30
0.0
 11
17.39825021884313
 21
29.95733478749419
 31
0.0
  0
LINE
  5
259
  8
LAYER_1
 10
17.39825021884313
 20
29.95733478749419
 30
0.0
 11
13.64469422163666
 21
32.0417024254219
 31
0.0
  0
LINE
  5
25A
  8
LAYER_1
 10
13.64469422163666
 20
32.0417024254219
 30
0.0
 11
11.85561180328081
 21
33.18182076346011
 31
0.0
  0
LINE
  5
25B
  8
LAYER_1
 10
11.85561180328081
 20
33.18182076346011
 30
0.0
 11
10.96003231529889
 21
34.31001951328348
 31
0.0
  0
LINE
  5
25C
  8
LAYER_1
 10
10.96003231529889
 20
34.31001951328348
 30
0.0
 11
10.42960768314799
 21
35.71169318258764
 31
0.0
  0
LINE
  5
25D
  8
LAYER_1
 10
10.42960768314799
 20
35.71169318258764
 30
0.0
 11
10.28282949192768
 21
37.30506751426492
 31
0.0
  0
LINE
  5
25E
  8
LAYER_1
 10
10.28282949192768
 20
37.30506751426492
 30
0.0
 11
10.53818650226523
 21
39.00836810168674
 31
0.0
  0
LINE
  5
25F
  8
LAYER_1
 10
10.53818650226523
 20
39.00836810168674
 30
0.0
 11
11.19759616725922
 21
40.66509657561676
 31
0.0
  0
LINE
  5
260
  8
LAYER_1
 10
11.19759616725922
 20
40.66509657561676
 30
0.0
 11
12.20550129157789
 21
42.14828586529701
 31
0.0
  0
LINE
  5
261
  8
LAYER_1
 10
12.20550129157789
 20
42.14828586529701
 30
0.0
 11
13.47758132310085
 21
43.35833163088671
 31
0.0
  0
LINE
  5
262
  8
LAYER_1
 10
13.47758132310085
 20
43.35833163088671
 30
0.0
 11
14.92951362873379
 21
44.19562871428626
 31
0.0
  0
LINE
  5
263
  8
LAYER_1
 10
14.92951362873379
 20
44.19562871428626
 30
0.0
 11
16.31555095683301
 21
44.60124420310734
 31
0.0
  0
LINE
  5
264
  8
LAYER_1
 10
16.31555095683301
 20
44.60124420310734
 30
0.0
 11
17.83180500555288
 21
44.75830923570715
 31
0.0
  0
LINE
  5
265
  8
LAYER_1
 10
17.83180500555288
 20
44.75830923570715
 30
0.0
 11
19.43671804641339
 21
44.67730160906696
 31
0.0
  0
LINE
  5
266
  8
LAYER_1
 10
19.43671804641339
 20
44.67730160906696
 30
0.0
 11
21.0887317569572
 21
44.36869696443357
 31
0.0
  0
LINE
  5
267
  8
LAYER_1
 10
21.0887317569572
 20
44.36869696443357
 30
0.0
 11
22.74628989570089
 21
43.84297176131268
 31
0.0
  0
LINE
  5
268
  8
LAYER_1
 10
22.74628989570089
 20
43.84297176131268
 30
0.0
 11
24.36783265319054
 21
43.1106029784267
 31
0.0
  0
LINE
  5
269
  8
LAYER_1
 10
24.36783265319054
 20
43.1106029784267
 30
0.0
 11
25.91180378794272
 21
42.1820670752813
 31
0.0
  0
LINE
  5
26A
  8
LAYER_1
 10
25.91180378794272
 20
42.1820670752813
 30
0.0
 11
27.33664490273962
 21
41.06784110535941
 31
0.0
  0
LINE
  5
26B
  8
LAYER_1
 10
27.33664490273962
 20
41.06784110535941
 30
0.0
 11
28.90263856698752
 21
39.49722802417728
 31
0.0
  0
LINE
  5
26C
  8
LAYER_1
 10
28.90263856698752
 20
39.49722802417728
 30
0.0
 11
29.28686253551111
 21
38.84059829467596
 31
0.0
  0
LINE
  5
26D
  8
LAYER_1
 10
29.28686253551111
 20
38.84059829467596
 30
0.0
 11
29.58706971608306
 21
38.02379766069358
 31
0.0
  0
LINE
  5
26E
  8
LAYER_1
 10
29.58706971608306
 20
38.02379766069358
 30
0.0
 11
29.83889803135397
 21
36.69710720274311
 31
0.0
  0
LINE
  5
26F
  8
LAYER_1
 10
29.83889803135397
 20
36.69710720274311
 30
0.0
 11
29.82081959476893
 21
35.24861532557857
 31
0.0
  0
LINE
  5
270
  8
LAYER_1
 10
29.82081959476893
 20
35.24861532557857
 30
0.0
 11
29.54321810734429
 21
33.78073924422849
 31
0.0
  0
LINE
  5
271
  8
LAYER_1
 10
29.54321810734429
 20
33.78073924422849
 30
0.0
 11
29.01647935107034
 21
32.39589699198027
 31
0.0
  0
LINE
  5
272
  8
LAYER_1
 10
29.01647935107034
 20
32.39589699198027
 30
0.0
 11
28.48724356070717
 21
31.11653024629994
 31
0.0
  0
LINE
  5
273
  8
LAYER_1
 10
28.48724356070717
 20
31.11653024629994
 30
0.0
 11
28.46070648851914
 21
30.62557061606066
 31
0.0
  0
LINE
  5
274
  8
LAYER_1
 10
28.46070648851914
 20
30.62557061606066
 30
0.0
 11
28.63563765607766
 21
30.16460375112282
 31
0.0
  0
LINE
  5
275
  8
LAYER_1
 10
28.63563765607766
 20
30.16460375112282
 30
0.0
 11
29.71814971924651
 21
29.12516931696167
 31
0.0
  0
LINE
  5
276
  8
LAYER_1
 10
29.71814971924651
 20
29.12516931696167
 30
0.0
 11
31.99126716354065
 21
27.58327801083091
 31
0.0
  0
LINE
  5
277
  8
LAYER_1
 10
31.99126716354065
 20
27.58327801083091
 30
0.0
 11
37.91601071961124
 21
24.04962232803368
 31
0.0
  0
LINE
  5
278
  8
LAYER_1
 10
37.91601071961124
 20
24.04962232803368
 30
0.0
 11
40.42627833319124
 21
22.74853952407985
 31
0.0
  0
LINE
  5
279
  8
LAYER_1
 10
40.42627833319124
 20
22.74853952407985
 30
0.0
 11
44.39918255929645
 21
23.40494414099638
 31
0.0
  0
LINE
  5
27A
  8
LAYER_1
 10
44.39918255929645
 20
23.40494414099638
 30
0.0
 11
48.84062935790318
 21
24.07222688043749
 31
0.0
  0
LINE
  5
27B
  8
LAYER_1
 10
48.84062935790318
 20
24.07222688043749
 30
0.0
 11
53.57290962989336
 21
24.63114307887207
 31
0.0
  0
LINE
  5
27C
  8
LAYER_1
 10
53.57290962989336
 20
24.63114307887207
 30
0.0
 11
66.17948896880972
 21
25.65872137599012
 31
0.0
  0
LINE
  5
27D
  8
LAYER_1
 10
66.17948896880972
 20
25.65872137599012
 30
0.0
 11
75.37164515207681
 21
26.19304080851882
 31
0.0
  0
LINE
  5
27E
  8
LAYER_1
 10
75.37164515207681
 20
26.19304080851882
 30
0.0
 11
82.96333686960861
 21
26.45444516729063
 31
0.0
  0
LINE
  5
27F
  8
LAYER_1
 10
82.96333686960861
 20
26.45444516729063
 30
0.0
 11
88.13192292612848
 21
26.42780095744275
 31
0.0
  0
LINE
  5
280
  8
LAYER_1
 10
88.13192292612848
 20
26.42780095744275
 30
0.0
 11
89.55047613944367
 21
26.30173050237061
 31
0.0
  0
LINE
  5
281
  8
LAYER_1
 10
89.55047613944367
 20
26.30173050237061
 30
0.0
 11
90.05476368811685
 21
26.09797193440054
 31
0.0
  0
LINE
  5
282
  8
LAYER_1
 10
90.05476368811685
 20
26.09797193440054
 30
0.0
 11
89.6698477913302
 21
25.83925421757982
 31
0.0
  0
LINE
  5
283
  8
LAYER_1
 10
89.6698477913302
 20
25.83925421757982
 30
0.0
 11
88.72520640178624
 21
25.58004907631629
 31
0.0
  0
LINE
  5
284
  8
LAYER_1
 10
88.72520640178624
 20
25.58004907631629
 30
0.0
 11
71.06159206244334
 21
22.44287421617841
 31
0.0
  0
LINE
  5
285
  8
LAYER_1
 10
71.06159206244334
 20
22.44287421617841
 30
0.0
 11
61.02260246188313
 21
20.70318220969564
 31
0.0
  0
LINE
  5
286
  8
LAYER_1
 10
61.02260246188313
 20
20.70318220969564
 30
0.0
 11
53.96560131612702
 21
19.45884784218913
 31
0.0
  0
LINE
  5
287
  8
LAYER_1
 10
53.96560131612702
 20
19.45884784218913
 30
0.0
 11
50.74531182784041
 21
18.77388911573931
 31
0.0
  0
LINE
  5
288
  8
LAYER_1
 10
50.74531182784041
 20
18.77388911573931
 30
0.0
 11
52.39404633807941
 21
17.80298293431295
 31
0.0
  0
LINE
  5
289
  8
LAYER_1
 10
52.39404633807941
 20
17.80298293431295
 30
0.0
 11
54.51545801324079
 21
16.66610987639927
 31
0.0
  0
LINE
  5
28A
  8
LAYER_1
 10
54.51545801324079
 20
16.66610987639927
 30
0.0
 11
56.63599001644373
 21
15.64752527786453
 31
0.0
  0
LINE
  5
28B
  8
LAYER_1
 10
56.63599001644373
 20
15.64752527786453
 30
0.0
 11
59.19885469734275
 21
14.45476868127269
 31
0.0
  0
LINE
  5
28C
  8
LAYER_1
 10
59.19885469734275
 20
14.45476868127269
 30
0.0
 11
66.19948680990117
 21
11.05443628960086
 31
0.0
  0
LINE
  5
28D
  8
LAYER_1
 10
66.19948680990117
 20
11.05443628960086
 30
0.0
 11
79.66274602445617
 21
4.499664859390865
 31
0.0
  0
LINE
  5
28E
  8
LAYER_1
 10
79.66274602445617
 20
4.499664859390865
 30
0.0
 11
87.50886830263053
 21
0.667770973553079
 31
0.0
  0
LINE
  5
28F
  8
LAYER_1
 10
87.50886830263053
 20
0.667770973553079
 30
0.0
 11
87.84504460835447
 21
0.4156415420485509
 31
0.0
  0
LINE
  5
290
  8
LAYER_1
 10
87.84504460835447
 20
0.4156415420485509
 30
0.0
 11
87.74140147800617
 21
0.233413932824238
 31
0.0
  0
LINE
  5
291
  8
LAYER_1
 10
87.74140147800617
 20
0.233413932824238
 30
0.0
 11
87.28046795900528
 21
0.1586547482951595
 31
0.0
  0
LINE
  5
292
  8
LAYER_1
 10
87.28046795900528
 20
0.1586547482951595
 30
0.0
 11
86.54477243003362
 21
0.2289298473779908
 31
0.0
  0
LINE
  5
293
  8
LAYER_1
 10
86.54477243003362
 20
0.2289298473779908
 30
0.0
 11
86.54477243003362
 21
0.2289298473779908
 31
0.0
  0
LINE
  5
294
  8
LAYER_1
 10
23.47466740431452
 20
7.251135391840396
 30
0.0
 11
23.87746707683295
 21
8.561650308660514
 31
0.0
  0
LINE
  5
295
  8
LAYER_1
 10
23.87746707683295
 20
8.561650308660514
 30
0.0
 11
23.96233675904034
 21
10.02298306045322
 31
0.0
  0
LINE
  5
296
  8
LAYER_1
 10
23.96233675904034
 20
10.02298306045322
 30
0.0
 11
23.7432294654882
 21
11.34570338910106
 31
0.0
  0
LINE
  5
297
  8
LAYER_1
 10
23.7432294654882
 20
11.34570338910106
 30
0.0
 11
23.23410103520028
 21
12.24038118600761
 31
0.0
  0
LINE
  5
298
  8
LAYER_1
 10
23.23410103520028
 20
12.24038118600761
 30
0.0
 11
22.34444598868462
 21
12.65774053061394
 31
0.0
  0
LINE
  5
299
  8
LAYER_1
 10
22.34444598868462
 20
12.65774053061394
 30
0.0
 11
20.9918024467876
 21
12.72685552433648
 31
0.0
  0
LINE
  5
29A
  8
LAYER_1
 10
20.9918024467876
 20
12.72685552433648
 30
0.0
 11
19.17772765328329
 21
12.44783055504823
 31
0.0
  0
LINE
  5
29B
  8
LAYER_1
 10
19.17772765328329
 20
12.44783055504823
 30
0.0
 11
16.90377617699456
 21
11.82076703662902
 31
0.0
  0
LINE
  5
29C
  8
LAYER_1
 10
16.90377617699456
 20
11.82076703662902
 30
0.0
 11
14.05483574769256
 21
11.21509408963076
 31
0.0
  0
LINE
  5
29D
  8
LAYER_1
 10
14.05483574769256
 20
11.21509408963076
 30
0.0
 11
10.12049539738561
 21
10.7958963032154
 31
0.0
  0
LINE
  5
29E
  8
LAYER_1
 10
10.12049539738561
 20
10.7958963032154
 30
0.0
 11
7.329478164776578
 21
10.55161431546468
 31
0.0
  0
LINE
  5
29F
  8
LAYER_1
 10
7.329478164776578
 20
10.55161431546468
 30
0.0
 11
5.570631001303664
 21
10.22711808705472
 31
0.0
  0
LINE
  5
2A0
  8
LAYER_1
 10
5.570631001303664
 20
10.22711808705472
 30
0.0
 11
4.543651076399791
 21
9.734306352123983
 31
0.0
  0
LINE
  5
2A1
  8
LAYER_1
 10
4.543651076399791
 20
9.734306352123983
 30
0.0
 11
3.948235634258362
 21
8.985076432574903
 31
0.0
  0
LINE
  5
2A2
  8
LAYER_1
 10
3.948235634258362
 20
8.985076432574903
 30
0.0
 11
3.795817087169442
 21
8.489480210723581
 31
0.0
  0
LINE
  5
2A3
  8
LAYER_1
 10
3.795817087169442
 20
8.489480210723581
 30
0.0
 11
3.804511084609918
 21
7.917788254134639
 31
0.0
  0
LINE
  5
2A4
  8
LAYER_1
 10
3.804511084609918
 20
7.917788254134639
 30
0.0
 11
4.250162125606346
 21
6.648087050893576
 31
0.0
  0
LINE
  5
2A5
  8
LAYER_1
 10
4.250162125606346
 20
6.648087050893576
 30
0.0
 11
5.175050506388639
 21
5.379920310415844
 31
0.0
  0
LINE
  5
2A6
  8
LAYER_1
 10
5.175050506388639
 20
5.379920310415844
 30
0.0
 11
6.469035745602849
 21
4.317237526478994
 31
0.0
  0
LINE
  5
2A7
  8
LAYER_1
 10
6.469035745602849
 20
4.317237526478994
 30
0.0
 11
7.964177407622792
 21
3.571655790779136
 31
0.0
  0
LINE
  5
2A8
  8
LAYER_1
 10
7.964177407622792
 20
3.571655790779136
 30
0.0
 11
9.645695159148678
 21
3.047487149358897
 31
0.0
  0
LINE
  5
2A9
  8
LAYER_1
 10
9.645695159148678
 20
3.047487149358897
 30
0.0
 11
11.46137347073982
 21
2.744018081909641
 31
0.0
  0
LINE
  5
2AA
  8
LAYER_1
 10
11.46137347073982
 20
2.744018081909641
 30
0.0
 11
13.35899688771607
 21
2.660533655886614
 31
0.0
  0
LINE
  5
2AB
  8
LAYER_1
 10
13.35899688771607
 20
2.660533655886614
 30
0.0
 11
15.28634913713844
 21
2.796321019718985
 31
0.0
  0
LINE
  5
2AC
  8
LAYER_1
 10
15.28634913713844
 20
2.796321019718985
 30
0.0
 11
17.19121260859232
 21
3.150665834839298
 31
0.0
  0
LINE
  5
2AD
  8
LAYER_1
 10
17.19121260859232
 20
3.150665834839298
 30
0.0
 11
19.02137392837149
 21
3.722853986961628
 31
0.0
  0
LINE
  5
2AE
  8
LAYER_1
 10
19.02137392837149
 20
3.722853986961628
 30
0.0
 11
20.72461615479916
 21
4.512171881016823
 31
0.0
  0
LINE
  5
2AF
  8
LAYER_1
 10
20.72461615479916
 20
4.512171881016823
 30
0.0
 11
21.70478618315769
 21
5.108161453056166
 31
0.0
  0
LINE
  5
2B0
  8
LAYER_1
 10
21.70478618315769
 20
5.108161453056166
 30
0.0
 11
22.42233901628599
 21
5.696078442212414
 31
0.0
  0
LINE
  5
2B1
  8
LAYER_1
 10
22.42233901628599
 20
5.696078442212414
 30
0.0
 11
22.9785428966808
 21
6.376782656727617
 31
0.0
  0
LINE
  5
2B2
  8
LAYER_1
 10
22.9785428966808
 20
6.376782656727617
 30
0.0
 11
23.47466740431452
 21
7.251135391840396
 31
0.0
  0
LINE
  5
2B3
  8
LAYER_1
 10
23.47466740431452
 20
7.251135391840396
 30
0.0
 11
23.47466740431452
 21
7.251135391840396
 31
0.0
  0
LINE
  5
2B4
  8
LAYER_1
 10
26.59114327503359
 20
35.70225814702043
 30
0.0
 11
26.43230026669978
 21
36.90541800765263
 31
0.0
  0
LINE
  5
2B5
  8
LAYER_1
 10
26.43230026669978
 20
36.90541800765263
 30
0.0
 11
25.99868512232369
 21
38.03110562350157
 31
0.0
  0
LINE
  5
2B6
  8
LAYER_1
 10
25.99868512232369
 20
38.03110562350157
 30
0.0
 11
25.31030928640177
 21
39.04122755289862
 31
0.0
  0
LINE
  5
2B7
  8
LAYER_1
 10
25.31030928640177
 20
39.04122755289862
 30
0.0
 11
24.38718345993222
 21
39.89769102291291
 31
0.0
  0
LINE
  5
2B8
  8
LAYER_1
 10
24.38718345993222
 20
39.89769102291291
 30
0.0
 11
23.06181364031049
 21
40.7288804173164
 31
0.0
  0
LINE
  5
2B9
  8
LAYER_1
 10
23.06181364031049
 20
40.7288804173164
 30
0.0
 11
21.67437015138519
 21
41.32527574775065
 31
0.0
  0
LINE
  5
2BA
  8
LAYER_1
 10
21.67437015138519
 20
41.32527574775065
 30
0.0
 11
20.27215914696372
 21
41.6865899742355
 31
0.0
  0
LINE
  5
2BB
  8
LAYER_1
 10
20.27215914696372
 20
41.6865899742355
 30
0.0
 11
18.90248767387281
 21
41.81253256358073
 31
0.0
  0
LINE
  5
2BC
  8
LAYER_1
 10
18.90248767387281
 20
41.81253256358073
 30
0.0
 11
17.61266121718205
 21
41.70281573230783
 31
0.0
  0
LINE
  5
2BD
  8
LAYER_1
 10
17.61266121718205
 20
41.70281573230783
 30
0.0
 11
16.44998808643329
 21
41.35715184645937
 31
0.0
  0
LINE
  5
2BE
  8
LAYER_1
 10
16.44998808643329
 20
41.35715184645937
 30
0.0
 11
15.4617739162171
 21
40.7752502980846
 31
0.0
  0
LINE
  5
2BF
  8
LAYER_1
 10
15.4617739162171
 20
40.7752502980846
 30
0.0
 11
14.69532419160309
 21
39.95682330370508
 31
0.0
  0
LINE
  5
2C0
  8
LAYER_1
 10
14.69532419160309
 20
39.95682330370508
 30
0.0
 11
14.25392336143159
 21
38.96784113248614
 31
0.0
  0
LINE
  5
2C1
  8
LAYER_1
 10
14.25392336143159
 20
38.96784113248614
 30
0.0
 11
14.2029904288513
 21
37.91821370312049
 31
0.0
  0
LINE
  5
2C2
  8
LAYER_1
 10
14.2029904288513
 20
37.91821370312049
 30
0.0
 11
14.51374039833741
 21
36.84531650717189
 31
0.0
  0
LINE
  5
2C3
  8
LAYER_1
 10
14.51374039833741
 20
36.84531650717189
 30
0.0
 11
15.15738418717774
 21
35.78652198745039
 31
0.0
  0
LINE
  5
2C4
  8
LAYER_1
 10
15.15738418717774
 20
35.78652198745039
 30
0.0
 11
16.10513679984746
 21
34.7792056355198
 31
0.0
  0
LINE
  5
2C5
  8
LAYER_1
 10
16.10513679984746
 20
34.7792056355198
 30
0.0
 11
17.32821130936879
 21
33.86073930021287
 31
0.0
  0
LINE
  5
2C6
  8
LAYER_1
 10
17.32821130936879
 20
33.86073930021287
 30
0.0
 11
18.79781997050519
 21
33.06849691133628
 31
0.0
  0
LINE
  5
2C7
  8
LAYER_1
 10
18.79781997050519
 20
33.06849691133628
 30
0.0
 11
20.48517711899399
 21
32.4398532169555
 31
0.0
  0
LINE
  5
2C8
  8
LAYER_1
 10
20.48517711899399
 20
32.4398532169555
 30
0.0
 11
22.11494357793943
 21
32.1059594474397
 31
0.0
  0
LINE
  5
2C9
  8
LAYER_1
 10
22.11494357793943
 20
32.1059594474397
 30
0.0
 11
23.52653578851319
 21
32.14515780834273
 31
0.0
  0
LINE
  5
2CA
  8
LAYER_1
 10
23.52653578851319
 20
32.14515780834273
 30
0.0
 11
24.72215133227035
 21
32.55782946276457
 31
0.0
  0
LINE
  5
2CB
  8
LAYER_1
 10
24.72215133227035
 20
32.55782946276457
 30
0.0
 11
25.70399195271385
 21
33.34435721032286
 31
0.0
  0
LINE
  5
2CC
  8
LAYER_1
 10
25.70399195271385
 20
33.34435721032286
 30
0.0
 11
26.43651548411823
 21
34.41364923710687
 31
0.0
  0
LINE
  5
2CD
  8
LAYER_1
 10
26.43651548411823
 20
34.41364923710687
 30
0.0
 11
26.59114327503359
 21
35.70225814702043
 31
0.0
  0
LINE
  5
2CE
  8
LAYER_1
 10
26.59114327503359
 20
35.70225814702043
 30
0.0
 11
26.59114327503359
 21
35.70225814702043
 31
0.0
  0
CIRCLE
  5
2D7
  8
0
  6
BYBLOCK
 10
43.61171351205443
 20
19.43251946588749
 30
0.0
 40
1.51462429759912
  0
LINE
  5
2D8
  8
0
  6
BYBLOCK
 10
43.28733576257184
 20
17.95241548929302
 30
0.0
 11
43.93090911132677
 21
20.91691181628363
 31
0.0
  0
ENDSEC
  0
EOF
