  0
SECTION
  2
HEADER
  9
$ACADVER
  1
AC1009
  9
$DWGCODEPAGE
  3
ansi_1252
  9
$INSBASE
 10
0.0
 20
0.0
 30
0.0
  9
$EXTMIN
 10
0.09584739489396
 20
0.1990927066893811
 30
0.0
  9
$EXTMAX
 10
88.54074232895138
 20
75.12659100000001
 30
0.0
  9
$LIMMIN
 10
0.0
 20
0.0
  9
$LIMMAX
 10
12.0
 20
9.0
  9
$ORTHOMODE
 70
     0
  9
$REGENMODE
 70
     1
  9
$FILLMODE
 70
     1
  9
$QTEXTMODE
 70
     0
  9
$MIRRTEXT
 70
     1
  9
$DRAGMODE
 70
     2
  9
$LTSCALE
 40
1.0
  9
$OSMODE
 70
    37
  9
$ATTMODE
 70
     1
  9
$TEXTSIZE
 40
0.2
  9
$TRACEWID
 40
0.05
  9
$TEXTSTYLE
  7
STANDARD
  9
$CLAYER
  8
0
  9
$CELTYPE
  6
BYBLOCK
  9
$CECOLOR
 62
   256
  9
$DIMSCALE
 40
1.0
  9
$DIMASZ
 40
0.18
  9
$DIMEXO
 40
0.0625
  9
$DIMDLI
 40
0.38
  9
$DIMRND
 40
0.0
  9
$DIMDLE
 40
0.0
  9
$DIMEXE
 40
0.18
  9
$DIMTP
 40
0.0
  9
$DIMTM
 40
0.0
  9
$DIMTXT
 40
0.18
  9
$DIMCEN
 40
0.09
  9
$DIMTSZ
 40
0.0
  9
$DIMTOL
 70
     0
  9
$DIMLIM
 70
     0
  9
$DIMTIH
 70
     1
  9
$DIMTOH
 70
     1
  9
$DIMSE1
 70
     0
  9
$DIMSE2
 70
     0
  9
$DIMTAD
 70
     0
  9
$DIMZIN
 70
     0
  9
$DIMBLK
  1

  9
$DIMASO
 70
     1
  9
$DIMSHO
 70
     1
  9
$DIMPOST
  1

  9
$DIMAPOST
  1

  9
$DIMALT
 70
     0
  9
$DIMALTD
 70
     2
  9
$DIMALTF
 40
25.4
  9
$DIMLFAC
 40
1.0
  9
$DIMTOFL
 70
     0
  9
$DIMTVP
 40
0.0
  9
$DIMTIX
 70
     0
  9
$DIMSOXD
 70
     0
  9
$DIMSAH
 70
     0
  9
$DIMBLK1
  1

  9
$DIMBLK2
  1

  9
$DIMSTYLE
  2
STANDARD
  9
$DIMCLRD
 70
     0
  9
$DIMCLRE
 70
     0
  9
$DIMCLRT
 70
     0
  9
$DIMTFAC
 40
1.0
  9
$DIMGAP
 40
0.09
  9
$LUNITS
 70
     2
  9
$LUPREC
 70
     4
  9
$SKETCHINC
 40
0.1
  9
$FILLETRAD
 40
0.5
  9
$AUNITS
 70
     0
  9
$AUPREC
 70
     0
  9
$MENU
  1
.
  9
$ELEVATION
 40
0.0
  9
$PELEVATION
 40
0.0
  9
$THICKNESS
 40
0.0
  9
$LIMCHECK
 70
     0
  9
$CHAMFERA
 40
0.5
  9
$CHAMFERB
 40
0.5
  9
$SKPOLY
 70
     0
  9
$TDCREATE
 40
2453353.508792488
  9
$TDUPDATE
 40
4910427.857651852
  9
$TDINDWG
 40
4895786.051922963
  9
$TDUSRTIMER
 40
4895786.051922963
  9
$USRTIMER
 70
     1
  9
$ANGBASE
 50
0.0
  9
$ANGDIR
 70
     0
  9
$PDMODE
 70
     0
  9
$PDSIZE
 40
0.0
  9
$PLINEWID
 40
0.0
  9
$COORDS
 70
     1
  9
$SPLFRAME
 70
     0
  9
$SPLINETYPE
 70
     6
  9
$SPLINESEGS
 70
     8
  9
$ATTDIA
 70
     0
  9
$ATTREQ
 70
     1
  9
$HANDLING
 70
     1
  9
$HANDSEED
  5
4C2
  9
$SURFTAB1
 70
     6
  9
$SURFTAB2
 70
     6
  9
$SURFTYPE
 70
     6
  9
$SURFU
 70
     6
  9
$SURFV
 70
     6
  9
$UCSNAME
  2

  9
$UCSORG
 10
0.0
 20
0.0
 30
0.0
  9
$UCSXDIR
 10
1.0
 20
0.0
 30
0.0
  9
$UCSYDIR
 10
0.0
 20
1.0
 30
0.0
  9
$PUCSNAME
  2

  9
$PUCSORG
 10
0.0
 20
0.0
 30
0.0
  9
$PUCSXDIR
 10
1.0
 20
0.0
 30
0.0
  9
$PUCSYDIR
 10
0.0
 20
1.0
 30
0.0
  9
$USERI1
 70
     0
  9
$USERI2
 70
     0
  9
$USERI3
 70
     0
  9
$USERI4
 70
     0
  9
$USERI5
 70
     0
  9
$USERR1
 40
0.0
  9
$USERR2
 40
0.0
  9
$USERR3
 40
0.0
  9
$USERR4
 40
0.0
  9
$USERR5
 40
0.0
  9
$WORLDVIEW
 70
     1
  9
$SHADEDGE
 70
     3
  9
$SHADEDIF
 70
    70
  9
$TILEMODE
 70
     1
  9
$MAXACTVP
 70
    64
  9
$PLIMCHECK
 70
     0
  9
$PEXTMIN
 10
0.0
 20
0.0
 30
0.0
  9
$PEXTMAX
 10
0.0
 20
0.0
 30
0.0
  9
$PLIMMIN
 10
0.0
 20
0.0
  9
$PLIMMAX
 10
0.0
 20
0.0
  9
$UNITMODE
 70
     0
  9
$VISRETAIN
 70
     1
  9
$PLINEGEN
 70
     0
  9
$PSLTSCALE
 70
     1
  0
ENDSEC
  0
SECTION
  2
TABLES
  0
TABLE
  2
VPORT
 70
     1
  0
VPORT
  2
*ACTIVE
 70
     0
 10
0.0
 20
0.0
 11
1.0
 21
1.0
 12
37.64898842454906
 22
44.18494210395879
 13
0.0
 23
0.0
 14
0.5
 24
0.5
 15
0.5
 25
0.5
 16
0.0
 26
0.0
 36
1.0
 17
0.0
 27
0.0
 37
0.0
 40
102.9039416007154
 41
1.972972972850329
 42
50.0
 43
0.0
 44
0.0
 50
0.0
 51
0.0
 71
    16
 72
   100
 73
     1
 74
     3
 75
     0
 76
     0
 77
     0
 78
     0
  0
ENDTAB
  0
TABLE
  2
LTYPE
 70
     1
  0
LTYPE
  2
CONTINUOUS
 70
     0
  3
Solid line
 72
    65
 73
     0
 40
0.0
  0
ENDTAB
  0
TABLE
  2
LAYER
 70
     2
  0
LAYER
  2
0
 70
     0
 62
     7
  6
CONTINUOUS
  0
LAYER
  2
LAYER_1
 70
     0
 62
     7
  6
CONTINUOUS
  0
ENDTAB
  0
TABLE
  2
STYLE
 70
     1
  0
STYLE
  2
STANDARD
 70
     0
 40
0.0
 41
1.0
 50
0.0
 71
     0
 42
0.2
  3
txt
  4

  0
ENDTAB
  0
TABLE
  2
VIEW
 70
     0
  0
ENDTAB
  0
TABLE
  2
UCS
 70
     0
  0
ENDTAB
  0
TABLE
  2
APPID
 70
     1
  0
APPID
  2
ACAD
 70
     0
  0
ENDTAB
  0
TABLE
  2
DIMSTYLE
 70
     1
  0
DIMSTYLE
  2
STANDARD
 70
     0
  3

  4

  5

  6

  7

 40
1.0
 41
0.18
 42
0.0625
 43
0.38
 44
0.18
 45
0.0
 46
0.0
 47
0.0
 48
0.0
140
0.18
141
0.09
142
0.0
143
25.4
144
1.0
145
0.0
146
1.0
147
0.09
 71
     0
 72
     0
 73
     1
 74
     1
 75
     0
 76
     0
 77
     0
 78
     0
170
     0
171
     2
172
     0
173
     0
174
     0
175
     0
176
     0
177
     0
178
     0
  0
ENDTAB
  0
ENDSEC
  0
SECTION
  2
BLOCKS
  0
BLOCK
  8
0
  2
$MODEL_SPACE
 70
     0
 10
0.0
 20
0.0
 30
0.0
  3
$MODEL_SPACE
  1

  0
ENDBLK
  5
21
  8
0
  0
BLOCK
 67
     1
  8
0
  2
$PAPER_SPACE
 70
     0
 10
0.0
 20
0.0
 30
0.0
  3
$PAPER_SPACE
  1

  0
ENDBLK
  5
76
 67
     1
  8
0
  0
ENDSEC
  0
SECTION
  2
ENTITIES
  0
LINE
  5
233
  8
LAYER_1
 10
87.46592873274754
 20
39.22042481022969
 30
0.0
 11
87.61844584274859
 21
38.47148501820236
 31
0.0
  0
LINE
  5
234
  8
LAYER_1
 10
87.61844584274859
 20
38.47148501820236
 30
0.0
 11
87.31383352625964
 21
37.978487179217
 31
0.0
  0
LINE
  5
235
  8
LAYER_1
 10
87.31383352625964
 20
37.978487179217
 30
0.0
 11
86.48851899245503
 21
37.69790686900819
 31
0.0
  0
LINE
  5
236
  8
LAYER_1
 10
86.48851899245503
 20
37.69790686900819
 30
0.0
 11
85.07892735720039
 21
37.58621729306611
 31
0.0
  0
LINE
  5
237
  8
LAYER_1
 10
85.07892735720039
 20
37.58621729306611
 30
0.0
 11
83.82674794876488
 21
37.48411897240349
 31
0.0
  0
LINE
  5
238
  8
LAYER_1
 10
83.82674794876488
 20
37.48411897240349
 30
0.0
 11
82.75836685786737
 21
37.24627236965154
 31
0.0
  0
LINE
  5
239
  8
LAYER_1
 10
82.75836685786737
 20
37.24627236965154
 30
0.0
 11
81.89096333124307
 21
36.87805605819082
 31
0.0
  0
LINE
  5
23A
  8
LAYER_1
 10
81.89096333124307
 20
36.87805605819082
 30
0.0
 11
81.24171753603142
 21
36.38484822043378
 31
0.0
  0
LINE
  5
23B
  8
LAYER_1
 10
81.24171753603142
 20
36.38484822043378
 30
0.0
 11
81.11127667236103
 21
36.13610075323888
 31
0.0
  0
LINE
  5
29F
  8
LAYER_1
 10
78.49237162429749
 20
36.87268540953737
 30
0.0
 11
80.33497240684757
 21
38.50072889881486
 31
0.0
  0
LINE
  5
2A0
  8
LAYER_1
 10
80.33497240684757
 20
38.50072889881486
 30
0.0
 11
81.71934868109602
 21
39.41446761753208
 31
0.0
  0
LINE
  5
2A1
  8
LAYER_1
 10
81.71934868109602
 20
39.41446761753208
 30
0.0
 11
83.33120287892577
 21
39.93323462391899
 31
0.0
  0
LINE
  5
2A2
  8
LAYER_1
 10
83.33120287892577
 20
39.93323462391899
 30
0.0
 11
85.17200482069006
 21
40.05773542001609
 31
0.0
  0
LINE
  5
2A3
  8
LAYER_1
 10
85.17200482069006
 20
40.05773542001609
 30
0.0
 11
86.92703338237661
 21
39.88935256967653
 31
0.0
  0
LINE
  5
2A4
  8
LAYER_1
 10
86.92703338237661
 20
39.88935256967653
 30
0.0
 11
87.25167804387654
 21
39.65279701708774
 31
0.0
  0
LINE
  5
2A5
  8
LAYER_1
 10
87.25167804387654
 20
39.65279701708774
 30
0.0
 11
87.46592873274754
 21
39.22042481022969
 31
0.0
  0
LINE
  5
2A6
  8
LAYER_1
 10
87.46592873274754
 20
39.22042481022969
 30
0.0
 11
87.46592873274754
 21
39.22042481022969
 31
0.0
  0
LINE
  5
49C
  8
0
  6
BYBLOCK
 10
5.07144443010744
 20
0.2117742127846825
 30
0.0
 11
52.28340707695288
 21
12.61591354228818
 31
0.0
  0
LINE
  5
49D
  8
0
  6
BYBLOCK
 10
4.867048390689162
 20
0.1990927066893811
 30
0.0
 11
41.67101699207379
 21
13.52138784526952
 31
0.0
  0
LINE
  5
49E
  8
0
  6
BYBLOCK
 10
41.67101699207379
 20
13.52138784526952
 30
0.0
 11
0.1525120070267865
 21
15.33633515879017
 31
0.0
  0
LINE
  5
49F
  8
0
  6
BYBLOCK
 10
0.09584739489396
 20
15.35901078666017
 30
0.0
 11
49.10495853428227
 21
17.29536784136756
 31
0.0
  0
LINE
  5
4A1
  8
0
  6
BYBLOCK
 10
52.28340707695288
 20
12.61591354228818
 30
0.0
 11
78.30056813766962
 21
14.24701945865821
 31
0.0
  0
LINE
  5
4A2
  8
0
  6
BYBLOCK
 10
49.10495853428227
 20
17.29536784136756
 30
0.0
 11
77.09393881784115
 21
23.45556325413827
 31
0.0
  0
LINE
  5
4A5
  8
0
  6
BYBLOCK
 10
80.93531601755021
 20
14.82090287323302
 30
0.0
 11
62.09373627100406
 21
16.65718219436235
 31
0.0
  0
LINE
  5
4A6
  8
0
  6
BYBLOCK
 10
62.09373627100406
 20
16.65718219436235
 30
0.0
 11
79.83289942882342
 21
23.62549876649849
 31
0.0
  0
CIRCLE
  5
4A9
  8
0
  6
BYBLOCK
 10
81.02585990846018
 20
7.983796007315743
 30
0.0
 40
5.547722447114623
  0
ARC
  5
4AA
  8
0
  6
BYBLOCK
 10
81.02584242201453
 20
8.070170170606172
 30
0.0
 40
6.751339648708306
 50
113.8074476313721
 51
90.76828253598268
  0
CIRCLE
  5
4AE
  8
0
  6
BYBLOCK
 10
78.00268487324335
 20
30.16074602392353
 30
0.0
 40
5.547722447114609
  0
ARC
  5
4AF
  8
0
  6
BYBLOCK
 10
78.00190688754375
 20
30.16140763146514
 30
0.0
 40
6.735364753159632
 50
285.311137824989
 51
62.50647853844714
  0
ARC
  5
4B4
  8
0
  6
BYBLOCK
 10
77.99998530152945
 20
30.15865224590361
 30
0.0
 40
6.732063993547818
 50
85.80561442472087
 51
261.8145504760001
  0
CIRCLE
  5
4B7
  8
0
  6
BYBLOCK
 10
50.35799313482897
 20
14.84110635022111
 30
0.0
 40
1.690303225050712
  0
LINE
  5
4B8
  8
0
  6
BYBLOCK
 10
52.0313840116389
 20
14.81501750054819
 30
0.0
 11
48.77956427444856
 21
14.26326852122709
 31
0.0
  0
LINE
  5
4B9
  8
0
  6
BYBLOCK
 10
51.94690739020536
 20
15.39309915056719
 30
0.0
 11
48.69234834834511
 21
14.80715304520553
 31
0.0
  0
ENDSEC
  0
EOF
