  0
SECTION
  2
HEADER
  9
$ACADVER
  1
AC1009
  9
$INSBASE
 10
0.0
 20
0.0
 30
0.0
  9
$EXTMIN
 10
0.0
 20
0.0
 30
0.0
  9
$EXTMAX
 10
96.0
 20
48.0
 30
0.0
  9
$LIMMIN
 10
0.0
 20
0.0
  9
$LIMMAX
 10
12.0
 20
9.0
  9
$ORTHOMODE
 70
     0
  9
$REGENMODE
 70
     1
  9
$FILLMODE
 70
     1
  9
$QTEXTMODE
 70
     0
  9
$MIRRTEXT
 70
     1
  9
$DRAGMODE
 70
     2
  9
$LTSCALE
 40
1.0
  9
$OSMODE
 70
    37
  9
$ATTMODE
 70
     1
  9
$TEXTSIZE
 40
0.1
  9
$TRACEWID
 40
0.05
  9
$TEXTSTYLE
  7
STANDARD
  9
$CLAYER
  8
0
  9
$CELTYPE
  6
BYLAYER
  9
$CECOLOR
 62
   256
  9
$DIMSCALE
 40
1.0
  9
$DIMASZ
 40
0.18
  9
$DIMEXO
 40
0.0625
  9
$DIMDLI
 40
0.38
  9
$DIMRND
 40
0.0
  9
$DIMDLE
 40
0.0
  9
$DIMEXE
 40
0.18
  9
$DIMTP
 40
0.0
  9
$DIMTM
 40
0.0
  9
$DIMTXT
 40
0.18
  9
$DIMCEN
 40
0.09
  9
$DIMTSZ
 40
0.0
  9
$DIMTOL
 70
     0
  9
$DIMLIM
 70
     0
  9
$DIMTIH
 70
     1
  9
$DIMTOH
 70
     1
  9
$DIMSE1
 70
     0
  9
$DIMSE2
 70
     0
  9
$DIMTAD
 70
     0
  9
$DIMZIN
 70
     0
  9
$DIMBLK
  1

  9
$DIMASO
 70
     1
  9
$DIMSHO
 70
     1
  9
$DIMPOST
  1

  9
$DIMAPOST
  1

  9
$DIMALT
 70
     0
  9
$DIMALTD
 70
     2
  9
$DIMALTF
 40
25.399999999999999
  9
$DIMLFAC
 40
1.0
  9
$DIMTOFL
 70
     0
  9
$DIMTVP
 40
0.0
  9
$DIMTIX
 70
     0
  9
$DIMSOXD
 70
     0
  9
$DIMSAH
 70
     0
  9
$DIMBLK1
  1

  9
$DIMBLK2
  1

  9
$DIMSTYLE
  2
STANDARD
  9
$DIMCLRD
 70
     0
  9
$DIMCLRE
 70
     0
  9
$DIMCLRT
 70
     0
  9
$DIMTFAC
 40
1.0
  9
$DIMGAP
 40
0.09
  9
$LUNITS
 70
     2
  9
$LUPREC
 70
     4
  9
$SKETCHINC
 40
0.1
  9
$FILLETRAD
 40
0.0
  9
$AUNITS
 70
     0
  9
$AUPREC
 70
     0
  9
$MENU
  1
acad
  9
$ELEVATION
 40
0.0
  9
$PELEVATION
 40
0.0
  9
$THICKNESS
 40
0.0
  9
$LIMCHECK
 70
     0
  9
$BLIPMODE
 70
     0
  9
$CHAMFERA
 40
0.0
  9
$CHAMFERB
 40
0.0
  9
$SKPOLY
 70
     0
  9
$TDCREATE
 40
2311889.0920528471
  9
$TDUPDATE
 40
2454784.8734780089
  9
$TDINDWG
 40
0.0008313426
  9
$TDUSRTIMER
 40
0.0008307986
  9
$USRTIMER
 70
     1
  9
$ANGBASE
 50
0.0
  9
$ANGDIR
 70
     0
  9
$PDMODE
 70
     0
  9
$PDSIZE
 40
0.0
  9
$PLINEWID
 40
0.0
  9
$COORDS
 70
     1
  9
$SPLFRAME
 70
     0
  9
$SPLINETYPE
 70
     6
  9
$SPLINESEGS
 70
     8
  9
$ATTDIA
 70
     0
  9
$ATTREQ
 70
     1
  9
$HANDLING
 70
     1
  9
$HANDSEED
  5
34F
  9
$SURFTAB1
 70
     6
  9
$SURFTAB2
 70
     6
  9
$SURFTYPE
 70
     6
  9
$SURFU
 70
     6
  9
$SURFV
 70
     6
  9
$UCSNAME
  2

  9
$UCSORG
 10
0.0
 20
0.0
 30
0.0
  9
$UCSXDIR
 10
1.0
 20
0.0
 30
0.0
  9
$UCSYDIR
 10
0.0
 20
1.0
 30
0.0
  9
$PUCSNAME
  2

  9
$PUCSORG
 10
0.0
 20
0.0
 30
0.0
  9
$PUCSXDIR
 10
1.0
 20
0.0
 30
0.0
  9
$PUCSYDIR
 10
0.0
 20
1.0
 30
0.0
  9
$USERI1
 70
     0
  9
$USERI2
 70
     0
  9
$USERI3
 70
     0
  9
$USERI4
 70
     0
  9
$USERI5
 70
     0
  9
$USERR1
 40
0.0
  9
$USERR2
 40
0.0
  9
$USERR3
 40
0.0
  9
$USERR4
 40
0.0
  9
$USERR5
 40
0.0
  9
$WORLDVIEW
 70
     1
  9
$SHADEDGE
 70
     3
  9
$SHADEDIF
 70
    70
  9
$TILEMODE
 70
     1
  9
$MAXACTVP
 70
    16
  9
$PLIMCHECK
 70
     0
  9
$PEXTMIN
 10
1.0000000000000000E+020
 20
1.0000000000000000E+020
 30
1.0000000000000000E+020
  9
$PEXTMAX
 10
-1.0000000000000000E+020
 20
-1.0000000000000000E+020
 30
-1.0000000000000000E+020
  9
$PLIMMIN
 10
0.0
 20
0.0
  9
$PLIMMAX
 10
12.0
 20
9.0
  9
$UNITMODE
 70
     0
  9
$VISRETAIN
 70
     0
  9
$PLINEGEN
 70
     0
  9
$PSLTSCALE
 70
     1
  0
ENDSEC
  0
SECTION
  2
TABLES
  0
TABLE
  2
VPORT
 70
     1
  0
VPORT
  2
*ACTIVE
 70
     0
 10
0.0
 20
0.0
 11
1.0
 21
1.0
 12
58.888112301781383
 22
25.42295518682819
 13
0.0
 23
0.0
 14
1.0
 24
1.0
 15
0.0
 25
0.0
 16
0.0
 26
0.0
 36
1.0
 17
0.0
 27
0.0
 37
0.0
 40
84.85637033667112
 41
1.8210922787193971
 42
50.0
 43
0.0
 44
0.0
 50
0.0
 51
0.0
 71
     0
 72
   100
 73
     1
 74
     1
 75
     0
 76
     0
 77
     0
 78
     0
  0
ENDTAB
  0
TABLE
  2
LTYPE
 70
     1
  0
LTYPE
  2
CONTINUOUS
 70
     0
  3
Solid line
 72
    65
 73
     0
 40
0.0
  0
ENDTAB
  0
TABLE
  2
LAYER
 70
    10
  0
LAYER
  2
0
 70
     0
 62
     7
  6
CONTINUOUS
  0
LAYER
  2
L7
 70
     0
 62
     7
  6
CONTINUOUS
  0
LAYER
  2
L1
 70
     0
 62
     7
  6
CONTINUOUS
  0
LAYER
  2
L8
 70
     0
 62
     7
  6
CONTINUOUS
  0
LAYER
  2
L9
 70
     0
 62
     7
  6
CONTINUOUS
  0
LAYER
  2
L15
 70
     0
 62
     7
  6
CONTINUOUS
  0
LAYER
  2
L11
 70
     0
 62
     7
  6
CONTINUOUS
  0
LAYER
  2
L12
 70
     0
 62
     7
  6
CONTINUOUS
  0
LAYER
  2
L13
 70
     0
 62
     7
  6
CONTINUOUS
  0
LAYER
  2
L14
 70
     0
 62
     7
  6
CONTINUOUS
  0
ENDTAB
  0
TABLE
  2
STYLE
 70
     1
  0
STYLE
  2
STANDARD
 70
     0
 40
0.0
 41
1.0
 50
0.0
 71
     0
 42
0.1
  3
TXT
  4

  0
ENDTAB
  0
TABLE
  2
VIEW
 70
     0
  0
ENDTAB
  0
TABLE
  2
UCS
 70
     0
  0
ENDTAB
  0
TABLE
  2
APPID
 70
     1
  0
APPID
  2
ACAD
 70
     0
  0
ENDTAB
  0
TABLE
  2
DIMSTYLE
 70
     1
  0
DIMSTYLE
  2
STANDARD
 70
     0
  3

  4

  5

  6

  7

 40
1.0
 41
0.18
 42
0.0625
 43
0.38
 44
0.18
 45
0.0
 46
0.0
 47
0.0
 48
0.0
140
0.18
141
0.09
142
0.0
143
25.399999999999999
144
1.0
145
0.0
146
1.0
147
0.09
 71
     0
 72
     0
 73
     1
 74
     1
 75
     0
 76
     0
 77
     0
 78
     0
170
     0
171
     2
172
     0
173
     0
174
     0
175
     0
176
     0
177
     0
178
     0
  0
ENDTAB
  0
ENDSEC
  0
SECTION
  2
BLOCKS
  0
BLOCK
  8
0
  6
CONTINUOUS
 62
     7
  2
$MODEL_SPACE
 70
     0
 10
0.0
 20
0.0
 30
0.0
  3
$MODEL_SPACE
  1

  0
ENDBLK
  5
16
  8
0
  6
CONTINUOUS
 62
     7
  0
BLOCK
 67
     1
  8
0
  6
CONTINUOUS
 62
     7
  2
$PAPER_SPACE
 70
     0
 10
0.0
 20
0.0
 30
0.0
  3
$PAPER_SPACE
  1

  0
ENDBLK
  5
18
 67
     1
  8
0
  6
CONTINUOUS
 62
     7
  0
ENDSEC
  0
SECTION
  2
ENTITIES
  0
ARC
  5
19
  8
L7
 10
4.2201652402855494
 20
42.897623985994997
 30
0.0
 40
3.4375
 50
99.326905000000011
 51
167.39406663376701
  0
ARC
  5
1A
  8
L7
 10
4.2477751840983986
 20
34.312173939644111
 30
0.0
 40
11.991769
 50
63.198360999999991
 51
92.794834999999992
  0
ARC
  5
1B
  8
L7
 10
36.7432858402208
 20
90.153201887156087
 30
0.0
 40
52.64194599999999
 50
239.03075100000001
 51
247.622263
  0
ARC
  5
1C
  8
L7
 10
26.680349631499499
 20
94.603815794448707
 30
0.0
 40
54.057248999999999
 50
259.36275899999998
 51
267.79305099999999
  0
ARC
  5
1D
  8
L7
 10
24.564975365268001
 20
41.586095401322602
 30
0.0
 40
1.0
 50
271.93029200000001
 51
353.50000000000102
  0
ARC
  5
1E
  8
L7
 10
26.552119076621199
 20
41.359688973786788
 30
0.0
 40
1.0
 50
83.500000000000199
 51
173.49999999999901
  0
LINE
  5
1F
  8
L7
 10
26.66532229038911
 20
42.353260829463387
 30
0.0
 11
26.764679475956701
 21
42.341940508086587
 31
0.0
  0
ARC
  5
20
  8
L7
 10
26.753359154579901
 20
42.24258332251889
 30
0.0
 40
0.1
 50
353.5000000000029
 51
443.50000000000199
  0
LINE
  5
21
  8
L7
 10
26.852716340147602
 20
42.231263001142104
 30
0.0
 11
26.5458438230302
 21
39.537877485483612
 31
0.0
  0
ARC
  5
22
  8
L7
 10
26.049057895191901
 20
39.5944790923676
 30
0.0
 40
0.5
 50
303.75818500000099
 51
353.50000000000102
  0
ARC
  5
23
  8
L7
 10
26.604746802443302
 20
38.7630880204118
 30
0.0
 40
0.5
 50
123.758184999999
 51
134.28683799999899
  0
LINE
  5
24
  8
L7
 10
26.255622047810899
 20
39.121014870089098
 30
0.0
 11
24.856576126617899
 21
39.171758552289702
 31
0.0
  0
ARC
  5
25
  8
L7
 10
24.524843856230699
 20
38.797653912793301
 30
0.0
 40
0.5
 50
48.435479999999501
 51
148.64698600000099
  0
ARC
  5
26
  8
L7
 10
23.409102837549
 20
39.4774502105533
 30
0.0
 40
0.806522
 50
219.85403200000101
 51
328.64698600000003
  0
ARC
  5
27
  8
L7
 10
22.406112458657098
 20
38.640185888925899
 30
0.0
 40
0.5
 50
39.854031999998497
 51
89.018190999999604
  0
ARC
  5
28
  8
L7
 10
21.521978961595501
 20
-12.9504886595467
 30
0.0
 40
52.09825
 50
89.018191000000002
 51
91.595293999999996
  0
ARC
  5
29
  8
L7
 10
18.977295054439299
 20
8.1915850377895705
 30
0.0
 40
30.955331000000001
 50
87.974131999999983
 51
96.193867999999995
  0
LINE
  5
2A
  8
L7
 10
15.637432944479899
 20
38.966214924590602
 30
0.0
 11
12.9171326234797
 21
38.623567073502798
 31
0.0
  0
ARC
  5
2B
  8
L7
 10
12.7296742233468
 20
40.111807591684489
 30
0.0
 40
1.5
 50
234.66834399999999
 51
277.17915199999999
  0
ARC
  5
2C
  8
L7
 10
9.5489784204855397
 20
35.624807494381798
 30
0.0
 40
4.0
 50
54.668344000000097
 51
102.156425
  0
ARC
  5
2D
  8
L7
 10
6.1517588009911588
 20
51.3956247626828
 30
0.0
 40
12.132569
 50
255.146862
 51
282.15642500000001
  0
ARC
  5
2E
  8
L7
 10
4.2201652402855494
 20
42.897623985994997
 30
0.0
 40
3.4375
 50
179.60593336623401
 51
249.95026999999999
  0
ARC
  5
2F
  8
L7
 10
0.8827441778331907
 20
42.920578329796101
 30
0.0
 40
0.1
 50
83.500000000000099
 51
179.60593336623199
  0
LINE
  5
30
  8
L7
 10
0.8940644992099819
 20
43.019935515363791
 30
0.0
 11
4.5017896256736689
 21
42.608887158495001
 31
0.0
  0
ARC
  5
31
  8
L7
 10
4.5300904291156501
 20
42.857280122414103
 30
0.0
 40
0.25
 50
263.5
 51
353.50000000000102
  0
LINE
  5
32
  8
L7
 10
4.778483393034799
 20
42.828979318972202
 30
0.0
 11
4.7796154251724801
 21
42.838915037528999
 31
0.0
  0
ARC
  5
33
  8
L7
 10
4.5312224612533303
 20
42.867215840970893
 30
0.0
 40
0.25
 50
353.50000000000102
 51
443.5
  0
LINE
  5
34
  8
L7
 10
4.5595232646953088
 20
43.115608804890101
 30
0.0
 11
0.9517981382316127
 21
43.526657161758791
 31
0.0
  0
ARC
  5
35
  8
L7
 10
0.9631184596084029
 20
43.626014347326489
 30
0.0
 40
0.1
 50
167.39406663376599
 51
263.5
  0
ARC
  5
36
  8
L7
 10
0.9631184596084029
 20
32.626014347326503
 30
0.0
 40
0.1
 50
167.39406663376599
 51
263.5
  0
ARC
  5
37
  8
L7
 10
4.2201652402855494
 20
31.897623985995001
 30
0.0
 40
3.4375
 50
99.326905000000011
 51
167.39406663376701
  0
ARC
  5
38
  8
L7
 10
4.2477751840983986
 20
23.312173939644101
 30
0.0
 40
11.991769
 50
63.198360999999991
 51
92.794834999999992
  0
ARC
  5
39
  8
L7
 10
36.7432858402208
 20
79.153201887156101
 30
0.0
 40
52.64194599999999
 50
239.03075100000001
 51
247.622263
  0
ARC
  5
3A
  8
L7
 10
26.680349631499499
 20
83.603815794448707
 30
0.0
 40
54.057248999999999
 50
259.36275899999998
 51
267.79305099999999
  0
ARC
  5
3B
  8
L7
 10
24.564975365268001
 20
30.586095401322599
 30
0.0
 40
1.0
 50
271.93029200000001
 51
353.50000000000102
  0
ARC
  5
3C
  8
L7
 10
26.552119076621199
 20
30.359688973786799
 30
0.0
 40
1.0
 50
83.500000000000199
 51
173.49999999999901
  0
LINE
  5
3D
  8
L7
 10
26.66532229038911
 20
31.353260829463402
 30
0.0
 11
26.764679475956701
 21
31.341940508086601
 31
0.0
  0
ARC
  5
3E
  8
L7
 10
26.753359154579901
 20
31.2425833225189
 30
0.0
 40
0.1
 50
353.5000000000029
 51
443.50000000000199
  0
LINE
  5
3F
  8
L7
 10
26.852716340147602
 20
31.2312630011421
 30
0.0
 11
26.5458438230302
 21
28.537877485483602
 31
0.0
  0
ARC
  5
40
  8
L7
 10
26.049057895191901
 20
28.5944790923676
 30
0.0
 40
0.5
 50
303.75818500000099
 51
353.50000000000102
  0
ARC
  5
41
  8
L7
 10
26.604746802443302
 20
27.7630880204118
 30
0.0
 40
0.5
 50
123.758184999999
 51
134.28683799999899
  0
LINE
  5
42
  8
L7
 10
26.255622047810899
 20
28.121014870089098
 30
0.0
 11
24.856576126617899
 21
28.171758552289699
 31
0.0
  0
ARC
  5
43
  8
L7
 10
24.524843856230699
 20
27.797653912793301
 30
0.0
 40
0.5
 50
48.435479999999501
 51
148.64698600000099
  0
ARC
  5
44
  8
L7
 10
23.409102837549
 20
28.477450210553311
 30
0.0
 40
0.806522
 50
219.85403200000101
 51
328.64698600000003
  0
ARC
  5
45
  8
L7
 10
22.406112458657098
 20
27.640185888925899
 30
0.0
 40
0.5
 50
39.854031999998497
 51
89.018190999999604
  0
ARC
  5
46
  8
L7
 10
21.521978961595501
 20
-23.9504886595467
 30
0.0
 40
52.09825
 50
89.018191000000002
 51
91.595293999999996
  0
ARC
  5
47
  8
L7
 10
18.977295054439299
 20
-2.8084149622104291
 30
0.0
 40
30.955331000000001
 50
87.974131999999983
 51
96.193867999999995
  0
LINE
  5
48
  8
L7
 10
15.637432944479899
 20
27.966214924590599
 30
0.0
 11
12.9171326234797
 21
27.623567073502802
 31
0.0
  0
ARC
  5
49
  8
L7
 10
12.7296742233468
 20
29.111807591684499
 30
0.0
 40
1.5
 50
234.66834399999999
 51
277.17915199999999
  0
ARC
  5
4A
  8
L7
 10
9.5489784204855397
 20
24.624807494381798
 30
0.0
 40
4.0
 50
54.668344000000097
 51
102.156425
  0
ARC
  5
4B
  8
L7
 10
6.1517588009911588
 20
40.395624762682793
 30
0.0
 40
12.132569
 50
255.146862
 51
282.15642500000001
  0
ARC
  5
4C
  8
L7
 10
4.2201652402855494
 20
31.897623985995001
 30
0.0
 40
3.4375
 50
179.60593336623299
 51
249.95026999999999
  0
ARC
  5
4D
  8
L7
 10
0.8827441778331907
 20
31.920578329796101
 30
0.0
 40
0.1
 50
83.500000000000426
 51
179.60593336623199
  0
LINE
  5
4E
  8
L7
 10
0.8940644992099819
 20
32.019935515363812
 30
0.0
 11
4.5017896256736689
 21
31.608887158495001
 31
0.0
  0
ARC
  5
4F
  8
L7
 10
4.5300904291156501
 20
31.85728012241411
 30
0.0
 40
0.25
 50
263.5
 51
353.50000000000102
  0
LINE
  5
50
  8
L7
 10
4.778483393034799
 20
31.828979318972198
 30
0.0
 11
4.7796154251724801
 21
31.838915037528999
 31
0.0
  0
ARC
  5
51
  8
L7
 10
4.5312224612533303
 20
31.8672158409709
 30
0.0
 40
0.25
 50
353.50000000000102
 51
443.5
  0
LINE
  5
52
  8
L7
 10
4.5595232646953088
 20
32.115608804890101
 30
0.0
 11
0.9517981382316127
 21
32.526657161758799
 31
0.0
  0
LINE
  5
53
  8
L1
 10
0.0
 20
48.0
 30
0.0
 11
96.0
 21
48.0
 31
0.0
  0
LINE
  5
54
  8
L1
 10
96.0
 20
48.0
 30
0.0
 11
96.0
 21
0.0
 31
0.0
  0
LINE
  5
55
  8
L1
 10
96.0
 20
0.0
 30
0.0
 11
0.0
 21
0.0
 31
0.0
  0
LINE
  5
56
  8
L1
 10
0.0
 20
0.0
 30
0.0
 11
0.0
 21
48.0
 31
0.0
  0
ARC
  5
57
  8
L8
 10
35.912720230535299
 20
43.048911686255998
 30
0.0
 40
3.4375
 50
278.82690500000001
 51
346.89406663376701
  0
ARC
  5
58
  8
L8
 10
35.960032572623511
 20
51.634275764131303
 30
0.0
 40
11.991769
 50
242.69836100000001
 51
272.29483499999998
  0
ARC
  5
59
  8
L8
 10
2.978460533325419
 20
-3.9210527008645202
 30
0.0
 40
52.64194599999999
 50
58.530751000000002
 51
67.122263000000004
  0
ARC
  5
5A
  8
L8
 10
13.0021751360189
 20
-8.4593117124602095
 30
0.0
 40
54.057248999999999
 50
78.862758999999997
 51
87.293051000000006
  0
ARC
  5
5B
  8
L8
 10
15.5801298743337
 20
44.537930039701997
 30
0.0
 40
1.0
 50
91.430292000000094
 51
173.0
  0
ARC
  5
5C
  8
L8
 10
13.595037571051099
 20
44.781668726512301
 30
0.0
 40
1.0
 50
263.0
 51
353.0
  0
LINE
  5
5D
  8
L8
 10
13.473168227645999
 20
43.789122574870987
 30
0.0
 11
13.3739136124818
 21
43.801309509211499
 31
0.0
  0
ARC
  5
5E
  8
L8
 10
13.3861005468223
 20
43.900564124375599
 30
0.0
 40
0.1
 50
173.00000000000099
 51
263.00000000000102
  0
LINE
  5
5F
  8
L8
 10
13.286845931658201
 20
43.912751058716204
 30
0.0
 11
13.6172106883237
 21
46.603356084593102
 31
0.0
  0
ARC
  5
60
  8
L8
 10
14.1134837641443
 20
46.542421412890491
 30
0.0
 40
0.5
 50
123.258185
 51
172.99999999999901
  0
ARC
  5
61
  8
L8
 10
13.5650711795262
 20
47.378630066996998
 30
0.0
 40
0.5
 50
303.25818500000099
 51
313.78683800000101
  0
LINE
  5
62
  8
L8
 10
13.91105917919819
 20
47.017670196512789
 30
0.0
 11
15.309609012465399
 21
46.954719622580903
 31
0.0
  0
ARC
  5
63
  8
L8
 10
15.6445932889209
 20
47.325915143885489
 30
0.0
 40
0.5
 50
227.93548000000001
 51
328.14698600000003
  0
ARC
  5
64
  8
L8
 10
16.7543595570794
 20
46.636408177078991
 30
0.0
 40
0.806522
 50
39.354031999999599
 51
148.146986
  0
ARC
  5
65
  8
L8
 10
17.764618161995191
 20
47.464887987100603
 30
0.0
 40
0.5
 50
219.35403199999899
 51
268.51819100000102
  0
ARC
  5
66
  8
L8
 10
19.0989258467946
 20
99.045882698421721
 30
0.0
 40
52.09825
 50
268.518191
 51
271.09529400000002
  0
ARC
  5
67
  8
L8
 10
21.459015803555999
 20
77.882407752020896
 30
0.0
 40
30.955331000000001
 50
267.474132
 51
275.69386800000001
  0
LINE
  5
68
  8
L8
 10
24.530194841643699
 20
47.079804243564993
 30
0.0
 11
27.253381710579099
 21
47.398700250355098
 31
0.0
  0
ARC
  5
69
  8
L8
 10
27.4278457891585
 20
45.908880537428892
 30
0.0
 40
1.5
 50
54.168344000000097
 51
96.679151999999903
  0
ARC
  5
6A
  8
L8
 10
30.6475764465001
 20
50.367953328683612
 30
0.0
 40
4.0
 50
234.16834399999999
 51
281.65642500000001
  0
ARC
  5
6B
  8
L8
 10
33.907042113550801
 20
34.568090607174398
 30
0.0
 40
12.132569
 50
74.646861999999999
 51
101.656425
  0
ARC
  5
6C
  8
L8
 10
35.912720230535299
 20
43.048911686255998
 30
0.0
 40
3.4375
 50
359.10593336623299
 51
429.45026999999999
  0
ARC
  5
6D
  8
L8
 10
39.249813902324
 20
42.996834093111488
 30
0.0
 40
0.1
 50
263.00000000000199
 51
359.10593336623299
  0
LINE
  5
6E
  8
L8
 10
39.237626967983502
 20
42.897579477947289
 30
0.0
 11
35.633626240715707
 21
43.340095124738703
 31
0.0
  0
ARC
  5
6F
  8
L8
 10
35.603158904864387
 20
43.091958586828291
 30
0.0
 40
0.25
 50
83.000000000000711
 51
173.00000000000099
  0
LINE
  5
70
  8
L8
 10
35.355022366954103
 20
43.122425922679597
 30
0.0
 11
35.353803673520012
 21
43.112500461163201
 31
0.0
  0
ARC
  5
71
  8
L8
 10
35.601940211430403
 20
43.082033125311902
 30
0.0
 40
0.25
 50
173.00000000000099
 51
263.00000000000102
  0
LINE
  5
72
  8
L8
 10
35.571472875579097
 20
42.83389658740159
 30
0.0
 11
39.1754736028469
 21
42.39138094061029
 31
0.0
  0
ARC
  5
73
  8
L8
 10
39.163286668506402
 20
42.292126325446091
 30
0.0
 40
0.1
 50
346.89406663376701
 51
443.00000000000199
  0
ARC
  5
74
  8
L8
 10
34.412720230535299
 20
33.348911686255988
 30
0.0
 40
3.4375
 50
278.82690500000001
 51
346.89406663376701
  0
ARC
  5
75
  8
L8
 10
34.460032572623511
 20
41.9342757641313
 30
0.0
 40
11.991769
 50
242.69836100000001
 51
272.29483499999998
  0
ARC
  5
76
  8
L8
 10
1.478460533325419
 20
-13.621052700864499
 30
0.0
 40
52.64194599999999
 50
58.530751000000002
 51
67.122263000000004
  0
ARC
  5
77
  8
L8
 10
11.5021751360189
 20
-18.159311712460202
 30
0.0
 40
54.057248999999999
 50
78.862758999999997
 51
87.293051000000006
  0
ARC
  5
78
  8
L8
 10
14.0801298743337
 20
34.837930039702002
 30
0.0
 40
1.0
 50
91.430292000000094
 51
173.0
  0
ARC
  5
79
  8
L8
 10
12.095037571051099
 20
35.081668726512298
 30
0.0
 40
1.0
 50
263.0
 51
353.0
  0
LINE
  5
7A
  8
L8
 10
11.9731682276459
 20
34.089122574870999
 30
0.0
 11
11.8739136124818
 21
34.101309509211497
 31
0.0
  0
ARC
  5
7B
  8
L8
 10
11.8861005468223
 20
34.200564124375603
 30
0.0
 40
0.1
 50
173.00000000000099
 51
263.00000000000102
  0
LINE
  5
7C
  8
L8
 10
11.786845931658201
 20
34.212751058716101
 30
0.0
 11
12.1172106883237
 21
36.903356084593099
 31
0.0
  0
ARC
  5
7D
  8
L8
 10
12.6134837641443
 20
36.842421412890502
 30
0.0
 40
0.5
 50
123.258185
 51
172.99999999999901
  0
ARC
  5
7E
  8
L8
 10
12.0650711795262
 20
37.678630066997002
 30
0.0
 40
0.5
 50
303.25818500000099
 51
313.78683800000101
  0
LINE
  5
7F
  8
L8
 10
12.411059179198199
 20
37.317670196512793
 30
0.0
 11
13.809609012465399
 21
37.2547196225809
 31
0.0
  0
ARC
  5
80
  8
L8
 10
14.1445932889209
 20
37.6259151438855
 30
0.0
 40
0.5
 50
227.93548000000001
 51
328.14698600000003
  0
ARC
  5
81
  8
L8
 10
15.2543595570794
 20
36.936408177079002
 30
0.0
 40
0.806522
 50
39.354031999999599
 51
148.146986
  0
ARC
  5
82
  8
L8
 10
16.264618161995202
 20
37.7648879871006
 30
0.0
 40
0.5
 50
219.35403199999899
 51
268.51819100000102
  0
ARC
  5
83
  8
L8
 10
17.5989258467946
 20
89.34588269842159
 30
0.0
 40
52.09825
 50
268.518191
 51
271.09529400000002
  0
ARC
  5
84
  8
L8
 10
19.959015803555999
 20
68.182407752020907
 30
0.0
 40
30.955331000000001
 50
267.474132
 51
275.69386800000001
  0
LINE
  5
85
  8
L8
 10
23.030194841643699
 20
37.379804243564998
 30
0.0
 11
25.753381710579099
 21
37.69870025035511
 31
0.0
  0
ARC
  5
86
  8
L8
 10
25.9278457891585
 20
36.208880537428897
 30
0.0
 40
1.5
 50
54.168344000000097
 51
96.679151999999903
  0
ARC
  5
87
  8
L8
 10
29.1475764465001
 20
40.667953328683602
 30
0.0
 40
4.0
 50
234.16834399999999
 51
281.65642500000001
  0
ARC
  5
88
  8
L8
 10
32.407042113550801
 20
24.868090607174398
 30
0.0
 40
12.132569
 50
74.646861999999999
 51
101.656425
  0
ARC
  5
89
  8
L8
 10
34.412720230535299
 20
33.348911686255988
 30
0.0
 40
3.4375
 50
359.10593336623299
 51
429.45026999999999
  0
ARC
  5
8A
  8
L8
 10
37.749813902324
 20
33.296834093111499
 30
0.0
 40
0.1
 50
263.00000000000199
 51
359.10593336623299
  0
LINE
  5
8B
  8
L8
 10
37.737626967983502
 20
33.197579477947301
 30
0.0
 11
34.133626240715699
 21
33.6400951247387
 31
0.0
  0
ARC
  5
8C
  8
L8
 10
34.103158904864387
 20
33.391958586828302
 30
0.0
 40
0.25
 50
83.000000000000711
 51
173.00000000000099
  0
LINE
  5
8D
  8
L8
 10
33.85502236695411
 20
33.422425922679601
 30
0.0
 11
33.853803673520012
 21
33.412500461163198
 31
0.0
  0
ARC
  5
8E
  8
L8
 10
34.101940211430403
 20
33.382033125311899
 30
0.0
 40
0.25
 50
173.00000000000099
 51
263.00000000000102
  0
LINE
  5
8F
  8
L8
 10
34.071472875579097
 20
33.133896587401601
 30
0.0
 11
37.6754736028469
 21
32.691380940610301
 31
0.0
  0
ARC
  5
90
  8
L8
 10
37.663286668506402
 20
32.592126325446102
 30
0.0
 40
0.1
 50
346.89406663376701
 51
443.00000000000199
  0
ARC
  5
91
  8
L9
 10
6.3191399999999991
 20
23.264859000000001
 30
0.0
 40
3.4375
 50
30.846637000000001
 51
68.894062704264599
  0
ARC
  5
92
  8
L9
 10
6.5415890000000001
 20
22.936931999999999
 30
0.0
 40
3.4375
 50
5.8269049999999813
 51
37.455065000000012
  0
ARC
  5
93
  8
L9
 10
-2.0295329999999998
 20
23.433503000000002
 30
0.0
 40
11.991769
 50
329.69836099999998
 51
359.29483499999998
  0
ARC
  5
94
  8
L9
 10
51.723537
 20
-12.410411
 30
0.0
 40
52.64194599999999
 50
145.53075100000001
 51
146.28090399999999
  0
ARC
  5
95
  8
L9
 10
6.6899360000000003
 20
17.644957000000002
 30
0.0
 40
1.5
 50
304.668227
 51
326.28090400000002
  0
ARC
  5
96
  8
L9
 10
12.210842
 20
9.6623009999999994
 30
0.0
 40
8.2058330000000002
 50
124.668227
 51
134.21357800000001
  0
ARC
  5
97
  8
L9
 10
7.883297999999999
 20
14.110303999999999
 30
0.0
 40
2.0
 50
134.21357800000001
 51
172.732553
  0
ARC
  5
98
  8
L9
 10
58.118409999999997
 20
7.7040449999999989
 30
0.0
 40
52.64194599999999
 50
172.732553
 51
176.327855
  0
ARC
  5
99
  8
L9
 10
7.0814649999999988
 20
10.979542
 30
0.0
 40
1.5
 50
176.327855
 51
187.851485
  0
ARC
  5
9A
  8
L9
 10
59.146014999999998
 20
18.159165999999999
 30
0.0
 40
54.057248999999999
 50
187.851485
 51
197.134793
  0
ARC
  5
9B
  8
L9
 10
8.4437509999999971
 20
2.5274030000000001
 30
0.0
 40
1.0
 50
197.134793
 51
270.0
  0
LINE
  5
9C
  8
L9
 10
8.4437509999999971
 20
1.5274030000000001
 30
0.0
 11
8.6979500000000005
 21
1.5274030000000001
 31
0.0
  0
ARC
  5
9D
  8
L9
 10
8.6979500000000005
 20
0.527403
 30
0.0
 40
1.0
 50
3.8225539999999998
 51
90.0
  0
ARC
  5
9E
  8
L9
 10
9.4462820000000001
 20
0.577403
 30
0.0
 40
0.25
 50
270.0
 51
363.82255400000003
  0
LINE
  5
9F
  8
L9
 10
9.4462820000000001
 20
0.327403
 30
0.0
 11
6.6927580000000004
 21
0.327403
 31
0.0
  0
ARC
  5
A0
  8
L9
 10
6.6927580000000004
 20
0.8274030000000001
 30
0.0
 40
0.5
 50
194.42279600000001
 51
270.0
  0
LINE
  5
A1
  8
L9
 10
6.2085160000000004
 20
0.702865
 30
0.0
 11
5.9426370000000004
 21
1.736686999999999
 31
0.0
  0
ARC
  5
A2
  8
L9
 10
6.4268789999999996
 20
1.861224999999999
 30
0.0
 40
0.5
 50
166.78313799999989
 51
194.42279600000001
  0
ARC
  5
A3
  8
L9
 10
5.4533670000000001
 20
2.0898620000000001
 30
0.0
 40
0.5
 50
346.78313800000001
 51
435.14698600000003
  0
ARC
  5
A4
  8
L9
 10
5.7882809999999987
 20
3.3527290000000001
 30
0.0
 40
0.806522
 50
158.383363
 51
255.146986
  0
ARC
  5
A5
  8
L9
 10
4.1088129999999987
 20
4.018241999999999
 30
0.0
 40
1.0
 50
338.38336299999997
 51
371.50187
  0
ARC
  5
A6
  8
L9
 10
-25.244961
 20
-1.954847999999999
 30
0.0
 40
30.955331000000001
 50
11.50187
 51
24.693867999999998
  0
LINE
  5
A7
  8
L9
 10
2.8795939999999991
 20
10.977354999999999
 30
0.0
 11
1.9656409999999991
 21
12.878178999999999
 31
0.0
  0
ARC
  5
A8
  8
L9
 10
0.6137890000000001
 20
12.228182
 30
0.0
 40
1.5
 50
25.679151999999998
 51
59.911326999999993
  0
ARC
  5
A9
  8
L9
 10
2.214049999999999
 20
14.990036
 30
0.0
 40
1.6919699999999991
 50
132.41939099999999
 51
239.911327
  0
ARC
  5
AA
  8
L9
 10
-0.276376
 20
17.715547999999998
 30
0.0
 40
2.0
 50
312.41939100000002
 51
366.15184599999998
  0
ARC
  5
AB
  8
L9
 10
13.774808999999999
 20
19.230046999999999
 30
0.0
 40
12.132569
 50
151.646862
 51
186.15184600000001
  0
ARC
  5
AC
  8
L9
 10
5.9625300000000001
 20
23.092089999999999
 30
0.0
 40
3.4375
 50
112.544935
 51
146.45026999999999
  0
ARC
  5
AD
  8
L9
 10
6.3191399999999991
 20
23.264859000000001
 30
0.0
 40
3.4375
 50
81.105924020814101
 51
119.153363
  0
ARC
  5
AE
  8
L9
 10
6.8351449899134398
 20
26.5622284212788
 30
0.0
 40
0.1
 50
344.999987528953
 51
441.10592402081392
  0
LINE
  5
AF
  8
L9
 10
6.9317375669088701
 20
26.536346495744102
 30
0.0
 11
5.99194781995753
 21
23.029006465331801
 31
0.0
  0
ARC
  5
B0
  8
L9
 10
6.2334292624460987
 20
22.964301651495202
 30
0.0
 40
0.25
 50
164.999987528953
 51
254.999992948928
  0
LINE
  5
B1
  8
L9
 10
6.1687244714526903
 20
22.722820202885799
 30
0.0
 11
6.1783845002955688
 21
22.7202318046843
 31
0.0
  0
ARC
  5
B2
  8
L9
 10
6.243089291288979
 20
22.961713253293699
 30
0.0
 40
0.25
 50
254.99999294892709
 51
345.00000507213099
  0
LINE
  5
B3
  8
L9
 10
6.4845707535892592
 20
22.897008513395299
 30
0.0
 11
7.4243594173699403
 21
26.404348796956501
 31
0.0
  0
ARC
  5
B4
  8
L9
 10
7.5209520022900502
 20
26.3784669009971
 30
0.0
 40
0.1
 50
68.894062704264101
 51
165.00000507212999
  0
ARC
  5
B5
  8
L9
 10
14.944140000000001
 20
23.264859000000001
 30
0.0
 40
3.4375
 50
30.846637000000001
 51
68.894644199980902
  0
ARC
  5
B6
  8
L9
 10
15.166589
 20
22.936931999999999
 30
0.0
 40
3.4375
 50
5.8269049999999813
 51
37.455065000000097
  0
ARC
  5
B7
  8
L9
 10
6.5954670000000002
 20
23.433503000000002
 30
0.0
 40
11.991769
 50
329.69836099999998
 51
359.29483499999998
  0
ARC
  5
B8
  8
L9
 10
60.348537
 20
-12.410411
 30
0.0
 40
52.64194599999999
 50
145.53075100000001
 51
146.28090399999999
  0
ARC
  5
B9
  8
L9
 10
15.314935999999999
 20
17.644957000000002
 30
0.0
 40
1.5
 50
304.668227
 51
326.28090400000002
  0
ARC
  5
BA
  8
L9
 10
20.835842
 20
9.6623009999999994
 30
0.0
 40
8.2058330000000002
 50
124.668227
 51
134.21357800000001
  0
ARC
  5
BB
  8
L9
 10
16.508298
 20
14.110303999999999
 30
0.0
 40
2.0
 50
134.21357800000001
 51
172.732553
  0
ARC
  5
BC
  8
L9
 10
66.743409999999997
 20
7.7040449999999989
 30
0.0
 40
52.64194599999999
 50
172.732553
 51
176.327855
  0
ARC
  5
BD
  8
L9
 10
15.706465
 20
10.979542
 30
0.0
 40
1.5
 50
176.327855
 51
187.851485
  0
ARC
  5
BE
  8
L9
 10
67.771015000000006
 20
18.159165999999999
 30
0.0
 40
54.057248999999999
 50
187.851485
 51
197.134793
  0
ARC
  5
BF
  8
L9
 10
17.068750999999999
 20
2.5274030000000001
 30
0.0
 40
1.0
 50
197.134793
 51
270.0
  0
LINE
  5
C0
  8
L9
 10
17.068750999999999
 20
1.5274030000000001
 30
0.0
 11
17.322949999999999
 21
1.5274030000000001
 31
0.0
  0
ARC
  5
C1
  8
L9
 10
17.322949999999999
 20
0.527403
 30
0.0
 40
1.0
 50
3.8225539999999998
 51
90.0
  0
ARC
  5
C2
  8
L9
 10
18.071282
 20
0.577403
 30
0.0
 40
0.25
 50
270.0
 51
363.82255400000003
  0
LINE
  5
C3
  8
L9
 10
18.071282
 20
0.327403
 30
0.0
 11
15.317758
 21
0.327403
 31
0.0
  0
ARC
  5
C4
  8
L9
 10
15.317758
 20
0.8274030000000001
 30
0.0
 40
0.5
 50
194.42279600000001
 51
270.0
  0
LINE
  5
C5
  8
L9
 10
14.833515999999999
 20
0.702865
 30
0.0
 11
14.567637
 21
1.736686999999999
 31
0.0
  0
ARC
  5
C6
  8
L9
 10
15.051879
 20
1.861224999999999
 30
0.0
 40
0.5
 50
166.78313799999989
 51
194.42279600000001
  0
ARC
  5
C7
  8
L9
 10
14.078367
 20
2.0898620000000001
 30
0.0
 40
0.5
 50
346.78313800000001
 51
435.14698600000003
  0
ARC
  5
C8
  8
L9
 10
14.413281
 20
3.3527290000000001
 30
0.0
 40
0.806522
 50
158.383363
 51
255.146986
  0
ARC
  5
C9
  8
L9
 10
12.733813
 20
4.018241999999999
 30
0.0
 40
1.0
 50
338.38336299999997
 51
371.50187
  0
ARC
  5
CA
  8
L9
 10
-16.619961
 20
-1.954847999999999
 30
0.0
 40
30.955331000000001
 50
11.50187
 51
24.693867999999998
  0
LINE
  5
CB
  8
L9
 10
11.504594000000001
 20
10.977354999999999
 30
0.0
 11
10.590641
 21
12.878178999999999
 31
0.0
  0
ARC
  5
CC
  8
L9
 10
9.2387890000000006
 20
12.228182
 30
0.0
 40
1.5
 50
25.679151999999998
 51
59.911326999999993
  0
ARC
  5
CD
  8
L9
 10
10.83905
 20
14.990036
 30
0.0
 40
1.6919699999999991
 50
132.41939099999999
 51
239.911327
  0
ARC
  5
CE
  8
L9
 10
8.3486239999999992
 20
17.715547999999998
 30
0.0
 40
2.0
 50
312.41939100000002
 51
366.15184599999998
  0
ARC
  5
CF
  8
L9
 10
22.399809000000001
 20
19.230046999999999
 30
0.0
 40
12.132569
 50
151.646862
 51
186.15184600000001
  0
ARC
  5
D0
  8
L9
 10
14.587529999999999
 20
23.092089999999999
 30
0.0
 40
3.4375
 50
112.544935
 51
146.45026999999999
  0
ARC
  5
D1
  8
L9
 10
14.944140000000001
 20
23.264859000000001
 30
0.0
 40
3.4375
 50
81.106505466757397
 51
119.153363
  0
ARC
  5
D2
  8
L9
 10
15.4601115277001
 20
26.562233657602999
 30
0.0
 40
0.1
 50
344.999987528953
 51
441.10650546675788
  0
LINE
  5
D3
  8
L9
 10
15.5567041046956
 20
26.5363517320684
 30
0.0
 11
14.614447819957499
 21
23.019806465331801
 31
0.0
  0
ARC
  5
D4
  8
L9
 10
14.8559292624461
 20
22.955101651495202
 30
0.0
 40
0.25
 50
164.999987528953
 51
254.999992948928
  0
LINE
  5
D5
  8
L9
 10
14.791224471452701
 20
22.713620202885799
 30
0.0
 11
14.8008845002956
 21
22.7110318046843
 31
0.0
  0
ARC
  5
D6
  8
L9
 10
14.865589291289
 20
22.952513253293699
 30
0.0
 40
0.25
 50
254.999992948928
 51
345.00000507213099
  0
LINE
  5
D7
  8
L9
 10
15.1070707535893
 20
22.887808513395299
 30
0.0
 11
16.0493278172553
 21
26.404360994003898
 31
0.0
  0
ARC
  5
D8
  8
L9
 10
16.145920402175399
 20
26.3784790980446
 30
0.0
 40
0.1
 50
68.894644199980291
 51
165.00000507212999
  0
ARC
  5
D9
  8
L9
 10
23.569140000000001
 20
23.264859000000001
 30
0.0
 40
3.4375
 50
30.846637000000001
 51
68.894062704264599
  0
ARC
  5
DA
  8
L9
 10
23.791588999999998
 20
22.936931999999999
 30
0.0
 40
3.4375
 50
5.8269049999999813
 51
37.455065000000097
  0
ARC
  5
DB
  8
L9
 10
15.220466999999999
 20
23.433503000000002
 30
0.0
 40
11.991769
 50
329.69836099999998
 51
359.29483499999998
  0
ARC
  5
DC
  8
L9
 10
68.973536999999993
 20
-12.410411
 30
0.0
 40
52.64194599999999
 50
145.53075100000001
 51
146.28090399999999
  0
ARC
  5
DD
  8
L9
 10
23.939935999999999
 20
17.644957000000002
 30
0.0
 40
1.5
 50
304.668227
 51
326.28090400000002
  0
ARC
  5
DE
  8
L9
 10
29.460842
 20
9.6623009999999994
 30
0.0
 40
8.2058330000000002
 50
124.668227
 51
134.21357800000001
  0
ARC
  5
DF
  8
L9
 10
25.133298
 20
14.110303999999999
 30
0.0
 40
2.0
 50
134.21357800000001
 51
172.732553
  0
ARC
  5
E0
  8
L9
 10
75.368409999999983
 20
7.7040449999999989
 30
0.0
 40
52.64194599999999
 50
172.732553
 51
176.327855
  0
ARC
  5
E1
  8
L9
 10
24.331465000000001
 20
10.979542
 30
0.0
 40
1.5
 50
176.327855
 51
187.851485
  0
ARC
  5
E2
  8
L9
 10
76.396015000000006
 20
18.159165999999999
 30
0.0
 40
54.057248999999999
 50
187.851485
 51
197.134793
  0
ARC
  5
E3
  8
L9
 10
25.693750999999999
 20
2.5274030000000001
 30
0.0
 40
1.0
 50
197.134793
 51
270.0
  0
LINE
  5
E4
  8
L9
 10
25.693750999999999
 20
1.5274030000000001
 30
0.0
 11
25.947949999999999
 21
1.5274030000000001
 31
0.0
  0
ARC
  5
E5
  8
L9
 10
25.947949999999999
 20
0.527403
 30
0.0
 40
1.0
 50
3.8225539999999998
 51
90.0
  0
ARC
  5
E6
  8
L9
 10
26.696282
 20
0.577403
 30
0.0
 40
0.25
 50
270.0
 51
363.82255400000003
  0
LINE
  5
E7
  8
L9
 10
26.696282
 20
0.327403
 30
0.0
 11
23.942758000000001
 21
0.327403
 31
0.0
  0
ARC
  5
E8
  8
L9
 10
23.942758000000001
 20
0.8274030000000001
 30
0.0
 40
0.5
 50
194.42279600000001
 51
270.0
  0
LINE
  5
E9
  8
L9
 10
23.458515999999999
 20
0.702865
 30
0.0
 11
23.192637000000001
 21
1.736686999999999
 31
0.0
  0
ARC
  5
EA
  8
L9
 10
23.676879
 20
1.861224999999999
 30
0.0
 40
0.5
 50
166.78313799999989
 51
194.42279600000001
  0
ARC
  5
EB
  8
L9
 10
22.703367
 20
2.0898620000000001
 30
0.0
 40
0.5
 50
346.78313800000001
 51
435.14698600000003
  0
ARC
  5
EC
  8
L9
 10
23.038281000000001
 20
3.3527290000000001
 30
0.0
 40
0.806522
 50
158.383363
 51
255.146986
  0
ARC
  5
ED
  8
L9
 10
21.358813000000001
 20
4.018241999999999
 30
0.0
 40
1.0
 50
338.38336299999997
 51
371.50187
  0
ARC
  5
EE
  8
L9
 10
-7.9949609999999991
 20
-1.954847999999999
 30
0.0
 40
30.955331000000001
 50
11.50187
 51
24.693867999999998
  0
LINE
  5
EF
  8
L9
 10
20.129594000000001
 20
10.977354999999999
 30
0.0
 11
19.215641000000002
 21
12.878178999999999
 31
0.0
  0
ARC
  5
F0
  8
L9
 10
17.863789000000001
 20
12.228182
 30
0.0
 40
1.5
 50
25.679151999999998
 51
59.911326999999993
  0
ARC
  5
F1
  8
L9
 10
19.46405
 20
14.990036
 30
0.0
 40
1.6919699999999991
 50
132.41939099999999
 51
239.911327
  0
ARC
  5
F2
  8
L9
 10
16.973624000000001
 20
17.715547999999998
 30
0.0
 40
2.0
 50
312.41939100000002
 51
366.15184599999998
  0
ARC
  5
F3
  8
L9
 10
31.024809000000001
 20
19.230046999999999
 30
0.0
 40
12.132569
 50
151.646862
 51
186.15184600000001
  0
ARC
  5
F4
  8
L9
 10
23.212530000000001
 20
23.092089999999999
 30
0.0
 40
3.4375
 50
112.544935
 51
146.45026999999999
  0
ARC
  5
F5
  8
L9
 10
23.569140000000001
 20
23.264859000000001
 30
0.0
 40
3.4375
 50
81.105924020814101
 51
119.153363
  0
ARC
  5
F6
  8
L9
 10
24.085144989913399
 20
26.5622284212788
 30
0.0
 40
0.1
 50
344.999987528953
 51
441.10592402081301
  0
LINE
  5
F7
  8
L9
 10
24.1817375669089
 20
26.536346495744102
 30
0.0
 11
23.241947819957499
 21
23.029006465331801
 31
0.0
  0
ARC
  5
F8
  8
L9
 10
23.483429262446101
 20
22.964301651495202
 30
0.0
 40
0.25
 50
164.999987528953
 51
254.999992948928
  0
LINE
  5
F9
  8
L9
 10
23.418724471452698
 20
22.722820202885799
 30
0.0
 11
23.4283845002956
 21
22.7202318046843
 31
0.0
  0
ARC
  5
FA
  8
L9
 10
23.493089291288999
 20
22.961713253293699
 30
0.0
 40
0.25
 50
254.999992948928
 51
345.00000507213002
  0
LINE
  5
FB
  8
L9
 10
23.734570753589299
 20
22.897008513395299
 30
0.0
 11
24.674359417369899
 21
26.404348796956501
 31
0.0
  0
ARC
  5
FC
  8
L9
 10
24.770952002290102
 20
26.3784669009971
 30
0.0
 40
0.1
 50
68.894062704264996
 51
165.00000507212999
  0
ARC
  5
FD
  8
L9
 10
33.895920402175399
 20
28.3784790980446
 30
0.0
 40
0.1
 50
68.894644199980291
 51
165.00000507212999
  0
ARC
  5
FE
  8
L9
 10
32.694140000000012
 20
25.264859000000001
 30
0.0
 40
3.4375
 50
30.846637000000101
 51
68.894644199980902
  0
ARC
  5
FF
  8
L9
 10
32.916589000000002
 20
24.936931999999999
 30
0.0
 40
3.4375
 50
5.8269049999999813
 51
37.455065000000097
  0
ARC
  5
100
  8
L9
 10
24.345466999999999
 20
25.433503000000002
 30
0.0
 40
11.991769
 50
329.69836099999998
 51
359.29483499999998
  0
ARC
  5
101
  8
L9
 10
78.098536999999993
 20
-10.410411
 30
0.0
 40
52.64194599999999
 50
145.53075100000001
 51
146.28090399999999
  0
ARC
  5
102
  8
L9
 10
33.064936000000003
 20
19.644957000000002
 30
0.0
 40
1.5
 50
304.668227
 51
326.28090400000002
  0
ARC
  5
103
  8
L9
 10
38.585842
 20
11.662300999999999
 30
0.0
 40
8.2058330000000002
 50
124.668227
 51
134.21357800000001
  0
ARC
  5
104
  8
L9
 10
34.258298000000003
 20
16.110303999999999
 30
0.0
 40
2.0
 50
134.21357800000001
 51
172.732553
  0
ARC
  5
105
  8
L9
 10
84.493409999999997
 20
9.7040449999999971
 30
0.0
 40
52.64194599999999
 50
172.732553
 51
176.327855
  0
ARC
  5
106
  8
L9
 10
33.456465000000001
 20
12.979542
 30
0.0
 40
1.5
 50
176.327855
 51
187.851485
  0
ARC
  5
107
  8
L9
 10
85.521015000000006
 20
20.159165999999999
 30
0.0
 40
54.057248999999999
 50
187.851485
 51
197.134793
  0
ARC
  5
108
  8
L9
 10
34.818750999999999
 20
4.5274029999999987
 30
0.0
 40
1.0
 50
197.134793
 51
270.0
  0
LINE
  5
109
  8
L9
 10
34.818750999999999
 20
3.5274030000000001
 30
0.0
 11
35.072949999999999
 21
3.5274030000000001
 31
0.0
  0
ARC
  5
10A
  8
L9
 10
35.072949999999999
 20
2.5274030000000001
 30
0.0
 40
1.0
 50
3.8225539999999998
 51
90.0
  0
ARC
  5
10B
  8
L9
 10
35.821281999999997
 20
2.577402999999999
 30
0.0
 40
0.25
 50
270.0
 51
363.82255400000003
  0
LINE
  5
10C
  8
L9
 10
35.821281999999997
 20
2.327402999999999
 30
0.0
 11
33.067757999999998
 21
2.327402999999999
 31
0.0
  0
ARC
  5
10D
  8
L9
 10
33.067757999999998
 20
2.827402999999999
 30
0.0
 40
0.5
 50
194.42279600000001
 51
270.0
  0
LINE
  5
10E
  8
L9
 10
32.583516000000003
 20
2.7028650000000001
 30
0.0
 11
32.317636999999998
 21
3.7366869999999999
 31
0.0
  0
ARC
  5
10F
  8
L9
 10
32.801879
 20
3.8612250000000001
 30
0.0
 40
0.5
 50
166.78313799999989
 51
194.42279600000001
  0
ARC
  5
110
  8
L9
 10
31.828367
 20
4.0898620000000001
 30
0.0
 40
0.5
 50
346.78313800000001
 51
435.14698600000003
  0
ARC
  5
111
  8
L9
 10
32.163280999999998
 20
5.3527290000000001
 30
0.0
 40
0.806522
 50
158.383363
 51
255.146986
  0
ARC
  5
112
  8
L9
 10
30.483813000000001
 20
6.018241999999999
 30
0.0
 40
1.0
 50
338.38336299999997
 51
371.50187
  0
ARC
  5
113
  8
L9
 10
1.130039
 20
0.0451520000000001
 30
0.0
 40
30.955331000000001
 50
11.50187
 51
24.693867999999998
  0
LINE
  5
114
  8
L9
 10
29.254594000000001
 20
12.977354999999999
 30
0.0
 11
28.340641000000002
 21
14.878178999999999
 31
0.0
  0
ARC
  5
115
  8
L9
 10
26.988789000000001
 20
14.228182
 30
0.0
 40
1.5
 50
25.679151999999899
 51
59.911326999999993
  0
ARC
  5
116
  8
L9
 10
28.58905
 20
16.990036
 30
0.0
 40
1.6919699999999991
 50
132.41939099999999
 51
239.911327
  0
ARC
  5
117
  8
L9
 10
26.098624000000001
 20
19.715547999999998
 30
0.0
 40
2.0
 50
312.41939100000002
 51
366.15184599999998
  0
ARC
  5
118
  8
L9
 10
40.149808999999998
 20
21.230046999999999
 30
0.0
 40
12.132569
 50
151.646862
 51
186.15184600000001
  0
ARC
  5
119
  8
L9
 10
32.337530000000001
 20
25.092089999999999
 30
0.0
 40
3.4375
 50
112.544935
 51
146.45026999999999
  0
ARC
  5
11A
  8
L9
 10
32.694140000000012
 20
25.264859000000001
 30
0.0
 40
3.4375
 50
81.106505466757397
 51
119.153363
  0
ARC
  5
11B
  8
L9
 10
33.2101115277001
 20
28.562233657602999
 30
0.0
 40
0.1
 50
344.999987528953
 51
441.10650546675902
  0
LINE
  5
11C
  8
L9
 10
33.306704104695612
 20
28.5363517320684
 30
0.0
 11
32.364447819957498
 21
25.019806465331801
 31
0.0
  0
ARC
  5
11D
  8
L9
 10
32.605929262446111
 20
24.955101651495202
 30
0.0
 40
0.25
 50
164.999987528953
 51
254.99999294892709
  0
LINE
  5
11E
  8
L9
 10
32.541224471452701
 20
24.713620202885799
 30
0.0
 11
32.550884500295602
 21
24.7110318046843
 31
0.0
  0
ARC
  5
11F
  8
L9
 10
32.615589291288998
 20
24.952513253293699
 30
0.0
 40
0.25
 50
254.99999294892709
 51
345.00000507213002
  0
LINE
  5
120
  8
L9
 10
32.857070753589298
 20
24.887808513395299
 30
0.0
 11
33.79932781725531
 21
28.404360994004001
 31
0.0
  0
LINE
  5
121
  8
L15
 10
61.4948197832909
 20
37.000516069472802
 30
0.0
 11
61.751165859441798
 21
37.001259038540198
 31
0.0
  0
ARC
  5
122
  8
L15
 10
61.764048237637702
 20
37.100425798524903
 30
0.0
 40
0.1
 50
262.59842839543899
 51
359.94027506817798
  0
LINE
  5
123
  8
L15
 10
61.8640481833081
 20
37.100321558873212
 30
0.0
 11
61.865797380589001
 21
38.778374297699401
 31
0.0
  0
ARC
  5
124
  8
L15
 10
62.465797682572088
 20
38.777748651543099
 30
0.0
 40
0.6
 50
82.784515545619712
 51
179.94026000000099
  0
ARC
  5
125
  8
L15
 10
62.553718629431799
 20
39.472205206774099
 30
0.0
 40
0.1
 50
262.78451554562298
 51
360.964159278696
  0
LINE
  5
126
  8
L15
 10
62.653704471100788
 20
39.473887902748402
 30
0.0
 11
62.627220779848699
 21
41.047549574719788
 31
0.0
  0
LINE
  5
127
  8
L15
 10
62.627220779848699
 20
41.047549574719788
 30
0.0
 11
62.6556368597522
 21
41.240373871769997
 31
0.0
  0
ARC
  5
128
  8
L15
 10
63.227135941595002
 20
41.057646075696503
 30
0.0
 40
0.6
 50
70.7763023538254
 51
162.26913200000001
  0
ARC
  5
129
  8
L15
 10
63.457615991750089
 20
41.7186142644019
 30
0.0
 40
0.1
 50
250.77630235382401
 51
319.657790707586
  0
LINE
  5
12A
  8
L15
 10
63.533835155599292
 20
41.653879118907788
 30
0.0
 11
63.993314341234601
 21
42.194869937232902
 31
0.0
  0
ARC
  5
12B
  8
L15
 10
67.042080050372405
 20
39.6054638564326
 30
0.0
 40
4.0
 50
102.13666699999899
 51
139.65777499999999
  0
LINE
  5
12C
  8
L15
 10
66.201102662955506
 20
43.516059379902487
 30
0.0
 11
68.339994566917099
 21
43.9760291990005
 31
0.0
  0
ARC
  5
12D
  8
L15
 10
68.361018958833597
 20
43.878264302721007
 30
0.0
 40
0.1
 50
26.637352760812199
 51
102.13664690928
  0
LINE
  5
12E
  8
L15
 10
68.450405172820098
 20
43.92309849446309
 30
0.0
 11
70.205952015613391
 21
40.423053558757289
 31
0.0
  0
ARC
  5
12F
  8
L15
 10
70.42941789602979
 20
40.535138647228997
 30
0.0
 40
0.25
 50
206.63734899999901
 51
301.42784199999602
  0
LINE
  5
130
  8
L15
 10
70.559773775155094
 20
40.321814180663488
 30
0.0
 11
70.5683367641318
 21
40.3270464223232
 31
0.0
  0
ARC
  5
131
  8
L15
 10
70.437979885158796
 20
40.540370871436288
 30
0.0
 40
0.25
 50
301.42784200000199
 51
386.63734899999997
  0
LINE
  5
132
  8
L15
 10
70.661445748122802
 20
40.652456959755789
 30
0.0
 11
68.894230873868693
 21
44.175765460186199
 31
0.0
  0
ARC
  5
133
  8
L15
 10
68.983617092628407
 20
44.220599642411891
 30
0.0
 40
0.1
 50
120.47711364519
 51
206.63734666088601
  0
ARC
  5
134
  8
L15
 10
79.613553405275994
 20
26.1580542133152
 30
0.0
 40
21.058318
 50
64.184784894652992
 51
120.477113645194
  0
ARC
  5
135
  8
L15
 10
88.740275644573217
 20
45.024798356273301
 30
0.0
 40
0.1
 50
342.29859021674298
 51
424.18478489464491
  0
LINE
  5
136
  8
L15
 10
88.835541044585497
 20
44.994392706132089
 30
0.0
 11
87.645638185939603
 21
41.266251019363601
 31
0.0
  0
ARC
  5
137
  8
L15
 10
87.883801685970198
 20
41.190236894010702
 30
0.0
 40
0.25
 50
162.29859021674289
 51
252.298712786571
  0
LINE
  5
138
  8
L15
 10
87.807788070107989
 20
40.952073231367599
 30
0.0
 11
87.817314616613785
 21
40.949032686733098
 31
0.0
  0
ARC
  5
139
  8
L15
 10
87.893328232476009
 20
41.187196349376201
 30
0.0
 40
0.25
 50
252.29871278657899
 51
342.29859021674201
  0
LINE
  5
13A
  8
L15
 10
88.131491732506603
 20
41.111182224023302
 30
0.0
 11
89.308090948606491
 21
44.79764163059459
 31
0.0
  0
ARC
  5
13B
  8
L15
 10
89.403356348618701
 20
44.767235980453492
 30
0.0
 40
0.1
 50
66.606233362749705
 51
162.29859021674599
  0
ARC
  5
13C
  8
L15
 10
86.961510882459905
 20
39.122779344124403
 30
0.0
 40
6.25
 50
342.29859399999998
 51
426.60623336274898
  0
LINE
  5
13D
  8
L15
 10
92.915598439143679
 20
37.222427067270502
 30
0.0
 11
92.716274190792504
 21
36.811288733035497
 31
0.0
  0
ARC
  5
13E
  8
L15
 10
92.941231057552912
 20
36.702227245344602
 30
0.0
 40
0.25
 50
154.135397809175
 51
250.62544735468299
  0
ARC
  5
13F
  8
L15
 10
92.117911334437409
 20
34.360965693282303
 30
0.0
 40
2.2318060000000002
 50
23.7947099999998
 51
70.625447354682095
  0
ARC
  5
140
  8
L15
 10
93.699309006355207
 20
34.669586892695101
 30
0.0
 40
0.75
 50
343.65936699999901
 51
412.10154600000101
  0
ARC
  5
141
  8
L15
 10
95.088259649960975
 20
34.262359401129203
 30
0.0
 40
0.697418
 50
163.659367
 51
257.550603999999
  0
ARC
  5
142
  8
L15
 10
94.776229094786089
 20
32.848974451685798
 30
0.0
 40
0.75
 50
327.76582100000002
 51
437.55060400000002
  0
ARC
  5
143
  8
L15
 10
96.000565278136193
 20
32.076948481078801
 30
0.0
 40
0.697418
 50
147.76582099999999
 51
223.00790799999999
  0
ARC
  5
144
  8
L15
 10
95.289474899566216
 20
31.413663221220499
 30
0.0
 40
0.275
 50
286.23819300000002
 51
403.0079080000009
  0
ARC
  5
145
  8
L15
 10
95.561393344328991
 20
30.4800366565884
 30
0.0
 40
0.697418
 50
106.238192999999
 51
225.66543999999999
  0
ARC
  5
146
  8
L15
 10
94.8818217430602
 20
29.784493562217602
 30
0.0
 40
0.275
 50
296.25581100000801
 51
405.66543999999902
  0
ARC
  5
147
  8
L15
 10
94.782285921629679
 20
29.9862801556825
 30
0.0
 40
0.5
 50
179.69926599999999
 51
296.25581099999698
  0
ARC
  5
148
  8
L15
 10
92.282320161589084
 20
29.9994017356392
 30
0.0
 40
2.0
 50
359.69926600000002
 51
424.58670499999897
  0
ARC
  5
149
  8
L15
 10
94.247685353931502
 20
34.135974107781799
 30
0.0
 40
2.5797259999999991
 50
174.58770699999999
 51
244.58670499999999
  0
ARC
  5
14A
  8
L15
 10
91.430576171948516
 20
34.402878424179796
 30
0.0
 40
0.25
 50
354.587706999999
 51
493.43635300000108
  0
ARC
  5
14B
  8
L15
 10
86.961510882459905
 20
39.122779344124403
 30
0.0
 40
6.25
 50
299.07671199999999
 51
313.436353
  0
ARC
  5
14C
  8
L15
 10
86.456835312567904
 20
37.932783298798107
 30
0.0
 40
5.5496679999999987
 50
243.75883300000001
 51
309.66113899999999
  0
ARC
  5
14D
  8
L15
 10
79.853259224815901
 20
23.8567491567965
 30
0.0
 40
10.0
 50
65.482018000000011
 51
83.272785000000098
  0
ARC
  5
14E
  8
L15
 10
81.148739942875011
 20
-50.943618045408897
 30
0.0
 40
84.731608999999992
 50
90.083887000000004
 51
95.399010000000004
  0
ARC
  5
14F
  8
L15
 10
73.552612889832588
 20
29.429832523731399
 30
0.0
 40
4.0
 50
95.399009999999791
 51
146.332559
  0
ARC
  5
150
  8
L15
 10
75.867971544351903
 20
27.887580211520898
 30
0.0
 40
6.7819820000000011
 50
146.332559
 51
186.92328699999999
  0
ARC
  5
151
  8
L15
 10
23.431821813962099
 20
20.859520806931389
 30
0.0
 40
46.123657000000001
 50
6.2517810000000091
 51
7.738390999999968
  0
ARC
  5
152
  8
L15
 10
59.600281361995791
 20
24.234246450235499
 30
0.0
 40
9.8201739999999997
 50
318.01133777981897
 51
369.66118699999998
  0
ARC
  5
153
  8
L15
 10
66.825065266292896
 20
17.731610052090101
 30
0.0
 40
0.1
 50
207.72963557662499
 51
318.011337779813
  0
LINE
  5
154
  8
L15
 10
66.736549958975104
 20
17.685080057780599
 30
0.0
 11
66.349498839624204
 21
18.421378208800199
 31
0.0
  0
ARC
  5
155
  8
L15
 10
66.128210282853004
 20
18.305053474147002
 30
0.0
 40
0.25
 50
27.729633999998811
 51
120.820377999996
  0
LINE
  5
156
  8
L15
 10
66.000122842944407
 20
18.519747739062701
 30
0.0
 11
65.991523079152998
 21
18.514616871033699
 31
0.0
  0
ARC
  5
157
  8
L15
 10
66.119609519213796
 20
18.299922588665599
 30
0.0
 40
0.25
 50
120.820377999996
 51
207.729634000001
  0
LINE
  5
158
  8
L15
 10
65.898321962290396
 20
18.183597871464801
 30
0.0
 11
66.352502833252998
 21
17.319595886291399
 31
0.0
  0
ARC
  5
159
  8
L15
 10
66.263987503014789
 20
17.2730659355841
 30
0.0
 40
0.1
 50
296.47088348592303
 51
387.729607353022
  0
ARC
  5
15A
  8
L15
 10
61.48147122926229
 20
26.877529325169601
 30
0.0
 40
10.829314
 50
257.74595599999998
 51
296.47088348592803
  0
ARC
  5
15B
  8
L15
 10
58.33941940039
 20
11.090782561608201
 30
0.0
 40
5.2720919999999989
 50
80.792753000000005
 51
107.687956
  0
ARC
  5
15C
  8
L15
 10
88.576734454022599
 20
-115.64490698588
 30
0.0
 40
135.55089799999999
 50
103.584965
 51
104.014804
  0
ARC
  5
15D
  8
L15
 10
55.942957315698202
 20
17.6104045012945
 30
0.0
 40
1.75
 50
179.50780900000001
 51
263.67039
  0
ARC
  5
15E
  8
L15
 10
54.6930035388935
 20
17.621142435393299
 30
0.0
 40
0.5
 50
126.81859900000001
 51
179.50780900000001
  0
ARC
  5
15F
  8
L15
 10
54.243540619689398
 20
18.221544670017298
 30
0.0
 40
0.25
 50
306.81859899999898
 51
344.12538599999999
  0
ARC
  5
160
  8
L15
 10
59.7175754681098
 20
16.664846658396598
 30
0.0
 40
5.4410780000000001
 50
157.061938
 51
164.12538599999999
  0
ARC
  5
161
  8
L15
 10
55.167205057128001
 20
18.590562040323999
 30
0.0
 40
0.5
 50
128.360086
 51
157.061938
  0
ARC
  5
162
  8
L15
 10
55.942957315698202
 20
17.6104045012945
 30
0.0
 40
1.75
 50
119.82367600000001
 51
128.360086
  0
LINE
  5
163
  8
L15
 10
55.072624995630903
 20
19.128634341667599
 30
0.0
 11
58.004408999999988
 21
20.809291999999999
 31
0.0
  0
ARC
  5
164
  8
L15
 10
62.142048354459291
 20
18.264017106010201
 30
0.0
 40
4.8578269999999986
 50
104.210354
 51
148.4021919999999
  0
ARC
  5
165
  8
L15
 10
60.704054395167702
 20
23.942600526738101
 30
0.0
 40
1.0
 50
284.210354
 51
378.08780000000002
  0
ARC
  5
166
  8
L15
 10
83.582793252221293
 20
31.415133679037002
 30
0.0
 40
23.068142000000002
 50
166.726376093878
 51
198.08779999999999
  0
ARC
  5
167
  8
L15
 10
61.495905961912896
 20
36.625517893025403
 30
0.0
 40
0.375
 50
90.166004179218604
 51
166.726376093878
  0
ARC
  5
168
  8
L11
 10
40.87523149073759
 20
22.8298094360355
 30
0.0
 40
2.0
 50
74.763725999999707
 51
130.947576
  0
ARC
  5
169
  8
L11
 10
40.666563675984612
 20
22.0637007596095
 30
0.0
 40
2.794019
 50
30.9663240000001
 51
74.763726000000005
  0
ARC
  5
16A
  8
L11
 10
42.633615247422107
 20
23.244051509840201
 30
0.0
 40
0.5
 50
337.32882300000102
 51
390.96632399999999
  0
ARC
  5
16B
  8
L11
 10
42.259495080433801
 20
23.400328913573599
 30
0.0
 40
0.905449
 50
194.708067
 51
337.328823
  0
LINE
  5
16C
  8
L11
 10
41.383715365680892
 20
23.170440349705402
 30
0.0
 11
41.190857801526398
 21
23.269106448246902
 31
0.0
  0
ARC
  5
16D
  8
L11
 10
40.735401549408991
 20
22.378848375446001
 30
0.0
 40
1.0
 50
62.905734999999709
 51
153.71942999999999
  0
ARC
  5
16E
  8
L11
 10
44.063117348092099
 20
20.735592749589799
 30
0.0
 40
4.7113319999999987
 50
153.71942999999999
 51
192.86835500000001
  0
ARC
  5
16F
  8
L11
 10
40.444998085320897
 20
19.9090353207249
 30
0.0
 40
1.0
 50
192.86835500000001
 51
268.61211300000002
  0
LINE
  5
170
  8
L11
 10
40.420777779403288
 20
18.9093290753937
 30
0.0
 11
40.424347827349401
 21
18.909242596133598
 31
0.0
  0
LINE
  5
171
  8
L11
 10
40.424347827349401
 20
18.909242596133598
 30
0.0
 11
40.509568872820402
 21
18.9382223694044
 31
0.0
  0
ARC
  5
172
  8
L11
 10
40.429081366041387
 20
19.174910989497299
 30
0.0
 40
0.25
 50
288.780959999998
 51
372.84941300000202
  0
ARC
  5
173
  8
L11
 10
41.555595599707488
 20
19.431870613694599
 30
0.0
 40
0.905449
 50
22.818530999999702
 51
192.849413
  0
ARC
  5
174
  8
L11
 10
41.929312965087703
 20
19.589109339962299
 30
0.0
 40
0.5
 50
329.18103000000002
 51
382.81853099999898
  0
ARC
  5
175
  8
L11
 10
39.959231330471802
 20
20.764397594739499
 30
0.0
 40
2.794019
 50
283.978206
 51
329.18103000000002
  0
ARC
  5
176
  8
L11
 10
40.694522881341889
 20
17.810519314832
 30
0.0
 40
0.25
 50
103.978206000002
 51
220.968965
  0
ARC
  5
177
  8
L11
 10
44.063117348092099
 20
20.735592749589799
 30
0.0
 40
4.7113319999999987
 50
220.968965
 51
252.33488299999999
  0
ARC
  5
178
  8
L11
 10
42.820094692619392
 20
16.7102747621608
 30
0.0
 40
0.5
 50
248.08140599999999
 51
352.38768500000009
  0
ARC
  5
179
  8
L11
 10
44.213157158990597
 20
16.5240959014364
 30
0.0
 40
0.905449
 50
32.818531000000199
 51
172.387685
  0
ARC
  5
17A
  8
L11
 10
44.553892810839898
 20
16.7438410291727
 30
0.0
 40
0.5
 50
339.18102999999991
 51
392.81853100000001
  0
ARC
  5
17B
  8
L11
 10
42.409655136192598
 20
17.559172237737901
 30
0.0
 40
2.794019
 50
309.10208399999999
 51
339.18102999999991
  0
ARC
  5
17C
  8
L11
 10
42.910446471037901
 20
16.942995659077301
 30
0.0
 40
2.0
 50
291.22859700000009
 51
309.10208399999999
  0
ARC
  5
17D
  8
L11
 10
43.725148011808201
 20
14.845673798294699
 30
0.0
 40
0.25
 50
111.228596999998
 51
173.94366599999901
  0
ARC
  5
17E
  8
L11
 10
42.736134985542613
 20
14.9506062628938
 30
0.0
 40
0.7445649999999999
 50
176.338356
 51
353.94366599999898
  0
ARC
  5
17F
  8
L11
 10
41.743599946494093
 20
15.0141230921367
 30
0.0
 40
0.25
 50
356.33835599999901
 51
421.84461700000298
  0
ARC
  5
180
  8
L11
 10
45.517196675814191
 20
22.065030297004299
 30
0.0
 40
7.7472079999999997
 50
196.31063800000001
 51
241.844617
  0
ARC
  5
181
  8
L11
 10
37.843247152505299
 20
19.814451937389801
 30
0.0
 40
0.25
 50
17.413084999999601
 51
150.66680699999901
  0
ARC
  5
182
  8
L11
 10
48.815039364057498
 20
13.649008865632799
 30
0.0
 40
12.835425000000001
 50
150.66680700000001
 51
211.859139
  0
ARC
  5
183
  8
L11
 10
38.762641137740012
 20
7.4018839029009289
 30
0.0
 40
1.0
 50
211.859139
 51
268.61211300000099
  0
LINE
  5
184
  8
L11
 10
38.738420831822403
 20
6.4021776575697089
 30
0.0
 11
39.328869865605498
 21
6.3878721968788401
 31
0.0
  0
LINE
  5
185
  8
L11
 10
39.328869865605498
 20
6.3878721968788401
 30
0.0
 11
39.414090911076499
 21
6.4168519701495992
 31
0.0
  0
ARC
  5
186
  8
L11
 10
39.333603404297499
 20
6.6535405902425389
 30
0.0
 40
0.25
 50
288.78095999999999
 51
372.849412999999
  0
ARC
  5
187
  8
L11
 10
40.460117637963599
 20
6.9105002144398604
 30
0.0
 40
0.905449
 50
22.818530999999801
 51
192.849413
  0
ARC
  5
188
  8
L11
 10
40.833835003343793
 20
7.067738940707569
 30
0.0
 40
0.5
 50
329.18103000000002
 51
382.81853100000001
  0
ARC
  5
189
  8
L11
 10
38.863753368727899
 20
8.2430271954846912
 30
0.0
 40
2.794019
 50
283.978206
 51
329.18103000000002
  0
ARC
  5
18A
  8
L11
 10
39.599044919598001
 20
5.2891489155772389
 30
0.0
 40
0.25
 50
103.978206
 51
220.968965
  0
ARC
  5
18B
  8
L11
 10
42.967639386348289
 20
8.2142223503350493
 30
0.0
 40
4.7113319999999987
 50
220.968965
 51
252.33488299999999
  0
ARC
  5
18C
  8
L11
 10
41.724616730875503
 20
4.1889043629060501
 30
0.0
 40
0.5
 50
248.08140599999899
 51
352.38768499999901
  0
ARC
  5
18D
  8
L11
 10
43.117679197246801
 20
4.0027255021815886
 30
0.0
 40
0.905449
 50
32.818530999999901
 51
172.387685
  0
ARC
  5
18E
  8
L11
 10
43.458414849096002
 20
4.2224706299179591
 30
0.0
 40
0.5
 50
339.18103000000099
 51
392.81853099999898
  0
ARC
  5
18F
  8
L11
 10
41.314177174448787
 20
5.0378018384831691
 30
0.0
 40
2.794019
 50
309.10208399999999
 51
339.18102999999991
  0
ARC
  5
190
  8
L11
 10
41.81496850929399
 20
4.4216252598225401
 30
0.0
 40
2.0
 50
291.22859700000009
 51
309.10208399999999
  0
ARC
  5
191
  8
L11
 10
42.726673778629802
 20
9.8353357126234098
 30
0.0
 40
7.2804119999999992
 50
245.52630099999999
 51
268.52403600000002
  0
ARC
  5
192
  8
L11
 10
39.6070080795838
 20
2.9815196544230589
 30
0.0
 40
0.25
 50
65.52630099999989
 51
171.13483100000099
  0
ARC
  5
193
  8
L11
 10
38.865967809900297
 20
3.0971013929433999
 30
0.0
 40
0.5
 50
232.050546
 51
351.13483100000002
  0
ARC
  5
194
  8
L11
 10
46.423257137460702
 20
12.787599499377301
 30
0.0
 40
12.788954
 50
213.096789
 51
232.050546
  0
LINE
  5
195
  8
L11
 10
35.709320674178102
 20
5.804127369764819
 30
0.0
 11
36.336491594237003
 21
6.2286472487027789
 31
0.0
  0
ARC
  5
196
  8
L11
 10
36.196356313627
 20
6.4356786601947196
 30
0.0
 40
0.25
 50
304.09327600000103
 51
391.84438699999799
  0
ARC
  5
197
  8
L11
 10
46.423257137460702
 20
12.787599499377301
 30
0.0
 40
11.788954
 50
211.79675700000001
 51
211.84438700000001
  0
ARC
  5
198
  8
L11
 10
36.191079429638712
 20
6.4441829322608299
 30
0.0
 40
0.25
 50
31.796756999999101
 51
124.093276000001
  0
LINE
  5
199
  8
L11
 10
36.050944149028702
 20
6.6512143437527591
 30
0.0
 11
35.439224598861998
 21
6.2371535893218297
 31
0.0
  0
ARC
  5
19A
  8
L11
 10
46.423257137460702
 20
12.787599499377301
 30
0.0
 40
12.788954
 50
189.291766
 51
210.810193
  0
ARC
  5
19B
  8
L11
 10
34.048828273415509
 20
10.763034958791501
 30
0.0
 40
0.25
 50
171.859298
 51
189.291765999999
  0
ARC
  5
19C
  8
L11
 10
34.196781757963599
 20
10.7418714293346
 30
0.0
 40
0.399459
 50
69.9407839999988
 51
171.859298
  0
ARC
  5
19D
  8
L11
 10
34.419540807357201
 20
11.3519331680293
 30
0.0
 40
0.25
 50
249.940783999996
 51
367.63859500000001
  0
ARC
  5
19E
  8
L11
 10
49.123318965325488
 20
13.323918460872701
 30
0.0
 40
14.585425000000001
 50
130.947576
 51
187.63859500000001
  0
ARC
  5
19F
  8
L11
 10
52.327632918516002
 20
20.932466329388799
 30
0.0
 40
2.0
 50
68.263725999999593
 51
124.447576
  0
ARC
  5
1A0
  8
L11
 10
52.033580486325
 20
20.194904177342298
 30
0.0
 40
2.794019
 50
24.466324000000199
 51
68.263726000000105
  0
ARC
  5
1A1
  8
L11
 10
54.121607064669099
 20
21.144990903064301
 30
0.0
 40
0.5
 50
330.82882299999898
 51
384.46632399999902
  0
ARC
  5
1A2
  8
L11
 10
53.767582900450492
 20
21.3426153383304
 30
0.0
 40
0.905449
 50
188.208067
 51
330.828823
  0
LINE
  5
1A3
  8
L11
 10
52.871408699861199
 20
21.213345609591901
 30
0.0
 11
52.690960171407788
 21
21.333209564273801
 31
0.0
  0
ARC
  5
1A4
  8
L11
 10
52.137651582888097
 20
20.500233310320301
 30
0.0
 40
1.0
 50
56.405734999999893
 51
147.21942999999999
  0
ARC
  5
1A5
  8
L11
 10
55.257954526260903
 20
18.490832645870299
 30
0.0
 40
4.7113319999999987
 50
147.21942999999999
 51
186.36835500000001
  0
ARC
  5
1A6
  8
L11
 10
51.569524098978789
 20
18.079171175791
 30
0.0
 40
1.0
 50
186.36835500000001
 51
262.11211300000002
  0
LINE
  5
1A7
  8
L11
 10
51.432289524887793
 20
17.088633002954101
 30
0.0
 11
51.435826834320288
 21
17.0881429386944
 31
0.0
  0
LINE
  5
1A8
  8
L11
 10
51.435826834320288
 20
17.0881429386944
 30
0.0
 11
51.523780670080207
 21
17.107289129572099
 31
0.0
  0
ARC
  5
1A9
  8
L11
 10
51.470604461067801
 20
17.351567725490899
 30
0.0
 40
0.25
 50
282.28096000000102
 51
366.34941300000401
  0
ARC
  5
1AA
  8
L11
 10
52.618965953925198
 20
17.479350544532299
 30
0.0
 40
0.905449
 50
16.318530999999702
 51
186.349413
  0
ARC
  5
1AB
  8
L11
 10
53.008080939286899
 20
17.59327251077239
 30
0.0
 40
0.5
 50
322.68103000000002
 51
376.31853099999898
  0
ARC
  5
1AC
  8
L11
 10
51.183709681291589
 20
18.984025415449899
 30
0.0
 40
2.794019
 50
277.478206
 51
322.68103000000002
  0
ARC
  5
1AD
  8
L11
 10
51.579886157588298
 20
15.9658977248246
 30
0.0
 40
0.25
 50
97.478205999998792
 51
214.46896500000099
  0
ARC
  5
1AE
  8
L11
 10
55.257954526260903
 20
18.490832645870299
 30
0.0
 40
4.7113319999999987
 50
214.468965
 51
245.83488299999999
  0
ARC
  5
1AF
  8
L11
 10
53.567243267200013
 20
14.6321041427979
 30
0.0
 40
0.5
 50
241.58140599999899
 51
345.88768499999998
  0
ARC
  5
1B0
  8
L11
 10
54.930274881616292
 20
14.289422918487499
 30
0.0
 40
0.905449
 50
26.3185310000001
 51
165.887685
  0
ARC
  5
1B1
  8
L11
 10
55.293696090188888
 20
14.469183121993799
 30
0.0
 40
0.5
 50
332.68102999999991
 51
386.31853100000001
  0
ARC
  5
1B2
  8
L11
 10
53.255539997872802
 20
15.5220078597313
 30
0.0
 40
2.794019
 50
302.60208399999999
 51
332.68102999999991
  0
ARC
  5
1B3
  8
L11
 10
53.68335900478889
 20
14.8531009645154
 30
0.0
 40
2.0
 50
284.72859700000009
 51
302.60208399999999
  0
ARC
  5
1B4
  8
L11
 10
54.255399951528389
 20
12.6770341586697
 30
0.0
 40
0.25
 50
104.728596999997
 51
167.44366599999901
  0
ARC
  5
1B5
  8
L11
 10
53.284623135954497
 20
12.8932515552737
 30
0.0
 40
0.7445649999999999
 50
169.838356
 51
347.44366600000001
  0
ARC
  5
1B6
  8
L11
 10
52.305658564581698
 20
13.0687182453688
 30
0.0
 40
0.25
 50
349.83835599999901
 51
415.34461700000293
  0
ARC
  5
1B7
  8
L11
 10
56.853183425077702
 20
19.6471179238894
 30
0.0
 40
7.7472079999999997
 50
189.8106379999999
 51
235.344617
  0
ARC
  5
1B8
  8
L11
 10
48.973790453690299
 20
18.279722355112899
 30
0.0
 40
0.25
 50
10.9130849999995
 51
144.16680699999901
  0
ARC
  5
1B9
  8
L11
 10
59.177106431394208
 20
10.911869502097501
 30
0.0
 40
12.835425000000001
 50
144.16680700000001
 51
205.359139
  0
ARC
  5
1BA
  8
L11
 10
48.482131849081
 20
5.8428657455264688
 30
0.0
 40
1.0
 50
205.359139
 51
262.11211300000002
  0
LINE
  5
1BB
  8
L11
 10
48.344897274990011
 20
4.8523275726895703
 30
0.0
 11
48.929931393043702
 21
4.7712733413742301
 31
0.0
  0
LINE
  5
1BC
  8
L11
 10
48.929931393043702
 20
4.7712733413742301
 30
0.0
 11
49.017885228803607
 21
4.7904195322519687
 31
0.0
  0
ARC
  5
1BD
  8
L11
 10
48.964709019791087
 20
5.034698128170799
 30
0.0
 40
0.25
 50
282.28095999999999
 51
366.349412999999
  0
ARC
  5
1BE
  8
L11
 10
50.113070512648612
 20
5.16248094721219
 30
0.0
 40
0.905449
 50
16.3185310000001
 51
186.349413
  0
ARC
  5
1BF
  8
L11
 10
50.502185498010299
 20
5.2764029134522987
 30
0.0
 40
0.5
 50
322.681029999999
 51
376.31853100000001
  0
ARC
  5
1C0
  8
L11
 10
48.677814240015003
 20
6.6671558181297694
 30
0.0
 40
2.794019
 50
277.478206
 51
322.68103000000002
  0
ARC
  5
1C1
  8
L11
 10
49.073990716311599
 20
3.64902812750447
 30
0.0
 40
0.25
 50
97.478205999993705
 51
214.46896500000199
  0
ARC
  5
1C2
  8
L11
 10
52.752059084984211
 20
6.1739630485501591
 30
0.0
 40
4.7113319999999987
 50
214.468965
 51
245.83488299999999
  0
ARC
  5
1C3
  8
L11
 10
51.061347825923399
 20
2.3152345454778098
 30
0.0
 40
0.5
 50
241.58140599999899
 51
345.88768499999901
  0
ARC
  5
1C4
  8
L11
 10
52.424379440339607
 20
1.97255332116738
 30
0.0
 40
0.905449
 50
26.318530999999901
 51
165.887685
  0
ARC
  5
1C5
  8
L11
 10
52.787800648912203
 20
2.1523135246736689
 30
0.0
 40
0.5
 50
332.68103000000099
 51
386.31853099999898
  0
ARC
  5
1C6
  8
L11
 10
50.749644556596202
 20
3.2051382624111291
 30
0.0
 40
2.794019
 50
302.60208399999999
 51
332.68102999999991
  0
ARC
  5
1C7
  8
L11
 10
51.177463563512191
 20
2.5362313671952301
 30
0.0
 40
2.0
 50
284.72859700000009
 51
302.60208399999999
  0
ARC
  5
1C8
  8
L11
 10
52.696157681462303
 20
7.8119337413823793
 30
0.0
 40
7.2804119999999992
 50
239.02630099999999
 51
262.02403600000002
  0
ARC
  5
1C9
  8
L11
 10
48.820671639408211
 20
1.355331184983769
 30
0.0
 40
0.25
 50
59.026301000001709
 51
164.63483099999999
  0
ARC
  5
1CA
  8
L11
 10
48.097479107781098
 20
1.55405808746736
 30
0.0
 40
0.5
 50
225.55054600000099
 51
344.63483100000002
  0
ARC
  5
1CB
  8
L11
 10
56.703184617510303
 20
10.326754834253601
 30
0.0
 40
12.788954
 50
206.596789
 51
225.550546
  0
LINE
  5
1CC
  8
L11
 10
45.267567395754789
 20
4.6010255111175589
 30
0.0
 11
45.938763785228197
 21
4.9518187512731
 31
0.0
  0
ARC
  5
1CD
  8
L11
 10
45.8229659355585
 20
5.1733830990998202
 30
0.0
 40
0.25
 50
297.59327600000199
 51
385.34438699999799
  0
ARC
  5
1CE
  8
L11
 10
56.703184617510303
 20
10.326754834253601
 30
0.0
 40
11.788954
 50
205.29675700000001
 51
205.34438700000001
  0
ARC
  5
1CF
  8
L11
 10
45.81868568307079
 20
5.182430064703869
 30
0.0
 40
0.25
 50
25.2967569999993
 51
117.593275999997
  0
LINE
  5
1D0
  8
L11
 10
45.702887833401093
 20
5.4039944125305794
 30
0.0
 11
45.048227496691602
 21
5.0618439193913094
 31
0.0
  0
ARC
  5
1D1
  8
L11
 10
56.703184617510303
 20
10.326754834253601
 30
0.0
 40
12.788954
 50
182.791766
 51
204.310193
  0
ARC
  5
1D2
  8
L11
 10
44.179113155648089
 20
9.7160296026790505
 30
0.0
 40
0.25
 50
165.35929800000099
 51
182.791766
  0
ARC
  5
1D3
  8
L11
 10
44.323719794295101
 20
9.6782533055048603
 30
0.0
 40
0.399459
 50
63.44078399999929
 51
165.359298
  0
ARC
  5
1D4
  8
L11
 10
44.614107865786991
 20
10.259176439009799
 30
0.0
 40
0.25
 50
243.440783999996
 51
361.13859500000001
  0
ARC
  5
1D5
  8
L11
 10
59.446603088309288
 20
10.553970583774801
 30
0.0
 40
14.585425000000001
 50
124.447576
 51
181.13859500000001
  0
ARC
  5
1D6
  8
L12
 10
89.542125298365903
 20
9.3600661127956304
 30
0.0
 40
1.668795
 50
96.960269766407805
 51
176.63690776640701
  0
ARC
  5
1D7
  8
L12
 10
89.352017409710896
 20
10.9172993584259
 30
0.0
 40
0.1
 50
340.30557676640598
 51
456.960269766404
  0
LINE
  5
1D8
  8
L12
 10
89.446167482641911
 20
10.883599009287
 30
0.0
 11
89.228379403125999
 21
10.2751538277417
 31
0.0
  0
ARC
  5
1D9
  8
L12
 10
89.463755085446493
 20
10.1909029575612
 30
0.0
 40
0.25
 50
160.305576766408
 51
253.33261076640699
  0
LINE
  5
1DA
  8
L12
 10
89.392051372975104
 20
9.9514061343279305
 30
0.0
 11
89.401644825978082
 21
9.9485342582025993
 31
0.0
  0
ARC
  5
1DB
  8
L12
 10
89.473348538449486
 20
10.1880310814359
 30
0.0
 40
0.25
 50
253.33261076640599
 51
340.30557676640802
  0
LINE
  5
1DC
  8
L12
 10
89.708724220769994
 20
10.103780211255399
 30
0.0
 11
90.015520143114301
 21
10.9608906251362
 31
0.0
  0
ARC
  5
1DD
  8
L12
 10
90.109670475381094
 20
10.927190255196701
 30
0.0
 40
0.1
 50
87.736506599513305
 51
160.30557197947201
  0
ARC
  5
1DE
  8
L12
 10
89.756719573606574
 20
1.9975968975296099
 30
0.0
 40
9.0365660000000005
 50
85.615607766407294
 51
87.736506599512907
  0
ARC
  5
1DF
  8
L12
 10
90.390206210729204
 20
10.2599129765619
 30
0.0
 40
0.75
 50
71.092909766407203
 51
85.615607766407493
  0
ARC
  5
1E0
  8
L12
 10
118.293594582368
 20
91.726143612219516
 30
0.0
 40
85.362403000000015
 50
251.09290976640699
 51
253.15936622781601
  0
ARC
  5
1E1
  8
L12
 10
93.635625105645005
 20
10.2638475132301
 30
0.0
 40
0.25
 50
253.15936622781601
 51
276.63466084957099
  0
ARC
  5
1E2
  8
L12
 10
93.707836397053214
 20
9.6430331050587803
 30
0.0
 40
0.375
 50
320.096994766406
 51
456.63466084957503
  0
ARC
  5
1E3
  8
L12
 10
88.080238382959095
 20
14.3489373903546
 30
0.0
 40
7.7108979999999994
 50
268.46075485993998
 51
320.09699476640702
  0
ARC
  5
1E4
  8
L12
 10
87.875796995819698
 20
6.7407857037996299
 30
0.0
 40
0.1
 50
180.305576766407
 51
268.46075485993202
  0
LINE
  5
1E5
  8
L12
 10
87.775798418031783
 20
6.7402523742588603
 30
0.0
 11
87.770978302248494
 21
7.644017656805989
 31
0.0
  0
ARC
  5
1E6
  8
L12
 10
87.520981857778807
 20
7.6426843329540803
 30
0.0
 40
0.25
 50
0.305576766407502
 51
92.445223003155576
  0
ARC
  5
1E7
  8
L12
 10
87.500981999999993
 20
7.6426309999999988
 30
0.0
 40
0.25
 50
87.860353763251794
 51
180.0
  0
LINE
  5
1E8
  8
L12
 10
87.250981999999993
 20
7.6426309999999988
 30
0.0
 11
87.250981999999993
 21
6.738852863810779
 31
0.0
  0
ARC
  5
1E9
  8
L12
 10
87.150981999999985
 20
6.738852863810779
 30
0.0
 40
0.1
 50
271.844821906471
 51
360.0
  0
ARC
  5
1EA
  8
L12
 10
86.905967000000004
 20
14.345806
 30
0.0
 40
7.7108979999999994
 50
220.20858200000001
 51
271.84482190646798
  0
ARC
  5
1EB
  8
L12
 10
81.303546999999995
 20
9.6099550000000011
 30
0.0
 40
0.375
 50
83.670915916832797
 51
220.20858200000001
  0
ARC
  5
1EC
  8
L12
 10
81.372446277778295
 20
10.2311457030225
 30
0.0
 40
0.25
 50
263.67091591683402
 51
287.14621053859099
  0
ARC
  5
1ED
  8
L12
 10
56.280365000000003
 20
91.560775000000007
 30
0.0
 40
85.362403000000015
 50
287.14621053859202
 51
289.21266700000001
  0
ARC
  5
1EE
  8
L12
 10
84.617839999999987
 20
10.24452
 30
0.0
 40
0.75
 50
94.689968999999905
 51
109.212667
  0
ARC
  5
1EF
  8
L12
 10
85.295383000000001
 20
1.9856999999999989
 30
0.0
 40
9.0365660000000005
 50
92.569070166894576
 51
94.68996900000009
  0
ARC
  5
1F0
  8
L12
 10
84.894812958689116
 20
10.9132839684855
 30
0.0
 40
0.1
 50
20.000004786937701
 51
92.569070166897006
  0
LINE
  5
1F1
  8
L12
 10
84.988782217910199
 20
10.947485990669
 30
0.0
 11
85.300145000000001
 21
10.092024
 31
0.0
  0
ARC
  5
1F2
  8
L12
 10
85.535067999999995
 20
10.177529
 30
0.0
 40
0.25
 50
200.00000000000099
 51
286.97296600000101
  0
LINE
  5
1F3
  8
L12
 10
85.608047999999997
 20
9.9384179999999986
 30
0.0
 11
85.617625999999987
 21
9.9413409999999995
 31
0.0
  0
ARC
  5
1F4
  8
L12
 10
85.544646000000014
 20
10.180452000000001
 30
0.0
 40
0.25
 50
286.97296600000101
 51
380.0
  0
LINE
  5
1F5
  8
L12
 10
85.779568999999995
 20
10.265957
 30
0.0
 11
85.558538999999996
 21
10.873232
 31
0.0
  0
ARC
  5
1F6
  8
L12
 10
85.652507999999983
 20
10.907434
 30
0.0
 40
0.1
 50
83.345307000000489
 51
200.00000000000099
  0
ARC
  5
1F7
  8
L12
 10
85.470708000000002
 20
9.3492090000000001
 30
0.0
 40
1.668795
 50
3.6686689999999791
 51
83.345307000000204
  0
LINE
  5
1F8
  8
L12
 10
87.510981999999984
 20
7.8926309999999988
 30
0.0
 11
87.500981999999993
 21
7.8926309999999988
 31
0.0
  0
ARC
  5
1F9
  8
L12
 10
87.505981999999975
 20
9.5176309999999997
 30
0.0
 40
0.375
 50
180.0
 51
270.15278838267801
  0
ARC
  5
1FA
  8
L12
 10
87.505981999999975
 20
9.5176309999999997
 30
0.0
 40
0.375
 50
270.15278838372899
 51
360.305576766407
  0
ARC
  5
1FB
  8
L12
 10
89.542125298365903
 20
3.3600661127956291
 30
0.0
 40
1.668795
 50
96.960269766407805
 51
176.63690776640701
  0
ARC
  5
1FC
  8
L12
 10
89.352017409710896
 20
4.9172993584258888
 30
0.0
 40
0.1
 50
340.30557676640598
 51
456.960269766404
  0
LINE
  5
1FD
  8
L12
 10
89.446167482641911
 20
4.8835990092870389
 30
0.0
 11
89.228379403125999
 21
4.2751538277416588
 31
0.0
  0
ARC
  5
1FE
  8
L12
 10
89.463755085446493
 20
4.19090295756118
 30
0.0
 40
0.25
 50
160.305576766408
 51
253.33261076640699
  0
LINE
  5
1FF
  8
L12
 10
89.392051372975104
 20
3.951406134327919
 30
0.0
 11
89.401644825978082
 21
3.9485342582025988
 31
0.0
  0
ARC
  5
200
  8
L12
 10
89.473348538449486
 20
4.1880310814358497
 30
0.0
 40
0.25
 50
253.33261076640599
 51
340.30557676640802
  0
LINE
  5
201
  8
L12
 10
89.708724220769994
 20
4.103780211255379
 30
0.0
 11
90.015520143114301
 21
4.9608906251362388
 31
0.0
  0
ARC
  5
202
  8
L12
 10
90.109670475381094
 20
4.9271902551967202
 30
0.0
 40
0.1
 50
87.736506599513305
 51
160.30557197947201
  0
ARC
  5
203
  8
L12
 10
89.756719573606574
 20
-4.0024031024703897
 30
0.0
 40
9.0365660000000005
 50
85.615607766407294
 51
87.736506599512907
  0
ARC
  5
204
  8
L12
 10
90.390206210729204
 20
4.259912976561929
 30
0.0
 40
0.75
 50
71.092909766407203
 51
85.615607766407493
  0
ARC
  5
205
  8
L12
 10
118.293594582368
 20
85.726143612219488
 30
0.0
 40
85.362403000000015
 50
251.09290976640699
 51
253.15936622781601
  0
ARC
  5
206
  8
L12
 10
93.635625105645005
 20
4.2638475132301501
 30
0.0
 40
0.25
 50
253.15936622781601
 51
276.63466084957099
  0
ARC
  5
207
  8
L12
 10
93.707836397053214
 20
3.643033105058779
 30
0.0
 40
0.375
 50
320.096994766406
 51
456.63466084957503
  0
ARC
  5
208
  8
L12
 10
88.080238382959095
 20
8.3489373903545587
 30
0.0
 40
7.7108979999999994
 50
268.46075485993998
 51
320.09699476640702
  0
ARC
  5
209
  8
L12
 10
87.875796995819698
 20
0.7407857037996301
 30
0.0
 40
0.1
 50
180.305576766407
 51
268.46075485993202
  0
LINE
  5
20A
  8
L12
 10
87.775798418031783
 20
0.740252374258863
 30
0.0
 11
87.770978302248494
 21
1.6440176568059901
 31
0.0
  0
ARC
  5
20B
  8
L12
 10
87.520981857778807
 20
1.6426843329540799
 30
0.0
 40
0.25
 50
0.305576766407502
 51
92.445223003155576
  0
ARC
  5
20C
  8
L12
 10
87.500981999999993
 20
1.642631
 30
0.0
 40
0.25
 50
87.860353763251794
 51
180.0
  0
LINE
  5
20D
  8
L12
 10
87.250981999999993
 20
1.642631
 30
0.0
 11
87.250981999999993
 21
0.7388528638107801
 31
0.0
  0
ARC
  5
20E
  8
L12
 10
87.150981999999985
 20
0.7388528638107801
 30
0.0
 40
0.1
 50
271.844821906471
 51
360.0
  0
ARC
  5
20F
  8
L12
 10
86.905967000000004
 20
8.3458059999999996
 30
0.0
 40
7.7108979999999994
 50
220.20858200000001
 51
271.84482190646798
  0
ARC
  5
210
  8
L12
 10
81.303546999999995
 20
3.6099549999999998
 30
0.0
 40
0.375
 50
83.670915916832797
 51
220.20858200000001
  0
ARC
  5
211
  8
L12
 10
81.372446277778295
 20
4.2311457030225288
 30
0.0
 40
0.25
 50
263.67091591683402
 51
287.14621053859099
  0
ARC
  5
212
  8
L12
 10
56.280365000000003
 20
85.560775000000007
 30
0.0
 40
85.362403000000015
 50
287.14621053859202
 51
289.21266700000001
  0
ARC
  5
213
  8
L12
 10
84.617839999999987
 20
4.2445199999999987
 30
0.0
 40
0.75
 50
94.689968999999905
 51
109.212667
  0
ARC
  5
214
  8
L12
 10
85.295383000000001
 20
-4.0143000000000004
 30
0.0
 40
9.0365660000000005
 50
92.569070166894576
 51
94.68996900000009
  0
ARC
  5
215
  8
L12
 10
84.894812958689116
 20
4.9132839684855494
 30
0.0
 40
0.1
 50
20.000004786937701
 51
92.569070166897006
  0
LINE
  5
216
  8
L12
 10
84.988782217910199
 20
4.9474859906690396
 30
0.0
 11
85.300145000000001
 21
4.0920239999999994
 31
0.0
  0
ARC
  5
217
  8
L12
 10
85.535067999999995
 20
4.1775289999999989
 30
0.0
 40
0.25
 50
200.00000000000099
 51
286.97296600000101
  0
LINE
  5
218
  8
L12
 10
85.608047999999997
 20
3.938418
 30
0.0
 11
85.617625999999987
 21
3.941341
 31
0.0
  0
ARC
  5
219
  8
L12
 10
85.544646000000014
 20
4.1804519999999989
 30
0.0
 40
0.25
 50
286.97296600000101
 51
380.0
  0
LINE
  5
21A
  8
L12
 10
85.779568999999995
 20
4.2659570000000002
 30
0.0
 11
85.558538999999996
 21
4.8732319999999989
 31
0.0
  0
ARC
  5
21B
  8
L12
 10
85.652507999999983
 20
4.9074339999999994
 30
0.0
 40
0.1
 50
83.345307000000489
 51
200.00000000000099
  0
ARC
  5
21C
  8
L12
 10
85.470708000000002
 20
3.3492089999999992
 30
0.0
 40
1.668795
 50
3.6686689999999791
 51
83.345307000000204
  0
LINE
  5
21D
  8
L12
 10
87.510981999999984
 20
1.892631
 30
0.0
 11
87.500981999999993
 21
1.892631
 31
0.0
  0
ARC
  5
21E
  8
L12
 10
87.505981999999975
 20
3.5176309999999988
 30
0.0
 40
0.375
 50
180.0
 51
270.15278838267801
  0
ARC
  5
21F
  8
L12
 10
87.505981999999975
 20
3.5176309999999988
 30
0.0
 40
0.375
 50
270.15278838372899
 51
360.305576766407
  0
LINE
  5
220
  8
L13
 10
53.827728999999998
 20
47.518002000000003
 30
0.0
 11
53.879008999999989
 21
47.518002000000003
 31
0.0
  0
ARC
  5
221
  8
L13
 10
53.879008999999989
 20
47.268002000000003
 30
0.0
 40
0.25
 50
0.0
 51
90.0
  0
LINE
  5
222
  8
L13
 10
54.129009000000003
 20
47.268002000000003
 30
0.0
 11
54.129009000000003
 21
46.768002000000003
 31
0.0
  0
ARC
  5
223
  8
L13
 10
54.379008999999989
 20
46.768002000000003
 30
0.0
 40
0.25
 50
180.0
 51
270.0
  0
LINE
  5
224
  8
L13
 10
54.379008999999989
 20
46.518002000000003
 30
0.0
 11
55.749008999999987
 21
46.518002000000003
 31
0.0
  0
ARC
  5
225
  8
L13
 10
55.749008999999987
 20
46.268002000000003
 30
0.0
 40
0.25
 50
0.0
 51
90.0
  0
LINE
  5
226
  8
L13
 10
55.999008999999987
 20
46.268002000000003
 30
0.0
 11
55.999008999999987
 21
44.768002000000003
 31
0.0
  0
ARC
  5
227
  8
L13
 10
56.249009000000001
 20
44.768002000000003
 30
0.0
 40
0.25
 50
180.0
 51
270.0
  0
LINE
  5
228
  8
L13
 10
56.249009000000001
 20
44.518002000000003
 30
0.0
 11
56.259008999999999
 21
44.518002000000003
 31
0.0
  0
ARC
  5
229
  8
L13
 10
56.259008999999999
 20
44.768002000000003
 30
0.0
 40
0.25
 50
270.0
 51
360.0
  0
LINE
  5
22A
  8
L13
 10
56.509008999999992
 20
44.768002000000003
 30
0.0
 11
56.509008999999992
 21
46.268002000000003
 31
0.0
  0
ARC
  5
22B
  8
L13
 10
56.759008999999999
 20
46.268002000000003
 30
0.0
 40
0.25
 50
90.0
 51
180.0
  0
LINE
  5
22C
  8
L13
 10
56.759008999999999
 20
46.518002000000003
 30
0.0
 11
58.129008999999989
 21
46.518002000000003
 31
0.0
  0
ARC
  5
22D
  8
L13
 10
58.129008999999989
 20
46.768002000000003
 30
0.0
 40
0.25
 50
270.0
 51
360.0
  0
LINE
  5
22E
  8
L13
 10
58.379009000000003
 20
46.768002000000003
 30
0.0
 11
58.379009000000003
 21
47.268002000000003
 31
0.0
  0
ARC
  5
22F
  8
L13
 10
58.629008999999989
 20
47.268002000000003
 30
0.0
 40
0.25
 50
90.0
 51
180.0
  0
LINE
  5
230
  8
L13
 10
58.629008999999989
 20
47.518002000000003
 30
0.0
 11
58.680287999999997
 21
47.518002000000003
 31
0.0
  0
ARC
  5
231
  8
L13
 10
58.680287999999997
 20
45.518002000000003
 30
0.0
 40
2.0
 50
7.9434720000000087
 51
90.0
  0
LINE
  5
232
  8
L13
 10
60.661097999999988
 20
45.794393999999997
 30
0.0
 11
61.311849000000002
 21
41.130679999999998
 31
0.0
  0
ARC
  5
233
  8
L13
 10
58.596130000000002
 20
40.92989699999999
 30
0.0
 40
2.7231309999999991
 50
324.20311700000002
 51
364.22840400000001
  0
LINE
  5
234
  8
L13
 10
60.804850000000002
 20
39.3371
 30
0.0
 11
60.507728
 21
39.295641000000003
 31
0.0
  0
ARC
  5
235
  8
L13
 10
60.480089
 20
39.493721999999998
 30
0.0
 40
0.2
 50
187.94347200000001
 51
277.9434720000001
  0
LINE
  5
236
  8
L13
 10
60.282007999999998
 20
39.466083000000012
 30
0.0
 11
59.793663999999993
 21
42.965881000000003
 31
0.0
  0
ARC
  5
237
  8
L13
 10
59.546062999999997
 20
42.931331999999991
 30
0.0
 40
0.25
 50
7.9434720000012504
 51
97.943471999999616
  0
LINE
  5
238
  8
L13
 10
59.511513999999998
 20
43.178933000000001
 30
0.0
 11
59.501609999999999
 21
43.177551000000001
 31
0.0
  0
ARC
  5
239
  8
L13
 10
59.536158999999991
 20
42.929949999999998
 30
0.0
 40
0.25
 50
97.943471999999616
 51
187.94347200000001
  0
LINE
  5
23A
  8
L13
 10
59.288558000000002
 20
42.895400999999993
 30
0.0
 11
59.956381999999998
 21
38.109330999999997
 31
0.0
  0
ARC
  5
23B
  8
L13
 10
59.758301000000003
 20
38.081691999999997
 30
0.0
 40
0.2
 50
248.19859099999999
 51
367.94347200000198
  0
LINE
  5
23C
  8
L13
 10
59.684021999999992
 20
37.895997000000001
 30
0.0
 11
56.346856000000002
 21
39.230862999999999
 31
0.0
  0
ARC
  5
23D
  8
L13
 10
56.254008999999989
 20
38.998744000000002
 30
0.0
 40
0.25
 50
68.198590999999197
 51
111.801408999999
  0
LINE
  5
23E
  8
L13
 10
56.161161
 20
39.230862999999999
 30
0.0
 11
52.823994999999996
 21
37.895997000000001
 31
0.0
  0
ARC
  5
23F
  8
L13
 10
52.749716999999997
 20
38.081691999999997
 30
0.0
 40
0.2
 50
172.056527999998
 51
291.80140899999998
  0
LINE
  5
240
  8
L13
 10
52.551636000000002
 20
38.109330999999997
 30
0.0
 11
53.219459999999998
 21
42.895400999999993
 31
0.0
  0
ARC
  5
241
  8
L13
 10
52.971858999999988
 20
42.929949999999998
 30
0.0
 40
0.25
 50
352.05652800000001
 51
442.0565279999999
  0
LINE
  5
242
  8
L13
 10
53.006408
 20
43.177551000000001
 30
0.0
 11
52.996504000000002
 21
43.178933000000001
 31
0.0
  0
ARC
  5
243
  8
L13
 10
52.961955000000003
 20
42.931331999999991
 30
0.0
 40
0.25
 50
82.056527999998707
 51
172.05652799999899
  0
LINE
  5
244
  8
L13
 10
52.714353000000003
 20
42.965881000000003
 30
0.0
 11
52.226008999999998
 21
39.466083000000012
 31
0.0
  0
ARC
  5
245
  8
L13
 10
52.027928000000003
 20
39.493721999999998
 30
0.0
 40
0.2
 50
262.05652800000001
 51
352.05652800000001
  0
LINE
  5
246
  8
L13
 10
52.000289000000002
 20
39.295641000000003
 30
0.0
 11
51.703167999999998
 21
39.3371
 31
0.0
  0
ARC
  5
247
  8
L13
 10
53.911887
 20
40.92989699999999
 30
0.0
 40
2.7231309999999991
 50
175.77159599999999
 51
215.79688300000001
  0
LINE
  5
248
  8
L13
 10
51.196168999999998
 20
41.130679999999998
 30
0.0
 11
51.846919999999997
 21
45.794393999999997
 31
0.0
  0
ARC
  5
249
  8
L13
 10
53.827728999999998
 20
45.518002000000003
 30
0.0
 40
2.0
 50
90.0
 51
172.05652799999999
  0
LINE
  5
24A
  8
L13
 10
51.827728999999991
 20
35.51800200000001
 30
0.0
 11
51.879009000000003
 21
35.51800200000001
 31
0.0
  0
ARC
  5
24B
  8
L13
 10
51.879009000000003
 20
35.268002000000003
 30
0.0
 40
0.25
 50
0.0
 51
90.0
  0
LINE
  5
24C
  8
L13
 10
52.129009000000011
 20
35.268002000000003
 30
0.0
 11
52.129009000000011
 21
34.768002000000003
 31
0.0
  0
ARC
  5
24D
  8
L13
 10
52.379009000000003
 20
34.768002000000003
 30
0.0
 40
0.25
 50
180.0
 51
270.0
  0
LINE
  5
24E
  8
L13
 10
52.379009000000003
 20
34.518002000000003
 30
0.0
 11
53.749009000000001
 21
34.518002000000003
 31
0.0
  0
ARC
  5
24F
  8
L13
 10
53.749009000000001
 20
34.26800200000001
 30
0.0
 40
0.25
 50
0.0
 51
90.0
  0
LINE
  5
250
  8
L13
 10
53.999008999999987
 20
34.26800200000001
 30
0.0
 11
53.999008999999987
 21
32.768002000000003
 31
0.0
  0
ARC
  5
251
  8
L13
 10
54.249008999999987
 20
32.768002000000003
 30
0.0
 40
0.25
 50
180.0
 51
270.0
  0
LINE
  5
252
  8
L13
 10
54.249008999999987
 20
32.518002000000003
 30
0.0
 11
54.259008999999999
 21
32.518002000000003
 31
0.0
  0
ARC
  5
253
  8
L13
 10
54.259008999999999
 20
32.768002000000003
 30
0.0
 40
0.25
 50
270.0
 51
360.0
  0
LINE
  5
254
  8
L13
 10
54.509008999999999
 20
32.768002000000003
 30
0.0
 11
54.509008999999999
 21
34.26800200000001
 31
0.0
  0
ARC
  5
255
  8
L13
 10
54.759008999999999
 20
34.26800200000001
 30
0.0
 40
0.25
 50
90.0
 51
180.0
  0
LINE
  5
256
  8
L13
 10
54.759008999999999
 20
34.518002000000003
 30
0.0
 11
56.129008999999989
 21
34.518002000000003
 31
0.0
  0
ARC
  5
257
  8
L13
 10
56.129008999999989
 20
34.768002000000003
 30
0.0
 40
0.25
 50
270.0
 51
360.0
  0
LINE
  5
258
  8
L13
 10
56.379008999999989
 20
34.768002000000003
 30
0.0
 11
56.379008999999989
 21
35.268002000000003
 31
0.0
  0
ARC
  5
259
  8
L13
 10
56.629009000000003
 20
35.268002000000003
 30
0.0
 40
0.25
 50
90.0
 51
180.0
  0
LINE
  5
25A
  8
L13
 10
56.629009000000003
 20
35.51800200000001
 30
0.0
 11
56.680287999999997
 21
35.51800200000001
 31
0.0
  0
ARC
  5
25B
  8
L13
 10
56.680287999999997
 20
33.518002000000003
 30
0.0
 40
2.0
 50
7.9434720000000087
 51
90.0
  0
LINE
  5
25C
  8
L13
 10
58.661098000000003
 20
33.794393999999997
 30
0.0
 11
59.311849000000002
 21
29.130680000000002
 31
0.0
  0
ARC
  5
25D
  8
L13
 10
56.596130000000002
 20
28.929897
 30
0.0
 40
2.7231309999999991
 50
324.20311700000002
 51
364.22840400000001
  0
LINE
  5
25E
  8
L13
 10
58.804850000000002
 20
27.3371
 30
0.0
 11
58.507728
 21
27.295641
 31
0.0
  0
ARC
  5
25F
  8
L13
 10
58.480088999999992
 20
27.493722000000002
 30
0.0
 40
0.2
 50
187.94347200000001
 51
277.9434720000001
  0
LINE
  5
260
  8
L13
 10
58.282007999999998
 20
27.466083000000001
 30
0.0
 11
57.793664
 21
30.965881
 31
0.0
  0
ARC
  5
261
  8
L13
 10
57.546062999999997
 20
30.931332000000001
 30
0.0
 40
0.25
 50
7.9434720000012504
 51
97.943471999999616
  0
LINE
  5
262
  8
L13
 10
57.511513999999998
 20
31.178933000000001
 30
0.0
 11
57.501609999999999
 21
31.177551000000001
 31
0.0
  0
ARC
  5
263
  8
L13
 10
57.536158999999991
 20
30.929950000000002
 30
0.0
 40
0.25
 50
97.943471999999616
 51
187.94347200000001
  0
LINE
  5
264
  8
L13
 10
57.288557999999988
 20
30.895401
 30
0.0
 11
57.956381999999991
 21
26.109331000000001
 31
0.0
  0
ARC
  5
265
  8
L13
 10
57.758301000000003
 20
26.081692
 30
0.0
 40
0.2
 50
248.19859099999999
 51
367.94347200000198
  0
LINE
  5
266
  8
L13
 10
57.684021999999999
 20
25.895997000000001
 30
0.0
 11
54.346856000000002
 21
27.230862999999999
 31
0.0
  0
ARC
  5
267
  8
L13
 10
54.254008999999989
 20
26.998743999999999
 30
0.0
 40
0.25
 50
68.198590999999197
 51
111.801408999999
  0
LINE
  5
268
  8
L13
 10
54.161160999999993
 20
27.230862999999999
 30
0.0
 11
50.823995000000011
 21
25.895997000000001
 31
0.0
  0
ARC
  5
269
  8
L13
 10
50.74971699999999
 20
26.081692
 30
0.0
 40
0.2
 50
172.056527999998
 51
291.80140899999998
  0
LINE
  5
26A
  8
L13
 10
50.551636000000002
 20
26.109331000000001
 30
0.0
 11
51.219459999999998
 21
30.895401
 31
0.0
  0
ARC
  5
26B
  8
L13
 10
50.971859000000002
 20
30.929950000000002
 30
0.0
 40
0.25
 50
352.05652800000001
 51
442.0565279999999
  0
LINE
  5
26C
  8
L13
 10
51.006408
 20
31.177551000000001
 30
0.0
 11
50.996503999999987
 21
31.178933000000001
 31
0.0
  0
ARC
  5
26D
  8
L13
 10
50.961955000000003
 20
30.931332000000001
 30
0.0
 40
0.25
 50
82.056527999998707
 51
172.05652799999899
  0
LINE
  5
26E
  8
L13
 10
50.714353000000003
 20
30.965881
 30
0.0
 11
50.226008999999998
 21
27.466083000000001
 31
0.0
  0
ARC
  5
26F
  8
L13
 10
50.027928000000003
 20
27.493722000000002
 30
0.0
 40
0.2
 50
262.05652800000001
 51
352.05652800000001
  0
LINE
  5
270
  8
L13
 10
50.000289000000002
 20
27.295641
 30
0.0
 11
49.703167999999991
 21
27.3371
 31
0.0
  0
ARC
  5
271
  8
L13
 10
51.911887
 20
28.929897
 30
0.0
 40
2.7231309999999991
 50
175.77159599999999
 51
215.79688300000001
  0
LINE
  5
272
  8
L13
 10
49.196168999999998
 20
29.130680000000002
 30
0.0
 11
49.846919999999997
 21
33.794393999999997
 31
0.0
  0
ARC
  5
273
  8
L13
 10
51.827728999999991
 20
33.518002000000003
 30
0.0
 40
2.0
 50
90.0
 51
172.05652799999999
  0
LINE
  5
274
  8
L13
 10
42.627728999999988
 20
47.518002000000003
 30
0.0
 11
42.679008999999994
 21
47.518002000000003
 31
0.0
  0
ARC
  5
275
  8
L13
 10
42.679008999999994
 20
47.268002000000003
 30
0.0
 40
0.25
 50
0.0
 51
90.0
  0
LINE
  5
276
  8
L13
 10
42.929009000000001
 20
47.268002000000003
 30
0.0
 11
42.929009000000001
 21
46.768002000000003
 31
0.0
  0
ARC
  5
277
  8
L13
 10
43.179009000000001
 20
46.768002000000003
 30
0.0
 40
0.25
 50
180.0
 51
270.0
  0
LINE
  5
278
  8
L13
 10
43.179009000000001
 20
46.518002000000003
 30
0.0
 11
44.549009000000012
 21
46.518002000000003
 31
0.0
  0
ARC
  5
279
  8
L13
 10
44.549009000000012
 20
46.268002000000003
 30
0.0
 40
0.25
 50
0.0
 51
90.0
  0
LINE
  5
27A
  8
L13
 10
44.799008999999998
 20
46.268002000000003
 30
0.0
 11
44.799008999999998
 21
44.768002000000003
 31
0.0
  0
ARC
  5
27B
  8
L13
 10
45.049008999999998
 20
44.768002000000003
 30
0.0
 40
0.25
 50
180.0
 51
270.0
  0
LINE
  5
27C
  8
L13
 10
45.049008999999998
 20
44.518002000000003
 30
0.0
 11
45.059009000000003
 21
44.518002000000003
 31
0.0
  0
ARC
  5
27D
  8
L13
 10
45.059009000000003
 20
44.768002000000003
 30
0.0
 40
0.25
 50
270.0
 51
360.0
  0
LINE
  5
27E
  8
L13
 10
45.309009000000003
 20
44.768002000000003
 30
0.0
 11
45.309009000000003
 21
46.268002000000003
 31
0.0
  0
ARC
  5
27F
  8
L13
 10
45.559009000000003
 20
46.268002000000003
 30
0.0
 40
0.25
 50
90.0
 51
180.0
  0
LINE
  5
280
  8
L13
 10
45.559009000000003
 20
46.518002000000003
 30
0.0
 11
46.929009000000001
 21
46.518002000000003
 31
0.0
  0
ARC
  5
281
  8
L13
 10
46.929009000000001
 20
46.768002000000003
 30
0.0
 40
0.25
 50
270.0
 51
360.0
  0
LINE
  5
282
  8
L13
 10
47.179009000000001
 20
46.768002000000003
 30
0.0
 11
47.179009000000001
 21
47.268002000000003
 31
0.0
  0
ARC
  5
283
  8
L13
 10
47.429009000000001
 20
47.268002000000003
 30
0.0
 40
0.25
 50
90.0
 51
180.0
  0
LINE
  5
284
  8
L13
 10
47.429009000000001
 20
47.518002000000003
 30
0.0
 11
47.480288000000002
 21
47.518002000000003
 31
0.0
  0
ARC
  5
285
  8
L13
 10
47.480288000000002
 20
45.518002000000003
 30
0.0
 40
2.0
 50
7.9434720000000087
 51
90.0
  0
LINE
  5
286
  8
L13
 10
49.461098
 20
45.794393999999997
 30
0.0
 11
50.111848999999992
 21
41.130679999999998
 31
0.0
  0
ARC
  5
287
  8
L13
 10
47.396129999999999
 20
40.92989699999999
 30
0.0
 40
2.7231309999999991
 50
324.20311700000002
 51
364.22840400000001
  0
LINE
  5
288
  8
L13
 10
49.604849999999999
 20
39.3371
 30
0.0
 11
49.307727999999997
 21
39.295641000000003
 31
0.0
  0
ARC
  5
289
  8
L13
 10
49.280088999999997
 20
39.493721999999998
 30
0.0
 40
0.2
 50
187.94347200000001
 51
277.9434720000001
  0
LINE
  5
28A
  8
L13
 10
49.082008000000002
 20
39.466083000000012
 30
0.0
 11
48.593663999999997
 21
42.965881000000003
 31
0.0
  0
ARC
  5
28B
  8
L13
 10
48.346063000000001
 20
42.931331999999991
 30
0.0
 40
0.25
 50
7.9434720000012504
 51
97.943471999999616
  0
LINE
  5
28C
  8
L13
 10
48.311514000000003
 20
43.178933000000001
 30
0.0
 11
48.301609999999997
 21
43.177551000000001
 31
0.0
  0
ARC
  5
28D
  8
L13
 10
48.336159000000002
 20
42.929949999999998
 30
0.0
 40
0.25
 50
97.943471999999616
 51
187.94347200000001
  0
LINE
  5
28E
  8
L13
 10
48.088557999999992
 20
42.895400999999993
 30
0.0
 11
48.756382000000002
 21
38.109330999999997
 31
0.0
  0
ARC
  5
28F
  8
L13
 10
48.558301
 20
38.081691999999997
 30
0.0
 40
0.2
 50
248.19859099999999
 51
367.94347200000198
  0
LINE
  5
290
  8
L13
 10
48.484021999999989
 20
37.895997000000001
 30
0.0
 11
45.146855999999993
 21
39.230862999999999
 31
0.0
  0
ARC
  5
291
  8
L13
 10
45.054009000000001
 20
38.998744000000002
 30
0.0
 40
0.25
 50
68.198590999999197
 51
111.801408999999
  0
LINE
  5
292
  8
L13
 10
44.961160999999997
 20
39.230862999999999
 30
0.0
 11
41.623995000000001
 21
37.895997000000001
 31
0.0
  0
ARC
  5
293
  8
L13
 10
41.549716999999987
 20
38.081691999999997
 30
0.0
 40
0.2
 50
172.056527999998
 51
291.80140899999998
  0
LINE
  5
294
  8
L13
 10
41.351635999999999
 20
38.109330999999997
 30
0.0
 11
42.019459999999988
 21
42.895400999999993
 31
0.0
  0
ARC
  5
295
  8
L13
 10
41.771858999999999
 20
42.929949999999998
 30
0.0
 40
0.25
 50
352.05652800000001
 51
442.0565279999999
  0
LINE
  5
296
  8
L13
 10
41.806407999999998
 20
43.177551000000001
 30
0.0
 11
41.796503999999992
 21
43.178933000000001
 31
0.0
  0
ARC
  5
297
  8
L13
 10
41.761955
 20
42.931331999999991
 30
0.0
 40
0.25
 50
82.056527999998707
 51
172.05652799999899
  0
LINE
  5
298
  8
L13
 10
41.514353
 20
42.965881000000003
 30
0.0
 11
41.026009000000002
 21
39.466083000000012
 31
0.0
  0
ARC
  5
299
  8
L13
 10
40.827927999999993
 20
39.493721999999998
 30
0.0
 40
0.2
 50
262.05652800000001
 51
352.05652800000001
  0
LINE
  5
29A
  8
L13
 10
40.800288999999999
 20
39.295641000000003
 30
0.0
 11
40.503168000000002
 21
39.3371
 31
0.0
  0
ARC
  5
29B
  8
L13
 10
42.71188699999999
 20
40.92989699999999
 30
0.0
 40
2.7231309999999991
 50
175.77159599999999
 51
215.79688300000001
  0
LINE
  5
29C
  8
L13
 10
39.996169000000002
 20
41.130679999999998
 30
0.0
 11
40.646919999999987
 21
45.794393999999997
 31
0.0
  0
ARC
  5
29D
  8
L13
 10
42.627728999999988
 20
45.518002000000003
 30
0.0
 40
2.0
 50
90.0
 51
172.05652799999999
  0
LINE
  5
29E
  8
L13
 10
40.827728999999998
 20
35.51800200000001
 30
0.0
 11
40.879009000000003
 21
35.51800200000001
 31
0.0
  0
ARC
  5
29F
  8
L13
 10
40.879009000000003
 20
35.268002000000003
 30
0.0
 40
0.25
 50
0.0
 51
90.0
  0
LINE
  5
2A0
  8
L13
 10
41.129009000000003
 20
35.268002000000003
 30
0.0
 11
41.129009000000003
 21
34.768002000000003
 31
0.0
  0
ARC
  5
2A1
  8
L13
 10
41.379009000000003
 20
34.768002000000003
 30
0.0
 40
0.25
 50
180.0
 51
270.0
  0
LINE
  5
2A2
  8
L13
 10
41.379009000000003
 20
34.518002000000003
 30
0.0
 11
42.749009000000001
 21
34.518002000000003
 31
0.0
  0
ARC
  5
2A3
  8
L13
 10
42.749009000000001
 20
34.26800200000001
 30
0.0
 40
0.25
 50
0.0
 51
90.0
  0
LINE
  5
2A4
  8
L13
 10
42.999008999999987
 20
34.26800200000001
 30
0.0
 11
42.999008999999987
 21
32.768002000000003
 31
0.0
  0
ARC
  5
2A5
  8
L13
 10
43.249009000000001
 20
32.768002000000003
 30
0.0
 40
0.25
 50
180.0
 51
270.0
  0
LINE
  5
2A6
  8
L13
 10
43.249009000000001
 20
32.518002000000003
 30
0.0
 11
43.259008999999999
 21
32.518002000000003
 31
0.0
  0
ARC
  5
2A7
  8
L13
 10
43.259008999999999
 20
32.768002000000003
 30
0.0
 40
0.25
 50
270.0
 51
360.0
  0
LINE
  5
2A8
  8
L13
 10
43.509008999999999
 20
32.768002000000003
 30
0.0
 11
43.509008999999999
 21
34.26800200000001
 31
0.0
  0
ARC
  5
2A9
  8
L13
 10
43.759008999999999
 20
34.26800200000001
 30
0.0
 40
0.25
 50
90.0
 51
180.0
  0
LINE
  5
2AA
  8
L13
 10
43.759008999999999
 20
34.518002000000003
 30
0.0
 11
45.129009000000003
 21
34.518002000000003
 31
0.0
  0
ARC
  5
2AB
  8
L13
 10
45.129009000000003
 20
34.768002000000003
 30
0.0
 40
0.25
 50
270.0
 51
360.0
  0
LINE
  5
2AC
  8
L13
 10
45.379009000000003
 20
34.768002000000003
 30
0.0
 11
45.379009000000003
 21
35.268002000000003
 31
0.0
  0
ARC
  5
2AD
  8
L13
 10
45.629009000000003
 20
35.268002000000003
 30
0.0
 40
0.25
 50
90.0
 51
180.0
  0
LINE
  5
2AE
  8
L13
 10
45.629009000000003
 20
35.51800200000001
 30
0.0
 11
45.68028799999999
 21
35.51800200000001
 31
0.0
  0
ARC
  5
2AF
  8
L13
 10
45.68028799999999
 20
33.518002000000003
 30
0.0
 40
2.0
 50
7.9434720000000087
 51
90.0
  0
LINE
  5
2B0
  8
L13
 10
47.661097999999988
 20
33.794393999999997
 30
0.0
 11
48.311849000000002
 21
29.130680000000002
 31
0.0
  0
ARC
  5
2B1
  8
L13
 10
45.596130000000002
 20
28.929897
 30
0.0
 40
2.7231309999999991
 50
324.20311700000002
 51
364.22840400000001
  0
LINE
  5
2B2
  8
L13
 10
47.804850000000002
 20
27.3371
 30
0.0
 11
47.507728
 21
27.295641
 31
0.0
  0
ARC
  5
2B3
  8
L13
 10
47.480089
 20
27.493722000000002
 30
0.0
 40
0.2
 50
187.94347200000001
 51
277.9434720000001
  0
LINE
  5
2B4
  8
L13
 10
47.282007999999998
 20
27.466083000000001
 30
0.0
 11
46.793664
 21
30.965881
 31
0.0
  0
ARC
  5
2B5
  8
L13
 10
46.546062999999997
 20
30.931332000000001
 30
0.0
 40
0.25
 50
7.9434720000012504
 51
97.943471999999616
  0
LINE
  5
2B6
  8
L13
 10
46.511513999999991
 20
31.178933000000001
 30
0.0
 11
46.501609999999992
 21
31.177551000000001
 31
0.0
  0
ARC
  5
2B7
  8
L13
 10
46.536159000000012
 20
30.929950000000002
 30
0.0
 40
0.25
 50
97.943471999999616
 51
187.94347200000001
  0
LINE
  5
2B8
  8
L13
 10
46.288558000000002
 20
30.895401
 30
0.0
 11
46.956381999999998
 21
26.109331000000001
 31
0.0
  0
ARC
  5
2B9
  8
L13
 10
46.758301000000003
 20
26.081692
 30
0.0
 40
0.2
 50
248.19859099999999
 51
367.94347200000198
  0
LINE
  5
2BA
  8
L13
 10
46.684021999999999
 20
25.895997000000001
 30
0.0
 11
43.346856000000002
 21
27.230862999999999
 31
0.0
  0
ARC
  5
2BB
  8
L13
 10
43.254009000000003
 20
26.998743999999999
 30
0.0
 40
0.25
 50
68.198590999999197
 51
111.801408999999
  0
LINE
  5
2BC
  8
L13
 10
43.161161
 20
27.230862999999999
 30
0.0
 11
39.823995000000011
 21
25.895997000000001
 31
0.0
  0
ARC
  5
2BD
  8
L13
 10
39.749716999999997
 20
26.081692
 30
0.0
 40
0.2
 50
172.056527999998
 51
291.80140899999998
  0
LINE
  5
2BE
  8
L13
 10
39.551636000000002
 20
26.109331000000001
 30
0.0
 11
40.219459999999991
 21
30.895401
 31
0.0
  0
ARC
  5
2BF
  8
L13
 10
39.971859000000002
 20
30.929950000000002
 30
0.0
 40
0.25
 50
352.05652800000001
 51
442.0565279999999
  0
LINE
  5
2C0
  8
L13
 10
40.006408
 20
31.177551000000001
 30
0.0
 11
39.996504000000002
 21
31.178933000000001
 31
0.0
  0
ARC
  5
2C1
  8
L13
 10
39.961955000000003
 20
30.931332000000001
 30
0.0
 40
0.25
 50
82.056527999998707
 51
172.05652799999899
  0
LINE
  5
2C2
  8
L13
 10
39.714353000000003
 20
30.965881
 30
0.0
 11
39.226009000000012
 21
27.466083000000001
 31
0.0
  0
ARC
  5
2C3
  8
L13
 10
39.027928000000003
 20
27.493722000000002
 30
0.0
 40
0.2
 50
262.05652800000001
 51
352.05652800000001
  0
LINE
  5
2C4
  8
L13
 10
39.000289000000002
 20
27.295641
 30
0.0
 11
38.703167999999998
 21
27.3371
 31
0.0
  0
ARC
  5
2C5
  8
L13
 10
40.911887
 20
28.929897
 30
0.0
 40
2.7231309999999991
 50
175.77159599999999
 51
215.79688300000001
  0
LINE
  5
2C6
  8
L13
 10
38.196168999999998
 20
29.130680000000002
 30
0.0
 11
38.846920000000011
 21
33.794393999999997
 31
0.0
  0
ARC
  5
2C7
  8
L13
 10
40.827728999999998
 20
33.518002000000003
 30
0.0
 40
2.0
 50
90.0
 51
172.05652799999999
  0
ARC
  5
2C8
  8
L14
 10
81.580067301567894
 20
20.333989285350398
 30
0.0
 40
6.25
 50
35.305735583555901
 51
113.933017244574
  0
ARC
  5
2C9
  8
L14
 10
86.884585609351006
 20
24.090594870502301
 30
0.0
 40
0.25
 50
215.30573558355499
 51
332.90560597507198
  0
ARC
  5
2CA
  8
L14
 10
87.774842981454995
 20
23.635137066293801
 30
0.0
 40
0.75
 50
101.360772999999
 51
152.905605975073
  0
ARC
  5
2CB
  8
L14
 10
87.489721029398083
 20
25.054194773609598
 30
0.0
 40
0.697418
 50
281.36077299999999
 51
375.25200999999998
  0
ARC
  5
2CC
  8
L14
 10
88.886158365913616
 20
25.434960357178699
 30
0.0
 40
0.75
 50
85.467227000001586
 51
195.25201000000001
  0
ARC
  5
2CD
  8
L14
 10
89.00054700394729
 20
26.877851424295599
 30
0.0
 40
0.697418
 50
265.46722699999998
 51
340.70931400000001
  0
ARC
  5
2CE
  8
L14
 10
89.918369393865703
 20
26.556602412632699
 30
0.0
 40
0.275
 50
43.939598000002491
 51
160.70931400000001
  0
ARC
  5
2CF
  8
L14
 10
90.618579349449405
 20
27.231363193596199
 30
0.0
 40
0.697418
 50
223.93959799999999
 51
343.366846000002
  0
ARC
  5
2D0
  8
L14
 10
91.550309260267596
 20
26.953015649127501
 30
0.0
 40
0.275
 50
53.95721700000049
 51
163.36684599999899
  0
ARC
  5
2D1
  8
L14
 10
91.417921580842986
 20
26.771085836186899
 30
0.0
 40
0.5
 50
297.40067200000101
 51
413.95721699999899
  0
ARC
  5
2D2
  8
L14
 10
92.568447352612793
 20
24.5515607440644
 30
0.0
 40
2.0
 50
117.400672
 51
182.28811099999999
  0
ARC
  5
2D3
  8
L14
 10
87.992373367051911
 20
24.368717386250001
 30
0.0
 40
2.5797259999999991
 50
269.49383763112201
 51
362.28811100000001
  0
ARC
  5
2D4
  8
L14
 10
87.967375327100527
 20
21.539101805809
 30
0.0
 40
0.25
 50
89.493837631122574
 51
190.68456646797
  0
ARC
  5
2D5
  8
L14
 10
81.580067301567894
 20
20.333989285350398
 30
0.0
 40
6.25
 50
346.77811800000001
 51
370.68456646797011
  0
ARC
  5
2D6
  8
L14
 10
82.796931985468603
 20
20.048085826897999
 30
0.0
 40
5.0
 50
293.183424
 51
346.77811800000001
  0
ARC
  5
2D7
  8
L14
 10
88.702072069383703
 20
6.2593471757455186
 30
0.0
 40
10.0
 50
113.183424
 51
167.685272
  0
ARC
  5
2D8
  8
L14
 10
70.017123029609294
 20
10.3383562494702
 30
0.0
 40
9.125
 50
300.0
 51
347.685272
  0
ARC
  5
2D9
  8
L14
 10
71.454623029609294
 20
7.8485332135899091
 30
0.0
 40
6.25
 50
250.16352699999999
 51
300.0
  0
ARC
  5
2DA
  8
L14
 10
66.362484741703696
 20
-16.403382552590799
 30
0.0
 40
18.611470000000001
 50
80.813538000000094
 51
108.121529
  0
ARC
  5
2DB
  8
L14
 10
59.640592628660499
 20
4.1361361101965688
 30
0.0
 40
3.0
 50
276.474858298774
 51
288.12152900000001
  0
ARC
  5
2DC
  8
L14
 10
59.967617561214801
 20
1.254633950994209
 30
0.0
 40
0.1
 50
167.29569580730899
 51
276.474858298774
  0
LINE
  5
2DD
  8
L14
 10
59.870065758631497
 20
1.276625899810649
 30
0.0
 11
60.05415188987299
 21
2.093194457835839
 31
0.0
  0
ARC
  5
2DE
  8
L14
 10
59.810272166791293
 20
2.148174529149109
 30
0.0
 40
0.25
 50
347.29572100000098
 51
440.38646499999999
  0
LINE
  5
2DF
  8
L14
 10
59.852022482179997
 20
2.39466286166396
 30
0.0
 11
59.842148096189788
 21
2.396335799892519
 31
0.0
  0
ARC
  5
2E0
  8
L14
 10
59.800398280801197
 20
2.149846601352269
 30
0.0
 40
0.25
 50
80.386465000000115
 51
167.29572099999899
  0
LINE
  5
2E1
  8
L14
 10
59.5565185577195
 20
2.204826672665539
 30
0.0
 11
59.339390555528709
 21
1.2416896093542891
 31
0.0
  0
ARC
  5
2E2
  8
L14
 10
59.241838745595999
 20
1.263681525570209
 30
0.0
 40
0.1
 50
262.096714812485
 51
347.29571495479797
  0
ARC
  5
2E3
  8
L14
 10
59.640592628660499
 20
4.1361361101965688
 30
0.0
 40
3.0
 50
235.05216799999999
 51
262.09671481248398
  0
LINE
  5
2E4
  8
L14
 10
57.922101499068098
 20
1.6771140590070801
 30
0.0
 11
53.976881123615001
 21
4.434236196347749
 31
0.0
  0
ARC
  5
2E5
  8
L14
 10
56.268202585080012
 20
7.7129330086173287
 30
0.0
 40
4.0
 50
220.35883999999999
 51
235.05216799999999
  0
ARC
  5
2E6
  8
L14
 10
49.202834688051297
 20
1.7085791804371691
 30
0.0
 40
5.2720919999999989
 50
40.3588400000001
 51
67.25404300000001
  0
ARC
  5
2E7
  8
L14
 10
-9.9789308528151608
 20
-114.36790002115301
 30
0.0
 40
135.55089799999999
 50
63.151051000000002
 51
63.580890000000011
  0
ARC
  5
2E8
  8
L14
 10
51.607191165273889
 20
8.2252936023804111
 30
0.0
 40
1.75
 50
139.07389499999999
 51
223.23647600000001
  0
ARC
  5
2E9
  8
L14
 10
50.6627476442344
 20
9.0441497657000394
 30
0.0
 40
0.5
 50
86.384684999999493
 51
139.073894999998
  0
ARC
  5
2EA
  8
L14
 10
50.710040052139703
 20
9.7926569123957208
 30
0.0
 40
0.25
 50
266.38468499999999
 51
303.69147299999997
  0
ARC
  5
2EB
  8
L14
 10
53.866998884441998
 20
5.0574718174448687
 30
0.0
 40
5.4410780000000001
 50
116.62802499999999
 51
123.691473
  0
ARC
  5
2EC
  8
L14
 10
51.652424651391399
 20
9.4744749062213103
 30
0.0
 40
0.5
 50
87.926173000000205
 51
116.628025000001
  0
ARC
  5
2ED
  8
L14
 10
51.607191165273889
 20
8.2252936023804111
 30
0.0
 40
1.75
 50
79.389763000000002
 51
87.926172999999693
  0
LINE
  5
2EE
  8
L14
 10
51.929413274521501
 20
9.9453725378415303
 30
0.0
 11
55.250978682558603
 21
9.3231444904578797
 31
0.0
  0
ARC
  5
2EF
  8
L14
 10
56.749572243949792
 20
4.7022463022327887
 30
0.0
 40
4.8578269999999986
 50
49.841703999999893
 51
107.968278
  0
LINE
  5
2F0
  8
L14
 10
59.882392266942396
 20
8.4149168514405872
 30
0.0
 11
61.93491344838769
 21
7.8371538815659987
 31
0.0
  0
LINE
  5
2F1
  8
L14
 10
61.93491344838769
 20
7.8371538815659987
 30
0.0
 11
63.273931805745491
 21
7.7255580543549289
 31
0.0
  0
ARC
  5
2F2
  8
L14
 10
63.440038944170389
 20
9.7186480511030098
 30
0.0
 40
2.0
 50
265.23589900000098
 51
351.1568759999999
  0
ARC
  5
2F3
  8
L14
 10
86.224261717448712
 20
6.173902596817249
 30
0.0
 40
21.058318
 50
170.126478868232
 51
171.15687600000001
  0
ARC
  5
2F4
  8
L14
 10
65.576364137850405
 20
9.7677054477740999
 30
0.0
 40
0.1
 50
74.338751598550701
 51
170.126478868232
  0
LINE
  5
2F5
  8
L14
 10
65.603359065282788
 20
9.8639929022680093
 30
0.0
 11
69.341926594445709
 21
8.8158567802629282
 31
0.0
  0
ARC
  5
2F6
  8
L14
 10
69.409413766769404
 20
9.0565755689391594
 30
0.0
 40
0.25
 50
254.33875399999999
 51
349.129247999999
  0
LINE
  5
2F7
  8
L14
 10
69.654927771278594
 20
9.0094268391594703
 30
0.0
 11
69.656819594079892
 21
9.0192821059487898
 31
0.0
  0
ARC
  5
2F8
  8
L14
 10
69.411306089570601
 20
9.0664299697030781
 30
0.0
 40
0.25
 50
349.129247999999
 51
434.33875400000289
  0
LINE
  5
2F9
  8
L14
 10
69.478793261894296
 20
9.3071487583793111
 30
0.0
 11
65.683461003074001
 21
10.371199378932401
 31
0.0
  0
ARC
  5
2FA
  8
L14
 10
65.710455932166795
 20
10.4674868329608
 30
0.0
 40
0.1
 50
168.178519743674
 51
254.338750610559
  0
ARC
  5
2FB
  8
L14
 10
86.224261717448712
 20
6.173902596817249
 30
0.0
 40
21.058318
 50
111.775719722985
 51
168.17851974367301
  0
ARC
  5
2FC
  8
L14
 10
78.449263591587709
 20
25.636700379561201
 30
0.0
 40
0.1
 50
29.999999999998501
 51
111.775719722986
  0
LINE
  5
2FD
  8
L14
 10
78.535866131966202
 20
25.686700379561199
 30
0.0
 11
80.489708317719305
 21
22.302546443865399
 31
0.0
  0
ARC
  5
2FE
  8
L14
 10
80.70621466866541
 20
22.427546443865399
 30
0.0
 40
0.25
 50
210.00000000000099
 51
299.99999999998897
  0
LINE
  5
2FF
  8
L14
 10
80.831214668665297
 20
22.211040092919301
 30
0.0
 11
80.839874922703203
 21
22.2160400929193
 31
0.0
  0
ARC
  5
300
  8
L14
 10
80.714874922703189
 20
22.432546443865402
 30
0.0
 40
0.25
 50
299.99999999998499
 51
390.00000000000102
  0
LINE
  5
301
  8
L14
 10
80.931381273649293
 20
22.557546443865402
 30
0.0
 11
78.998604303365198
 21
25.9052143560966
 31
0.0
  0
ARC
  5
302
  8
L14
 10
79.085206843743592
 20
25.955214356096601
 30
0.0
 40
0.1
 50
113.933017244572
 51
209.99999999999801
  0
LINE
  5
303
  8
L12
 10
87.509648676148089
 20
7.8926274444697304
 30
0.0
 11
87.519648533926897
 21
7.8926807774238004
 31
0.0
  0
LINE
  5
304
  8
L12
 10
87.509648676148089
 20
1.8926274444697291
 30
0.0
 11
87.519648533926897
 21
1.8926807774237999
 31
0.0
  0
ENDSEC
  0
EOF
