0
SECTION
2
HEADER
9
$EXTMIN
10
0.000000
20
0.000000
9
$EXTMAX
10
120.000000
20
60.000000
0
ENDSEC
0
SECTION
2
TABLES
0
TABLE
2
LTYPE
70
1
0
LTYPE
2
0
70
0
3
Solid Line
72
65
73
0
40
0.0
0
ENDTAB
0
TABLE
2
LAYER
70
1
0
LAYER
2
1
70
0
62
7
6
0
0
ENDTAB
0
ENDSEC
0
SECTION
2
BLOCKS
0
ENDSEC
0
SECTION
2
ENTITIES
0
LINE
8
1
10
0.432300
20
13.234409
11
0.432300
21
13.859409
0
LINE
8
1
10
0.432300
20
13.234409
11
0.432300
21
12.609409
0
LINE
8
1
10
0.432300
20
13.234409
11
0.432300
21
12.609409
0
LINE
8
1
10
0.432300
20
13.859409
11
0.776050
21
13.859409
0
LINE
8
1
10
3.734800
20
14.734409
11
3.734800
21
15.484409
0
LINE
8
1
10
3.609800
20
14.734409
11
3.609800
21
15.484409
0
LINE
8
1
10
10.085976
20
14.984409
11
9.797300
21
15.484409
0
LINE
8
1
10
9.797300
20
15.484409
11
9.508625
21
14.984409
0
LINE
8
1
10
6.828550
20
14.984409
11
9.508625
21
14.984409
0
LINE
8
1
10
3.446125
20
15.484409
11
3.609800
21
15.484409
0
LINE
8
1
10
4.187150
20
14.984409
11
4.250425
21
14.984409
0
LINE
8
1
10
3.094175
20
14.984409
11
2.026050
21
14.984409
0
LINE
8
1
10
2.026050
20
14.984409
11
0.776050
21
14.109409
0
LINE
8
1
10
0.776050
20
14.109409
11
0.776050
21
13.859409
0
LINE
8
1
10
3.609800
20
14.984409
11
3.609800
21
14.984409
0
LINE
8
1
10
3.609800
20
14.984409
11
3.609800
21
14.984409
0
LINE
8
1
10
3.898475
20
15.484409
11
4.187150
21
14.984409
0
LINE
8
1
10
3.898475
20
15.484409
11
3.734800
21
15.484409
0
LINE
8
1
10
3.609800
20
15.484409
11
3.382850
21
15.484409
0
LINE
8
1
10
3.094175
20
14.984409
11
3.382850
21
15.484409
0
LINE
8
1
10
10.085976
20
14.984409
11
12.766050
21
14.984409
0
LINE
8
1
10
6.766050
20
13.234409
11
6.766050
21
14.984409
0
LINE
8
1
10
6.766050
20
14.984409
11
4.187150
21
14.984409
0
LINE
8
1
10
12.766050
20
14.984409
11
10.085976
21
14.984409
0
LINE
8
1
10
63.985001
20
14.734409
11
63.985001
21
15.484409
0
LINE
8
1
10
63.860001
20
14.734409
11
63.860001
21
15.484409
0
LINE
8
1
10
64.500626
20
14.984409
11
64.211952
21
15.484409
0
LINE
8
1
10
63.696323
20
15.484409
11
63.407650
21
14.984409
0
LINE
8
1
10
63.696323
20
15.484409
11
63.860001
21
15.484409
0
LINE
8
1
10
63.985001
20
15.484409
11
64.211952
21
15.484409
0
LINE
8
1
10
65.568748
20
14.984409
11
64.500626
21
14.984409
0
LINE
8
1
10
3.094175
20
11.484409
11
2.026050
21
11.484409
0
LINE
8
1
10
2.026050
20
11.484409
11
0.776050
21
12.359409
0
LINE
8
1
10
0.776050
20
12.359409
11
0.776050
21
12.609409
0
LINE
8
1
10
0.432300
20
12.609409
11
0.776050
21
12.609409
0
LINE
8
1
10
3.609800
20
11.734409
11
3.609800
21
10.984409
0
LINE
8
1
10
3.734800
20
11.734409
11
3.734800
21
10.984409
0
LINE
8
1
10
10.085976
20
11.484409
11
9.797300
21
10.984409
0
LINE
8
1
10
9.797300
20
10.984409
11
9.508625
21
11.484409
0
LINE
8
1
10
16.085976
20
11.484409
11
15.797300
21
10.984409
0
LINE
8
1
10
15.797300
20
10.984409
11
15.508625
21
11.484409
0
LINE
8
1
10
22.085976
20
11.484409
11
21.797300
21
10.984409
0
LINE
8
1
10
21.797300
20
10.984409
11
21.508625
21
11.484409
0
LINE
8
1
10
28.085976
20
11.484409
11
27.797300
21
10.984409
0
LINE
8
1
10
27.797300
20
10.984409
11
27.508625
21
11.484409
0
LINE
8
1
10
34.085976
20
11.484409
11
33.797298
21
10.984409
0
LINE
8
1
10
33.797298
20
10.984409
11
33.508625
21
11.484409
0
LINE
8
1
10
40.085976
20
11.484409
11
39.797298
21
10.984409
0
LINE
8
1
10
39.797298
20
10.984409
11
39.508625
21
11.484409
0
LINE
8
1
10
46.085976
20
11.484409
11
45.797298
21
10.984409
0
LINE
8
1
10
45.797298
20
10.984409
11
45.508625
21
11.484409
0
LINE
8
1
10
52.085976
20
11.484409
11
51.797298
21
10.984409
0
LINE
8
1
10
51.797298
20
10.984409
11
51.508625
21
11.484409
0
LINE
8
1
10
58.085976
20
11.484409
11
57.797298
21
10.984409
0
LINE
8
1
10
57.797298
20
10.984409
11
57.508625
21
11.484409
0
LINE
8
1
10
3.446125
20
10.984409
11
3.609800
21
10.984409
0
LINE
8
1
10
3.094175
20
11.484409
11
3.382850
21
10.984409
0
LINE
8
1
10
3.898475
20
10.984409
11
4.187150
21
11.484409
0
LINE
8
1
10
3.898475
20
10.984409
11
3.734800
21
10.984409
0
LINE
8
1
10
3.609800
20
10.984409
11
3.382850
21
10.984409
0
LINE
8
1
10
63.985001
20
11.734409
11
63.985001
21
10.984409
0
LINE
8
1
10
63.860001
20
11.734409
11
63.860001
21
10.984409
0
LINE
8
1
10
64.500626
20
11.484409
11
64.211952
21
10.984409
0
LINE
8
1
10
63.696323
20
10.984409
11
63.407650
21
11.484409
0
LINE
8
1
10
63.696323
20
10.984409
11
63.860001
21
10.984409
0
LINE
8
1
10
63.985001
20
10.984409
11
64.211952
21
10.984409
0
LINE
8
1
10
3.382850
20
15.484409
11
3.609800
21
15.484409
0
LINE
8
1
10
3.382850
20
10.984409
11
3.609800
21
10.984409
0
LINE
8
1
10
3.609800
20
11.734409
11
3.734800
21
11.734409
0
LINE
8
1
10
3.609800
20
14.734409
11
3.734800
21
14.734409
0
LINE
8
1
10
3.734800
20
15.484409
11
3.898475
21
15.484409
0
LINE
8
1
10
4.187150
20
11.484409
11
9.508625
21
11.484409
0
LINE
8
1
10
3.734800
20
10.984409
11
3.898475
21
10.984409
0
LINE
8
1
10
2.026050
20
11.484409
11
3.094175
21
11.484409
0
LINE
8
1
10
64.500626
20
11.484409
11
65.568748
21
11.484409
0
LINE
8
1
10
63.696323
20
15.484409
11
63.860001
21
15.484409
0
LINE
8
1
10
64.211952
20
10.984409
11
63.985001
21
10.984409
0
LINE
8
1
10
63.985001
20
11.734409
11
63.860001
21
11.734409
0
LINE
8
1
10
63.860001
20
14.734409
11
63.985001
21
14.734409
0
LINE
8
1
10
63.985001
20
15.484409
11
64.211952
21
15.484409
0
LINE
8
1
10
63.860001
20
10.984409
11
63.696323
21
10.984409
0
LINE
8
1
10
10.085976
20
11.484409
11
15.508625
21
11.484409
0
LINE
8
1
10
16.085976
20
11.484409
11
21.508625
21
11.484409
0
LINE
8
1
10
22.085976
20
11.484409
11
27.508625
21
11.484409
0
LINE
8
1
10
28.085976
20
11.484409
11
33.508625
21
11.484409
0
LINE
8
1
10
34.085976
20
11.484409
11
39.508625
21
11.484409
0
LINE
8
1
10
40.085976
20
11.484409
11
45.508625
21
11.484409
0
LINE
8
1
10
46.085976
20
11.484409
11
51.508625
21
11.484409
0
LINE
8
1
10
52.085976
20
11.484409
11
57.508625
21
11.484409
0
LINE
8
1
10
58.085976
20
11.484409
11
63.407650
21
11.484409
0
LINE
8
1
10
2.016050
20
19.405239
11
3.094175
21
19.405239
0
LINE
8
1
10
4.187150
20
19.405239
11
9.508625
21
19.405239
0
LINE
8
1
10
10.085976
20
19.405239
11
15.508625
21
19.405239
0
LINE
8
1
10
16.085976
20
19.405239
11
21.508625
21
19.405239
0
LINE
8
1
10
22.085976
20
19.405239
11
27.508625
21
19.405239
0
LINE
8
1
10
28.085976
20
19.405239
11
33.508625
21
19.405239
0
LINE
8
1
10
34.085976
20
19.405239
11
39.508625
21
19.405239
0
LINE
8
1
10
40.085976
20
19.405239
11
45.508625
21
19.405239
0
LINE
8
1
10
46.085976
20
19.405239
11
51.508625
21
19.405239
0
LINE
8
1
10
52.085976
20
19.405239
11
57.508625
21
19.405239
0
LINE
8
1
10
58.085976
20
19.405239
11
63.508652
21
19.405239
0
LINE
8
1
10
9.508625
20
22.905239
11
6.828550
21
22.905239
0
LINE
8
1
10
3.094175
20
22.905239
11
2.016050
21
22.905239
0
LINE
8
1
10
2.016050
20
22.905239
11
0.766050
21
22.030239
0
LINE
8
1
10
0.766050
20
22.030239
11
0.766050
21
21.780239
0
LINE
8
1
10
0.422300
20
21.155239
11
0.422300
21
21.780239
0
LINE
8
1
10
0.422300
20
21.155239
11
0.422300
21
20.530239
0
LINE
8
1
10
0.422300
20
21.155239
11
0.422300
21
20.530239
0
LINE
8
1
10
0.422300
20
21.780239
11
0.766050
21
21.780239
0
LINE
8
1
10
6.797300
20
21.155239
11
6.797300
21
22.905239
0
LINE
8
1
10
3.609800
20
22.655239
11
3.609800
21
23.405239
0
LINE
8
1
10
3.734800
20
22.655239
11
3.734800
21
23.405239
0
LINE
8
1
10
4.187150
20
22.905239
11
4.250425
21
22.905239
0
LINE
8
1
10
10.085976
20
22.905239
11
9.797300
21
23.405239
0
LINE
8
1
10
9.797300
20
23.405239
11
9.508625
21
22.905239
0
LINE
8
1
10
6.828550
20
22.905239
11
9.508625
21
22.905239
0
LINE
8
1
10
10.085976
20
22.905239
11
12.766050
21
22.905239
0
LINE
8
1
10
3.446125
20
23.405239
11
3.609800
21
23.405239
0
LINE
8
1
10
3.609800
20
22.905239
11
3.609800
21
22.905239
0
LINE
8
1
10
3.609800
20
22.905239
11
3.609800
21
22.905239
0
LINE
8
1
10
3.094175
20
22.905239
11
3.382850
21
23.405239
0
LINE
8
1
10
3.898475
20
23.405239
11
4.187150
21
22.905239
0
LINE
8
1
10
3.898475
20
23.405239
11
3.734800
21
23.405239
0
LINE
8
1
10
3.609800
20
23.405239
11
3.382850
21
23.405239
0
LINE
8
1
10
3.094175
20
19.405239
11
2.016050
21
19.405239
0
LINE
8
1
10
2.016050
20
19.405239
11
0.766050
21
20.280239
0
LINE
8
1
10
0.766050
20
20.280239
11
0.766050
21
20.530239
0
LINE
8
1
10
0.422300
20
20.530239
11
0.766050
21
20.530239
0
LINE
8
1
10
3.609800
20
19.655239
11
3.609800
21
18.905239
0
LINE
8
1
10
3.734800
20
19.655239
11
3.734800
21
18.905239
0
LINE
8
1
10
10.085976
20
19.405239
11
9.797300
21
18.905239
0
LINE
8
1
10
9.797300
20
18.905239
11
9.508625
21
19.405239
0
LINE
8
1
10
16.085976
20
19.405239
11
15.797300
21
18.905239
0
LINE
8
1
10
15.797300
20
18.905239
11
15.508625
21
19.405239
0
LINE
8
1
10
22.085976
20
19.405239
11
21.797300
21
18.905239
0
LINE
8
1
10
21.797300
20
18.905239
11
21.508625
21
19.405239
0
LINE
8
1
10
28.085976
20
19.405239
11
27.797300
21
18.905239
0
LINE
8
1
10
27.797300
20
18.905239
11
27.508625
21
19.405239
0
LINE
8
1
10
34.085976
20
19.405239
11
33.797298
21
18.905239
0
LINE
8
1
10
33.797298
20
18.905239
11
33.508625
21
19.405239
0
LINE
8
1
10
40.085976
20
19.405239
11
39.797298
21
18.905239
0
LINE
8
1
10
39.797298
20
18.905239
11
39.508625
21
19.405239
0
LINE
8
1
10
46.085976
20
19.405239
11
45.797298
21
18.905239
0
LINE
8
1
10
45.797298
20
18.905239
11
45.508625
21
19.405239
0
LINE
8
1
10
52.085976
20
19.405239
11
51.797298
21
18.905239
0
LINE
8
1
10
51.797298
20
18.905239
11
51.508625
21
19.405239
0
LINE
8
1
10
58.085976
20
19.405239
11
57.797298
21
18.905239
0
LINE
8
1
10
57.797298
20
18.905239
11
57.508625
21
19.405239
0
LINE
8
1
10
3.446125
20
18.905239
11
3.609800
21
18.905239
0
LINE
8
1
10
3.094175
20
19.405239
11
3.382850
21
18.905239
0
LINE
8
1
10
3.898475
20
18.905239
11
4.187150
21
19.405239
0
LINE
8
1
10
3.898475
20
18.905239
11
3.734800
21
18.905239
0
LINE
8
1
10
3.609800
20
18.905239
11
3.382850
21
18.905239
0
LINE
8
1
10
63.797325
20
18.905239
11
63.508652
21
19.405239
0
LINE
8
1
10
3.382850
20
23.405239
11
3.609800
21
23.405239
0
LINE
8
1
10
3.734800
20
23.405239
11
3.898475
21
23.405239
0
LINE
8
1
10
3.609800
20
22.655239
11
3.734800
21
22.655239
0
LINE
8
1
10
3.382850
20
18.905239
11
3.609800
21
18.905239
0
LINE
8
1
10
3.734800
20
18.905239
11
3.898475
21
18.905239
0
LINE
8
1
10
3.609800
20
19.655239
11
3.734800
21
19.655239
0
LINE
8
1
10
64.374672
20
22.405239
11
64.374672
21
22.405239
0
LINE
8
1
10
64.500626
20
14.984409
11
65.568748
21
14.984409
0
LINE
8
1
10
65.568748
20
14.984409
11
66.818748
21
14.109409
0
LINE
8
1
10
66.818748
20
14.109409
11
66.818748
21
13.859409
0
LINE
8
1
10
67.037498
20
13.859409
11
66.818748
21
13.859409
0
LINE
8
1
10
64.500626
20
11.484409
11
65.568748
21
11.484409
0
LINE
8
1
10
65.568748
20
11.484409
11
66.818748
21
12.359409
0
LINE
8
1
10
66.818748
20
12.359409
11
66.818748
21
12.609409
0
LINE
8
1
10
67.162498
20
12.609409
11
66.818748
21
12.609409
0
LINE
8
1
10
64.211952
20
15.484409
11
67.153503
21
15.484409
0
LINE
8
1
10
67.162498
20
13.859409
11
67.162498
21
12.609409
0
LINE
8
1
10
67.162498
20
13.859409
11
66.818748
21
13.859409
0
LINE
8
1
10
2.016050
20
19.405239
11
3.094175
21
19.405239
0
LINE
8
1
10
4.187150
20
19.405239
11
9.508625
21
19.405239
0
LINE
8
1
10
9.508625
20
22.905239
11
6.828550
21
22.905239
0
LINE
8
1
10
3.094175
20
22.905239
11
2.016050
21
22.905239
0
LINE
8
1
10
2.016050
20
22.905239
11
0.766050
21
22.030239
0
LINE
8
1
10
0.766050
20
22.030239
11
0.766050
21
21.780239
0
LINE
8
1
10
0.422300
20
21.155239
11
0.422300
21
21.780239
0
LINE
8
1
10
0.422300
20
21.155239
11
0.422300
21
20.530239
0
LINE
8
1
10
0.422300
20
21.155239
11
0.422300
21
20.530239
0
LINE
8
1
10
0.422300
20
21.780239
11
0.766050
21
21.780239
0
LINE
8
1
10
6.797300
20
21.155239
11
6.797300
21
22.905239
0
LINE
8
1
10
3.609800
20
22.655239
11
3.609800
21
23.405239
0
LINE
8
1
10
3.734800
20
22.655239
11
3.734800
21
23.405239
0
LINE
8
1
10
4.187150
20
22.905239
11
4.250425
21
22.905239
0
LINE
8
1
10
6.828550
20
22.905239
11
9.508625
21
22.905239
0
LINE
8
1
10
3.446125
20
23.405239
11
3.609800
21
23.405239
0
LINE
8
1
10
3.609800
20
22.905239
11
3.609800
21
22.905239
0
LINE
8
1
10
3.609800
20
22.905239
11
3.609800
21
22.905239
0
LINE
8
1
10
3.094175
20
22.905239
11
3.382850
21
23.405239
0
LINE
8
1
10
3.898475
20
23.405239
11
4.187150
21
22.905239
0
LINE
8
1
10
3.898475
20
23.405239
11
3.734800
21
23.405239
0
LINE
8
1
10
3.609800
20
23.405239
11
3.382850
21
23.405239
0
LINE
8
1
10
3.094175
20
19.405239
11
2.016050
21
19.405239
0
LINE
8
1
10
2.016050
20
19.405239
11
0.766050
21
20.280239
0
LINE
8
1
10
0.766050
20
20.280239
11
0.766050
21
20.530239
0
LINE
8
1
10
0.422300
20
20.530239
11
0.766050
21
20.530239
0
LINE
8
1
10
3.609800
20
19.655239
11
3.609800
21
18.905239
0
LINE
8
1
10
3.734800
20
19.655239
11
3.734800
21
18.905239
0
LINE
8
1
10
3.446125
20
18.905239
11
3.609800
21
18.905239
0
LINE
8
1
10
3.094175
20
19.405239
11
3.382850
21
18.905239
0
LINE
8
1
10
3.898475
20
18.905239
11
4.187150
21
19.405239
0
LINE
8
1
10
3.898475
20
18.905239
11
3.734800
21
18.905239
0
LINE
8
1
10
3.609800
20
18.905239
11
3.382850
21
18.905239
0
LINE
8
1
10
3.382850
20
23.405239
11
3.609800
21
23.405239
0
LINE
8
1
10
3.734800
20
23.405239
11
3.898475
21
23.405239
0
LINE
8
1
10
3.609800
20
22.655239
11
3.734800
21
22.655239
0
LINE
8
1
10
3.382850
20
18.905239
11
3.609800
21
18.905239
0
LINE
8
1
10
3.734800
20
18.905239
11
3.898475
21
18.905239
0
LINE
8
1
10
3.609800
20
19.655239
11
3.734800
21
19.655239
0
LINE
8
1
10
66.734802
20
21.655239
11
66.734802
21
20.699413
0
LINE
8
1
10
64.492203
20
22.405239
11
63.797298
21
23.405239
0
LINE
8
1
10
63.797298
20
23.405239
11
63.508652
21
22.905239
0
LINE
8
1
10
64.492203
20
22.405239
11
66.734802
21
21.655239
0
LINE
8
1
10
64.492203
20
19.905239
11
66.734802
21
20.655239
0
LINE
8
1
10
6.828550
20
13.234409
11
6.828550
21
14.984409
0
LINE
8
1
10
6.766050
20
13.234409
11
6.828550
21
13.234409
0
LINE
8
1
10
12.766050
20
13.234409
11
12.766050
21
14.984409
0
LINE
8
1
10
12.766050
20
14.984409
11
10.187151
21
14.984409
0
LINE
8
1
10
12.828550
20
13.234409
11
12.828550
21
14.984409
0
LINE
8
1
10
16.085976
20
14.984409
11
15.797300
21
15.484409
0
LINE
8
1
10
15.797300
20
15.484409
11
15.508625
21
14.984409
0
LINE
8
1
10
12.828550
20
14.984409
11
15.508625
21
14.984409
0
LINE
8
1
10
16.085976
20
14.984409
11
18.766050
21
14.984409
0
LINE
8
1
10
12.766050
20
13.234409
11
12.828550
21
13.234409
0
LINE
8
1
10
18.766050
20
13.234409
11
18.766050
21
14.984409
0
LINE
8
1
10
18.766050
20
14.984409
11
16.187151
21
14.984409
0
LINE
8
1
10
18.828550
20
13.234409
11
18.828550
21
14.984409
0
LINE
8
1
10
22.085976
20
14.984409
11
21.797300
21
15.484409
0
LINE
8
1
10
21.797300
20
15.484409
11
21.508625
21
14.984409
0
LINE
8
1
10
18.828550
20
14.984409
11
21.508625
21
14.984409
0
LINE
8
1
10
22.085976
20
14.984409
11
24.766050
21
14.984409
0
LINE
8
1
10
18.766050
20
13.234409
11
18.828550
21
13.234409
0
LINE
8
1
10
24.766050
20
13.234409
11
24.766050
21
14.984409
0
LINE
8
1
10
24.766050
20
14.984409
11
22.187151
21
14.984409
0
LINE
8
1
10
24.828550
20
13.234409
11
24.828550
21
14.984409
0
LINE
8
1
10
28.085976
20
14.984409
11
27.797300
21
15.484409
0
LINE
8
1
10
27.797300
20
15.484409
11
27.508625
21
14.984409
0
LINE
8
1
10
24.828550
20
14.984409
11
27.508625
21
14.984409
0
LINE
8
1
10
28.085976
20
14.984409
11
30.766050
21
14.984409
0
LINE
8
1
10
24.766050
20
13.234409
11
24.828550
21
13.234409
0
LINE
8
1
10
30.766050
20
13.234409
11
30.766050
21
14.984409
0
LINE
8
1
10
30.766050
20
14.984409
11
28.187151
21
14.984409
0
LINE
8
1
10
30.828550
20
13.234409
11
30.828550
21
14.984409
0
LINE
8
1
10
34.085976
20
14.984409
11
33.797298
21
15.484409
0
LINE
8
1
10
33.797298
20
15.484409
11
33.508625
21
14.984409
0
LINE
8
1
10
30.828550
20
14.984409
11
33.508625
21
14.984409
0
LINE
8
1
10
34.085976
20
14.984409
11
36.766048
21
14.984409
0
LINE
8
1
10
30.766050
20
13.234409
11
30.828550
21
13.234409
0
LINE
8
1
10
36.766048
20
13.234409
11
36.766048
21
14.984409
0
LINE
8
1
10
36.766048
20
14.984409
11
34.187149
21
14.984409
0
LINE
8
1
10
36.828548
20
13.234409
11
36.828548
21
14.984409
0
LINE
8
1
10
40.085976
20
14.984409
11
39.797298
21
15.484409
0
LINE
8
1
10
39.797298
20
15.484409
11
39.508625
21
14.984409
0
LINE
8
1
10
36.828548
20
14.984409
11
39.508625
21
14.984409
0
LINE
8
1
10
40.085976
20
14.984409
11
42.766048
21
14.984409
0
LINE
8
1
10
36.766048
20
13.234409
11
36.828548
21
13.234409
0
LINE
8
1
10
42.766048
20
13.234409
11
42.766048
21
14.984409
0
LINE
8
1
10
42.766048
20
14.984409
11
40.187149
21
14.984409
0
LINE
8
1
10
42.828548
20
13.234409
11
42.828548
21
14.984409
0
LINE
8
1
10
46.085976
20
14.984409
11
45.797298
21
15.484409
0
LINE
8
1
10
45.797298
20
15.484409
11
45.508625
21
14.984409
0
LINE
8
1
10
42.828548
20
14.984409
11
45.508625
21
14.984409
0
LINE
8
1
10
46.085976
20
14.984409
11
48.766048
21
14.984409
0
LINE
8
1
10
42.766048
20
13.234409
11
42.828548
21
13.234409
0
LINE
8
1
10
48.766048
20
13.234409
11
48.766048
21
14.984409
0
LINE
8
1
10
48.766048
20
14.984409
11
46.187149
21
14.984409
0
LINE
8
1
10
48.828548
20
13.234409
11
48.828548
21
14.984409
0
LINE
8
1
10
52.085976
20
14.984409
11
51.797298
21
15.484409
0
LINE
8
1
10
51.797298
20
15.484409
11
51.508625
21
14.984409
0
LINE
8
1
10
48.828548
20
14.984409
11
51.508625
21
14.984409
0
LINE
8
1
10
52.085976
20
14.984409
11
54.766048
21
14.984409
0
LINE
8
1
10
48.766048
20
13.234409
11
48.828548
21
13.234409
0
LINE
8
1
10
54.766048
20
13.234409
11
54.766048
21
14.984409
0
LINE
8
1
10
54.766048
20
14.984409
11
52.187149
21
14.984409
0
LINE
8
1
10
54.828548
20
13.234409
11
54.828548
21
14.984409
0
LINE
8
1
10
58.085976
20
14.984409
11
57.797298
21
15.484409
0
LINE
8
1
10
57.797298
20
15.484409
11
57.508625
21
14.984409
0
LINE
8
1
10
54.828548
20
14.984409
11
57.508625
21
14.984409
0
LINE
8
1
10
58.085976
20
14.984409
11
60.766048
21
14.984409
0
LINE
8
1
10
54.766048
20
13.234409
11
54.828548
21
13.234409
0
LINE
8
1
10
60.766048
20
13.234409
11
60.766048
21
14.984409
0
LINE
8
1
10
60.766048
20
14.984409
11
58.187149
21
14.984409
0
LINE
8
1
10
60.828548
20
13.234409
11
60.828548
21
14.984409
0
LINE
8
1
10
60.828548
20
14.984409
11
63.407650
21
14.984409
0
LINE
8
1
10
60.766048
20
13.234409
11
60.828548
21
13.234409
0
LINE
8
1
10
66.734802
20
21.655239
11
66.734802
21
20.655239
0
LINE
8
1
10
64.492203
20
19.905239
11
63.797298
21
18.905239
0
LINE
8
1
10
63.797298
20
18.905239
11
63.508652
21
19.405239
0
LINE
8
1
10
6.766050
20
21.155239
11
6.766050
21
22.905239
0
LINE
8
1
10
6.828550
20
21.155239
11
6.828550
21
22.905239
0
LINE
8
1
10
12.766050
20
21.155239
11
12.766050
21
22.905239
0
LINE
8
1
10
12.766050
20
22.905239
11
10.085976
21
22.905239
0
LINE
8
1
10
6.766050
20
22.905239
11
4.187150
21
22.905239
0
LINE
8
1
10
6.766050
20
22.905239
11
4.187150
21
22.905239
0
LINE
8
1
10
6.766050
20
21.155239
11
6.828550
21
21.155239
0
LINE
8
1
10
18.766050
20
22.905239
11
16.085976
21
22.905239
0
LINE
8
1
10
15.508625
20
22.905239
11
12.828550
21
22.905239
0
LINE
8
1
10
18.766050
20
21.155239
11
18.766050
21
22.905239
0
LINE
8
1
10
16.085976
20
22.905239
11
15.797300
21
23.405239
0
LINE
8
1
10
15.797300
20
23.405239
11
15.508625
21
22.905239
0
LINE
8
1
10
12.828550
20
22.905239
11
15.508625
21
22.905239
0
LINE
8
1
10
16.085976
20
22.905239
11
18.766050
21
22.905239
0
LINE
8
1
10
15.508625
20
22.905239
11
12.828550
21
22.905239
0
LINE
8
1
10
12.828550
20
21.155239
11
12.828550
21
22.905239
0
LINE
8
1
10
12.828550
20
22.905239
11
15.508625
21
22.905239
0
LINE
8
1
10
12.766050
20
21.155239
11
12.828550
21
21.155239
0
LINE
8
1
10
24.766050
20
22.905239
11
22.085976
21
22.905239
0
LINE
8
1
10
21.508625
20
22.905239
11
18.828550
21
22.905239
0
LINE
8
1
10
24.766050
20
21.155239
11
24.766050
21
22.905239
0
LINE
8
1
10
22.085976
20
22.905239
11
21.797300
21
23.405239
0
LINE
8
1
10
21.797300
20
23.405239
11
21.508625
21
22.905239
0
LINE
8
1
10
18.828550
20
22.905239
11
21.508625
21
22.905239
0
LINE
8
1
10
22.085976
20
22.905239
11
24.766050
21
22.905239
0
LINE
8
1
10
21.508625
20
22.905239
11
18.828550
21
22.905239
0
LINE
8
1
10
18.828550
20
21.155239
11
18.828550
21
22.905239
0
LINE
8
1
10
18.828550
20
22.905239
11
21.508625
21
22.905239
0
LINE
8
1
10
18.766050
20
21.155239
11
18.828550
21
21.155239
0
LINE
8
1
10
30.766050
20
22.905239
11
28.085976
21
22.905239
0
LINE
8
1
10
27.508625
20
22.905239
11
24.828550
21
22.905239
0
LINE
8
1
10
30.766050
20
21.155239
11
30.766050
21
22.905239
0
LINE
8
1
10
28.085976
20
22.905239
11
27.797300
21
23.405239
0
LINE
8
1
10
27.797300
20
23.405239
11
27.508625
21
22.905239
0
LINE
8
1
10
24.828550
20
22.905239
11
27.508625
21
22.905239
0
LINE
8
1
10
28.085976
20
22.905239
11
30.766050
21
22.905239
0
LINE
8
1
10
27.508625
20
22.905239
11
24.828550
21
22.905239
0
LINE
8
1
10
24.828550
20
21.155239
11
24.828550
21
22.905239
0
LINE
8
1
10
24.828550
20
22.905239
11
27.508625
21
22.905239
0
LINE
8
1
10
24.766050
20
21.155239
11
24.828550
21
21.155239
0
LINE
8
1
10
36.766048
20
22.905239
11
34.085976
21
22.905239
0
LINE
8
1
10
33.508625
20
22.905239
11
30.828550
21
22.905239
0
LINE
8
1
10
36.766048
20
21.155239
11
36.766048
21
22.905239
0
LINE
8
1
10
34.085976
20
22.905239
11
33.797298
21
23.405239
0
LINE
8
1
10
33.797298
20
23.405239
11
33.508625
21
22.905239
0
LINE
8
1
10
30.828550
20
22.905239
11
33.508625
21
22.905239
0
LINE
8
1
10
34.085976
20
22.905239
11
36.766048
21
22.905239
0
LINE
8
1
10
33.508625
20
22.905239
11
30.828550
21
22.905239
0
LINE
8
1
10
30.828550
20
21.155239
11
30.828550
21
22.905239
0
LINE
8
1
10
30.828550
20
22.905239
11
33.508625
21
22.905239
0
LINE
8
1
10
30.766050
20
21.155239
11
30.828550
21
21.155239
0
LINE
8
1
10
42.766048
20
22.905239
11
40.085976
21
22.905239
0
LINE
8
1
10
39.508625
20
22.905239
11
36.828548
21
22.905239
0
LINE
8
1
10
42.766048
20
21.155239
11
42.766048
21
22.905239
0
LINE
8
1
10
40.085976
20
22.905239
11
39.797298
21
23.405239
0
LINE
8
1
10
39.797298
20
23.405239
11
39.508625
21
22.905239
0
LINE
8
1
10
36.828548
20
22.905239
11
39.508625
21
22.905239
0
LINE
8
1
10
40.085976
20
22.905239
11
42.766048
21
22.905239
0
LINE
8
1
10
39.508625
20
22.905239
11
36.828548
21
22.905239
0
LINE
8
1
10
36.828548
20
21.155239
11
36.828548
21
22.905239
0
LINE
8
1
10
36.828548
20
22.905239
11
39.508625
21
22.905239
0
LINE
8
1
10
36.766048
20
21.155239
11
36.828548
21
21.155239
0
LINE
8
1
10
48.766048
20
22.905239
11
46.085976
21
22.905239
0
LINE
8
1
10
45.508625
20
22.905239
11
42.828548
21
22.905239
0
LINE
8
1
10
48.766048
20
21.155239
11
48.766048
21
22.905239
0
LINE
8
1
10
46.085976
20
22.905239
11
45.797298
21
23.405239
0
LINE
8
1
10
45.797298
20
23.405239
11
45.508625
21
22.905239
0
LINE
8
1
10
42.828548
20
22.905239
11
45.508625
21
22.905239
0
LINE
8
1
10
46.085976
20
22.905239
11
48.766048
21
22.905239
0
LINE
8
1
10
45.508625
20
22.905239
11
42.828548
21
22.905239
0
LINE
8
1
10
42.828548
20
21.155239
11
42.828548
21
22.905239
0
LINE
8
1
10
42.828548
20
22.905239
11
45.508625
21
22.905239
0
LINE
8
1
10
42.766048
20
21.155239
11
42.828548
21
21.155239
0
LINE
8
1
10
54.766048
20
22.905239
11
52.085976
21
22.905239
0
LINE
8
1
10
51.508625
20
22.905239
11
48.828548
21
22.905239
0
LINE
8
1
10
54.766048
20
21.155239
11
54.766048
21
22.905239
0
LINE
8
1
10
52.085976
20
22.905239
11
51.797298
21
23.405239
0
LINE
8
1
10
51.797298
20
23.405239
11
51.508625
21
22.905239
0
LINE
8
1
10
48.828548
20
22.905239
11
51.508625
21
22.905239
0
LINE
8
1
10
52.085976
20
22.905239
11
54.766048
21
22.905239
0
LINE
8
1
10
51.508625
20
22.905239
11
48.828548
21
22.905239
0
LINE
8
1
10
48.828548
20
21.155239
11
48.828548
21
22.905239
0
LINE
8
1
10
48.828548
20
22.905239
11
51.508625
21
22.905239
0
LINE
8
1
10
48.766048
20
21.155239
11
48.828548
21
21.155239
0
LINE
8
1
10
60.766048
20
22.905239
11
58.085976
21
22.905239
0
LINE
8
1
10
57.508625
20
22.905239
11
54.828548
21
22.905239
0
LINE
8
1
10
60.766048
20
21.155239
11
60.766048
21
22.905239
0
LINE
8
1
10
58.085976
20
22.905239
11
57.797298
21
23.405239
0
LINE
8
1
10
57.797298
20
23.405239
11
57.508625
21
22.905239
0
LINE
8
1
10
54.828548
20
22.905239
11
57.508625
21
22.905239
0
LINE
8
1
10
58.085976
20
22.905239
11
60.766048
21
22.905239
0
LINE
8
1
10
57.508625
20
22.905239
11
54.828548
21
22.905239
0
LINE
8
1
10
54.828548
20
21.155239
11
54.828548
21
22.905239
0
LINE
8
1
10
54.828548
20
22.905239
11
57.508625
21
22.905239
0
LINE
8
1
10
54.766048
20
21.155239
11
54.828548
21
21.155239
0
LINE
8
1
10
63.508625
20
22.905239
11
60.828548
21
22.905239
0
LINE
8
1
10
60.828548
20
22.905239
11
63.508625
21
22.905239
0
LINE
8
1
10
63.508625
20
22.905239
11
60.828548
21
22.905239
0
LINE
8
1
10
60.828548
20
21.155239
11
60.828548
21
22.905239
0
LINE
8
1
10
60.828548
20
22.905239
11
63.508625
21
22.905239
0
LINE
8
1
10
60.766048
20
21.155239
11
60.828548
21
21.155239
0
ENDSEC
0
EOF
