  0
SECTION
  2
HEADER
  9
$ACADVER
  1
AC1009
  9
$DWGCODEPAGE
  3
ansi_1252
  9
$INSBASE
 10
0.0
 20
0.0
 30
0.0
  9
$EXTMIN
 10
-0.0421341588143833
 20
0.0118964731147198
 30
0.0
  9
$EXTMAX
 10
3.684492733426642
 20
4.091512537251489
 30
0.0
  9
$LIMMIN
 10
0.0
 20
0.0
  9
$LIMMAX
 10
12.0
 20
9.0
  9
$ORTHOMODE
 70
     0
  9
$REGENMODE
 70
     1
  9
$FILLMODE
 70
     1
  9
$QTEXTMODE
 70
     0
  9
$MIRRTEXT
 70
     1
  9
$DRAGMODE
 70
     2
  9
$LTSCALE
 40
0.000394
  9
$OSMODE
 70
    37
  9
$ATTMODE
 70
     1
  9
$TEXTSIZE
 40
0.2
  9
$TRACEWID
 40
0.05
  9
$TEXTSTYLE
  7
STANDARD
  9
$CLAYER
  8
0
  9
$CELTYPE
  6
BYBLOCK
  9
$CECOLOR
 62
   256
  9
$DIMSCALE
 40
1.0
  9
$DIMASZ
 40
0.18
  9
$DIMEXO
 40
0.0625
  9
$DIMDLI
 40
0.38
  9
$DIMRND
 40
0.0
  9
$DIMDLE
 40
0.0
  9
$DIMEXE
 40
0.18
  9
$DIMTP
 40
0.0
  9
$DIMTM
 40
0.0
  9
$DIMTXT
 40
0.18
  9
$DIMCEN
 40
0.09
  9
$DIMTSZ
 40
0.0
  9
$DIMTOL
 70
     0
  9
$DIMLIM
 70
     0
  9
$DIMTIH
 70
     1
  9
$DIMTOH
 70
     1
  9
$DIMSE1
 70
     0
  9
$DIMSE2
 70
     0
  9
$DIMTAD
 70
     0
  9
$DIMZIN
 70
     0
  9
$DIMBLK
  1

  9
$DIMASO
 70
     1
  9
$DIMSHO
 70
     1
  9
$DIMPOST
  1

  9
$DIMAPOST
  1

  9
$DIMALT
 70
     0
  9
$DIMALTD
 70
     2
  9
$DIMALTF
 40
25.4
  9
$DIMLFAC
 40
1.0
  9
$DIMTOFL
 70
     0
  9
$DIMTVP
 40
0.0
  9
$DIMTIX
 70
     0
  9
$DIMSOXD
 70
     0
  9
$DIMSAH
 70
     0
  9
$DIMBLK1
  1

  9
$DIMBLK2
  1

  9
$DIMSTYLE
  2
STANDARD
  9
$DIMCLRD
 70
     0
  9
$DIMCLRE
 70
     0
  9
$DIMCLRT
 70
     0
  9
$DIMTFAC
 40
1.0
  9
$DIMGAP
 40
0.09
  9
$LUNITS
 70
     2
  9
$LUPREC
 70
     4
  9
$SKETCHINC
 40
0.1
  9
$FILLETRAD
 40
0.5
  9
$AUNITS
 70
     0
  9
$AUPREC
 70
     0
  9
$MENU
  1
.
  9
$ELEVATION
 40
0.0
  9
$PELEVATION
 40
0.0
  9
$THICKNESS
 40
0.0
  9
$LIMCHECK
 70
     0
  9
$CHAMFERA
 40
0.5
  9
$CHAMFERB
 40
0.5
  9
$SKPOLY
 70
     0
  9
$TDCREATE
 40
2453353.508792488
  9
$TDUPDATE
 40
4881453.859576296
  9
$TDINDWG
 40
4881704.058228148
  9
$TDUSRTIMER
 40
4881704.058228148
  9
$USRTIMER
 70
     1
  9
$ANGBASE
 50
0.0
  9
$ANGDIR
 70
     0
  9
$PDMODE
 70
    35
  9
$PDSIZE
 40
0.000315
  9
$PLINEWID
 40
0.0
  9
$COORDS
 70
     1
  9
$SPLFRAME
 70
     0
  9
$SPLINETYPE
 70
     6
  9
$SPLINESEGS
 70
     8
  9
$ATTDIA
 70
     0
  9
$ATTREQ
 70
     1
  9
$HANDLING
 70
     1
  9
$HANDSEED
  5
2BC5
  9
$SURFTAB1
 70
     6
  9
$SURFTAB2
 70
     6
  9
$SURFTYPE
 70
     6
  9
$SURFU
 70
     6
  9
$SURFV
 70
     6
  9
$UCSNAME
  2

  9
$UCSORG
 10
0.0
 20
0.0
 30
0.0
  9
$UCSXDIR
 10
1.0
 20
0.0
 30
0.0
  9
$UCSYDIR
 10
0.0
 20
1.0
 30
0.0
  9
$PUCSNAME
  2

  9
$PUCSORG
 10
0.0
 20
0.0
 30
0.0
  9
$PUCSXDIR
 10
1.0
 20
0.0
 30
0.0
  9
$PUCSYDIR
 10
0.0
 20
1.0
 30
0.0
  9
$USERI1
 70
     0
  9
$USERI2
 70
     0
  9
$USERI3
 70
     0
  9
$USERI4
 70
     0
  9
$USERI5
 70
     0
  9
$USERR1
 40
0.0
  9
$USERR2
 40
0.0
  9
$USERR3
 40
0.0
  9
$USERR4
 40
0.0
  9
$USERR5
 40
0.0
  9
$WORLDVIEW
 70
     1
  9
$SHADEDGE
 70
     3
  9
$SHADEDIF
 70
    70
  9
$TILEMODE
 70
     1
  9
$MAXACTVP
 70
    64
  9
$PLIMCHECK
 70
     0
  9
$PEXTMIN
 10
0.0
 20
0.0
 30
0.0
  9
$PEXTMAX
 10
0.0
 20
0.0
 30
0.0
  9
$PLIMMIN
 10
0.0
 20
0.0
  9
$PLIMMAX
 10
0.0
 20
0.0
  9
$UNITMODE
 70
     0
  9
$VISRETAIN
 70
     1
  9
$PLINEGEN
 70
     0
  9
$PSLTSCALE
 70
     1
  0
ENDSEC
  0
SECTION
  2
TABLES
  0
TABLE
  2
VPORT
 70
     1
  0
VPORT
  2
*ACTIVE
 70
     0
 10
0.0
 20
0.0
 11
1.0
 21
1.0
 12
2.085913113053061
 22
1.965762481241147
 13
0.0
 23
0.0
 14
0.5
 24
0.5
 15
0.5
 25
0.5
 16
0.0
 26
0.0
 36
1.0
 17
0.0
 27
0.0
 37
0.0
 40
4.518460628861536
 41
1.972972972850329
 42
50.0
 43
0.0
 44
0.0
 50
0.0
 51
0.0
 71
    16
 72
   100
 73
     1
 74
     3
 75
     0
 76
     0
 77
     0
 78
     0
  0
ENDTAB
  0
TABLE
  2
LTYPE
 70
    10
  0
LTYPE
  2
CONTINUOUS
 70
     0
  3
Solid line
 72
    65
 73
     0
 40
0.0
  0
LTYPE
  2
DASHED
 70
     0
  3
__ __ __ __ __ __ __ __ __ __ __ __ __ __ __
 72
    65
 73
     2
 40
0.000003
 49
0.000002
 49
-0.000001
  0
LTYPE
  2
HIDDEN
 70
     0
  3
 _ _ _ _ _ _ _ _ _ _ _ _ _ _ _ _ _ _ _ _ _ _
 72
    65
 73
     2
 40
0.000001
 49
0.000001
 49
0.0
  0
LTYPE
  2
CENTER
 70
     0
  3
____ _ ____ _ ____ _ ____ _ ____ _ ____ _ ____
 72
    65
 73
     4
 40
0.000008
 49
0.000005
 49
-0.000001
 49
0.000001
 49
-0.000001
  0
LTYPE
  2
PHANTOM
 70
     0
  3
_____ _ _ _____ _ _ _____ _ _ _____ _ _ ____
 72
    65
 73
     6
 40
0.00001
 49
0.000005
 49
-0.000001
 49
0.000001
 49
-0.000001
 49
0.000001
 49
-0.000001
  0
LTYPE
  2
DOT
 70
     0
  3
...............................................
 72
    65
 73
     2
 40
0.000001
 49
0.0
 49
-0.000001
  0
LTYPE
  2
DASHDOT
 70
     0
  3
__ . __ . __ . __ . __ . __ . __ . __ . __ . __
 72
    65
 73
     4
 40
0.000004
 49
0.000002
 49
-0.000001
 49
0.0
 49
-0.000001
  0
LTYPE
  2
BORDER
 70
     0
  3
__ __ . __ __ . __ __ . __ __ . __ __ . __ __
 72
    65
 73
     6
 40
0.000007
 49
0.000002
 49
-0.000001
 49
0.000002
 49
-0.000001
 49
0.0
 49
-0.000001
  0
LTYPE
  2
DIVIDE
 70
     0
  3
__ . . __ . . __ . . __ . . __ . . __ . . __
 72
    65
 73
     6
 40
0.000005
 49
0.000002
 49
-0.000001
 49
0.0
 49
-0.000001
 49
0.0
 49
-0.000001
  0
LTYPE
  2
DOTDOT
 70
     0
  3
 . .  . .  . .  . .  . .  . . 
 72
    65
 73
     5
 40
0.000003
 49
-0.000001
 49
0.0
 49
-0.000001
 49
0.0
 49
-0.000001
  0
ENDTAB
  0
TABLE
  2
LAYER
 70
     4
  0
LAYER
  2
0
 70
     0
 62
     7
  6
CONTINUOUS
  0
LAYER
  2
FOREGROUND
 70
     0
 62
     7
  6
CONTINUOUS
  0
LAYER
  2
BACKGROUND
 70
     1
 62
    -7
  6
CONTINUOUS
  0
LAYER
  2
OUTLINE
 70
     0
 62
     7
  6
CONTINUOUS
  0
ENDTAB
  0
TABLE
  2
STYLE
 70
     1
  0
STYLE
  2
STANDARD
 70
     0
 40
0.0
 41
1.0
 50
0.0
 71
     0
 42
0.2
  3
txt
  4

  0
ENDTAB
  0
TABLE
  2
VIEW
 70
     0
  0
ENDTAB
  0
TABLE
  2
UCS
 70
     0
  0
ENDTAB
  0
TABLE
  2
APPID
 70
     1
  0
APPID
  2
ACAD
 70
     0
  0
ENDTAB
  0
TABLE
  2
DIMSTYLE
 70
     1
  0
DIMSTYLE
  2
STANDARD
 70
     0
  3

  4

  5

  6

  7

 40
1.0
 41
0.18
 42
0.0625
 43
0.38
 44
0.18
 45
0.0
 46
0.0
 47
0.0
 48
0.0
140
0.18
141
0.09
142
0.0
143
25.4
144
1.0
145
0.0
146
1.0
147
0.09
 71
     0
 72
     0
 73
     1
 74
     1
 75
     0
 76
     0
 77
     0
 78
     0
170
     0
171
     2
172
     0
173
     0
174
     0
175
     0
176
     0
177
     0
178
     0
  0
ENDTAB
  0
ENDSEC
  0
SECTION
  2
BLOCKS
  0
BLOCK
  8
0
  2
$MODEL_SPACE
 70
     0
 10
0.0
 20
0.0
 30
0.0
  3
$MODEL_SPACE
  1

  0
ENDBLK
  5
21
  8
0
  0
BLOCK
 67
     1
  8
0
  2
$PAPER_SPACE
 70
     0
 10
0.0
 20
0.0
 30
0.0
  3
$PAPER_SPACE
  1

  0
ENDBLK
  5
76
 67
     1
  8
0
  0
ENDSEC
  0
SECTION
  2
ENTITIES
  0
POLYLINE
  5
27AD
  8
OUTLINE
  6
CONTINUOUS
 62
     2
 66
     1
 10
0.0
 20
0.0
 30
0.0
 70
     1
 40
0.003
 41
0.003
  0
VERTEX
  5
2872
  8
OUTLINE
  6
CONTINUOUS
 62
     2
 10
1.708195714450389
 20
2.24101253725149
 30
0.0
  0
VERTEX
  5
2873
  8
OUTLINE
  6
CONTINUOUS
 62
     2
 10
1.719058714450389
 20
2.250859537251489
 30
0.0
  0
VERTEX
  5
2874
  8
OUTLINE
  6
CONTINUOUS
 62
     2
 10
1.728354714450389
 20
2.266104537251489
 30
0.0
  0
VERTEX
  5
2875
  8
OUTLINE
  6
CONTINUOUS
 62
     2
 10
1.736194714450389
 20
2.28614653725149
 30
0.0
  0
VERTEX
  5
2876
  8
OUTLINE
  6
CONTINUOUS
 62
     2
 10
1.742687714450389
 20
2.310382537251489
 30
0.0
  0
VERTEX
  5
2877
  8
OUTLINE
  6
CONTINUOUS
 62
     2
 10
1.747947714450389
 20
2.338211537251489
 30
0.0
  0
VERTEX
  5
2878
  8
OUTLINE
  6
CONTINUOUS
 62
     2
 10
1.752084714450389
 20
2.36903053725149
 30
0.0
  0
VERTEX
  5
2879
  8
OUTLINE
  6
CONTINUOUS
 62
     2
 10
1.755208714450389
 20
2.402239537251489
 30
0.0
  0
VERTEX
  5
287A
  8
OUTLINE
  6
CONTINUOUS
 62
     2
 10
1.757431714450389
 20
2.437234537251489
 30
0.0
  0
VERTEX
  5
287B
  8
OUTLINE
  6
CONTINUOUS
 62
     2
 10
1.758865714450389
 20
2.473415537251489
 30
0.0
  0
VERTEX
  5
287C
  8
OUTLINE
  6
CONTINUOUS
 62
     2
 10
1.759619714450389
 20
2.51018053725149
 30
0.0
  0
VERTEX
  5
287D
  8
OUTLINE
  6
CONTINUOUS
 62
     2
 10
1.759806714450389
 20
2.54692653725149
 30
0.0
  0
VERTEX
  5
287E
  8
OUTLINE
  6
CONTINUOUS
 62
     2
 10
1.759537714450389
 20
2.583051537251489
 30
0.0
  0
VERTEX
  5
287F
  8
OUTLINE
  6
CONTINUOUS
 62
     2
 10
1.758921714450389
 20
2.617955537251489
 30
0.0
  0
VERTEX
  5
2880
  8
OUTLINE
  6
CONTINUOUS
 62
     2
 10
1.758072714450389
 20
2.651035537251489
 30
0.0
  0
VERTEX
  5
2881
  8
OUTLINE
  6
CONTINUOUS
 62
     2
 10
1.757099714450389
 20
2.68168953725149
 30
0.0
  0
VERTEX
  5
2882
  8
OUTLINE
  6
CONTINUOUS
 62
     2
 10
1.756113714450389
 20
2.709316537251489
 30
0.0
  0
VERTEX
  5
2883
  8
OUTLINE
  6
CONTINUOUS
 62
     2
 10
1.755227714450389
 20
2.733313537251489
 30
0.0
  0
VERTEX
  5
2884
  8
OUTLINE
  6
CONTINUOUS
 62
     2
 10
1.754550714450389
 20
2.753079537251489
 30
0.0
  0
VERTEX
  5
2885
  8
OUTLINE
  6
CONTINUOUS
 62
     2
 10
1.754195714450389
 20
2.768012537251489
 30
0.0
  0
VERTEX
  5
2886
  8
OUTLINE
  6
CONTINUOUS
 62
     2
 10
1.748899714450389
 20
2.772012537251489
 30
0.0
  0
VERTEX
  5
2887
  8
OUTLINE
  6
CONTINUOUS
 62
     2
 10
1.743158714450389
 20
2.776012537251489
 30
0.0
  0
VERTEX
  5
2888
  8
OUTLINE
  6
CONTINUOUS
 62
     2
 10
1.737195714450389
 20
2.780012537251489
 30
0.0
  0
VERTEX
  5
2889
  8
OUTLINE
  6
CONTINUOUS
 62
     2
 10
1.710007714450389
 20
2.76312253725149
 30
0.0
  0
VERTEX
  5
288A
  8
OUTLINE
  6
CONTINUOUS
 62
     2
 10
1.683148714450389
 20
2.747596537251489
 30
0.0
  0
VERTEX
  5
288B
  8
OUTLINE
  6
CONTINUOUS
 62
     2
 10
1.656547714450389
 20
2.733274537251489
 30
0.0
  0
VERTEX
  5
288C
  8
OUTLINE
  6
CONTINUOUS
 62
     2
 10
1.630132714450389
 20
2.71999653725149
 30
0.0
  0
VERTEX
  5
288D
  8
OUTLINE
  6
CONTINUOUS
 62
     2
 10
1.603836714450389
 20
2.707604537251489
 30
0.0
  0
VERTEX
  5
288E
  8
OUTLINE
  6
CONTINUOUS
 62
     2
 10
1.577586714450389
 20
2.695936537251489
 30
0.0
  0
VERTEX
  5
288F
  8
OUTLINE
  6
CONTINUOUS
 62
     2
 10
1.551312714450389
 20
2.68483453725149
 30
0.0
  0
VERTEX
  5
2890
  8
OUTLINE
  6
CONTINUOUS
 62
     2
 10
1.524945714450389
 20
2.67413753725149
 30
0.0
  0
VERTEX
  5
2891
  8
OUTLINE
  6
CONTINUOUS
 62
     2
 10
1.498414714450389
 20
2.663687537251489
 30
0.0
  0
VERTEX
  5
2892
  8
OUTLINE
  6
CONTINUOUS
 62
     2
 10
1.471648714450389
 20
2.653323537251489
 30
0.0
  0
VERTEX
  5
2893
  8
OUTLINE
  6
CONTINUOUS
 62
     2
 10
1.444578714450389
 20
2.642885537251489
 30
0.0
  0
VERTEX
  5
2894
  8
OUTLINE
  6
CONTINUOUS
 62
     2
 10
1.417132714450389
 20
2.63221553725149
 30
0.0
  0
VERTEX
  5
2895
  8
OUTLINE
  6
CONTINUOUS
 62
     2
 10
1.389242714450389
 20
2.621152537251489
 30
0.0
  0
VERTEX
  5
2896
  8
OUTLINE
  6
CONTINUOUS
 62
     2
 10
1.360836714450389
 20
2.60953753725149
 30
0.0
  0
VERTEX
  5
2897
  8
OUTLINE
  6
CONTINUOUS
 62
     2
 10
1.331843714450389
 20
2.597210537251489
 30
0.0
  0
VERTEX
  5
2898
  8
OUTLINE
  6
CONTINUOUS
 62
     2
 10
1.302195714450389
 20
2.58401253725149
 30
0.0
  0
VERTEX
  5
2899
  8
OUTLINE
  6
CONTINUOUS
 62
     2
 10
1.290084714450389
 20
2.55771653725149
 30
0.0
  0
VERTEX
  5
289A
  8
OUTLINE
  6
CONTINUOUS
 62
     2
 10
1.279973714450389
 20
2.54164253725149
 30
0.0
  0
VERTEX
  5
289B
  8
OUTLINE
  6
CONTINUOUS
 62
     2
 10
1.263195714450389
 20
2.522012537251489
 30
0.0
  0
VERTEX
  5
289C
  8
OUTLINE
  6
CONTINUOUS
 62
     2
 10
1.274112714450389
 20
2.499654537251489
 30
0.0
  0
VERTEX
  5
289D
  8
OUTLINE
  6
CONTINUOUS
 62
     2
 10
1.288528714450389
 20
2.47631853725149
 30
0.0
  0
VERTEX
  5
289E
  8
OUTLINE
  6
CONTINUOUS
 62
     2
 10
1.305945714450389
 20
2.45235653725149
 30
0.0
  0
VERTEX
  5
289F
  8
OUTLINE
  6
CONTINUOUS
 62
     2
 10
1.325862714450389
 20
2.428123537251489
 30
0.0
  0
VERTEX
  5
28A0
  8
OUTLINE
  6
CONTINUOUS
 62
     2
 10
1.347778714450389
 20
2.403974537251489
 30
0.0
  0
VERTEX
  5
28A1
  8
OUTLINE
  6
CONTINUOUS
 62
     2
 10
1.371195714450389
 20
2.380262537251489
 30
0.0
  0
VERTEX
  5
28A2
  8
OUTLINE
  6
CONTINUOUS
 62
     2
 10
1.395612714450389
 20
2.35734253725149
 30
0.0
  0
VERTEX
  5
28A3
  8
OUTLINE
  6
CONTINUOUS
 62
     2
 10
1.420528714450389
 20
2.335568537251489
 30
0.0
  0
VERTEX
  5
28A4
  8
OUTLINE
  6
CONTINUOUS
 62
     2
 10
1.445445714450389
 20
2.315293537251489
 30
0.0
  0
VERTEX
  5
28A5
  8
OUTLINE
  6
CONTINUOUS
 62
     2
 10
1.469862714450389
 20
2.296873537251489
 30
0.0
  0
VERTEX
  5
28A6
  8
OUTLINE
  6
CONTINUOUS
 62
     2
 10
1.493278714450389
 20
2.280661537251489
 30
0.0
  0
VERTEX
  5
28A7
  8
OUTLINE
  6
CONTINUOUS
 62
     2
 10
1.515195714450389
 20
2.267012537251489
 30
0.0
  0
VERTEX
  5
28A8
  8
OUTLINE
  6
CONTINUOUS
 62
     2
 10
1.531158714450389
 20
2.275975537251489
 30
0.0
  0
VERTEX
  5
28A9
  8
OUTLINE
  6
CONTINUOUS
 62
     2
 10
1.546899714450389
 20
2.28471653725149
 30
0.0
  0
VERTEX
  5
28AA
  8
OUTLINE
  6
CONTINUOUS
 62
     2
 10
1.562195714450389
 20
2.29301253725149
 30
0.0
  0
VERTEX
  5
28AB
  8
OUTLINE
  6
CONTINUOUS
 62
     2
 10
1.552158714450389
 20
2.32601253725149
 30
0.0
  0
VERTEX
  5
28AC
  8
OUTLINE
  6
CONTINUOUS
 62
     2
 10
1.541899714450389
 20
2.359012537251489
 30
0.0
  0
VERTEX
  5
28AD
  8
OUTLINE
  6
CONTINUOUS
 62
     2
 10
1.531195714450389
 20
2.392012537251489
 30
0.0
  0
VERTEX
  5
28AE
  8
OUTLINE
  6
CONTINUOUS
 62
     2
 10
1.501639714450389
 20
2.41067953725149
 30
0.0
  0
VERTEX
  5
28AF
  8
OUTLINE
  6
CONTINUOUS
 62
     2
 10
1.490751714450389
 20
2.420012537251489
 30
0.0
  0
VERTEX
  5
28B0
  8
OUTLINE
  6
CONTINUOUS
 62
     2
 10
1.489195714450389
 20
2.428012537251489
 30
0.0
  0
VERTEX
  5
28B1
  8
OUTLINE
  6
CONTINUOUS
 62
     2
 10
1.517195714450389
 20
2.428012537251489
 30
0.0
  0
VERTEX
  5
28B2
  8
OUTLINE
  6
CONTINUOUS
 62
     2
 10
1.545195714450389
 20
2.428012537251489
 30
0.0
  0
VERTEX
  5
28B3
  8
OUTLINE
  6
CONTINUOUS
 62
     2
 10
1.573195714450389
 20
2.428012537251489
 30
0.0
  0
VERTEX
  5
28B4
  8
OUTLINE
  6
CONTINUOUS
 62
     2
 10
1.580260714450389
 20
2.393438537251489
 30
0.0
  0
VERTEX
  5
28B5
  8
OUTLINE
  6
CONTINUOUS
 62
     2
 10
1.592380714450389
 20
2.364086537251489
 30
0.0
  0
VERTEX
  5
28B6
  8
OUTLINE
  6
CONTINUOUS
 62
     2
 10
1.607945714450389
 20
2.337512537251489
 30
0.0
  0
VERTEX
  5
28B7
  8
OUTLINE
  6
CONTINUOUS
 62
     2
 10
1.625343714450389
 20
2.311271537251489
 30
0.0
  0
VERTEX
  5
28B8
  8
OUTLINE
  6
CONTINUOUS
 62
     2
 10
1.642964714450389
 20
2.282919537251489
 30
0.0
  0
VERTEX
  5
28B9
  8
OUTLINE
  6
CONTINUOUS
 62
     2
 10
1.659195714450389
 20
2.250012537251489
 30
0.0
  0
VERTEX
  5
28BA
  8
OUTLINE
  6
CONTINUOUS
 62
     2
 10
1.675899714450389
 20
2.247012537251489
 30
0.0
  0
VERTEX
  5
28BB
  8
OUTLINE
  6
CONTINUOUS
 62
     2
 10
1.692158714450389
 20
2.244012537251489
 30
0.0
  0
SEQEND
  5
2871
  8
OUTLINE
  6
CONTINUOUS
 62
     2
  0
ARC
  5
27AE
  8
0
  6
BYBLOCK
 62
     2
 10
1.837621863709376
 20
1.902132461584979
 30
0.0
 40
1.893658016898795
 50
216.5727960222375
 51
322.1926749752593
  0
POLYLINE
  5
27AF
  8
OUTLINE
  6
CONTINUOUS
 62
     2
 66
     1
 10
0.0
 20
0.0
 30
0.0
  0
VERTEX
  5
28BD
  8
OUTLINE
  6
CONTINUOUS
 62
     2
 10
3.333756842776885
 20
0.7413048217625344
 30
0.0
 40
0.003
 41
0.003
  0
VERTEX
  5
28BE
  8
OUTLINE
  6
CONTINUOUS
 62
     2
 10
3.350261714450389
 20
0.7576315372514895
 30
0.0
 40
0.003
 41
0.003
  0
VERTEX
  5
28BF
  8
OUTLINE
  6
CONTINUOUS
 62
     2
 10
3.371294714450389
 20
0.7708935372514894
 30
0.0
 40
0.003
 41
0.003
  0
VERTEX
  5
28C0
  8
OUTLINE
  6
CONTINUOUS
 62
     2
 10
3.394013714450389
 20
0.7792825372514893
 30
0.0
 40
0.003
 41
0.003
  0
VERTEX
  5
28C1
  8
OUTLINE
  6
CONTINUOUS
 62
     2
 10
3.417426714450389
 20
0.7827585372514894
 30
0.0
 40
0.003
 41
0.003
  0
VERTEX
  5
28C2
  8
OUTLINE
  6
CONTINUOUS
 62
     2
 10
3.440542714450389
 20
0.7812795372514894
 30
0.0
 40
0.003
 41
0.003
  0
VERTEX
  5
28C3
  8
OUTLINE
  6
CONTINUOUS
 62
     2
 10
3.462369714450389
 20
0.7748065372514894
 30
0.0
 40
0.003
 41
0.003
  0
VERTEX
  5
28C4
  8
OUTLINE
  6
CONTINUOUS
 62
     2
 10
3.481914714450389
 20
0.7632975372514894
 30
0.0
 40
0.003
 41
0.003
  0
VERTEX
  5
28C5
  8
OUTLINE
  6
CONTINUOUS
 62
     2
 10
3.498187714450389
 20
0.7467135372514893
 30
0.0
 40
0.003
 41
0.003
  0
VERTEX
  5
28C6
  8
OUTLINE
  6
CONTINUOUS
 62
     2
 10
3.514317389313441
 20
0.7280057446805224
 30
0.0
 40
0.003
 41
0.003
  0
VERTEX
  5
28C7
  8
OUTLINE
  6
CONTINUOUS
 62
     2
 10
3.528654714450389
 20
0.7001295372514893
 30
0.0
 40
0.003
 41
0.003
  0
VERTEX
  5
28C8
  8
OUTLINE
  6
CONTINUOUS
 62
     2
 10
3.535800513830538
 20
0.6794129630347063
 30
0.0
 40
0.003
 41
0.003
  0
VERTEX
  5
28C9
  8
OUTLINE
  6
CONTINUOUS
 62
     2
 10
3.532713714450389
 20
0.6513955372514895
 30
0.0
 40
0.003
 41
0.003
  0
VERTEX
  5
28CA
  8
OUTLINE
  6
CONTINUOUS
 62
     2
 10
3.521570714450389
 20
0.6287625372514893
 30
0.0
 40
0.003
 41
0.003
  0
VERTEX
  5
28CB
  8
OUTLINE
  6
CONTINUOUS
 62
     2
 10
3.503818714450389
 20
0.6080985372514893
 30
0.0
 40
0.003
 41
0.003
  0
VERTEX
  5
28CC
  8
OUTLINE
  6
CONTINUOUS
 62
     2
 10
3.481086714450389
 20
0.5900125372514893
 30
0.0
 40
0.003
 41
0.003
  0
VERTEX
  5
28CD
  8
OUTLINE
  6
CONTINUOUS
 62
     2
 10
3.455002714450389
 20
0.5751145372514894
 30
0.0
 40
0.003
 41
0.003
  0
VERTEX
  5
28CE
  8
OUTLINE
  6
CONTINUOUS
 62
     2
 10
3.427195714450389
 20
0.5640125372514893
 30
0.0
 40
0.003
 41
0.003
  0
VERTEX
  5
28CF
  8
OUTLINE
  6
CONTINUOUS
 62
     2
 10
3.444306714450389
 20
0.5379845372514893
 30
0.0
 40
0.003
 41
0.003
  0
VERTEX
  5
28D0
  8
OUTLINE
  6
CONTINUOUS
 62
     2
 10
3.47008471445039
 20
0.5257905372514893
 30
0.0
 40
0.003
 41
0.003
  0
VERTEX
  5
28D1
  8
OUTLINE
  6
CONTINUOUS
 62
     2
 10
3.500695714450389
 20
0.5242625372514893
 30
0.0
 40
0.003
 41
0.003
  0
VERTEX
  5
28D2
  8
OUTLINE
  6
CONTINUOUS
 62
     2
 10
3.53230671445039
 20
0.5302345372514894
 30
0.0
 40
0.003
 41
0.003
  0
VERTEX
  5
28D3
  8
OUTLINE
  6
CONTINUOUS
 62
     2
 10
3.561084714450389
 20
0.5405405372514893
 30
0.0
 40
0.003
 41
0.003
  0
VERTEX
  5
28D4
  8
OUTLINE
  6
CONTINUOUS
 62
     2
 10
3.583195714450389
 20
0.5520125372514895
 30
0.0
 40
0.003
 41
0.003
  0
VERTEX
  5
28D5
  8
OUTLINE
  6
CONTINUOUS
 62
     2
 10
3.600336714450389
 20
0.5869475372514894
 30
0.0
 40
0.003
 41
0.003
  0
VERTEX
  5
28D6
  8
OUTLINE
  6
CONTINUOUS
 62
     2
 10
3.611843714450389
 20
0.6174125372514894
 30
0.0
 40
0.003
 41
0.003
  0
VERTEX
  5
28D7
  8
OUTLINE
  6
CONTINUOUS
 62
     2
 10
3.618142714450389
 20
0.6443975372514894
 30
0.0
 40
0.003
 41
0.003
  0
VERTEX
  5
28D8
  8
OUTLINE
  6
CONTINUOUS
 62
     2
 10
3.619659714450389
 20
0.6688925372514893
 30
0.0
 40
0.003
 41
0.003
  0
VERTEX
  5
28D9
  8
OUTLINE
  6
CONTINUOUS
 62
     2
 10
3.616820714450389
 20
0.6918875372514894
 30
0.0
 40
0.003
 41
0.003
  0
VERTEX
  5
28DA
  8
OUTLINE
  6
CONTINUOUS
 62
     2
 10
3.610051714450389
 20
0.7143725372514893
 30
0.0
 40
0.003
 41
0.003
  0
VERTEX
  5
28DB
  8
OUTLINE
  6
CONTINUOUS
 62
     2
 10
3.599778714450389
 20
0.7373375372514894
 30
0.0
 40
0.003
 41
0.003
  0
VERTEX
  5
28DC
  8
OUTLINE
  6
CONTINUOUS
 62
     2
 10
3.586427714450389
 20
0.7617725372514894
 30
0.0
 40
0.003
 41
0.003
  0
VERTEX
  5
28DD
  8
OUTLINE
  6
CONTINUOUS
 62
     2
 10
3.570424714450389
 20
0.7886675372514893
 30
0.0
 40
0.003
 41
0.003
  0
VERTEX
  5
28DE
  8
OUTLINE
  6
CONTINUOUS
 62
     2
 10
3.546751131451694
 20
0.8147007790312344
 30
0.0
 40
0.003
 41
0.003
  0
VERTEX
  5
28DF
  8
OUTLINE
  6
CONTINUOUS
 62
     2
 10
3.516934714450389
 20
0.8334035372514894
 30
0.0
 40
0.003
 41
0.003
  0
VERTEX
  5
28E0
  8
OUTLINE
  6
CONTINUOUS
 62
     2
 10
3.48580671445039
 20
0.8448815372514893
 30
0.0
 40
0.003
 41
0.003
  0
VERTEX
  5
28E1
  8
OUTLINE
  6
CONTINUOUS
 62
     2
 10
3.457888714450389
 20
0.8533625372514893
 30
0.0
 40
0.003
 41
0.003
  0
VERTEX
  5
28E2
  8
OUTLINE
  6
CONTINUOUS
 62
     2
 10
3.432255714450389
 20
0.8587605372514893
 30
0.0
 40
0.003
 41
0.003
  0
VERTEX
  5
28E3
  8
OUTLINE
  6
CONTINUOUS
 62
     2
 10
3.407984714450389
 20
0.8609885372514894
 30
0.0
 40
0.003
 41
0.003
  0
VERTEX
  5
28E4
  8
OUTLINE
  6
CONTINUOUS
 62
     2
 10
3.38415071445039
 20
0.8599625372514894
 30
0.0
 40
0.003
 41
0.003
  0
VERTEX
  5
28E5
  8
OUTLINE
  6
CONTINUOUS
 62
     2
 10
3.359829714450389
 20
0.8555955372514894
 30
0.0
 40
0.003
 41
0.003
  0
VERTEX
  5
28E6
  8
OUTLINE
  6
CONTINUOUS
 62
     2
 10
3.334097714450389
 20
0.8478025372514895
 30
0.0
 40
0.003
 41
0.003
  0
VERTEX
  5
28E7
  8
OUTLINE
  6
CONTINUOUS
 62
     2
 10
3.306030714450389
 20
0.8364985372514893
 30
0.0
 40
0.003
 41
0.003
  0
VERTEX
  5
28E8
  8
OUTLINE
  6
CONTINUOUS
 62
     2
 10
3.274704714450389
 20
0.8215975372514894
 30
0.0
 40
0.003
 41
0.003
  0
VERTEX
  5
28E9
  8
OUTLINE
  6
CONTINUOUS
 62
     2
 10
3.251745970155446
 20
0.8087108265176044
 30
0.0
 40
0.003
 41
0.003
  0
VERTEX
  5
28EA
  8
OUTLINE
  6
CONTINUOUS
 62
     2
 10
3.241263553256594
 20
0.7997258977471604
 30
0.0
 40
0.003
 41
0.003
  0
VERTEX
  5
28EB
  8
OUTLINE
  6
CONTINUOUS
 62
     2
 10
3.218468714450389
 20
0.7814965372514893
 30
0.0
 40
0.003
 41
0.003
  0
VERTEX
  5
28EC
  8
OUTLINE
  6
CONTINUOUS
 62
     2
 10
3.197328714450389
 20
0.7606775372514893
 30
0.0
 40
0.003
 41
0.003
  0
VERTEX
  5
28ED
  8
OUTLINE
  6
CONTINUOUS
 62
     2
 10
3.175785714450389
 20
0.7405315372514894
 30
0.0
 40
0.003
 41
0.003
  0
VERTEX
  5
28EE
  8
OUTLINE
  6
CONTINUOUS
 62
     2
 10
3.153850714450389
 20
0.7210385372514894
 30
0.0
 40
0.003
 41
0.003
  0
VERTEX
  5
28EF
  8
OUTLINE
  6
CONTINUOUS
 62
     2
 10
3.131534714450389
 20
0.7021755372514893
 30
0.0
 40
0.003
 41
0.003
  0
VERTEX
  5
28F0
  8
OUTLINE
  6
CONTINUOUS
 62
     2
 10
3.10884871445039
 20
0.6839205372514894
 30
0.0
 40
0.003
 41
0.003
  0
VERTEX
  5
28F1
  8
OUTLINE
  6
CONTINUOUS
 62
     2
 10
3.085802714450389
 20
0.6662515372514895
 30
0.0
 40
0.003
 41
0.003
  0
VERTEX
  5
28F2
  8
OUTLINE
  6
CONTINUOUS
 62
     2
 10
3.062408714450389
 20
0.6491475372514894
 30
0.0
 40
0.003
 41
0.003
  0
VERTEX
  5
28F3
  8
OUTLINE
  6
CONTINUOUS
 62
     2
 10
3.038677714450389
 20
0.6325855372514893
 30
0.0
 40
0.003
 41
0.003
  0
VERTEX
  5
28F4
  8
OUTLINE
  6
CONTINUOUS
 62
     2
 10
3.014618714450389
 20
0.6165445372514893
 30
0.0
 40
0.003
 41
0.003
  0
VERTEX
  5
28F5
  8
OUTLINE
  6
CONTINUOUS
 62
     2
 10
2.990244714450389
 20
0.6010015372514894
 30
0.0
 40
0.003
 41
0.003
  0
VERTEX
  5
28F6
  8
OUTLINE
  6
CONTINUOUS
 62
     2
 10
2.965566714450389
 20
0.5859345372514893
 30
0.0
 40
0.003
 41
0.003
  0
VERTEX
  5
28F7
  8
OUTLINE
  6
CONTINUOUS
 62
     2
 10
2.940593714450389
 20
0.5713225372514894
 30
0.0
 40
0.003
 41
0.003
  0
VERTEX
  5
28F8
  8
OUTLINE
  6
CONTINUOUS
 62
     2
 10
2.915336714450389
 20
0.5571435372514895
 30
0.0
 40
0.003
 41
0.003
  0
VERTEX
  5
28F9
  8
OUTLINE
  6
CONTINUOUS
 62
     2
 10
2.889808714450389
 20
0.5433745372514893
 30
0.0
 40
0.003
 41
0.003
  0
VERTEX
  5
28FA
  8
OUTLINE
  6
CONTINUOUS
 62
     2
 10
2.864018714450389
 20
0.5299945372514894
 30
0.0
 40
0.003
 41
0.003
  0
VERTEX
  5
28FB
  8
OUTLINE
  6
CONTINUOUS
 62
     2
 10
2.837978714450389
 20
0.5169815372514894
 30
0.0
 40
0.003
 41
0.003
  0
VERTEX
  5
28FC
  8
OUTLINE
  6
CONTINUOUS
 62
     2
 10
2.811698714450389
 20
0.5043135372514893
 30
0.0
 40
0.003
 41
0.003
  0
VERTEX
  5
28FD
  8
OUTLINE
  6
CONTINUOUS
 62
     2
 10
2.785189714450389
 20
0.4919675372514893
 30
0.0
 40
0.003
 41
0.003
  0
VERTEX
  5
28FE
  8
OUTLINE
  6
CONTINUOUS
 62
     2
 10
2.758462714450389
 20
0.4799225372514893
 30
0.0
 40
0.003
 41
0.003
  0
VERTEX
  5
28FF
  8
OUTLINE
  6
CONTINUOUS
 62
     2
 10
2.73152871445039
 20
0.4681575372514895
 30
0.0
 40
0.003
 41
0.003
  0
VERTEX
  5
2900
  8
OUTLINE
  6
CONTINUOUS
 62
     2
 10
2.704398714450389
 20
0.4566485372514895
 30
0.0
 40
0.003
 41
0.003
  0
VERTEX
  5
2901
  8
OUTLINE
  6
CONTINUOUS
 62
     2
 10
2.677083714450389
 20
0.4453745372514895
 30
0.0
 40
0.003
 41
0.003
  0
VERTEX
  5
2902
  8
OUTLINE
  6
CONTINUOUS
 62
     2
 10
2.649593714450389
 20
0.4343145372514894
 30
0.0
 40
0.003
 41
0.003
  0
VERTEX
  5
2903
  8
OUTLINE
  6
CONTINUOUS
 62
     2
 10
2.621940714450389
 20
0.4234445372514895
 30
0.0
 40
0.003
 41
0.003
  0
VERTEX
  5
2904
  8
OUTLINE
  6
CONTINUOUS
 62
     2
 10
2.594134714450389
 20
0.4127445372514893
 30
0.0
 40
0.003
 41
0.003
  0
VERTEX
  5
2905
  8
OUTLINE
  6
CONTINUOUS
 62
     2
 10
2.56618671445039
 20
0.4021915372514893
 30
0.0
 40
0.003
 41
0.003
  0
VERTEX
  5
2906
  8
OUTLINE
  6
CONTINUOUS
 62
     2
 10
2.538108714450389
 20
0.3917635372514894
 30
0.0
 40
0.003
 41
0.003
  0
VERTEX
  5
2907
  8
OUTLINE
  6
CONTINUOUS
 62
     2
 10
2.509909714450389
 20
0.3814395372514894
 30
0.0
 40
0.003
 41
0.003
  0
VERTEX
  5
2908
  8
OUTLINE
  6
CONTINUOUS
 62
     2
 10
2.481601714450389
 20
0.3711965372514894
 30
0.0
 40
0.003
 41
0.003
  0
VERTEX
  5
2909
  8
OUTLINE
  6
CONTINUOUS
 62
     2
 10
2.45319571445039
 20
0.3610125372514894
 30
0.0
 40
0.003
 41
0.003
  0
VERTEX
  5
290A
  8
OUTLINE
  6
CONTINUOUS
 62
     2
 10
2.45319571445039
 20
0.3610125372514894
 30
0.0
 40
0.003
 41
0.003
  0
VERTEX
  5
290B
  8
OUTLINE
  6
CONTINUOUS
 62
     2
 10
2.436158714450389
 20
0.3629755372514893
 30
0.0
 40
0.003
 41
0.003
  0
VERTEX
  5
290C
  8
OUTLINE
  6
CONTINUOUS
 62
     2
 10
2.418899714450389
 20
0.3647165372514893
 30
0.0
 40
0.003
 41
0.003
  0
VERTEX
  5
290D
  8
OUTLINE
  6
CONTINUOUS
 62
     2
 10
2.401195714450389
 20
0.3660125372514893
 30
0.0
 40
0.003
 41
0.003
  0
VERTEX
  5
290E
  8
OUTLINE
  6
CONTINUOUS
 62
     2
 10
2.389359714450389
 20
0.3939275372514894
 30
0.0
 40
0.003
 41
0.003
  0
VERTEX
  5
290F
  8
OUTLINE
  6
CONTINUOUS
 62
     2
 10
2.383510714450389
 20
0.4223315372514893
 30
0.0
 40
0.003
 41
0.003
  0
VERTEX
  5
2910
  8
OUTLINE
  6
CONTINUOUS
 62
     2
 10
2.383132714450389
 20
0.4507155372514893
 30
0.0
 40
0.003
 41
0.003
  0
VERTEX
  5
2911
  8
OUTLINE
  6
CONTINUOUS
 62
     2
 10
2.387714714450389
 20
0.4785685372514894
 30
0.0
 40
0.003
 41
0.003
  0
VERTEX
  5
2912
  8
OUTLINE
  6
CONTINUOUS
 62
     2
 10
2.396739714450389
 20
0.5053785372514894
 30
0.0
 40
0.003
 41
0.003
  0
VERTEX
  5
2913
  8
OUTLINE
  6
CONTINUOUS
 62
     2
 10
2.409695714450389
 20
0.5306375372514893
 30
0.0
 40
0.003
 41
0.003
  0
VERTEX
  5
2914
  8
OUTLINE
  6
CONTINUOUS
 62
     2
 10
2.426068714450389
 20
0.5538335372514893
 30
0.0
 40
0.003
 41
0.003
  0
VERTEX
  5
2915
  8
OUTLINE
  6
CONTINUOUS
 62
     2
 10
2.445343714450389
 20
0.5744565372514894
 30
0.0
 40
0.003
 41
0.003
  0
VERTEX
  5
2916
  8
OUTLINE
  6
CONTINUOUS
 62
     2
 10
2.467008714450389
 20
0.5919965372514893
 30
0.0
 40
0.003
 41
0.003
  0
VERTEX
  5
2917
  8
OUTLINE
  6
CONTINUOUS
 62
     2
 10
2.488785359321651
 20
0.6070568659473814
 30
0.0
 40
0.003
 41
0.003
  0
VERTEX
  5
2918
  8
OUTLINE
  6
CONTINUOUS
 62
     2
 10
2.508105084915375
 20
0.6192211376175043
 30
0.0
 40
0.003
 41
0.003
  0
VERTEX
  5
2919
  8
OUTLINE
  6
CONTINUOUS
 62
     2
 10
2.518122720408417
 20
0.6249455007563853
 30
0.0
 40
0.003
 41
0.003
  0
VERTEX
  5
291A
  8
OUTLINE
  6
CONTINUOUS
 62
     2
 10
2.53243362825562
 20
0.6321009546799874
 30
0.0
 40
0.003
 41
0.003
  0
VERTEX
  5
291B
  8
OUTLINE
  6
CONTINUOUS
 62
     2
 10
2.547460081495184
 20
0.6399719539959494
 30
0.0
 40
0.003
 41
0.003
  0
VERTEX
  5
291C
  8
OUTLINE
  6
CONTINUOUS
 62
     2
 10
2.560339898557667
 20
0.6471274079195504
 30
0.0
 40
0.003
 41
0.003
  0
VERTEX
  5
291D
  8
OUTLINE
  6
CONTINUOUS
 62
     2
 10
2.576081897189591
 20
0.6564294980202323
 30
0.0
 40
0.003
 41
0.003
  0
VERTEX
  5
291E
  8
OUTLINE
  6
CONTINUOUS
 62
     2
 10
2.589677259644434
 20
0.6643004973361943
 30
0.0
 40
0.003
 41
0.003
  0
VERTEX
  5
291F
  8
OUTLINE
  6
CONTINUOUS
 62
     2
 10
2.610428076022878
 20
0.6764647690063173
 30
0.0
 40
0.003
 41
0.003
  0
VERTEX
  5
2920
  8
OUTLINE
  6
CONTINUOUS
 62
     2
 10
2.627601165439523
 20
0.6871979498917193
 30
0.0
 40
0.003
 41
0.003
  0
VERTEX
  5
2921
  8
OUTLINE
  6
CONTINUOUS
 62
     2
 10
2.649783072602688
 20
0.7007933123465624
 30
0.0
 40
0.003
 41
0.003
  0
VERTEX
  5
2922
  8
OUTLINE
  6
CONTINUOUS
 62
     2
 10
2.688422523790137
 20
0.7236907649020883
 30
0.0
 40
0.003
 41
0.003
  0
VERTEX
  5
2923
  8
OUTLINE
  6
CONTINUOUS
 62
     2
 10
2.725630884192865
 20
0.7451571266728934
 30
0.0
 40
0.003
 41
0.003
  0
VERTEX
  5
2924
  8
OUTLINE
  6
CONTINUOUS
 62
     2
 10
2.764985880772674
 20
0.7659079430513374
 30
0.0
 40
0.003
 41
0.003
  0
VERTEX
  5
2925
  8
OUTLINE
  6
CONTINUOUS
 62
     2
 10
2.797195714450389
 20
0.7820125372514895
 30
0.0
 40
0.003
 41
0.003
  0
VERTEX
  5
2926
  8
OUTLINE
  6
CONTINUOUS
 62
     2
 10
2.827194714450389
 20
0.7964125372514894
 30
0.0
 40
0.003
 41
0.003
  0
VERTEX
  5
2927
  8
OUTLINE
  6
CONTINUOUS
 62
     2
 10
2.857187714450389
 20
0.8108125372514894
 30
0.0
 40
0.003
 41
0.003
  0
VERTEX
  5
2928
  8
OUTLINE
  6
CONTINUOUS
 62
     2
 10
2.88716871445039
 20
0.8252125372514894
 30
0.0
 40
0.003
 41
0.003
  0
VERTEX
  5
2929
  8
OUTLINE
  6
CONTINUOUS
 62
     2
 10
2.917131714450389
 20
0.8396125372514893
 30
0.0
 40
0.003
 41
0.003
  0
VERTEX
  5
292A
  8
OUTLINE
  6
CONTINUOUS
 62
     2
 10
2.94707071445039
 20
0.8540125372514893
 30
0.0
 40
0.003
 41
0.003
  0
VERTEX
  5
292B
  8
OUTLINE
  6
CONTINUOUS
 62
     2
 10
2.97697971445039
 20
0.8684125372514893
 30
0.0
 40
0.003
 41
0.003
  0
VERTEX
  5
292C
  8
OUTLINE
  6
CONTINUOUS
 62
     2
 10
3.006852714450389
 20
0.8828125372514895
 30
0.0
 40
0.003
 41
0.003
  0
VERTEX
  5
292D
  8
OUTLINE
  6
CONTINUOUS
 62
     2
 10
3.03668371445039
 20
0.8972125372514894
 30
0.0
 40
0.003
 41
0.003
  0
VERTEX
  5
292E
  8
OUTLINE
  6
CONTINUOUS
 62
     2
 10
3.06646671445039
 20
0.9116125372514894
 30
0.0
 40
0.003
 41
0.003
  0
VERTEX
  5
292F
  8
OUTLINE
  6
CONTINUOUS
 62
     2
 10
3.096195714450389
 20
0.9260125372514894
 30
0.0
 40
0.003
 41
0.003
  0
VERTEX
  5
2930
  8
OUTLINE
  6
CONTINUOUS
 62
     2
 10
3.097195714450389
 20
0.9479755372514893
 30
0.0
 40
0.003
 41
0.003
  0
VERTEX
  5
2931
  8
OUTLINE
  6
CONTINUOUS
 62
     2
 10
3.098195714450389
 20
0.9697165372514893
 30
0.0
 40
0.003
 41
0.003
  0
VERTEX
  5
2932
  8
OUTLINE
  6
CONTINUOUS
 62
     2
 10
3.099195714450389
 20
0.9910125372514893
 30
0.0
 40
0.003
 41
0.003
  0
VERTEX
  5
2933
  8
OUTLINE
  6
CONTINUOUS
 62
     2
 10
3.07142971445039
 20
1.01409053725149
 30
0.0
 40
0.003
 41
0.003
  0
VERTEX
  5
2934
  8
OUTLINE
  6
CONTINUOUS
 62
     2
 10
3.043570714450389
 20
1.036887537251489
 30
0.0
 40
0.003
 41
0.003
  0
VERTEX
  5
2935
  8
OUTLINE
  6
CONTINUOUS
 62
     2
 10
3.01552371445039
 20
1.059496537251489
 30
0.0
 40
0.003
 41
0.003
  0
VERTEX
  5
2936
  8
OUTLINE
  6
CONTINUOUS
 62
     2
 10
2.987195714450389
 20
1.082012537251489
 30
0.0
 40
0.003
 41
0.003
  0
VERTEX
  5
2937
  8
OUTLINE
  6
CONTINUOUS
 62
     2
 10
2.986158714450389
 20
1.098975537251489
 30
0.0
 40
0.003
 41
0.003
  0
VERTEX
  5
2938
  8
OUTLINE
  6
CONTINUOUS
 62
     2
 10
2.984899714450389
 20
1.115716537251489
 30
0.0
 40
0.003
 41
0.003
  0
VERTEX
  5
2939
  8
OUTLINE
  6
CONTINUOUS
 62
     2
 10
2.984898525545181
 20
1.128808281234052
 30
0.0
 40
0.003
 41
0.003
  0
VERTEX
  5
293A
  8
OUTLINE
  6
CONTINUOUS
 62
     2
 10
2.986764088999016
 20
1.134031858904791
 30
0.0
 40
0.003
 41
0.003
  0
VERTEX
  5
293B
  8
OUTLINE
  6
CONTINUOUS
 62
     2
 10
2.989748990525153
 20
1.138509211193996
 30
0.0
 40
0.003
 41
0.003
  0
VERTEX
  5
293C
  8
OUTLINE
  6
CONTINUOUS
 62
     2
 10
2.99273389205129
 20
1.142240338101666
 30
0.0
 40
0.003
 41
0.003
  0
VERTEX
  5
293D
  8
OUTLINE
  6
CONTINUOUS
 62
     2
 10
2.995718793577426
 20
1.146344577700104
 30
0.0
 40
0.003
 41
0.003
  0
VERTEX
  5
293E
  8
OUTLINE
  6
CONTINUOUS
 62
     2
 10
3.000569258557398
 20
1.151195042680076
 30
0.0
 40
0.003
 41
0.003
  0
VERTEX
  5
293F
  8
OUTLINE
  6
CONTINUOUS
 62
     2
 10
3.008777737754274
 20
1.157911071113883
 30
0.0
 40
0.003
 41
0.003
  0
VERTEX
  5
2940
  8
OUTLINE
  6
CONTINUOUS
 62
     2
 10
3.018855714450389
 20
1.163560537251489
 30
0.0
 40
0.003
 41
0.003
  0
VERTEX
  5
2941
  8
OUTLINE
  6
CONTINUOUS
 62
     2
 10
3.038647714450389
 20
1.175531537251489
 30
0.0
 40
0.003
 41
0.003
  0
VERTEX
  5
2942
  8
OUTLINE
  6
CONTINUOUS
 62
     2
 10
3.05929171445039
 20
1.192212537251489
 30
0.0
 40
0.003
 41
0.003
  0
VERTEX
  5
2943
  8
OUTLINE
  6
CONTINUOUS
 62
     2
 10
3.080506714450389
 20
1.212893537251489
 30
0.0
 40
0.003
 41
0.003
  0
VERTEX
  5
2944
  8
OUTLINE
  6
CONTINUOUS
 62
     2
 10
3.10201071445039
 20
1.236864537251489
 30
0.0
 40
0.003
 41
0.003
  0
VERTEX
  5
2945
  8
OUTLINE
  6
CONTINUOUS
 62
     2
 10
3.123523714450389
 20
1.263412537251489
 30
0.0
 40
0.003
 41
0.003
  0
VERTEX
  5
2946
  8
OUTLINE
  6
CONTINUOUS
 62
     2
 10
3.144764714450389
 20
1.291827537251489
 30
0.0
 40
0.003
 41
0.003
  0
VERTEX
  5
2947
  8
OUTLINE
  6
CONTINUOUS
 62
     2
 10
3.16545271445039
 20
1.321397537251489
 30
0.0
 40
0.003
 41
0.003
  0
VERTEX
  5
2948
  8
OUTLINE
  6
CONTINUOUS
 62
     2
 10
3.185307714450389
 20
1.351412537251489
 30
0.0
 40
0.003
 41
0.003
  0
VERTEX
  5
2949
  8
OUTLINE
  6
CONTINUOUS
 62
     2
 10
3.204047714450389
 20
1.38116053725149
 30
0.0
 40
0.003
 41
0.003
  0
VERTEX
  5
294A
  8
OUTLINE
  6
CONTINUOUS
 62
     2
 10
3.221391714450389
 20
1.409931537251489
 30
0.0
 40
0.003
 41
0.003
  0
VERTEX
  5
294B
  8
OUTLINE
  6
CONTINUOUS
 62
     2
 10
3.237059714450389
 20
1.437012537251489
 30
0.0
 40
0.003
 41
0.003
  0
VERTEX
  5
294C
  8
OUTLINE
  6
CONTINUOUS
 62
     2
 10
3.250770714450389
 20
1.461693537251489
 30
0.0
 40
0.003
 41
0.003
  0
VERTEX
  5
294D
  8
OUTLINE
  6
CONTINUOUS
 62
     2
 10
3.262242714450389
 20
1.483264537251489
 30
0.0
 40
0.003
 41
0.003
  0
VERTEX
  5
294E
  8
OUTLINE
  6
CONTINUOUS
 62
     2
 10
3.271195714450389
 20
1.501012537251489
 30
0.0
 40
0.003
 41
0.003
  0
VERTEX
  5
294F
  8
OUTLINE
  6
CONTINUOUS
 62
     2
 10
3.277414714450389
 20
1.533669537251489
 30
0.0
 40
0.003
 41
0.003
  0
VERTEX
  5
2950
  8
OUTLINE
  6
CONTINUOUS
 62
     2
 10
3.282317714450389
 20
1.565674537251489
 30
0.0
 40
0.003
 41
0.003
  0
VERTEX
  5
2951
  8
OUTLINE
  6
CONTINUOUS
 62
     2
 10
3.285843714450389
 20
1.597080537251489
 30
0.0
 40
0.003
 41
0.003
  0
VERTEX
  5
2952
  8
OUTLINE
  6
CONTINUOUS
 62
     2
 10
3.287930714450389
 20
1.627939537251489
 30
0.0
 40
0.003
 41
0.003
  0
VERTEX
  5
2953
  8
OUTLINE
  6
CONTINUOUS
 62
     2
 10
3.288516714450389
 20
1.658304537251489
 30
0.0
 40
0.003
 41
0.003
  0
VERTEX
  5
2954
  8
OUTLINE
  6
CONTINUOUS
 62
     2
 10
3.28754271445039
 20
1.688228537251489
 30
0.0
 40
0.003
 41
0.003
  0
VERTEX
  5
2955
  8
OUTLINE
  6
CONTINUOUS
 62
     2
 10
3.284945714450389
 20
1.717762537251489
 30
0.0
 40
0.003
 41
0.003
  0
VERTEX
  5
2956
  8
OUTLINE
  6
CONTINUOUS
 62
     2
 10
3.280664714450389
 20
1.746960537251489
 30
0.0
 40
0.003
 41
0.003
  0
VERTEX
  5
2957
  8
OUTLINE
  6
CONTINUOUS
 62
     2
 10
3.274639714450389
 20
1.775873537251489
 30
0.0
 40
0.003
 41
0.003
  0
VERTEX
  5
2958
  8
OUTLINE
  6
CONTINUOUS
 62
     2
 10
3.26680771445039
 20
1.804554537251489
 30
0.0
 40
0.003
 41
0.003
  0
VERTEX
  5
2959
  8
OUTLINE
  6
CONTINUOUS
 62
     2
 10
3.257108714450389
 20
1.833056537251489
 30
0.0
 40
0.003
 41
0.003
  0
VERTEX
  5
295A
  8
OUTLINE
  6
CONTINUOUS
 62
     2
 10
3.245481714450389
 20
1.861432537251489
 30
0.0
 40
0.003
 41
0.003
  0
VERTEX
  5
295B
  8
OUTLINE
  6
CONTINUOUS
 62
     2
 10
3.231863714450389
 20
1.889733537251489
 30
0.0
 40
0.003
 41
0.003
  0
VERTEX
  5
295C
  8
OUTLINE
  6
CONTINUOUS
 62
     2
 10
3.216195714450389
 20
1.918012537251489
 30
0.0
 40
0.003
 41
0.003
  0
VERTEX
  5
295D
  8
OUTLINE
  6
CONTINUOUS
 62
     2
 10
3.216195714450389
 20
1.939975537251489
 30
0.0
 40
0.003
 41
0.003
  0
VERTEX
  5
295E
  8
OUTLINE
  6
CONTINUOUS
 62
     2
 10
3.216195714450389
 20
1.961716537251489
 30
0.0
 40
0.003
 41
0.003
  0
VERTEX
  5
295F
  8
OUTLINE
  6
CONTINUOUS
 62
     2
 10
3.216195714450389
 20
1.983012537251489
 30
0.0
 40
0.003
 41
0.003
  0
VERTEX
  5
2960
  8
OUTLINE
  6
CONTINUOUS
 62
     2
 10
3.24549071445039
 20
1.982591537251489
 30
0.0
 40
0.003
 41
0.003
  0
VERTEX
  5
2961
  8
OUTLINE
  6
CONTINUOUS
 62
     2
 10
3.272064714450389
 20
1.97935853725149
 30
0.0
 40
0.003
 41
0.003
  0
VERTEX
  5
2962
  8
OUTLINE
  6
CONTINUOUS
 62
     2
 10
3.296027714450389
 20
1.973477537251489
 30
0.0
 40
0.003
 41
0.003
  0
VERTEX
  5
2963
  8
OUTLINE
  6
CONTINUOUS
 62
     2
 10
3.31748971445039
 20
1.965108537251489
 30
0.0
 40
0.003
 41
0.003
  0
VERTEX
  5
2964
  8
OUTLINE
  6
CONTINUOUS
 62
     2
 10
3.336562714450389
 20
1.954415537251489
 30
0.0
 40
0.003
 41
0.003
  0
VERTEX
  5
2965
  8
OUTLINE
  6
CONTINUOUS
 62
     2
 10
3.353354714450389
 20
1.94156053725149
 30
0.0
 40
0.003
 41
0.003
  0
VERTEX
  5
2966
  8
OUTLINE
  6
CONTINUOUS
 62
     2
 10
3.367976714450389
 20
1.926703537251489
 30
0.0
 40
0.003
 41
0.003
  0
VERTEX
  5
2967
  8
OUTLINE
  6
CONTINUOUS
 62
     2
 10
3.380539714450389
 20
1.910009537251489
 30
0.0
 40
0.003
 41
0.003
  0
VERTEX
  5
2968
  8
OUTLINE
  6
CONTINUOUS
 62
     2
 10
3.391153714450389
 20
1.891638537251489
 30
0.0
 40
0.003
 41
0.003
  0
VERTEX
  5
2969
  8
OUTLINE
  6
CONTINUOUS
 62
     2
 10
3.399927714450389
 20
1.871753537251489
 30
0.0
 40
0.003
 41
0.003
  0
VERTEX
  5
296A
  8
OUTLINE
  6
CONTINUOUS
 62
     2
 10
3.406973714450389
 20
1.850517537251489
 30
0.0
 40
0.003
 41
0.003
  0
VERTEX
  5
296B
  8
OUTLINE
  6
CONTINUOUS
 62
     2
 10
3.412401714450389
 20
1.828091537251489
 30
0.0
 40
0.003
 41
0.003
  0
VERTEX
  5
296C
  8
OUTLINE
  6
CONTINUOUS
 62
     2
 10
3.416320714450389
 20
1.804637537251489
 30
0.0
 40
0.003
 41
0.003
  0
VERTEX
  5
296D
  8
OUTLINE
  6
CONTINUOUS
 62
     2
 10
3.418841714450389
 20
1.780318537251489
 30
0.0
 40
0.003
 41
0.003
  0
VERTEX
  5
296E
  8
OUTLINE
  6
CONTINUOUS
 62
     2
 10
3.420075714450389
 20
1.75529653725149
 30
0.0
 40
0.003
 41
0.003
  0
VERTEX
  5
296F
  8
OUTLINE
  6
CONTINUOUS
 62
     2
 10
3.420131714450389
 20
1.729732537251489
 30
0.0
 40
0.003
 41
0.003
  0
VERTEX
  5
2970
  8
OUTLINE
  6
CONTINUOUS
 62
     2
 10
3.419120714450389
 20
1.703790537251489
 30
0.0
 40
0.003
 41
0.003
  0
VERTEX
  5
2971
  8
OUTLINE
  6
CONTINUOUS
 62
     2
 10
3.417153714450389
 20
1.677631537251489
 30
0.0
 40
0.003
 41
0.003
  0
VERTEX
  5
2972
  8
OUTLINE
  6
CONTINUOUS
 62
     2
 10
3.414338714450389
 20
1.651417537251489
 30
0.0
 40
0.003
 41
0.003
  0
VERTEX
  5
2973
  8
OUTLINE
  6
CONTINUOUS
 62
     2
 10
3.41078871445039
 20
1.62531153725149
 30
0.0
 40
0.003
 41
0.003
  0
VERTEX
  5
2974
  8
OUTLINE
  6
CONTINUOUS
 62
     2
 10
3.406611714450389
 20
1.599474537251489
 30
0.0
 40
0.003
 41
0.003
  0
VERTEX
  5
2975
  8
OUTLINE
  6
CONTINUOUS
 62
     2
 10
3.401918714450389
 20
1.574069537251489
 30
0.0
 40
0.003
 41
0.003
  0
VERTEX
  5
2976
  8
OUTLINE
  6
CONTINUOUS
 62
     2
 10
3.39682071445039
 20
1.549259537251489
 30
0.0
 40
0.003
 41
0.003
  0
VERTEX
  5
2977
  8
OUTLINE
  6
CONTINUOUS
 62
     2
 10
3.39142771445039
 20
1.525204537251489
 30
0.0
 40
0.003
 41
0.003
  0
VERTEX
  5
2978
  8
OUTLINE
  6
CONTINUOUS
 62
     2
 10
3.385848714450389
 20
1.50206853725149
 30
0.0
 40
0.003
 41
0.003
  0
VERTEX
  5
2979
  8
OUTLINE
  6
CONTINUOUS
 62
     2
 10
3.380195714450389
 20
1.480012537251489
 30
0.0
 40
0.003
 41
0.003
  0
VERTEX
  5
297A
  8
OUTLINE
  6
CONTINUOUS
 62
     2
 10
3.380195714450389
 20
1.480012537251489
 30
0.0
 40
0.003
 41
0.003
  0
VERTEX
  5
297B
  8
OUTLINE
  6
CONTINUOUS
 62
     2
 10
3.36523571445039
 20
1.449199537251489
 30
0.0
 40
0.003
 41
0.003
  0
VERTEX
  5
297C
  8
OUTLINE
  6
CONTINUOUS
 62
     2
 10
3.351988714450389
 20
1.419204537251489
 30
0.0
 40
0.003
 41
0.003
  0
VERTEX
  5
297D
  8
OUTLINE
  6
CONTINUOUS
 62
     2
 10
3.340328714450389
 20
1.389835537251489
 30
0.0
 40
0.003
 41
0.003
  0
VERTEX
  5
297E
  8
OUTLINE
  6
CONTINUOUS
 62
     2
 10
3.330131714450389
 20
1.360898537251489
 30
0.0
 40
0.003
 41
0.003
  0
VERTEX
  5
297F
  8
OUTLINE
  6
CONTINUOUS
 62
     2
 10
3.321272714450389
 20
1.332202537251489
 30
0.0
 40
0.003
 41
0.003
  0
VERTEX
  5
2980
  8
OUTLINE
  6
CONTINUOUS
 62
     2
 10
3.313626714450389
 20
1.303554537251489
 30
0.0
 40
0.003
 41
0.003
  0
VERTEX
  5
2981
  8
OUTLINE
  6
CONTINUOUS
 62
     2
 10
3.307070714450389
 20
1.27476253725149
 30
0.0
 40
0.003
 41
0.003
  0
VERTEX
  5
2982
  8
OUTLINE
  6
CONTINUOUS
 62
     2
 10
3.301478714450389
 20
1.245633537251489
 30
0.0
 40
0.003
 41
0.003
  0
VERTEX
  5
2983
  8
OUTLINE
  6
CONTINUOUS
 62
     2
 10
3.296725714450389
 20
1.215975537251489
 30
0.0
 40
0.003
 41
0.003
  0
VERTEX
  5
2984
  8
OUTLINE
  6
CONTINUOUS
 62
     2
 10
3.29268871445039
 20
1.185595537251489
 30
0.0
 40
0.003
 41
0.003
  0
VERTEX
  5
2985
  8
OUTLINE
  6
CONTINUOUS
 62
     2
 10
3.289241714450389
 20
1.154301537251489
 30
0.0
 40
0.003
 41
0.003
  0
VERTEX
  5
2986
  8
OUTLINE
  6
CONTINUOUS
 62
     2
 10
3.286259714450389
 20
1.121901537251489
 30
0.0
 40
0.003
 41
0.003
  0
VERTEX
  5
2987
  8
OUTLINE
  6
CONTINUOUS
 62
     2
 10
3.283619714450389
 20
1.088202537251489
 30
0.0
 40
0.003
 41
0.003
  0
VERTEX
  5
2988
  8
OUTLINE
  6
CONTINUOUS
 62
     2
 10
3.281195714450389
 20
1.053012537251489
 30
0.0
 40
0.003
 41
0.003
  0
VERTEX
  5
2989
  8
OUTLINE
  6
CONTINUOUS
 62
     2
 10
3.281195714450389
 20
1.053012537251489
 30
0.0
 40
0.003
 41
0.003
  0
VERTEX
  5
298A
  8
OUTLINE
  6
CONTINUOUS
 62
     2
 10
3.28819571445039
 20
1.053012537251489
 30
0.0
 40
0.003
 41
0.003
  0
VERTEX
  5
298B
  8
OUTLINE
  6
CONTINUOUS
 62
     2
 10
3.295195714450389
 20
1.053012537251489
 30
0.0
 40
0.003
 41
0.003
  0
VERTEX
  5
298C
  8
OUTLINE
  6
CONTINUOUS
 62
     2
 10
3.302195714450389
 20
1.053012537251489
 30
0.0
 40
0.003
 41
0.003
  0
VERTEX
  5
298D
  8
OUTLINE
  6
CONTINUOUS
 62
     2
 10
3.314659714450389
 20
1.084094537251489
 30
0.0
 40
0.003
 41
0.003
  0
VERTEX
  5
298E
  8
OUTLINE
  6
CONTINUOUS
 62
     2
 10
3.328434714450389
 20
1.114808537251489
 30
0.0
 40
0.003
 41
0.003
  0
VERTEX
  5
298F
  8
OUTLINE
  6
CONTINUOUS
 62
     2
 10
3.344099714450389
 20
1.143930537251489
 30
0.0
 40
0.003
 41
0.003
  0
VERTEX
  5
2990
  8
OUTLINE
  6
CONTINUOUS
 62
     2
 10
3.362230714450389
 20
1.170236537251489
 30
0.0
 40
0.003
 41
0.003
  0
VERTEX
  5
2991
  8
OUTLINE
  6
CONTINUOUS
 62
     2
 10
3.383405714450389
 20
1.192502537251489
 30
0.0
 40
0.003
 41
0.003
  0
VERTEX
  5
2992
  8
OUTLINE
  6
CONTINUOUS
 62
     2
 10
3.40820171445039
 20
1.209502537251489
 30
0.0
 40
0.003
 41
0.003
  0
VERTEX
  5
2993
  8
OUTLINE
  6
CONTINUOUS
 62
     2
 10
3.437195714450389
 20
1.220012537251489
 30
0.0
 40
0.003
 41
0.003
  0
VERTEX
  5
2994
  8
OUTLINE
  6
CONTINUOUS
 62
     2
 10
3.433711714450389
 20
1.19728553725149
 30
0.0
 40
0.003
 41
0.003
  0
VERTEX
  5
2995
  8
OUTLINE
  6
CONTINUOUS
 62
     2
 10
3.429804714450389
 20
1.172177537251489
 30
0.0
 40
0.003
 41
0.003
  0
VERTEX
  5
2996
  8
OUTLINE
  6
CONTINUOUS
 62
     2
 10
3.426288714450389
 20
1.145483537251489
 30
0.0
 40
0.003
 41
0.003
  0
VERTEX
  5
2997
  8
OUTLINE
  6
CONTINUOUS
 62
     2
 10
3.423981714450389
 20
1.117995537251489
 30
0.0
 40
0.003
 41
0.003
  0
VERTEX
  5
2998
  8
OUTLINE
  6
CONTINUOUS
 62
     2
 10
3.423698714450389
 20
1.090508537251489
 30
0.0
 40
0.003
 41
0.003
  0
VERTEX
  5
2999
  8
OUTLINE
  6
CONTINUOUS
 62
     2
 10
3.42625471445039
 20
1.063814537251489
 30
0.0
 40
0.003
 41
0.003
  0
VERTEX
  5
299A
  8
OUTLINE
  6
CONTINUOUS
 62
     2
 10
3.43246771445039
 20
1.038706537251489
 30
0.0
 40
0.003
 41
0.003
  0
VERTEX
  5
299B
  8
OUTLINE
  6
CONTINUOUS
 62
     2
 10
3.443151714450389
 20
1.015979537251489
 30
0.0
 40
0.003
 41
0.003
  0
VERTEX
  5
299C
  8
OUTLINE
  6
CONTINUOUS
 62
     2
 10
3.459124714450389
 20
0.9964255372514894
 30
0.0
 40
0.003
 41
0.003
  0
VERTEX
  5
299D
  8
OUTLINE
  6
CONTINUOUS
 62
     2
 10
3.481200714450389
 20
0.9808385372514894
 30
0.0
 40
0.003
 41
0.003
  0
VERTEX
  5
299E
  8
OUTLINE
  6
CONTINUOUS
 62
     2
 10
3.510195714450389
 20
0.9700125372514894
 30
0.0
 40
0.003
 41
0.003
  0
VERTEX
  5
299F
  8
OUTLINE
  6
CONTINUOUS
 62
     2
 10
3.507867714450389
 20
0.9914145372514893
 30
0.0
 40
0.003
 41
0.003
  0
VERTEX
  5
29A0
  8
OUTLINE
  6
CONTINUOUS
 62
     2
 10
3.505241714450389
 20
1.016896537251489
 30
0.0
 40
0.003
 41
0.003
  0
VERTEX
  5
29A1
  8
OUTLINE
  6
CONTINUOUS
 62
     2
 10
3.502851714450389
 20
1.045371537251489
 30
0.0
 40
0.003
 41
0.003
  0
VERTEX
  5
29A2
  8
OUTLINE
  6
CONTINUOUS
 62
     2
 10
3.501232714450389
 20
1.075753537251489
 30
0.0
 40
0.003
 41
0.003
  0
VERTEX
  5
29A3
  8
OUTLINE
  6
CONTINUOUS
 62
     2
 10
3.500918714450389
 20
1.10695453725149
 30
0.0
 40
0.003
 41
0.003
  0
VERTEX
  5
29A4
  8
OUTLINE
  6
CONTINUOUS
 62
     2
 10
3.502445714450389
 20
1.137887537251489
 30
0.0
 40
0.003
 41
0.003
  0
VERTEX
  5
29A5
  8
OUTLINE
  6
CONTINUOUS
 62
     2
 10
3.506347714450389
 20
1.167466537251489
 30
0.0
 40
0.003
 41
0.003
  0
VERTEX
  5
29A6
  8
OUTLINE
  6
CONTINUOUS
 62
     2
 10
3.513158714450389
 20
1.194605537251489
 30
0.0
 40
0.003
 41
0.003
  0
VERTEX
  5
29A7
  8
OUTLINE
  6
CONTINUOUS
 62
     2
 10
3.523414714450389
 20
1.218215537251489
 30
0.0
 40
0.003
 41
0.003
  0
VERTEX
  5
29A8
  8
OUTLINE
  6
CONTINUOUS
 62
     2
 10
3.53764971445039
 20
1.237211537251489
 30
0.0
 40
0.003
 41
0.003
  0
VERTEX
  5
29A9
  8
OUTLINE
  6
CONTINUOUS
 62
     2
 10
3.556398714450389
 20
1.250506537251489
 30
0.0
 40
0.003
 41
0.003
  0
VERTEX
  5
29AA
  8
OUTLINE
  6
CONTINUOUS
 62
     2
 10
3.580195714450389
 20
1.257012537251489
 30
0.0
 40
0.003
 41
0.003
  0
VERTEX
  5
29AB
  8
OUTLINE
  6
CONTINUOUS
 62
     2
 10
3.580754714450389
 20
1.219782537251489
 30
0.0
 40
0.003
 41
0.003
  0
VERTEX
  5
29AC
  8
OUTLINE
  6
CONTINUOUS
 62
     2
 10
3.58203971445039
 20
1.187356537251489
 30
0.0
 40
0.003
 41
0.003
  0
VERTEX
  5
29AD
  8
OUTLINE
  6
CONTINUOUS
 62
     2
 10
3.584590714450389
 20
1.158258537251489
 30
0.0
 40
0.003
 41
0.003
  0
VERTEX
  5
29AE
  8
OUTLINE
  6
CONTINUOUS
 62
     2
 10
3.588945714450389
 20
1.131012537251489
 30
0.0
 40
0.003
 41
0.003
  0
VERTEX
  5
29AF
  8
OUTLINE
  6
CONTINUOUS
 62
     2
 10
3.59564471445039
 20
1.104141537251489
 30
0.0
 40
0.003
 41
0.003
  0
VERTEX
  5
29B0
  8
OUTLINE
  6
CONTINUOUS
 62
     2
 10
3.60522671445039
 20
1.076168537251489
 30
0.0
 40
0.003
 41
0.003
  0
VERTEX
  5
29B1
  8
OUTLINE
  6
CONTINUOUS
 62
     2
 10
3.618230714450389
 20
1.045617537251489
 30
0.0
 40
0.003
 41
0.003
  0
VERTEX
  5
29B2
  8
OUTLINE
  6
CONTINUOUS
 62
     2
 10
3.635195714450389
 20
1.011012537251489
 30
0.0
 40
0.003
 41
0.003
  0
VERTEX
  5
29B3
  8
OUTLINE
  6
CONTINUOUS
 62
     2
 10
3.63919571445039
 20
1.010012537251489
 30
0.0
 40
0.003
 41
0.003
  0
VERTEX
  5
29B4
  8
OUTLINE
  6
CONTINUOUS
 62
     2
 10
3.643195714450389
 20
1.009012537251489
 30
0.0
 40
0.003
 41
0.003
  0
VERTEX
  5
29B5
  8
OUTLINE
  6
CONTINUOUS
 62
     2
 10
3.64719571445039
 20
1.008012537251489
 30
0.0
 40
0.003
 41
0.003
  0
VERTEX
  5
29B6
  8
OUTLINE
  6
CONTINUOUS
 62
     2
 10
3.646520714450389
 20
1.034510537251489
 30
0.0
 40
0.003
 41
0.003
  0
VERTEX
  5
29B7
  8
OUTLINE
  6
CONTINUOUS
 62
     2
 10
3.64527771445039
 20
1.057403537251489
 30
0.0
 40
0.003
 41
0.003
  0
VERTEX
  5
29B8
  8
OUTLINE
  6
CONTINUOUS
 62
     2
 10
3.643639714450389
 20
1.078790537251489
 30
0.0
 40
0.003
 41
0.003
  0
VERTEX
  5
29B9
  8
OUTLINE
  6
CONTINUOUS
 62
     2
 10
3.641779714450389
 20
1.100769537251489
 30
0.0
 40
0.003
 41
0.003
  0
VERTEX
  5
29BA
  8
OUTLINE
  6
CONTINUOUS
 62
     2
 10
3.63987071445039
 20
1.125440537251489
 30
0.0
 40
0.003
 41
0.003
  0
VERTEX
  5
29BB
  8
OUTLINE
  6
CONTINUOUS
 62
     2
 10
3.638084714450389
 20
1.154901537251489
 30
0.0
 40
0.003
 41
0.003
  0
VERTEX
  5
29BC
  8
OUTLINE
  6
CONTINUOUS
 62
     2
 10
3.636594714450389
 20
1.191251537251489
 30
0.0
 40
0.003
 41
0.003
  0
VERTEX
  5
29BD
  8
OUTLINE
  6
CONTINUOUS
 62
     2
 10
3.63557471445039
 20
1.236588537251489
 30
0.0
 40
0.003
 41
0.003
  0
VERTEX
  5
29BE
  8
OUTLINE
  6
CONTINUOUS
 62
     2
 10
3.635195714450389
 20
1.293012537251489
 30
0.0
 40
0.003
 41
0.003
  0
VERTEX
  5
29BF
  8
OUTLINE
  6
CONTINUOUS
 62
     2
 10
3.635195714450389
 20
1.293012537251489
 30
0.0
 40
0.003
 41
0.003
  0
VERTEX
  5
29C0
  8
OUTLINE
  6
CONTINUOUS
 62
     2
 10
3.643311714450389
 20
1.302807537251489
 30
0.0
 40
0.003
 41
0.003
  0
VERTEX
  5
29C1
  8
OUTLINE
  6
CONTINUOUS
 62
     2
 10
3.650571714450389
 20
1.316440537251489
 30
0.0
 40
0.003
 41
0.003
  0
VERTEX
  5
29C2
  8
OUTLINE
  6
CONTINUOUS
 62
     2
 10
3.657004714450389
 20
1.333620537251489
 30
0.0
 40
0.003
 41
0.003
  0
VERTEX
  5
29C3
  8
OUTLINE
  6
CONTINUOUS
 62
     2
 10
3.662644714450389
 20
1.354052537251489
 30
0.0
 40
0.003
 41
0.003
  0
VERTEX
  5
29C4
  8
OUTLINE
  6
CONTINUOUS
 62
     2
 10
3.66752271445039
 20
1.377444537251489
 30
0.0
 40
0.003
 41
0.003
  0
VERTEX
  5
29C5
  8
OUTLINE
  6
CONTINUOUS
 62
     2
 10
3.671670714450389
 20
1.403503537251489
 30
0.0
 40
0.003
 41
0.003
  0
VERTEX
  5
29C6
  8
OUTLINE
  6
CONTINUOUS
 62
     2
 10
3.675118714450389
 20
1.431936537251489
 30
0.0
 40
0.003
 41
0.003
  0
VERTEX
  5
29C7
  8
OUTLINE
  6
CONTINUOUS
 62
     2
 10
3.677900714450389
 20
1.462450537251489
 30
0.0
 40
0.003
 41
0.003
  0
VERTEX
  5
29C8
  8
OUTLINE
  6
CONTINUOUS
 62
     2
 10
3.68004771445039
 20
1.494753537251489
 30
0.0
 40
0.003
 41
0.003
  0
VERTEX
  5
29C9
  8
OUTLINE
  6
CONTINUOUS
 62
     2
 10
3.681590714450389
 20
1.528550537251489
 30
0.0
 40
0.003
 41
0.003
  0
VERTEX
  5
29CA
  8
OUTLINE
  6
CONTINUOUS
 62
     2
 10
3.682561714450389
 20
1.563550537251489
 30
0.0
 40
0.003
 41
0.003
  0
VERTEX
  5
29CB
  8
OUTLINE
  6
CONTINUOUS
 62
     2
 10
3.682992714450389
 20
1.59945953725149
 30
0.0
 40
0.003
 41
0.003
  0
VERTEX
  5
29CC
  8
OUTLINE
  6
CONTINUOUS
 62
     2
 10
3.682915714450389
 20
1.635985537251489
 30
0.0
 40
0.003
 41
0.003
  0
VERTEX
  5
29CD
  8
OUTLINE
  6
CONTINUOUS
 62
     2
 10
3.682360714450389
 20
1.67283453725149
 30
0.0
 40
0.003
 41
0.003
  0
VERTEX
  5
29CE
  8
OUTLINE
  6
CONTINUOUS
 62
     2
 10
3.681361714450389
 20
1.709713537251489
 30
0.0
 40
0.003
 41
0.003
  0
VERTEX
  5
29CF
  8
OUTLINE
  6
CONTINUOUS
 62
     2
 10
3.679948714450389
 20
1.74633053725149
 30
0.0
 40
0.003
 41
0.003
  0
VERTEX
  5
29D0
  8
OUTLINE
  6
CONTINUOUS
 62
     2
 10
3.678154714450389
 20
1.782391537251489
 30
0.0
 40
0.003
 41
0.003
  0
VERTEX
  5
29D1
  8
OUTLINE
  6
CONTINUOUS
 62
     2
 10
3.676010714450389
 20
1.817605537251489
 30
0.0
 40
0.003
 41
0.003
  0
VERTEX
  5
29D2
  8
OUTLINE
  6
CONTINUOUS
 62
     2
 10
3.673547714450389
 20
1.851676537251489
 30
0.0
 40
0.003
 41
0.003
  0
VERTEX
  5
29D3
  8
OUTLINE
  6
CONTINUOUS
 62
     2
 10
3.670798714450389
 20
1.884314537251489
 30
0.0
 40
0.003
 41
0.003
  0
VERTEX
  5
29D4
  8
OUTLINE
  6
CONTINUOUS
 62
     2
 10
3.667794714450389
 20
1.91522553725149
 30
0.0
 40
0.003
 41
0.003
  0
VERTEX
  5
29D5
  8
OUTLINE
  6
CONTINUOUS
 62
     2
 10
3.664567714450389
 20
1.944115537251489
 30
0.0
 40
0.003
 41
0.003
  0
VERTEX
  5
29D6
  8
OUTLINE
  6
CONTINUOUS
 62
     2
 10
3.66114971445039
 20
1.970692537251489
 30
0.0
 40
0.003
 41
0.003
  0
VERTEX
  5
29D7
  8
OUTLINE
  6
CONTINUOUS
 62
     2
 10
3.657571714450389
 20
1.994664537251489
 30
0.0
 40
0.003
 41
0.003
  0
VERTEX
  5
29D8
  8
OUTLINE
  6
CONTINUOUS
 62
     2
 10
3.653865714450389
 20
2.01573653725149
 30
0.0
 40
0.003
 41
0.003
  0
VERTEX
  5
29D9
  8
OUTLINE
  6
CONTINUOUS
 62
     2
 10
3.65006271445039
 20
2.033616537251489
 30
0.0
 40
0.003
 41
0.003
  0
VERTEX
  5
29DA
  8
OUTLINE
  6
CONTINUOUS
 62
     2
 10
3.646195714450389
 20
2.04801253725149
 30
0.0
 40
0.003
 41
0.003
  0
VERTEX
  5
29DB
  8
OUTLINE
  6
CONTINUOUS
 62
     2
 10
3.625865714450389
 20
2.07837053725149
 30
0.0
 40
0.003
 41
0.003
  0
VERTEX
  5
29DC
  8
OUTLINE
  6
CONTINUOUS
 62
     2
 10
3.605600714450389
 20
2.105754537251489
 30
0.0
 40
0.003
 41
0.003
  0
VERTEX
  5
29DD
  8
OUTLINE
  6
CONTINUOUS
 62
     2
 10
3.58535771445039
 20
2.13025253725149
 30
0.0
 40
0.003
 41
0.003
  0
VERTEX
  5
29DE
  8
OUTLINE
  6
CONTINUOUS
 62
     2
 10
3.565098714450389
 20
2.151952537251489
 30
0.0
 40
0.003
 41
0.003
  0
VERTEX
  5
29DF
  8
OUTLINE
  6
CONTINUOUS
 62
     2
 10
3.544781714450389
 20
2.17094153725149
 30
0.0
 40
0.003
 41
0.003
  0
VERTEX
  5
29E0
  8
OUTLINE
  6
CONTINUOUS
 62
     2
 10
3.524367714450389
 20
2.18730953725149
 30
0.0
 40
0.003
 41
0.003
  0
VERTEX
  5
29E1
  8
OUTLINE
  6
CONTINUOUS
 62
     2
 10
3.503815714450389
 20
2.20114353725149
 30
0.0
 40
0.003
 41
0.003
  0
VERTEX
  5
29E2
  8
OUTLINE
  6
CONTINUOUS
 62
     2
 10
3.483084714450389
 20
2.212531537251489
 30
0.0
 40
0.003
 41
0.003
  0
VERTEX
  5
29E3
  8
OUTLINE
  6
CONTINUOUS
 62
     2
 10
3.462134714450389
 20
2.221561537251489
 30
0.0
 40
0.003
 41
0.003
  0
VERTEX
  5
29E4
  8
OUTLINE
  6
CONTINUOUS
 62
     2
 10
3.440926714450389
 20
2.228322537251489
 30
0.0
 40
0.003
 41
0.003
  0
VERTEX
  5
29E5
  8
OUTLINE
  6
CONTINUOUS
 62
     2
 10
3.419418714450389
 20
2.23290153725149
 30
0.0
 40
0.003
 41
0.003
  0
VERTEX
  5
29E6
  8
OUTLINE
  6
CONTINUOUS
 62
     2
 10
3.39757071445039
 20
2.235387537251489
 30
0.0
 40
0.003
 41
0.003
  0
VERTEX
  5
29E7
  8
OUTLINE
  6
CONTINUOUS
 62
     2
 10
3.375342714450389
 20
2.23586853725149
 30
0.0
 40
0.003
 41
0.003
  0
VERTEX
  5
29E8
  8
OUTLINE
  6
CONTINUOUS
 62
     2
 10
3.352693714450389
 20
2.23443253725149
 30
0.0
 40
0.003
 41
0.003
  0
VERTEX
  5
29E9
  8
OUTLINE
  6
CONTINUOUS
 62
     2
 10
3.329584714450389
 20
2.23116653725149
 30
0.0
 40
0.003
 41
0.003
  0
VERTEX
  5
29EA
  8
OUTLINE
  6
CONTINUOUS
 62
     2
 10
3.305973714450389
 20
2.226160537251489
 30
0.0
 40
0.003
 41
0.003
  0
VERTEX
  5
29EB
  8
OUTLINE
  6
CONTINUOUS
 62
     2
 10
3.281820714450389
 20
2.219501537251489
 30
0.0
 40
0.003
 41
0.003
  0
VERTEX
  5
29EC
  8
OUTLINE
  6
CONTINUOUS
 62
     2
 10
3.257086714450389
 20
2.211278537251489
 30
0.0
 40
0.003
 41
0.003
  0
VERTEX
  5
29ED
  8
OUTLINE
  6
CONTINUOUS
 62
     2
 10
3.231729714450389
 20
2.201577537251489
 30
0.0
 40
0.003
 41
0.003
  0
VERTEX
  5
29EE
  8
OUTLINE
  6
CONTINUOUS
 62
     2
 10
3.205709714450389
 20
2.190489537251489
 30
0.0
 40
0.003
 41
0.003
  0
VERTEX
  5
29EF
  8
OUTLINE
  6
CONTINUOUS
 62
     2
 10
3.17898671445039
 20
2.178100537251489
 30
0.0
 40
0.003
 41
0.003
  0
VERTEX
  5
29F0
  8
OUTLINE
  6
CONTINUOUS
 62
     2
 10
3.151520714450389
 20
2.164499537251489
 30
0.0
 40
0.003
 41
0.003
  0
VERTEX
  5
29F1
  8
OUTLINE
  6
CONTINUOUS
 62
     2
 10
3.123269714450389
 20
2.149773537251489
 30
0.0
 40
0.003
 41
0.003
  0
VERTEX
  5
29F2
  8
OUTLINE
  6
CONTINUOUS
 62
     2
 10
3.094195714450389
 20
2.134012537251489
 30
0.0
 40
0.003
 41
0.003
  0
VERTEX
  5
29F3
  8
OUTLINE
  6
CONTINUOUS
 62
     2
 10
3.094195714450389
 20
2.134012537251489
 30
0.0
 40
0.003
 41
0.003
  0
VERTEX
  5
29F4
  8
OUTLINE
  6
CONTINUOUS
 62
     2
 10
3.06802871445039
 20
2.14939753725149
 30
0.0
 40
0.003
 41
0.003
  0
VERTEX
  5
29F5
  8
OUTLINE
  6
CONTINUOUS
 62
     2
 10
3.041796714450389
 20
2.16408553725149
 30
0.0
 40
0.003
 41
0.003
  0
VERTEX
  5
29F6
  8
OUTLINE
  6
CONTINUOUS
 62
     2
 10
3.015475714450389
 20
2.178018537251489
 30
0.0
 40
0.003
 41
0.003
  0
VERTEX
  5
29F7
  8
OUTLINE
  6
CONTINUOUS
 62
     2
 10
2.989041714450389
 20
2.19113853725149
 30
0.0
 40
0.003
 41
0.003
  0
VERTEX
  5
29F8
  8
OUTLINE
  6
CONTINUOUS
 62
     2
 10
2.962471714450389
 20
2.20338953725149
 30
0.0
 40
0.003
 41
0.003
  0
VERTEX
  5
29F9
  8
OUTLINE
  6
CONTINUOUS
 62
     2
 10
2.935740714450389
 20
2.21471253725149
 30
0.0
 40
0.003
 41
0.003
  0
VERTEX
  5
29FA
  8
OUTLINE
  6
CONTINUOUS
 62
     2
 10
2.90882571445039
 20
2.225049537251489
 30
0.0
 40
0.003
 41
0.003
  0
VERTEX
  5
29FB
  8
OUTLINE
  6
CONTINUOUS
 62
     2
 10
2.881700714450389
 20
2.23434353725149
 30
0.0
 40
0.003
 41
0.003
  0
VERTEX
  5
29FC
  8
OUTLINE
  6
CONTINUOUS
 62
     2
 10
2.854344714450389
 20
2.24253753725149
 30
0.0
 40
0.003
 41
0.003
  0
VERTEX
  5
29FD
  8
OUTLINE
  6
CONTINUOUS
 62
     2
 10
2.826730714450389
 20
2.249572537251489
 30
0.0
 40
0.003
 41
0.003
  0
VERTEX
  5
29FE
  8
OUTLINE
  6
CONTINUOUS
 62
     2
 10
2.798837714450389
 20
2.255391537251489
 30
0.0
 40
0.003
 41
0.003
  0
VERTEX
  5
29FF
  8
OUTLINE
  6
CONTINUOUS
 62
     2
 10
2.77063871445039
 20
2.259936537251489
 30
0.0
 40
0.003
 41
0.003
  0
VERTEX
  5
2A00
  8
OUTLINE
  6
CONTINUOUS
 62
     2
 10
2.742111714450389
 20
2.26315053725149
 30
0.0
 40
0.003
 41
0.003
  0
VERTEX
  5
2A01
  8
OUTLINE
  6
CONTINUOUS
 62
     2
 10
2.713232714450389
 20
2.264975537251489
 30
0.0
 40
0.003
 41
0.003
  0
VERTEX
  5
2A02
  8
OUTLINE
  6
CONTINUOUS
 62
     2
 10
2.683976714450389
 20
2.265353537251489
 30
0.0
 40
0.003
 41
0.003
  0
VERTEX
  5
2A03
  8
OUTLINE
  6
CONTINUOUS
 62
     2
 10
2.654320714450389
 20
2.26422753725149
 30
0.0
 40
0.003
 41
0.003
  0
VERTEX
  5
2A04
  8
OUTLINE
  6
CONTINUOUS
 62
     2
 10
2.624240714450389
 20
2.26153953725149
 30
0.0
 40
0.003
 41
0.003
  0
VERTEX
  5
2A05
  8
OUTLINE
  6
CONTINUOUS
 62
     2
 10
2.593711714450389
 20
2.25723153725149
 30
0.0
 40
0.003
 41
0.003
  0
VERTEX
  5
2A06
  8
OUTLINE
  6
CONTINUOUS
 62
     2
 10
2.56271071445039
 20
2.25124553725149
 30
0.0
 40
0.003
 41
0.003
  0
VERTEX
  5
2A07
  8
OUTLINE
  6
CONTINUOUS
 62
     2
 10
2.531213714450389
 20
2.24352553725149
 30
0.0
 40
0.003
 41
0.003
  0
VERTEX
  5
2A08
  8
OUTLINE
  6
CONTINUOUS
 62
     2
 10
2.499195714450389
 20
2.234012537251489
 30
0.0
 40
0.003
 41
0.003
  0
VERTEX
  5
2A09
  8
OUTLINE
  6
CONTINUOUS
 62
     2
 10
2.499195714450389
 20
2.234012537251489
 30
0.0
 40
0.003
 41
0.003
  0
VERTEX
  5
2A0A
  8
OUTLINE
  6
CONTINUOUS
 62
     2
 10
2.48304771445039
 20
2.270382537251489
 30
0.0
 40
0.003
 41
0.003
  0
VERTEX
  5
2A0B
  8
OUTLINE
  6
CONTINUOUS
 62
     2
 10
2.481343714450389
 20
2.31497553725149
 30
0.0
 40
0.003
 41
0.003
  0
VERTEX
  5
2A0C
  8
OUTLINE
  6
CONTINUOUS
 62
     2
 10
2.483195714450389
 20
2.352012537251489
 30
0.0
 40
0.003
 41
0.003
  0
VERTEX
  5
2A0D
  8
OUTLINE
  6
CONTINUOUS
 62
     2
 10
2.47719571445039
 20
2.355716537251489
 30
0.0
 40
0.003
 41
0.003
  0
VERTEX
  5
2A0E
  8
OUTLINE
  6
CONTINUOUS
 62
     2
 10
2.471195714450389
 20
2.35897553725149
 30
0.0
 40
0.003
 41
0.003
  0
VERTEX
  5
2A0F
  8
OUTLINE
  6
CONTINUOUS
 62
     2
 10
2.465195714450389
 20
2.36201253725149
 30
0.0
 40
0.003
 41
0.003
  0
VERTEX
  5
2A10
  8
OUTLINE
  6
CONTINUOUS
 62
     2
 10
2.452626714450389
 20
2.338964537251489
 30
0.0
 40
0.003
 41
0.003
  0
VERTEX
  5
2A11
  8
OUTLINE
  6
CONTINUOUS
 62
     2
 10
2.440419714450389
 20
2.31385053725149
 30
0.0
 40
0.003
 41
0.003
  0
VERTEX
  5
2A12
  8
OUTLINE
  6
CONTINUOUS
 62
     2
 10
2.427825714450389
 20
2.287716537251489
 30
0.0
 40
0.003
 41
0.003
  0
VERTEX
  5
2A13
  8
OUTLINE
  6
CONTINUOUS
 62
     2
 10
2.414095714450389
 20
2.26160653725149
 30
0.0
 40
0.003
 41
0.003
  0
VERTEX
  5
2A14
  8
OUTLINE
  6
CONTINUOUS
 62
     2
 10
2.398480714450389
 20
2.236566537251489
 30
0.0
 40
0.003
 41
0.003
  0
VERTEX
  5
2A15
  8
OUTLINE
  6
CONTINUOUS
 62
     2
 10
2.380232714450389
 20
2.213642537251489
 30
0.0
 40
0.003
 41
0.003
  0
VERTEX
  5
2A16
  8
OUTLINE
  6
CONTINUOUS
 62
     2
 10
2.358601714450389
 20
2.193878537251489
 30
0.0
 40
0.003
 41
0.003
  0
VERTEX
  5
2A17
  8
OUTLINE
  6
CONTINUOUS
 62
     2
 10
2.332838714450389
 20
2.178319537251489
 30
0.0
 40
0.003
 41
0.003
  0
VERTEX
  5
2A18
  8
OUTLINE
  6
CONTINUOUS
 62
     2
 10
2.302195714450389
 20
2.16801253725149
 30
0.0
 40
0.003
 41
0.003
  0
VERTEX
  5
2A19
  8
OUTLINE
  6
CONTINUOUS
 62
     2
 10
2.286788714450389
 20
2.16490153725149
 30
0.0
 40
0.003
 41
0.003
  0
VERTEX
  5
2A1A
  8
OUTLINE
  6
CONTINUOUS
 62
     2
 10
2.27693671445039
 20
2.166456537251489
 30
0.0
 40
0.003
 41
0.003
  0
VERTEX
  5
2A1B
  8
OUTLINE
  6
CONTINUOUS
 62
     2
 10
2.26419571445039
 20
2.174012537251489
 30
0.0
 40
0.003
 41
0.003
  0
VERTEX
  5
2A1C
  8
OUTLINE
  6
CONTINUOUS
 62
     2
 10
2.257275714450389
 20
2.262428537251489
 30
0.0
 40
0.003
 41
0.003
  0
VERTEX
  5
2A1D
  8
OUTLINE
  6
CONTINUOUS
 62
     2
 10
2.252515714450389
 20
2.316620537251489
 30
0.0
 40
0.003
 41
0.003
  0
VERTEX
  5
2A1E
  8
OUTLINE
  6
CONTINUOUS
 62
     2
 10
2.248715714450389
 20
2.345804537251489
 30
0.0
 40
0.003
 41
0.003
  0
VERTEX
  5
2A1F
  8
OUTLINE
  6
CONTINUOUS
 62
     2
 10
2.24467571445039
 20
2.359196537251489
 30
0.0
 40
0.003
 41
0.003
  0
VERTEX
  5
2A20
  8
OUTLINE
  6
CONTINUOUS
 62
     2
 10
2.239195714450389
 20
2.36601253725149
 30
0.0
 40
0.003
 41
0.003
  0
VERTEX
  5
2A21
  8
OUTLINE
  6
CONTINUOUS
 62
     2
 10
2.229695714450389
 20
2.409153537251489
 30
0.0
 40
0.003
 41
0.003
  0
VERTEX
  5
2A22
  8
OUTLINE
  6
CONTINUOUS
 62
     2
 10
2.217945714450389
 20
2.447137537251489
 30
0.0
 40
0.003
 41
0.003
  0
VERTEX
  5
2A23
  8
OUTLINE
  6
CONTINUOUS
 62
     2
 10
2.206570714450389
 20
2.482309537251489
 30
0.0
 40
0.003
 41
0.003
  0
VERTEX
  5
2A24
  8
OUTLINE
  6
CONTINUOUS
 62
     2
 10
2.19819571445039
 20
2.517012537251489
 30
0.0
 40
0.003
 41
0.003
  0
VERTEX
  5
2A25
  8
OUTLINE
  6
CONTINUOUS
 62
     2
 10
2.19819571445039
 20
2.518975537251489
 30
0.0
 40
0.003
 41
0.003
  0
VERTEX
  5
2A26
  8
OUTLINE
  6
CONTINUOUS
 62
     2
 10
2.19819571445039
 20
2.520716537251489
 30
0.0
 40
0.003
 41
0.003
  0
VERTEX
  5
2A27
  8
OUTLINE
  6
CONTINUOUS
 62
     2
 10
2.19819571445039
 20
2.522012537251489
 30
0.0
 40
0.003
 41
0.003
  0
VERTEX
  5
2A28
  8
OUTLINE
  6
CONTINUOUS
 62
     2
 10
2.184042714450389
 20
2.529387537251489
 30
0.0
 40
0.003
 41
0.003
  0
VERTEX
  5
2A29
  8
OUTLINE
  6
CONTINUOUS
 62
     2
 10
2.172994714450389
 20
2.540834537251489
 30
0.0
 40
0.003
 41
0.003
  0
VERTEX
  5
2A2A
  8
OUTLINE
  6
CONTINUOUS
 62
     2
 10
2.164823714450389
 20
2.55599453725149
 30
0.0
 40
0.003
 41
0.003
  0
VERTEX
  5
2A2B
  8
OUTLINE
  6
CONTINUOUS
 62
     2
 10
2.159301714450389
 20
2.574504537251489
 30
0.0
 40
0.003
 41
0.003
  0
VERTEX
  5
2A2C
  8
OUTLINE
  6
CONTINUOUS
 62
     2
 10
2.156197714450389
 20
2.596003537251489
 30
0.0
 40
0.003
 41
0.003
  0
VERTEX
  5
2A2D
  8
OUTLINE
  6
CONTINUOUS
 62
     2
 10
2.155285714450389
 20
2.620130537251489
 30
0.0
 40
0.003
 41
0.003
  0
VERTEX
  5
2A2E
  8
OUTLINE
  6
CONTINUOUS
 62
     2
 10
2.156334714450389
 20
2.64652253725149
 30
0.0
 40
0.003
 41
0.003
  0
VERTEX
  5
2A2F
  8
OUTLINE
  6
CONTINUOUS
 62
     2
 10
2.15911671445039
 20
2.674819537251489
 30
0.0
 40
0.003
 41
0.003
  0
VERTEX
  5
2A30
  8
OUTLINE
  6
CONTINUOUS
 62
     2
 10
2.163401714450389
 20
2.704659537251489
 30
0.0
 40
0.003
 41
0.003
  0
VERTEX
  5
2A31
  8
OUTLINE
  6
CONTINUOUS
 62
     2
 10
2.168963714450389
 20
2.735680537251489
 30
0.0
 40
0.003
 41
0.003
  0
VERTEX
  5
2A32
  8
OUTLINE
  6
CONTINUOUS
 62
     2
 10
2.175570714450389
 20
2.767522537251489
 30
0.0
 40
0.003
 41
0.003
  0
VERTEX
  5
2A33
  8
OUTLINE
  6
CONTINUOUS
 62
     2
 10
2.182996714450389
 20
2.799822537251489
 30
0.0
 40
0.003
 41
0.003
  0
VERTEX
  5
2A34
  8
OUTLINE
  6
CONTINUOUS
 62
     2
 10
2.191010714450389
 20
2.832219537251489
 30
0.0
 40
0.003
 41
0.003
  0
VERTEX
  5
2A35
  8
OUTLINE
  6
CONTINUOUS
 62
     2
 10
2.199384714450389
 20
2.864352537251489
 30
0.0
 40
0.003
 41
0.003
  0
VERTEX
  5
2A36
  8
OUTLINE
  6
CONTINUOUS
 62
     2
 10
2.207889714450389
 20
2.895859537251489
 30
0.0
 40
0.003
 41
0.003
  0
VERTEX
  5
2A37
  8
OUTLINE
  6
CONTINUOUS
 62
     2
 10
2.216296714450389
 20
2.926379537251489
 30
0.0
 40
0.003
 41
0.003
  0
VERTEX
  5
2A38
  8
OUTLINE
  6
CONTINUOUS
 62
     2
 10
2.224378714450389
 20
2.955550537251489
 30
0.0
 40
0.003
 41
0.003
  0
VERTEX
  5
2A39
  8
OUTLINE
  6
CONTINUOUS
 62
     2
 10
2.23190371445039
 20
2.983011537251489
 30
0.0
 40
0.003
 41
0.003
  0
VERTEX
  5
2A3A
  8
OUTLINE
  6
CONTINUOUS
 62
     2
 10
2.23864571445039
 20
3.00840153725149
 30
0.0
 40
0.003
 41
0.003
  0
VERTEX
  5
2A3B
  8
OUTLINE
  6
CONTINUOUS
 62
     2
 10
2.244374714450389
 20
3.031357537251489
 30
0.0
 40
0.003
 41
0.003
  0
VERTEX
  5
2A3C
  8
OUTLINE
  6
CONTINUOUS
 62
     2
 10
2.248861714450389
 20
3.051519537251489
 30
0.0
 40
0.003
 41
0.003
  0
VERTEX
  5
2A3D
  8
OUTLINE
  6
CONTINUOUS
 62
     2
 10
2.251878714450389
 20
3.06852453725149
 30
0.0
 40
0.003
 41
0.003
  0
VERTEX
  5
2A3E
  8
OUTLINE
  6
CONTINUOUS
 62
     2
 10
2.253195714450389
 20
3.082012537251489
 30
0.0
 40
0.003
 41
0.003
  0
VERTEX
  5
2A3F
  8
OUTLINE
  6
CONTINUOUS
 62
     2
 10
2.245195714450389
 20
3.109012537251489
 30
0.0
 40
0.003
 41
0.003
  0
VERTEX
  5
2A40
  8
OUTLINE
  6
CONTINUOUS
 62
     2
 10
2.237195714450389
 20
3.13601253725149
 30
0.0
 40
0.003
 41
0.003
  0
VERTEX
  5
2A41
  8
OUTLINE
  6
CONTINUOUS
 62
     2
 10
2.229195714450389
 20
3.16301253725149
 30
0.0
 40
0.003
 41
0.003
  0
VERTEX
  5
2A42
  8
OUTLINE
  6
CONTINUOUS
 62
     2
 10
2.214417714450389
 20
3.187118537251489
 30
0.0
 40
0.003
 41
0.003
  0
VERTEX
  5
2A43
  8
OUTLINE
  6
CONTINUOUS
 62
     2
 10
2.200973714450389
 20
3.220531537251489
 30
0.0
 40
0.003
 41
0.003
  0
VERTEX
  5
2A44
  8
OUTLINE
  6
CONTINUOUS
 62
     2
 10
2.190195714450389
 20
3.258887537251489
 30
0.0
 40
0.003
 41
0.003
  0
VERTEX
  5
2A45
  8
OUTLINE
  6
CONTINUOUS
 62
     2
 10
2.183417714450389
 20
3.297827537251489
 30
0.0
 40
0.003
 41
0.003
  0
VERTEX
  5
2A46
  8
OUTLINE
  6
CONTINUOUS
 62
     2
 10
2.181973714450389
 20
3.332989537251489
 30
0.0
 40
0.003
 41
0.003
  0
VERTEX
  5
2A47
  8
OUTLINE
  6
CONTINUOUS
 62
     2
 10
2.18719571445039
 20
3.360012537251489
 30
0.0
 40
0.003
 41
0.003
  0
VERTEX
  5
2A48
  8
OUTLINE
  6
CONTINUOUS
 62
     2
 10
2.196215714450389
 20
3.38242253725149
 30
0.0
 40
0.003
 41
0.003
  0
VERTEX
  5
2A49
  8
OUTLINE
  6
CONTINUOUS
 62
     2
 10
2.210995714450389
 20
3.403212537251489
 30
0.0
 40
0.003
 41
0.003
  0
VERTEX
  5
2A4A
  8
OUTLINE
  6
CONTINUOUS
 62
     2
 10
2.230215714450389
 20
3.422922537251489
 30
0.0
 40
0.003
 41
0.003
  0
VERTEX
  5
2A4B
  8
OUTLINE
  6
CONTINUOUS
 62
     2
 10
2.252555714450389
 20
3.442092537251489
 30
0.0
 40
0.003
 41
0.003
  0
VERTEX
  5
2A4C
  8
OUTLINE
  6
CONTINUOUS
 62
     2
 10
2.276695714450389
 20
3.461262537251489
 30
0.0
 40
0.003
 41
0.003
  0
VERTEX
  5
2A4D
  8
OUTLINE
  6
CONTINUOUS
 62
     2
 10
2.301315714450389
 20
3.480972537251489
 30
0.0
 40
0.003
 41
0.003
  0
VERTEX
  5
2A4E
  8
OUTLINE
  6
CONTINUOUS
 62
     2
 10
2.325095714450389
 20
3.501762537251489
 30
0.0
 40
0.003
 41
0.003
  0
VERTEX
  5
2A4F
  8
OUTLINE
  6
CONTINUOUS
 62
     2
 10
2.346715714450389
 20
3.52417253725149
 30
0.0
 40
0.003
 41
0.003
  0
VERTEX
  5
2A50
  8
OUTLINE
  6
CONTINUOUS
 62
     2
 10
2.364855714450389
 20
3.548742537251489
 30
0.0
 40
0.003
 41
0.003
  0
VERTEX
  5
2A51
  8
OUTLINE
  6
CONTINUOUS
 62
     2
 10
2.378195714450389
 20
3.576012537251489
 30
0.0
 40
0.003
 41
0.003
  0
VERTEX
  5
2A52
  8
OUTLINE
  6
CONTINUOUS
 62
     2
 10
2.413822714450389
 20
3.572703537251489
 30
0.0
 40
0.003
 41
0.003
  0
VERTEX
  5
2A53
  8
OUTLINE
  6
CONTINUOUS
 62
     2
 10
2.44451671445039
 20
3.563499537251489
 30
0.0
 40
0.003
 41
0.003
  0
VERTEX
  5
2A54
  8
OUTLINE
  6
CONTINUOUS
 62
     2
 10
2.47171171445039
 20
3.549484537251489
 30
0.0
 40
0.003
 41
0.003
  0
VERTEX
  5
2A55
  8
OUTLINE
  6
CONTINUOUS
 62
     2
 10
2.49684271445039
 20
3.531744537251489
 30
0.0
 40
0.003
 41
0.003
  0
VERTEX
  5
2A56
  8
OUTLINE
  6
CONTINUOUS
 62
     2
 10
2.52134471445039
 20
3.51136253725149
 30
0.0
 40
0.003
 41
0.003
  0
VERTEX
  5
2A57
  8
OUTLINE
  6
CONTINUOUS
 62
     2
 10
2.546650714450389
 20
3.48942353725149
 30
0.0
 40
0.003
 41
0.003
  0
VERTEX
  5
2A58
  8
OUTLINE
  6
CONTINUOUS
 62
     2
 10
2.574195714450389
 20
3.467012537251489
 30
0.0
 40
0.003
 41
0.003
  0
VERTEX
  5
2A59
  8
OUTLINE
  6
CONTINUOUS
 62
     2
 10
2.571706714450389
 20
3.495588537251489
 30
0.0
 40
0.003
 41
0.003
  0
VERTEX
  5
2A5A
  8
OUTLINE
  6
CONTINUOUS
 62
     2
 10
2.564684714450389
 20
3.52188453725149
 30
0.0
 40
0.003
 41
0.003
  0
VERTEX
  5
2A5B
  8
OUTLINE
  6
CONTINUOUS
 62
     2
 10
2.55379571445039
 20
3.546156537251489
 30
0.0
 40
0.003
 41
0.003
  0
VERTEX
  5
2A5C
  8
OUTLINE
  6
CONTINUOUS
 62
     2
 10
2.539706714450389
 20
3.56865753725149
 30
0.0
 40
0.003
 41
0.003
  0
VERTEX
  5
2A5D
  8
OUTLINE
  6
CONTINUOUS
 62
     2
 10
2.523084714450389
 20
3.589642537251489
 30
0.0
 40
0.003
 41
0.003
  0
VERTEX
  5
2A5E
  8
OUTLINE
  6
CONTINUOUS
 62
     2
 10
2.50459571445039
 20
3.609364537251489
 30
0.0
 40
0.003
 41
0.003
  0
VERTEX
  5
2A5F
  8
OUTLINE
  6
CONTINUOUS
 62
     2
 10
2.484906714450389
 20
3.628078537251489
 30
0.0
 40
0.003
 41
0.003
  0
VERTEX
  5
2A60
  8
OUTLINE
  6
CONTINUOUS
 62
     2
 10
2.46468471445039
 20
3.64603953725149
 30
0.0
 40
0.003
 41
0.003
  0
VERTEX
  5
2A61
  8
OUTLINE
  6
CONTINUOUS
 62
     2
 10
2.444595714450389
 20
3.66350053725149
 30
0.0
 40
0.003
 41
0.003
  0
VERTEX
  5
2A62
  8
OUTLINE
  6
CONTINUOUS
 62
     2
 10
2.42530671445039
 20
3.680716537251489
 30
0.0
 40
0.003
 41
0.003
  0
VERTEX
  5
2A63
  8
OUTLINE
  6
CONTINUOUS
 62
     2
 10
2.407484714450389
 20
3.69794053725149
 30
0.0
 40
0.003
 41
0.003
  0
VERTEX
  5
2A64
  8
OUTLINE
  6
CONTINUOUS
 62
     2
 10
2.39179571445039
 20
3.715428537251489
 30
0.0
 40
0.003
 41
0.003
  0
VERTEX
  5
2A65
  8
OUTLINE
  6
CONTINUOUS
 62
     2
 10
2.378906714450389
 20
3.733433537251489
 30
0.0
 40
0.003
 41
0.003
  0
VERTEX
  5
2A66
  8
OUTLINE
  6
CONTINUOUS
 62
     2
 10
2.369484714450389
 20
3.752210537251489
 30
0.0
 40
0.003
 41
0.003
  0
VERTEX
  5
2A67
  8
OUTLINE
  6
CONTINUOUS
 62
     2
 10
2.364195714450389
 20
3.77201253725149
 30
0.0
 40
0.003
 41
0.003
  0
VERTEX
  5
2A68
  8
OUTLINE
  6
CONTINUOUS
 62
     2
 10
2.368327714450389
 20
3.809458537251489
 30
0.0
 40
0.003
 41
0.003
  0
VERTEX
  5
2A69
  8
OUTLINE
  6
CONTINUOUS
 62
     2
 10
2.373248714450389
 20
3.843430537251489
 30
0.0
 40
0.003
 41
0.003
  0
VERTEX
  5
2A6A
  8
OUTLINE
  6
CONTINUOUS
 62
     2
 10
2.37775171445039
 20
3.874382537251489
 30
0.0
 40
0.003
 41
0.003
  0
VERTEX
  5
2A6B
  8
OUTLINE
  6
CONTINUOUS
 62
     2
 10
2.380623714450389
 20
3.902766537251489
 30
0.0
 40
0.003
 41
0.003
  0
VERTEX
  5
2A6C
  8
OUTLINE
  6
CONTINUOUS
 62
     2
 10
2.38065671445039
 20
3.929035537251489
 30
0.0
 40
0.003
 41
0.003
  0
VERTEX
  5
2A6D
  8
OUTLINE
  6
CONTINUOUS
 62
     2
 10
2.37663971445039
 20
3.953642537251489
 30
0.0
 40
0.003
 41
0.003
  0
VERTEX
  5
2A6E
  8
OUTLINE
  6
CONTINUOUS
 62
     2
 10
2.367364714450389
 20
3.977038537251489
 30
0.0
 40
0.003
 41
0.003
  0
VERTEX
  5
2A6F
  8
OUTLINE
  6
CONTINUOUS
 62
     2
 10
2.351619714450389
 20
3.99967753725149
 30
0.0
 40
0.003
 41
0.003
  0
VERTEX
  5
2A70
  8
OUTLINE
  6
CONTINUOUS
 62
     2
 10
2.32819571445039
 20
4.02201253725149
 30
0.0
 40
0.003
 41
0.003
  0
VERTEX
  5
2A71
  8
OUTLINE
  6
CONTINUOUS
 62
     2
 10
2.287491714450389
 20
4.035642537251489
 30
0.0
 40
0.003
 41
0.003
  0
VERTEX
  5
2A72
  8
OUTLINE
  6
CONTINUOUS
 62
     2
 10
2.249232714450389
 20
4.061716537251489
 30
0.0
 40
0.003
 41
0.003
  0
VERTEX
  5
2A73
  8
OUTLINE
  6
CONTINUOUS
 62
     2
 10
2.213195714450389
 20
4.090012537251489
 30
0.0
 40
0.003
 41
0.003
  0
VERTEX
  5
2A74
  8
OUTLINE
  6
CONTINUOUS
 62
     2
 10
2.166899714450389
 20
4.090012537251489
 30
0.0
 40
0.003
 41
0.003
  0
VERTEX
  5
2A75
  8
OUTLINE
  6
CONTINUOUS
 62
     2
 10
2.12015871445039
 20
4.090012537251489
 30
0.0
 40
0.003
 41
0.003
  0
VERTEX
  5
2A76
  8
OUTLINE
  6
CONTINUOUS
 62
     2
 10
2.07319571445039
 20
4.090012537251489
 30
0.0
 40
0.003
 41
0.003
  0
VERTEX
  5
2A77
  8
OUTLINE
  6
CONTINUOUS
 62
     2
 10
2.050387714450389
 20
4.061812537251489
 30
0.0
 40
0.003
 41
0.003
  0
VERTEX
  5
2A78
  8
OUTLINE
  6
CONTINUOUS
 62
     2
 10
2.027531714450389
 20
4.033612537251489
 30
0.0
 40
0.003
 41
0.003
  0
VERTEX
  5
2A79
  8
OUTLINE
  6
CONTINUOUS
 62
     2
 10
2.004579714450389
 20
4.005412537251489
 30
0.0
 40
0.003
 41
0.003
  0
VERTEX
  5
2A7A
  8
OUTLINE
  6
CONTINUOUS
 62
     2
 10
1.981483714450389
 20
3.977212537251489
 30
0.0
 40
0.003
 41
0.003
  0
VERTEX
  5
2A7B
  8
OUTLINE
  6
CONTINUOUS
 62
     2
 10
1.958195714450389
 20
3.949012537251489
 30
0.0
 40
0.003
 41
0.003
  0
VERTEX
  5
2A7C
  8
OUTLINE
  6
CONTINUOUS
 62
     2
 10
1.930629714450389
 20
3.933165537251489
 30
0.0
 40
0.003
 41
0.003
  0
VERTEX
  5
2A7D
  8
OUTLINE
  6
CONTINUOUS
 62
     2
 10
1.902942714450389
 20
3.921753537251489
 30
0.0
 40
0.003
 41
0.003
  0
VERTEX
  5
2A7E
  8
OUTLINE
  6
CONTINUOUS
 62
     2
 10
1.875011714450389
 20
3.91415553725149
 30
0.0
 40
0.003
 41
0.003
  0
VERTEX
  5
2A7F
  8
OUTLINE
  6
CONTINUOUS
 62
     2
 10
1.846715714450389
 20
3.909748537251489
 30
0.0
 40
0.003
 41
0.003
  0
VERTEX
  5
2A80
  8
OUTLINE
  6
CONTINUOUS
 62
     2
 10
1.817932714450389
 20
3.907911537251489
 30
0.0
 40
0.003
 41
0.003
  0
VERTEX
  5
2A81
  8
OUTLINE
  6
CONTINUOUS
 62
     2
 10
1.788541714450389
 20
3.908022537251489
 30
0.0
 40
0.003
 41
0.003
  0
VERTEX
  5
2A82
  8
OUTLINE
  6
CONTINUOUS
 62
     2
 10
1.758419714450389
 20
3.909458537251489
 30
0.0
 40
0.003
 41
0.003
  0
VERTEX
  5
2A83
  8
OUTLINE
  6
CONTINUOUS
 62
     2
 10
1.727445714450389
 20
3.911597537251489
 30
0.0
 40
0.003
 41
0.003
  0
VERTEX
  5
2A84
  8
OUTLINE
  6
CONTINUOUS
 62
     2
 10
1.695498714450389
 20
3.913817537251489
 30
0.0
 40
0.003
 41
0.003
  0
VERTEX
  5
2A85
  8
OUTLINE
  6
CONTINUOUS
 62
     2
 10
1.662455714450389
 20
3.91549653725149
 30
0.0
 40
0.003
 41
0.003
  0
VERTEX
  5
2A86
  8
OUTLINE
  6
CONTINUOUS
 62
     2
 10
1.628195714450389
 20
3.916012537251489
 30
0.0
 40
0.003
 41
0.003
  0
VERTEX
  5
2A87
  8
OUTLINE
  6
CONTINUOUS
 62
     2
 10
1.617491714450389
 20
3.90956853725149
 30
0.0
 40
0.003
 41
0.003
  0
VERTEX
  5
2A88
  8
OUTLINE
  6
CONTINUOUS
 62
     2
 10
1.612565714450389
 20
3.90179053725149
 30
0.0
 40
0.003
 41
0.003
  0
VERTEX
  5
2A89
  8
OUTLINE
  6
CONTINUOUS
 62
     2
 10
1.609195714450389
 20
3.88601253725149
 30
0.0
 40
0.003
 41
0.003
  0
VERTEX
  5
2A8A
  8
OUTLINE
  6
CONTINUOUS
 62
     2
 10
1.648468714450389
 20
3.86661953725149
 30
0.0
 40
0.003
 41
0.003
  0
VERTEX
  5
2A8B
  8
OUTLINE
  6
CONTINUOUS
 62
     2
 10
1.681787714450389
 20
3.84958353725149
 30
0.0
 40
0.003
 41
0.003
  0
VERTEX
  5
2A8C
  8
OUTLINE
  6
CONTINUOUS
 62
     2
 10
1.709687714450389
 20
3.834262537251489
 30
0.0
 40
0.003
 41
0.003
  0
VERTEX
  5
2A8D
  8
OUTLINE
  6
CONTINUOUS
 62
     2
 10
1.732705714450389
 20
3.820012537251489
 30
0.0
 40
0.003
 41
0.003
  0
VERTEX
  5
2A8E
  8
OUTLINE
  6
CONTINUOUS
 62
     2
 10
1.751376714450389
 20
3.80619153725149
 30
0.0
 40
0.003
 41
0.003
  0
VERTEX
  5
2A8F
  8
OUTLINE
  6
CONTINUOUS
 62
     2
 10
1.766236714450389
 20
3.79215553725149
 30
0.0
 40
0.003
 41
0.003
  0
VERTEX
  5
2A90
  8
OUTLINE
  6
CONTINUOUS
 62
     2
 10
1.777820714450389
 20
3.777262537251489
 30
0.0
 40
0.003
 41
0.003
  0
VERTEX
  5
2A91
  8
OUTLINE
  6
CONTINUOUS
 62
     2
 10
1.786664714450389
 20
3.760869537251489
 30
0.0
 40
0.003
 41
0.003
  0
VERTEX
  5
2A92
  8
OUTLINE
  6
CONTINUOUS
 62
     2
 10
1.793305714450389
 20
3.742333537251489
 30
0.0
 40
0.003
 41
0.003
  0
VERTEX
  5
2A93
  8
OUTLINE
  6
CONTINUOUS
 62
     2
 10
1.798277714450389
 20
3.72101253725149
 30
0.0
 40
0.003
 41
0.003
  0
VERTEX
  5
2A94
  8
OUTLINE
  6
CONTINUOUS
 62
     2
 10
1.802116714450389
 20
3.69626253725149
 30
0.0
 40
0.003
 41
0.003
  0
VERTEX
  5
2A95
  8
OUTLINE
  6
CONTINUOUS
 62
     2
 10
1.805358714450389
 20
3.667441537251489
 30
0.0
 40
0.003
 41
0.003
  0
VERTEX
  5
2A96
  8
OUTLINE
  6
CONTINUOUS
 62
     2
 10
1.808539714450389
 20
3.63390553725149
 30
0.0
 40
0.003
 41
0.003
  0
VERTEX
  5
2A97
  8
OUTLINE
  6
CONTINUOUS
 62
     2
 10
1.812195714450389
 20
3.595012537251489
 30
0.0
 40
0.003
 41
0.003
  0
VERTEX
  5
2A98
  8
OUTLINE
  6
CONTINUOUS
 62
     2
 10
1.797343714450389
 20
3.571938537251489
 30
0.0
 40
0.003
 41
0.003
  0
VERTEX
  5
2A99
  8
OUTLINE
  6
CONTINUOUS
 62
     2
 10
1.786714714450389
 20
3.559753537251489
 30
0.0
 40
0.003
 41
0.003
  0
VERTEX
  5
2A9A
  8
OUTLINE
  6
CONTINUOUS
 62
     2
 10
1.771195714450389
 20
3.54801253725149
 30
0.0
 40
0.003
 41
0.003
  0
VERTEX
  5
2A9B
  8
OUTLINE
  6
CONTINUOUS
 62
     2
 10
1.775616714450389
 20
3.515433537251489
 30
0.0
 40
0.003
 41
0.003
  0
VERTEX
  5
2A9C
  8
OUTLINE
  6
CONTINUOUS
 62
     2
 10
1.779899714450389
 20
3.482716537251489
 30
0.0
 40
0.003
 41
0.003
  0
VERTEX
  5
2A9D
  8
OUTLINE
  6
CONTINUOUS
 62
     2
 10
1.784070714450389
 20
3.449887537251489
 30
0.0
 40
0.003
 41
0.003
  0
VERTEX
  5
2A9E
  8
OUTLINE
  6
CONTINUOUS
 62
     2
 10
1.788158714450389
 20
3.416975537251489
 30
0.0
 40
0.003
 41
0.003
  0
VERTEX
  5
2A9F
  8
OUTLINE
  6
CONTINUOUS
 62
     2
 10
1.792190714450389
 20
3.384007537251489
 30
0.0
 40
0.003
 41
0.003
  0
VERTEX
  5
2AA0
  8
OUTLINE
  6
CONTINUOUS
 62
     2
 10
1.796195714450389
 20
3.351012537251489
 30
0.0
 40
0.003
 41
0.003
  0
VERTEX
  5
2AA1
  8
OUTLINE
  6
CONTINUOUS
 62
     2
 10
1.823117714450389
 20
3.342450537251489
 30
0.0
 40
0.003
 41
0.003
  0
VERTEX
  5
2AA2
  8
OUTLINE
  6
CONTINUOUS
 62
     2
 10
1.863820714450389
 20
3.333512537251489
 30
0.0
 40
0.003
 41
0.003
  0
VERTEX
  5
2AA3
  8
OUTLINE
  6
CONTINUOUS
 62
     2
 10
1.905461714450389
 20
3.324575537251489
 30
0.0
 40
0.003
 41
0.003
  0
VERTEX
  5
2AA4
  8
OUTLINE
  6
CONTINUOUS
 62
     2
 10
1.935195714450389
 20
3.316012537251489
 30
0.0
 40
0.003
 41
0.003
  0
VERTEX
  5
2AA5
  8
OUTLINE
  6
CONTINUOUS
 62
     2
 10
1.942110714450389
 20
3.285563537251489
 30
0.0
 40
0.003
 41
0.003
  0
VERTEX
  5
2AA6
  8
OUTLINE
  6
CONTINUOUS
 62
     2
 10
1.946804714450389
 20
3.25842053725149
 30
0.0
 40
0.003
 41
0.003
  0
VERTEX
  5
2AA7
  8
OUTLINE
  6
CONTINUOUS
 62
     2
 10
1.947055714450389
 20
3.234461537251489
 30
0.0
 40
0.003
 41
0.003
  0
VERTEX
  5
2AA8
  8
OUTLINE
  6
CONTINUOUS
 62
     2
 10
1.940641714450389
 20
3.213563537251489
 30
0.0
 40
0.003
 41
0.003
  0
VERTEX
  5
2AA9
  8
OUTLINE
  6
CONTINUOUS
 62
     2
 10
1.925341714450389
 20
3.195604537251489
 30
0.0
 40
0.003
 41
0.003
  0
VERTEX
  5
2AAA
  8
OUTLINE
  6
CONTINUOUS
 62
     2
 10
1.898933714450389
 20
3.180461537251489
 30
0.0
 40
0.003
 41
0.003
  0
VERTEX
  5
2AAB
  8
OUTLINE
  6
CONTINUOUS
 62
     2
 10
1.859195714450389
 20
3.16801253725149
 30
0.0
 40
0.003
 41
0.003
  0
VERTEX
  5
2AAC
  8
OUTLINE
  6
CONTINUOUS
 62
     2
 10
1.852269714450389
 20
3.148598537251489
 30
0.0
 40
0.003
 41
0.003
  0
VERTEX
  5
2AAD
  8
OUTLINE
  6
CONTINUOUS
 62
     2
 10
1.840692714450389
 20
3.127365537251489
 30
0.0
 40
0.003
 41
0.003
  0
VERTEX
  5
2AAE
  8
OUTLINE
  6
CONTINUOUS
 62
     2
 10
1.825067714450389
 20
3.10462853725149
 30
0.0
 40
0.003
 41
0.003
  0
VERTEX
  5
2AAF
  8
OUTLINE
  6
CONTINUOUS
 62
     2
 10
1.805997714450389
 20
3.080702537251489
 30
0.0
 40
0.003
 41
0.003
  0
VERTEX
  5
2AB0
  8
OUTLINE
  6
CONTINUOUS
 62
     2
 10
1.784084714450389
 20
3.055901537251489
 30
0.0
 40
0.003
 41
0.003
  0
VERTEX
  5
2AB1
  8
OUTLINE
  6
CONTINUOUS
 62
     2
 10
1.759931714450389
 20
3.030540537251489
 30
0.0
 40
0.003
 41
0.003
  0
VERTEX
  5
2AB2
  8
OUTLINE
  6
CONTINUOUS
 62
     2
 10
1.734141714450389
 20
3.00493453725149
 30
0.0
 40
0.003
 41
0.003
  0
VERTEX
  5
2AB3
  8
OUTLINE
  6
CONTINUOUS
 62
     2
 10
1.707316714450389
 20
2.979397537251489
 30
0.0
 40
0.003
 41
0.003
  0
VERTEX
  5
2AB4
  8
OUTLINE
  6
CONTINUOUS
 62
     2
 10
1.680059714450389
 20
2.95424453725149
 30
0.0
 40
0.003
 41
0.003
  0
VERTEX
  5
2AB5
  8
OUTLINE
  6
CONTINUOUS
 62
     2
 10
1.652973714450389
 20
2.929790537251489
 30
0.0
 40
0.003
 41
0.003
  0
VERTEX
  5
2AB6
  8
OUTLINE
  6
CONTINUOUS
 62
     2
 10
1.626660714450389
 20
2.906349537251489
 30
0.0
 40
0.003
 41
0.003
  0
VERTEX
  5
2AB7
  8
OUTLINE
  6
CONTINUOUS
 62
     2
 10
1.601723714450389
 20
2.884236537251489
 30
0.0
 40
0.003
 41
0.003
  0
VERTEX
  5
2AB8
  8
OUTLINE
  6
CONTINUOUS
 62
     2
 10
1.578765714450389
 20
2.86376653725149
 30
0.0
 40
0.003
 41
0.003
  0
VERTEX
  5
2AB9
  8
OUTLINE
  6
CONTINUOUS
 62
     2
 10
1.558388714450389
 20
2.845253537251489
 30
0.0
 40
0.003
 41
0.003
  0
VERTEX
  5
2ABA
  8
OUTLINE
  6
CONTINUOUS
 62
     2
 10
1.541195714450389
 20
2.829012537251489
 30
0.0
 40
0.003
 41
0.003
  0
VERTEX
  5
2ABB
  8
OUTLINE
  6
CONTINUOUS
 62
     2
 10
1.512008714450389
 20
2.813086537251489
 30
0.0
 40
0.003
 41
0.003
  0
VERTEX
  5
2ABC
  8
OUTLINE
  6
CONTINUOUS
 62
     2
 10
1.483108714450389
 20
2.798219537251489
 30
0.0
 40
0.003
 41
0.003
  0
VERTEX
  5
2ABD
  8
OUTLINE
  6
CONTINUOUS
 62
     2
 10
1.454413714450389
 20
2.784274537251489
 30
0.0
 40
0.003
 41
0.003
  0
VERTEX
  5
2ABE
  8
OUTLINE
  6
CONTINUOUS
 62
     2
 10
1.425842714450389
 20
2.771117537251489
 30
0.0
 40
0.003
 41
0.003
  0
VERTEX
  5
2ABF
  8
OUTLINE
  6
CONTINUOUS
 62
     2
 10
1.397316714450389
 20
2.758611537251489
 30
0.0
 40
0.003
 41
0.003
  0
VERTEX
  5
2AC0
  8
OUTLINE
  6
CONTINUOUS
 62
     2
 10
1.368752714450389
 20
2.746621537251489
 30
0.0
 40
0.003
 41
0.003
  0
VERTEX
  5
2AC1
  8
OUTLINE
  6
CONTINUOUS
 62
     2
 10
1.340070714450389
 20
2.735012537251489
 30
0.0
 40
0.003
 41
0.003
  0
VERTEX
  5
2AC2
  8
OUTLINE
  6
CONTINUOUS
 62
     2
 10
1.311189714450389
 20
2.723648537251489
 30
0.0
 40
0.003
 41
0.003
  0
VERTEX
  5
2AC3
  8
OUTLINE
  6
CONTINUOUS
 62
     2
 10
1.282028714450389
 20
2.712392537251489
 30
0.0
 40
0.003
 41
0.003
  0
VERTEX
  5
2AC4
  8
OUTLINE
  6
CONTINUOUS
 62
     2
 10
1.252507714450389
 20
2.70111153725149
 30
0.0
 40
0.003
 41
0.003
  0
VERTEX
  5
2AC5
  8
OUTLINE
  6
CONTINUOUS
 62
     2
 10
1.222544714450389
 20
2.689668537251489
 30
0.0
 40
0.003
 41
0.003
  0
VERTEX
  5
2AC6
  8
OUTLINE
  6
CONTINUOUS
 62
     2
 10
1.192058714450389
 20
2.67792753725149
 30
0.0
 40
0.003
 41
0.003
  0
VERTEX
  5
2AC7
  8
OUTLINE
  6
CONTINUOUS
 62
     2
 10
1.160969714450389
 20
2.665754537251489
 30
0.0
 40
0.003
 41
0.003
  0
VERTEX
  5
2AC8
  8
OUTLINE
  6
CONTINUOUS
 62
     2
 10
1.129195714450389
 20
2.653012537251489
 30
0.0
 40
0.003
 41
0.003
  0
VERTEX
  5
2AC9
  8
OUTLINE
  6
CONTINUOUS
 62
     2
 10
1.125973714450389
 20
2.618679537251489
 30
0.0
 40
0.003
 41
0.003
  0
VERTEX
  5
2ACA
  8
OUTLINE
  6
CONTINUOUS
 62
     2
 10
1.122084714450389
 20
2.602345537251489
 30
0.0
 40
0.003
 41
0.003
  0
VERTEX
  5
2ACB
  8
OUTLINE
  6
CONTINUOUS
 62
     2
 10
1.114195714450389
 20
2.590012537251489
 30
0.0
 40
0.003
 41
0.003
  0
VERTEX
  5
2ACC
  8
OUTLINE
  6
CONTINUOUS
 62
     2
 10
1.092531714450389
 20
2.59099553725149
 30
0.0
 40
0.003
 41
0.003
  0
VERTEX
  5
2ACD
  8
OUTLINE
  6
CONTINUOUS
 62
     2
 10
1.067003714450389
 20
2.59364853725149
 30
0.0
 40
0.003
 41
0.003
  0
VERTEX
  5
2ACE
  8
OUTLINE
  6
CONTINUOUS
 62
     2
 10
1.038308714450389
 20
2.597529537251489
 30
0.0
 40
0.003
 41
0.003
  0
VERTEX
  5
2ACF
  8
OUTLINE
  6
CONTINUOUS
 62
     2
 10
1.007145714450389
 20
2.602199537251489
 30
0.0
 40
0.003
 41
0.003
  0
VERTEX
  5
2AD0
  8
OUTLINE
  6
CONTINUOUS
 62
     2
 10
0.974211714450389
 20
2.607213537251489
 30
0.0
 40
0.003
 41
0.003
  0
VERTEX
  5
2AD1
  8
OUTLINE
  6
CONTINUOUS
 62
     2
 10
0.9402047144503891
 20
2.612132537251489
 30
0.0
 40
0.003
 41
0.003
  0
VERTEX
  5
2AD2
  8
OUTLINE
  6
CONTINUOUS
 62
     2
 10
0.9058207144503889
 20
2.616512537251489
 30
0.0
 40
0.003
 41
0.003
  0
VERTEX
  5
2AD3
  8
OUTLINE
  6
CONTINUOUS
 62
     2
 10
0.8717587144503893
 20
2.61991353725149
 30
0.0
 40
0.003
 41
0.003
  0
VERTEX
  5
2AD4
  8
OUTLINE
  6
CONTINUOUS
 62
     2
 10
0.838714714450389
 20
2.621892537251489
 30
0.0
 40
0.003
 41
0.003
  0
VERTEX
  5
2AD5
  8
OUTLINE
  6
CONTINUOUS
 62
     2
 10
0.8073877144503889
 20
2.622009537251489
 30
0.0
 40
0.003
 41
0.003
  0
VERTEX
  5
2AD6
  8
OUTLINE
  6
CONTINUOUS
 62
     2
 10
0.7784757144503889
 20
2.61982153725149
 30
0.0
 40
0.003
 41
0.003
  0
VERTEX
  5
2AD7
  8
OUTLINE
  6
CONTINUOUS
 62
     2
 10
0.7526737144503892
 20
2.61488753725149
 30
0.0
 40
0.003
 41
0.003
  0
VERTEX
  5
2AD8
  8
OUTLINE
  6
CONTINUOUS
 62
     2
 10
0.7306817144503892
 20
2.60676453725149
 30
0.0
 40
0.003
 41
0.003
  0
VERTEX
  5
2AD9
  8
OUTLINE
  6
CONTINUOUS
 62
     2
 10
0.7131957144503893
 20
2.595012537251489
 30
0.0
 40
0.003
 41
0.003
  0
VERTEX
  5
2ADA
  8
OUTLINE
  6
CONTINUOUS
 62
     2
 10
0.6906237144503891
 20
2.593957537251489
 30
0.0
 40
0.003
 41
0.003
  0
VERTEX
  5
2ADB
  8
OUTLINE
  6
CONTINUOUS
 62
     2
 10
0.6667667144503895
 20
2.590864537251489
 30
0.0
 40
0.003
 41
0.003
  0
VERTEX
  5
2ADC
  8
OUTLINE
  6
CONTINUOUS
 62
     2
 10
0.6417877144503894
 20
2.585840537251489
 30
0.0
 40
0.003
 41
0.003
  0
VERTEX
  5
2ADD
  8
OUTLINE
  6
CONTINUOUS
 62
     2
 10
0.6158487144503893
 20
2.578993537251489
 30
0.0
 40
0.003
 41
0.003
  0
VERTEX
  5
2ADE
  8
OUTLINE
  6
CONTINUOUS
 62
     2
 10
0.5891127144503892
 20
2.570432537251489
 30
0.0
 40
0.003
 41
0.003
  0
VERTEX
  5
2ADF
  8
OUTLINE
  6
CONTINUOUS
 62
     2
 10
0.5617427144503893
 20
2.560262537251489
 30
0.0
 40
0.003
 41
0.003
  0
VERTEX
  5
2AE0
  8
OUTLINE
  6
CONTINUOUS
 62
     2
 10
0.5339017144503893
 20
2.548592537251489
 30
0.0
 40
0.003
 41
0.003
  0
VERTEX
  5
2AE1
  8
OUTLINE
  6
CONTINUOUS
 62
     2
 10
0.5057517144503891
 20
2.535531537251489
 30
0.0
 40
0.003
 41
0.003
  0
VERTEX
  5
2AE2
  8
OUTLINE
  6
CONTINUOUS
 62
     2
 10
0.4774557144503895
 20
2.521184537251489
 30
0.0
 40
0.003
 41
0.003
  0
VERTEX
  5
2AE3
  8
OUTLINE
  6
CONTINUOUS
 62
     2
 10
0.4491767144503891
 20
2.505660537251489
 30
0.0
 40
0.003
 41
0.003
  0
VERTEX
  5
2AE4
  8
OUTLINE
  6
CONTINUOUS
 62
     2
 10
0.421077714450389
 20
2.489067537251489
 30
0.0
 40
0.003
 41
0.003
  0
VERTEX
  5
2AE5
  8
OUTLINE
  6
CONTINUOUS
 62
     2
 10
0.3933207144503892
 20
2.471512537251489
 30
0.0
 40
0.003
 41
0.003
  0
VERTEX
  5
2AE6
  8
OUTLINE
  6
CONTINUOUS
 62
     2
 10
0.3660687144503889
 20
2.453103537251489
 30
0.0
 40
0.003
 41
0.003
  0
VERTEX
  5
2AE7
  8
OUTLINE
  6
CONTINUOUS
 62
     2
 10
0.3394857144503893
 20
2.433947537251489
 30
0.0
 40
0.003
 41
0.003
  0
VERTEX
  5
2AE8
  8
OUTLINE
  6
CONTINUOUS
 62
     2
 10
0.3137327144503894
 20
2.414153537251489
 30
0.0
 40
0.003
 41
0.003
  0
VERTEX
  5
2AE9
  8
OUTLINE
  6
CONTINUOUS
 62
     2
 10
0.288973714450389
 20
2.393827537251489
 30
0.0
 40
0.003
 41
0.003
  0
VERTEX
  5
2AEA
  8
OUTLINE
  6
CONTINUOUS
 62
     2
 10
0.2653707144503894
 20
2.373077537251489
 30
0.0
 40
0.003
 41
0.003
  0
VERTEX
  5
2AEB
  8
OUTLINE
  6
CONTINUOUS
 62
     2
 10
0.2430867144503894
 20
2.352012537251489
 30
0.0
 40
0.003
 41
0.003
  0
VERTEX
  5
2AEC
  8
OUTLINE
  6
CONTINUOUS
 62
     2
 10
0.2222837144503891
 20
2.330738537251489
 30
0.0
 40
0.003
 41
0.003
  0
VERTEX
  5
2AED
  8
OUTLINE
  6
CONTINUOUS
 62
     2
 10
0.2031267144503892
 20
2.30936453725149
 30
0.0
 40
0.003
 41
0.003
  0
VERTEX
  5
2AEE
  8
OUTLINE
  6
CONTINUOUS
 62
     2
 10
0.1857757144503891
 20
2.287996537251489
 30
0.0
 40
0.003
 41
0.003
  0
VERTEX
  5
2AEF
  8
OUTLINE
  6
CONTINUOUS
 62
     2
 10
0.1703957144503892
 20
2.26674353725149
 30
0.0
 40
0.003
 41
0.003
  0
VERTEX
  5
2AF0
  8
OUTLINE
  6
CONTINUOUS
 62
     2
 10
0.1571477144503892
 20
2.245713537251489
 30
0.0
 40
0.003
 41
0.003
  0
VERTEX
  5
2AF1
  8
OUTLINE
  6
CONTINUOUS
 62
     2
 10
0.1461957144503892
 20
2.22501253725149
 30
0.0
 40
0.003
 41
0.003
  0
VERTEX
  5
2AF2
  8
OUTLINE
  6
CONTINUOUS
 62
     2
 10
0.1199947144503892
 20
2.20652553725149
 30
0.0
 40
0.003
 41
0.003
  0
VERTEX
  5
2AF3
  8
OUTLINE
  6
CONTINUOUS
 62
     2
 10
0.0936887144503893
 20
2.187933537251489
 30
0.0
 40
0.003
 41
0.003
  0
VERTEX
  5
2AF4
  8
OUTLINE
  6
CONTINUOUS
 62
     2
 10
0.067294714450389
 20
2.16925453725149
 30
0.0
 40
0.003
 41
0.003
  0
VERTEX
  5
2AF5
  8
OUTLINE
  6
CONTINUOUS
 62
     2
 10
0.0408317144503894
 20
2.150505537251489
 30
0.0
 40
0.003
 41
0.003
  0
VERTEX
  5
2AF6
  8
OUTLINE
  6
CONTINUOUS
 62
     2
 10
0.0143157144503894
 20
2.131703537251489
 30
0.0
 40
0.003
 41
0.003
  0
VERTEX
  5
2AF7
  8
OUTLINE
  6
CONTINUOUS
 62
     2
 10
-0.0122352855496111
 20
2.112866537251489
 30
0.0
 40
0.003
 41
0.003
  0
VERTEX
  5
2AF8
  8
OUTLINE
  6
CONTINUOUS
 62
     2
 10
-0.0388042855496109
 20
2.094012537251489
 30
0.0
 40
0.003
 41
0.003
  0
VERTEX
  5
2AF9
  8
OUTLINE
  6
CONTINUOUS
 62
     2
 10
-0.0058202855496106
 20
2.08362153725149
 30
0.0
 40
0.003
 41
0.003
  0
VERTEX
  5
2AFA
  8
OUTLINE
  6
CONTINUOUS
 62
     2
 10
0.0353207144503891
 20
2.074637537251489
 30
0.0
 40
0.003
 41
0.003
  0
VERTEX
  5
2AFB
  8
OUTLINE
  6
CONTINUOUS
 62
     2
 10
0.074398714450389
 20
2.066590537251489
 30
0.0
 40
0.003
 41
0.003
  0
VERTEX
  5
2AFC
  8
OUTLINE
  6
CONTINUOUS
 62
     2
 10
0.1011957144503892
 20
2.059012537251489
 30
0.0
 40
0.003
 41
0.003
  0
VERTEX
  5
2AFD
  8
OUTLINE
  6
CONTINUOUS
 62
     2
 10
0.1058997144503895
 20
2.01901253725149
 30
0.0
 40
0.003
 41
0.003
  0
VERTEX
  5
2AFE
  8
OUTLINE
  6
CONTINUOUS
 62
     2
 10
0.1101587144503893
 20
1.979012537251489
 30
0.0
 40
0.003
 41
0.003
  0
VERTEX
  5
2AFF
  8
OUTLINE
  6
CONTINUOUS
 62
     2
 10
0.1141957144503891
 20
1.939012537251489
 30
0.0
 40
0.003
 41
0.003
  0
VERTEX
  5
2B00
  8
OUTLINE
  6
CONTINUOUS
 62
     2
 10
0.1203877144503891
 20
1.928382537251489
 30
0.0
 40
0.003
 41
0.003
  0
VERTEX
  5
2B01
  8
OUTLINE
  6
CONTINUOUS
 62
     2
 10
0.1275407144503893
 20
1.916737537251489
 30
0.0
 40
0.003
 41
0.003
  0
VERTEX
  5
2B02
  8
OUTLINE
  6
CONTINUOUS
 62
     2
 10
0.1356647144503889
 20
1.904012537251489
 30
0.0
 40
0.003
 41
0.003
  0
VERTEX
  5
2B03
  8
OUTLINE
  6
CONTINUOUS
 62
     2
 10
0.1447687144503891
 20
1.890144537251489
 30
0.0
 40
0.003
 41
0.003
  0
VERTEX
  5
2B04
  8
OUTLINE
  6
CONTINUOUS
 62
     2
 10
0.1548607144503889
 20
1.875070537251489
 30
0.0
 40
0.003
 41
0.003
  0
VERTEX
  5
2B05
  8
OUTLINE
  6
CONTINUOUS
 62
     2
 10
0.1659507144503891
 20
1.858726537251489
 30
0.0
 40
0.003
 41
0.003
  0
VERTEX
  5
2B06
  8
OUTLINE
  6
CONTINUOUS
 62
     2
 10
0.1780477144503889
 20
1.84104953725149
 30
0.0
 40
0.003
 41
0.003
  0
VERTEX
  5
2B07
  8
OUTLINE
  6
CONTINUOUS
 62
     2
 10
0.1911597144503894
 20
1.821975537251489
 30
0.0
 40
0.003
 41
0.003
  0
VERTEX
  5
2B08
  8
OUTLINE
  6
CONTINUOUS
 62
     2
 10
0.2052977144503894
 20
1.801441537251489
 30
0.0
 40
0.003
 41
0.003
  0
VERTEX
  5
2B09
  8
OUTLINE
  6
CONTINUOUS
 62
     2
 10
0.2204697144503891
 20
1.779382537251489
 30
0.0
 40
0.003
 41
0.003
  0
VERTEX
  5
2B0A
  8
OUTLINE
  6
CONTINUOUS
 62
     2
 10
0.2366837144503893
 20
1.755737537251489
 30
0.0
 40
0.003
 41
0.003
  0
VERTEX
  5
2B0B
  8
OUTLINE
  6
CONTINUOUS
 62
     2
 10
0.2539507144503892
 20
1.730441537251489
 30
0.0
 40
0.003
 41
0.003
  0
VERTEX
  5
2B0C
  8
OUTLINE
  6
CONTINUOUS
 62
     2
 10
0.2722787144503891
 20
1.703430537251489
 30
0.0
 40
0.003
 41
0.003
  0
VERTEX
  5
2B0D
  8
OUTLINE
  6
CONTINUOUS
 62
     2
 10
0.2916767144503893
 20
1.67464253725149
 30
0.0
 40
0.003
 41
0.003
  0
VERTEX
  5
2B0E
  8
OUTLINE
  6
CONTINUOUS
 62
     2
 10
0.3121547144503891
 20
1.644012537251489
 30
0.0
 40
0.003
 41
0.003
  0
VERTEX
  5
2B0F
  8
OUTLINE
  6
CONTINUOUS
 62
     2
 10
0.3337207144503891
 20
1.61147853725149
 30
0.0
 40
0.003
 41
0.003
  0
VERTEX
  5
2B10
  8
OUTLINE
  6
CONTINUOUS
 62
     2
 10
0.3563847144503889
 20
1.576975537251489
 30
0.0
 40
0.003
 41
0.003
  0
VERTEX
  5
2B11
  8
OUTLINE
  6
CONTINUOUS
 62
     2
 10
0.3801547144503892
 20
1.54044153725149
 30
0.0
 40
0.003
 41
0.003
  0
VERTEX
  5
2B12
  8
OUTLINE
  6
CONTINUOUS
 62
     2
 10
0.4050407144503891
 20
1.501811537251489
 30
0.0
 40
0.003
 41
0.003
  0
VERTEX
  5
2B13
  8
OUTLINE
  6
CONTINUOUS
 62
     2
 10
0.4310517144503892
 20
1.46102353725149
 30
0.0
 40
0.003
 41
0.003
  0
VERTEX
  5
2B14
  8
OUTLINE
  6
CONTINUOUS
 62
     2
 10
0.4581957144503894
 20
1.418012537251489
 30
0.0
 40
0.003
 41
0.003
  0
VERTEX
  5
2B15
  8
OUTLINE
  6
CONTINUOUS
 62
     2
 10
0.4581957144503894
 20
1.418012537251489
 30
0.0
 40
0.003
 41
0.003
  0
VERTEX
  5
2B16
  8
OUTLINE
  6
CONTINUOUS
 62
     2
 10
0.492117714450389
 20
1.403059537251489
 30
0.0
 40
0.003
 41
0.003
  0
VERTEX
  5
2B17
  8
OUTLINE
  6
CONTINUOUS
 62
     2
 10
0.5308207144503889
 20
1.397387537251489
 30
0.0
 40
0.003
 41
0.003
  0
VERTEX
  5
2B18
  8
OUTLINE
  6
CONTINUOUS
 62
     2
 10
0.5697117144503894
 20
1.396778537251489
 30
0.0
 40
0.003
 41
0.003
  0
VERTEX
  5
2B19
  8
OUTLINE
  6
CONTINUOUS
 62
     2
 10
0.6041957144503893
 20
1.397012537251489
 30
0.0
 40
0.003
 41
0.003
  0
VERTEX
  5
2B1A
  8
OUTLINE
  6
CONTINUOUS
 62
     2
 10
0.6078997144503893
 20
1.424975537251489
 30
0.0
 40
0.003
 41
0.003
  0
VERTEX
  5
2B1B
  8
OUTLINE
  6
CONTINUOUS
 62
     2
 10
0.6111587144503892
 20
1.452716537251489
 30
0.0
 40
0.003
 41
0.003
  0
VERTEX
  5
2B1C
  8
OUTLINE
  6
CONTINUOUS
 62
     2
 10
0.6141957144503891
 20
1.480012537251489
 30
0.0
 40
0.003
 41
0.003
  0
VERTEX
  5
2B1D
  8
OUTLINE
  6
CONTINUOUS
 62
     2
 10
0.638899714450389
 20
1.471716537251489
 30
0.0
 40
0.003
 41
0.003
  0
VERTEX
  5
2B1E
  8
OUTLINE
  6
CONTINUOUS
 62
     2
 10
0.6631587144503892
 20
1.462975537251489
 30
0.0
 40
0.003
 41
0.003
  0
VERTEX
  5
2B1F
  8
OUTLINE
  6
CONTINUOUS
 62
     2
 10
0.6871957144503891
 20
1.454012537251489
 30
0.0
 40
0.003
 41
0.003
  0
VERTEX
  5
2B20
  8
OUTLINE
  6
CONTINUOUS
 62
     2
 10
0.6931957144503889
 20
1.457975537251489
 30
0.0
 40
0.003
 41
0.003
  0
VERTEX
  5
2B21
  8
OUTLINE
  6
CONTINUOUS
 62
     2
 10
0.6991957144503891
 20
1.461716537251489
 30
0.0
 40
0.003
 41
0.003
  0
VERTEX
  5
2B22
  8
OUTLINE
  6
CONTINUOUS
 62
     2
 10
0.7051957144503893
 20
1.465012537251489
 30
0.0
 40
0.003
 41
0.003
  0
VERTEX
  5
2B23
  8
OUTLINE
  6
CONTINUOUS
 62
     2
 10
0.7104457144503895
 20
1.504590537251489
 30
0.0
 40
0.003
 41
0.003
  0
VERTEX
  5
2B24
  8
OUTLINE
  6
CONTINUOUS
 62
     2
 10
0.7156957144503893
 20
1.543887537251489
 30
0.0
 40
0.003
 41
0.003
  0
VERTEX
  5
2B25
  8
OUTLINE
  6
CONTINUOUS
 62
     2
 10
0.720945714450389
 20
1.582996537251489
 30
0.0
 40
0.003
 41
0.003
  0
VERTEX
  5
2B26
  8
OUTLINE
  6
CONTINUOUS
 62
     2
 10
0.7261957144503892
 20
1.622012537251489
 30
0.0
 40
0.003
 41
0.003
  0
VERTEX
  5
2B27
  8
OUTLINE
  6
CONTINUOUS
 62
     2
 10
0.6947797144503891
 20
1.644780537251489
 30
0.0
 40
0.003
 41
0.003
  0
VERTEX
  5
2B28
  8
OUTLINE
  6
CONTINUOUS
 62
     2
 10
0.6762277144503894
 20
1.669516537251489
 30
0.0
 40
0.003
 41
0.003
  0
VERTEX
  5
2B29
  8
OUTLINE
  6
CONTINUOUS
 62
     2
 10
0.6670837144503894
 20
1.697468537251489
 30
0.0
 40
0.003
 41
0.003
  0
VERTEX
  5
2B2A
  8
OUTLINE
  6
CONTINUOUS
 62
     2
 10
0.6638917144503891
 20
1.729884537251489
 30
0.0
 40
0.003
 41
0.003
  0
VERTEX
  5
2B2B
  8
OUTLINE
  6
CONTINUOUS
 62
     2
 10
0.6631957144503895
 20
1.768012537251489
 30
0.0
 40
0.003
 41
0.003
  0
VERTEX
  5
2B2C
  8
OUTLINE
  6
CONTINUOUS
 62
     2
 10
0.6698997144503891
 20
1.772975537251489
 30
0.0
 40
0.003
 41
0.003
  0
VERTEX
  5
2B2D
  8
OUTLINE
  6
CONTINUOUS
 62
     2
 10
0.6761587144503891
 20
1.777716537251489
 30
0.0
 40
0.003
 41
0.003
  0
VERTEX
  5
2B2E
  8
OUTLINE
  6
CONTINUOUS
 62
     2
 10
0.6821957144503892
 20
1.782012537251489
 30
0.0
 40
0.003
 41
0.003
  0
VERTEX
  5
2B2F
  8
OUTLINE
  6
CONTINUOUS
 62
     2
 10
0.7127267144503895
 20
1.815684537251489
 30
0.0
 40
0.003
 41
0.003
  0
VERTEX
  5
2B30
  8
OUTLINE
  6
CONTINUOUS
 62
     2
 10
0.7344457144503891
 20
1.842137537251489
 30
0.0
 40
0.003
 41
0.003
  0
VERTEX
  5
2B31
  8
OUTLINE
  6
CONTINUOUS
 62
     2
 10
0.7505397144503894
 20
1.868778537251489
 30
0.0
 40
0.003
 41
0.003
  0
VERTEX
  5
2B32
  8
OUTLINE
  6
CONTINUOUS
 62
     2
 10
0.7641957144503895
 20
1.903012537251489
 30
0.0
 40
0.003
 41
0.003
  0
VERTEX
  5
2B33
  8
OUTLINE
  6
CONTINUOUS
 62
     2
 10
0.793834714450389
 20
1.899409537251489
 30
0.0
 40
0.003
 41
0.003
  0
VERTEX
  5
2B34
  8
OUTLINE
  6
CONTINUOUS
 62
     2
 10
0.8167487144503891
 20
1.889266537251489
 30
0.0
 40
0.003
 41
0.003
  0
VERTEX
  5
2B35
  8
OUTLINE
  6
CONTINUOUS
 62
     2
 10
0.8337477144503893
 20
1.873578537251489
 30
0.0
 40
0.003
 41
0.003
  0
VERTEX
  5
2B36
  8
OUTLINE
  6
CONTINUOUS
 62
     2
 10
0.8456447144503891
 20
1.853341537251489
 30
0.0
 40
0.003
 41
0.003
  0
VERTEX
  5
2B37
  8
OUTLINE
  6
CONTINUOUS
 62
     2
 10
0.8532487144503893
 20
1.829552537251489
 30
0.0
 40
0.003
 41
0.003
  0
VERTEX
  5
2B38
  8
OUTLINE
  6
CONTINUOUS
 62
     2
 10
0.857373714450389
 20
1.803207537251489
 30
0.0
 40
0.003
 41
0.003
  0
VERTEX
  5
2B39
  8
OUTLINE
  6
CONTINUOUS
 62
     2
 10
0.8588297144503891
 20
1.775303537251489
 30
0.0
 40
0.003
 41
0.003
  0
VERTEX
  5
2B3A
  8
OUTLINE
  6
CONTINUOUS
 62
     2
 10
0.858428714450389
 20
1.746835537251489
 30
0.0
 40
0.003
 41
0.003
  0
VERTEX
  5
2B3B
  8
OUTLINE
  6
CONTINUOUS
 62
     2
 10
0.8569817144503893
 20
1.718799537251489
 30
0.0
 40
0.003
 41
0.003
  0
VERTEX
  5
2B3C
  8
OUTLINE
  6
CONTINUOUS
 62
     2
 10
0.8552997144503891
 20
1.692193537251489
 30
0.0
 40
0.003
 41
0.003
  0
VERTEX
  5
2B3D
  8
OUTLINE
  6
CONTINUOUS
 62
     2
 10
0.8541957144503893
 20
1.668012537251489
 30
0.0
 40
0.003
 41
0.003
  0
VERTEX
  5
2B3E
  8
OUTLINE
  6
CONTINUOUS
 62
     2
 10
0.8508997144503891
 20
1.664716537251489
 30
0.0
 40
0.003
 41
0.003
  0
VERTEX
  5
2B3F
  8
OUTLINE
  6
CONTINUOUS
 62
     2
 10
0.8471587144503889
 20
1.660975537251489
 30
0.0
 40
0.003
 41
0.003
  0
VERTEX
  5
2B40
  8
OUTLINE
  6
CONTINUOUS
 62
     2
 10
0.8431957144503892
 20
1.657012537251489
 30
0.0
 40
0.003
 41
0.003
  0
VERTEX
  5
2B41
  8
OUTLINE
  6
CONTINUOUS
 62
     2
 10
0.8488997144503889
 20
1.612012537251489
 30
0.0
 40
0.003
 41
0.003
  0
VERTEX
  5
2B42
  8
OUTLINE
  6
CONTINUOUS
 62
     2
 10
0.854158714450389
 20
1.567012537251489
 30
0.0
 40
0.003
 41
0.003
  0
VERTEX
  5
2B43
  8
OUTLINE
  6
CONTINUOUS
 62
     2
 10
0.8591957144503892
 20
1.522012537251489
 30
0.0
 40
0.003
 41
0.003
  0
VERTEX
  5
2B44
  8
OUTLINE
  6
CONTINUOUS
 62
     2
 10
0.8682537144503892
 20
1.498615537251489
 30
0.0
 40
0.003
 41
0.003
  0
VERTEX
  5
2B45
  8
OUTLINE
  6
CONTINUOUS
 62
     2
 10
0.881090714450389
 20
1.468064537251489
 30
0.0
 40
0.003
 41
0.003
  0
VERTEX
  5
2B46
  8
OUTLINE
  6
CONTINUOUS
 62
     2
 10
0.8954847144503892
 20
1.433245537251489
 30
0.0
 40
0.003
 41
0.003
  0
VERTEX
  5
2B47
  8
OUTLINE
  6
CONTINUOUS
 62
     2
 10
0.9092127144503892
 20
1.397044537251489
 30
0.0
 40
0.003
 41
0.003
  0
VERTEX
  5
2B48
  8
OUTLINE
  6
CONTINUOUS
 62
     2
 10
0.9200557144503891
 20
1.362347537251489
 30
0.0
 40
0.003
 41
0.003
  0
VERTEX
  5
2B49
  8
OUTLINE
  6
CONTINUOUS
 62
     2
 10
0.9257907144503892
 20
1.332041537251489
 30
0.0
 40
0.003
 41
0.003
  0
VERTEX
  5
2B4A
  8
OUTLINE
  6
CONTINUOUS
 62
     2
 10
0.9241957144503892
 20
1.309012537251489
 30
0.0
 40
0.003
 41
0.003
  0
VERTEX
  5
2B4B
  8
OUTLINE
  6
CONTINUOUS
 62
     2
 10
0.898002714450389
 20
1.298890537251489
 30
0.0
 40
0.003
 41
0.003
  0
VERTEX
  5
2B4C
  8
OUTLINE
  6
CONTINUOUS
 62
     2
 10
0.8734667144503892
 20
1.29169653725149
 30
0.0
 40
0.003
 41
0.003
  0
VERTEX
  5
2B4D
  8
OUTLINE
  6
CONTINUOUS
 62
     2
 10
0.8506507144503894
 20
1.286745537251489
 30
0.0
 40
0.003
 41
0.003
  0
VERTEX
  5
2B4E
  8
OUTLINE
  6
CONTINUOUS
 62
     2
 10
0.8296177144503893
 20
1.28335653725149
 30
0.0
 40
0.003
 41
0.003
  0
VERTEX
  5
2B4F
  8
OUTLINE
  6
CONTINUOUS
 62
     2
 10
0.8104297144503891
 20
1.280845537251489
 30
0.0
 40
0.003
 41
0.003
  0
VERTEX
  5
2B50
  8
OUTLINE
  6
CONTINUOUS
 62
     2
 10
0.7931507144503893
 20
1.278532537251489
 30
0.0
 40
0.003
 41
0.003
  0
VERTEX
  5
2B51
  8
OUTLINE
  6
CONTINUOUS
 62
     2
 10
0.7778437144503894
 20
1.27573153725149
 30
0.0
 40
0.003
 41
0.003
  0
VERTEX
  5
2B52
  8
OUTLINE
  6
CONTINUOUS
 62
     2
 10
0.7645707144503895
 20
1.271762537251489
 30
0.0
 40
0.003
 41
0.003
  0
VERTEX
  5
2B53
  8
OUTLINE
  6
CONTINUOUS
 62
     2
 10
0.7533957144503889
 20
1.265941537251489
 30
0.0
 40
0.003
 41
0.003
  0
VERTEX
  5
2B54
  8
OUTLINE
  6
CONTINUOUS
 62
     2
 10
0.7443817144503893
 20
1.257586537251489
 30
0.0
 40
0.003
 41
0.003
  0
VERTEX
  5
2B55
  8
OUTLINE
  6
CONTINUOUS
 62
     2
 10
0.7375907144503895
 20
1.246014537251489
 30
0.0
 40
0.003
 41
0.003
  0
VERTEX
  5
2B56
  8
OUTLINE
  6
CONTINUOUS
 62
     2
 10
0.7330867144503892
 20
1.23054353725149
 30
0.0
 40
0.003
 41
0.003
  0
VERTEX
  5
2B57
  8
OUTLINE
  6
CONTINUOUS
 62
     2
 10
0.7309317144503891
 20
1.210490537251489
 30
0.0
 40
0.003
 41
0.003
  0
VERTEX
  5
2B58
  8
OUTLINE
  6
CONTINUOUS
 62
     2
 10
0.7311897144503892
 20
1.185172537251489
 30
0.0
 40
0.003
 41
0.003
  0
VERTEX
  5
2B59
  8
OUTLINE
  6
CONTINUOUS
 62
     2
 10
0.7339237144503894
 20
1.153907537251489
 30
0.0
 40
0.003
 41
0.003
  0
VERTEX
  5
2B5A
  8
OUTLINE
  6
CONTINUOUS
 62
     2
 10
0.7391957144503891
 20
1.116012537251489
 30
0.0
 40
0.003
 41
0.003
  0
VERTEX
  5
2B5B
  8
OUTLINE
  6
CONTINUOUS
 62
     2
 10
0.7541647144503889
 20
1.10347553725149
 30
0.0
 40
0.003
 41
0.003
  0
VERTEX
  5
2B5C
  8
OUTLINE
  6
CONTINUOUS
 62
     2
 10
0.7719457144503892
 20
1.08059053725149
 30
0.0
 40
0.003
 41
0.003
  0
VERTEX
  5
2B5D
  8
OUTLINE
  6
CONTINUOUS
 62
     2
 10
0.7912267144503895
 20
1.050323537251489
 30
0.0
 40
0.003
 41
0.003
  0
VERTEX
  5
2B5E
  8
OUTLINE
  6
CONTINUOUS
 62
     2
 10
0.810695714450389
 20
1.015637537251489
 30
0.0
 40
0.003
 41
0.003
  0
VERTEX
  5
2B5F
  8
OUTLINE
  6
CONTINUOUS
 62
     2
 10
0.8290397144503894
 20
0.9794985372514893
 30
0.0
 40
0.003
 41
0.003
  0
VERTEX
  5
2B60
  8
OUTLINE
  6
CONTINUOUS
 62
     2
 10
0.8365902783813377
 20
0.9619094453439743
 30
0.0
 40
0.003
 41
0.003
  0
VERTEX
  5
2B61
  8
OUTLINE
  6
CONTINUOUS
 62
     2
 10
0.8442907853054131
 20
0.9426581780337853
 30
0.0
 40
0.003
 41
0.003
  0
VERTEX
  5
2B62
  8
OUTLINE
  6
CONTINUOUS
 62
     2
 10
0.8545581278708472
 20
0.9195566572615583
 30
0.0
 40
0.003
 41
0.003
  0
VERTEX
  5
2B63
  8
OUTLINE
  6
CONTINUOUS
 62
     2
 10
0.8648254704362812
 20
0.8964551364893323
 30
0.0
 40
0.003
 41
0.003
  0
VERTEX
  5
2B64
  8
OUTLINE
  6
CONTINUOUS
 62
     2
 10
0.8763762308223946
 20
0.8772038691791433
 30
0.0
 40
0.003
 41
0.003
  0
VERTEX
  5
2B65
  8
OUTLINE
  6
CONTINUOUS
 62
     2
 10
0.8879269912085079
 20
0.8579526018689543
 30
0.0
 40
0.003
 41
0.003
  0
VERTEX
  5
2B66
  8
OUTLINE
  6
CONTINUOUS
 62
     2
 10
0.8994777515946213
 20
0.8412681702001235
 30
0.0
 40
0.003
 41
0.003
  0
VERTEX
  5
2B67
  8
OUTLINE
  6
CONTINUOUS
 62
     2
 10
0.9123557144503893
 20
0.8229485372514893
 30
0.0
 40
0.003
 41
0.003
  0
VERTEX
  5
2B68
  8
OUTLINE
  6
CONTINUOUS
 62
     2
 10
0.9269827144503893
 20
0.8028885372514893
 30
0.0
 40
0.003
 41
0.003
  0
VERTEX
  5
2B69
  8
OUTLINE
  6
CONTINUOUS
 62
     2
 10
0.9433517144503893
 20
0.7779965372514894
 30
0.0
 40
0.003
 41
0.003
  0
VERTEX
  5
2B6A
  8
OUTLINE
  6
CONTINUOUS
 62
     2
 10
0.9609987144503891
 20
0.7491615372514893
 30
0.0
 40
0.003
 41
0.003
  0
VERTEX
  5
2B6B
  8
OUTLINE
  6
CONTINUOUS
 62
     2
 10
0.9794577144503891
 20
0.7172725372514894
 30
0.0
 40
0.003
 41
0.003
  0
VERTEX
  5
2B6C
  8
OUTLINE
  6
CONTINUOUS
 62
     2
 10
0.9982617144503889
 20
0.6832175372514893
 30
0.0
 40
0.003
 41
0.003
  0
VERTEX
  5
2B6D
  8
OUTLINE
  6
CONTINUOUS
 62
     2
 10
1.016945714450389
 20
0.6478875372514894
 30
0.0
 40
0.003
 41
0.003
  0
VERTEX
  5
2B6E
  8
OUTLINE
  6
CONTINUOUS
 62
     2
 10
1.03504371445039
 20
0.6121705372514894
 30
0.0
 40
0.003
 41
0.003
  0
VERTEX
  5
2B6F
  8
OUTLINE
  6
CONTINUOUS
 62
     2
 10
1.052090714450389
 20
0.5769555372514894
 30
0.0
 40
0.003
 41
0.003
  0
VERTEX
  5
2B70
  8
OUTLINE
  6
CONTINUOUS
 62
     2
 10
1.067618714450389
 20
0.5431325372514892
 30
0.0
 40
0.003
 41
0.003
  0
VERTEX
  5
2B71
  8
OUTLINE
  6
CONTINUOUS
 62
     2
 10
1.081164714450389
 20
0.5115905372514893
 30
0.0
 40
0.003
 41
0.003
  0
VERTEX
  5
2B72
  8
OUTLINE
  6
CONTINUOUS
 62
     2
 10
1.092260714450389
 20
0.4832185372514894
 30
0.0
 40
0.003
 41
0.003
  0
VERTEX
  5
2B73
  8
OUTLINE
  6
CONTINUOUS
 62
     2
 10
1.100441714450389
 20
0.4589055372514894
 30
0.0
 40
0.003
 41
0.003
  0
VERTEX
  5
2B74
  8
OUTLINE
  6
CONTINUOUS
 62
     2
 10
1.105241714450389
 20
0.4395405372514893
 30
0.0
 40
0.003
 41
0.003
  0
VERTEX
  5
2B75
  8
OUTLINE
  6
CONTINUOUS
 62
     2
 10
1.106195714450389
 20
0.4260125372514894
 30
0.0
 40
0.003
 41
0.003
  0
VERTEX
  5
2B76
  8
OUTLINE
  6
CONTINUOUS
 62
     2
 10
1.081788714450389
 20
0.4244935372514893
 30
0.0
 40
0.003
 41
0.003
  0
VERTEX
  5
2B77
  8
OUTLINE
  6
CONTINUOUS
 62
     2
 10
1.064936714450389
 20
0.4278645372514893
 30
0.0
 40
0.003
 41
0.003
  0
VERTEX
  5
2B78
  8
OUTLINE
  6
CONTINUOUS
 62
     2
 10
1.041195714450389
 20
0.4390125372514893
 30
0.0
 40
0.003
 41
0.003
  0
VERTEX
  5
2B79
  8
OUTLINE
  6
CONTINUOUS
 62
     2
 10
1.021911714450389
 20
0.4473675372514894
 30
0.0
 40
0.003
 41
0.003
  0
VERTEX
  5
2B7A
  8
OUTLINE
  6
CONTINUOUS
 62
     2
 10
0.9973397144503893
 20
0.4577715372514895
 30
0.0
 40
0.003
 41
0.003
  0
VERTEX
  5
2B7B
  8
OUTLINE
  6
CONTINUOUS
 62
     2
 10
0.968648714450389
 20
0.4699815372514893
 30
0.0
 40
0.003
 41
0.003
  0
VERTEX
  5
2B7C
  8
OUTLINE
  6
CONTINUOUS
 62
     2
 10
0.9370107144503894
 20
0.4837535372514894
 30
0.0
 40
0.003
 41
0.003
  0
VERTEX
  5
2B7D
  8
OUTLINE
  6
CONTINUOUS
 62
     2
 10
0.9035947144503891
 20
0.4988445372514894
 30
0.0
 40
0.003
 41
0.003
  0
VERTEX
  5
2B7E
  8
OUTLINE
  6
CONTINUOUS
 62
     2
 10
0.869570714450389
 20
0.5150125372514893
 30
0.0
 40
0.003
 41
0.003
  0
VERTEX
  5
2B7F
  8
OUTLINE
  6
CONTINUOUS
 62
     2
 10
0.8361097144503891
 20
0.5320135372514894
 30
0.0
 40
0.003
 41
0.003
  0
VERTEX
  5
2B80
  8
OUTLINE
  6
CONTINUOUS
 62
     2
 10
0.8043807144503892
 20
0.5496055372514894
 30
0.0
 40
0.003
 41
0.003
  0
VERTEX
  5
2B81
  8
OUTLINE
  6
CONTINUOUS
 62
     2
 10
0.7755547144503892
 20
0.5675435372514894
 30
0.0
 40
0.003
 41
0.003
  0
VERTEX
  5
2B82
  8
OUTLINE
  6
CONTINUOUS
 62
     2
 10
0.7508017144503891
 20
0.5855865372514895
 30
0.0
 40
0.003
 41
0.003
  0
VERTEX
  5
2B83
  8
OUTLINE
  6
CONTINUOUS
 62
     2
 10
0.7387493830841341
 20
0.5935223861120693
 30
0.0
 40
0.003
 41
0.003
  0
VERTEX
  5
2B84
  8
OUTLINE
  6
CONTINUOUS
 62
     2
 10
0.72126983114231
 20
0.6027477051924763
 30
0.0
 40
0.003
 41
0.003
  0
VERTEX
  5
2B85
  8
OUTLINE
  6
CONTINUOUS
 62
     2
 10
0.6989348481055364
 20
0.6163429122583393
 30
0.0
 40
0.003
 41
0.003
  0
VERTEX
  5
2B86
  8
OUTLINE
  6
CONTINUOUS
 62
     2
 10
0.6824263823827019
 20
0.6250826882292513
 30
0.0
 40
0.003
 41
0.003
  0
VERTEX
  5
2B87
  8
OUTLINE
  6
CONTINUOUS
 62
     2
 10
0.6712588908643142
 20
0.6294525762147074
 30
0.0
 40
0.003
 41
0.003
  0
VERTEX
  5
2B88
  8
OUTLINE
  6
CONTINUOUS
 62
     2
 10
0.657663683798452
 20
0.6367357228571333
 30
0.0
 40
0.003
 41
0.003
  0
VERTEX
  5
2B89
  8
OUTLINE
  6
CONTINUOUS
 62
     2
 10
0.6430973905135984
 20
0.6435333263900653
 30
0.0
 40
0.003
 41
0.003
  0
VERTEX
  5
2B8A
  8
OUTLINE
  6
CONTINUOUS
 62
     2
 10
0.6299877265572311
 20
0.6517875592514824
 30
0.0
 40
0.003
 41
0.003
  0
VERTEX
  5
2B8B
  8
OUTLINE
  6
CONTINUOUS
 62
     2
 10
0.6139648039438921
 20
0.6614984214413844
 30
0.0
 40
0.003
 41
0.003
  0
VERTEX
  5
2B8C
  8
OUTLINE
  6
CONTINUOUS
 62
     2
 10
0.5930707144503895
 20
0.6777625372514893
 30
0.0
 40
0.003
 41
0.003
  0
VERTEX
  5
2B8D
  8
OUTLINE
  6
CONTINUOUS
 62
     2
 10
0.5623987144503895
 20
0.7026685372514894
 30
0.0
 40
0.003
 41
0.003
  0
VERTEX
  5
2B8E
  8
OUTLINE
  6
CONTINUOUS
 62
     2
 10
0.5377345357531613
 20
0.7236479394567574
 30
0.0
 40
0.003
 41
0.003
  0
VERTEX
  5
2B8F
  8
OUTLINE
  6
CONTINUOUS
 62
     2
 10
0.510417714450389
 20
0.7467165372514895
 30
0.0
 40
0.003
 41
0.003
  0
VERTEX
  5
2B90
  8
OUTLINE
  6
CONTINUOUS
 62
     2
 10
0.4863067144503894
 20
0.7656425372514895
 30
0.0
 40
0.003
 41
0.003
  0
VERTEX
  5
2B91
  8
OUTLINE
  6
CONTINUOUS
 62
     2
 10
0.450866673010748
 20
0.7969889553807934
 30
0.0
 40
0.003
 41
0.003
  0
VERTEX
  5
2B92
  8
OUTLINE
  6
CONTINUOUS
 62
     2
 10
0.4226692331270221
 20
0.8194187371064854
 30
0.0
 40
0.003
 41
0.003
  0
VERTEX
  5
2B93
  8
OUTLINE
  6
CONTINUOUS
 62
     2
 10
0.3992757144503889
 20
0.8354815372514894
 30
0.0
 40
0.003
 41
0.003
  0
VERTEX
  5
2B94
  8
OUTLINE
  6
CONTINUOUS
 62
     2
 10
0.3751647144503894
 20
0.8503155372514895
 30
0.0
 40
0.003
 41
0.003
  0
VERTEX
  5
2B95
  8
OUTLINE
  6
CONTINUOUS
 62
     2
 10
0.3512117144503892
 20
0.8638245372514894
 30
0.0
 40
0.003
 41
0.003
  0
VERTEX
  5
2B96
  8
OUTLINE
  6
CONTINUOUS
 62
     2
 10
0.3273567144503895
 20
0.8757175372514894
 30
0.0
 40
0.003
 41
0.003
  0
VERTEX
  5
2B97
  8
OUTLINE
  6
CONTINUOUS
 62
     2
 10
0.3035457144503893
 20
0.8856995372514893
 30
0.0
 40
0.003
 41
0.003
  0
VERTEX
  5
2B98
  8
OUTLINE
  6
CONTINUOUS
 62
     2
 10
0.2797187144503894
 20
0.8934795372514894
 30
0.0
 40
0.003
 41
0.003
  0
VERTEX
  5
2B99
  8
OUTLINE
  6
CONTINUOUS
 62
     2
 10
0.2558207144503895
 20
0.8987625372514894
 30
0.0
 40
0.003
 41
0.003
  0
VERTEX
  5
2B9A
  8
OUTLINE
  6
CONTINUOUS
 62
     2
 10
0.2317937144503892
 20
0.9012565372514894
 30
0.0
 40
0.003
 41
0.003
  0
VERTEX
  5
2B9B
  8
OUTLINE
  6
CONTINUOUS
 62
     2
 10
0.2075807144503892
 20
0.9006685372514893
 30
0.0
 40
0.003
 41
0.003
  0
VERTEX
  5
2B9C
  8
OUTLINE
  6
CONTINUOUS
 62
     2
 10
0.1831237144503892
 20
0.8967055372514894
 30
0.0
 40
0.003
 41
0.003
  0
VERTEX
  5
2B9D
  8
OUTLINE
  6
CONTINUOUS
 62
     2
 10
0.1583677144503892
 20
0.8890745372514894
 30
0.0
 40
0.003
 41
0.003
  0
VERTEX
  5
2B9E
  8
OUTLINE
  6
CONTINUOUS
 62
     2
 10
0.1332537144503894
 20
0.8774835372514893
 30
0.0
 40
0.003
 41
0.003
  0
VERTEX
  5
2B9F
  8
OUTLINE
  6
CONTINUOUS
 62
     2
 10
0.1077247144503892
 20
0.8616375372514893
 30
0.0
 40
0.003
 41
0.003
  0
VERTEX
  5
2BA0
  8
OUTLINE
  6
CONTINUOUS
 62
     2
 10
0.081724714450389
 20
0.8412445372514894
 30
0.0
 40
0.003
 41
0.003
  0
VERTEX
  5
2BA1
  8
OUTLINE
  6
CONTINUOUS
 62
     2
 10
0.0580250673579235
 20
0.8142919298548983
 30
0.0
 40
0.003
 41
0.003
  0
VERTEX
  5
2BA2
  8
OUTLINE
  6
CONTINUOUS
 62
     2
 10
0.0442037144503891
 20
0.7891095372514894
 30
0.0
 40
0.003
 41
0.003
  0
VERTEX
  5
2BA3
  8
OUTLINE
  6
CONTINUOUS
 62
     2
 10
0.0354267144503893
 20
0.7616185372514894
 30
0.0
 40
0.003
 41
0.003
  0
VERTEX
  5
2BA4
  8
OUTLINE
  6
CONTINUOUS
 62
     2
 10
0.0291647144503893
 20
0.7338715372514895
 30
0.0
 40
0.003
 41
0.003
  0
VERTEX
  5
2BA5
  8
OUTLINE
  6
CONTINUOUS
 62
     2
 10
0.0257147144503893
 20
0.7061975372514893
 30
0.0
 40
0.003
 41
0.003
  0
VERTEX
  5
2BA6
  8
OUTLINE
  6
CONTINUOUS
 62
     2
 10
0.0253747144503889
 20
0.6789265372514894
 30
0.0
 40
0.003
 41
0.003
  0
VERTEX
  5
2BA7
  8
OUTLINE
  6
CONTINUOUS
 62
     2
 10
0.0284457144503891
 20
0.6523875372514894
 30
0.0
 40
0.003
 41
0.003
  0
VERTEX
  5
2BA8
  8
OUTLINE
  6
CONTINUOUS
 62
     2
 10
0.035224714450389
 20
0.6269115372514893
 30
0.0
 40
0.003
 41
0.003
  0
VERTEX
  5
2BA9
  8
OUTLINE
  6
CONTINUOUS
 62
     2
 10
0.0460107144503894
 20
0.6028275372514893
 30
0.0
 40
0.003
 41
0.003
  0
VERTEX
  5
2BAA
  8
OUTLINE
  6
CONTINUOUS
 62
     2
 10
0.0611017144503894
 20
0.5804655372514893
 30
0.0
 40
0.003
 41
0.003
  0
VERTEX
  5
2BAB
  8
OUTLINE
  6
CONTINUOUS
 62
     2
 10
0.0807977144503891
 20
0.5601565372514894
 30
0.0
 40
0.003
 41
0.003
  0
VERTEX
  5
2BAC
  8
OUTLINE
  6
CONTINUOUS
 62
     2
 10
0.1053957144503892
 20
0.5422285372514895
 30
0.0
 40
0.003
 41
0.003
  0
VERTEX
  5
2BAD
  8
OUTLINE
  6
CONTINUOUS
 62
     2
 10
0.1374830069193394
 20
0.5269786338126135
 30
0.0
 40
0.003
 41
0.003
  0
VERTEX
  5
2BAE
  8
OUTLINE
  6
CONTINUOUS
 62
     2
 10
0.1780707144503895
 20
0.5299035372514893
 30
0.0
 40
0.003
 41
0.003
  0
VERTEX
  5
2BAF
  8
OUTLINE
  6
CONTINUOUS
 62
     2
 10
0.2134457144503892
 20
0.5403875372514893
 30
0.0
 40
0.003
 41
0.003
  0
VERTEX
  5
2BB0
  8
OUTLINE
  6
CONTINUOUS
 62
     2
 10
0.2409457144503895
 20
0.5611845372514894
 30
0.0
 40
0.003
 41
0.003
  0
VERTEX
  5
2BB1
  8
OUTLINE
  6
CONTINUOUS
 62
     2
 10
0.260195714450389
 20
0.5950125372514894
 30
0.0
 40
0.003
 41
0.003
  0
VERTEX
  5
2BB2
  8
OUTLINE
  6
CONTINUOUS
 62
     2
 10
0.2241327144503891
 20
0.5981125372514893
 30
0.0
 40
0.003
 41
0.003
  0
VERTEX
  5
2BB3
  8
OUTLINE
  6
CONTINUOUS
 62
     2
 10
0.192897714450389
 20
0.6045885372514894
 30
0.0
 40
0.003
 41
0.003
  0
VERTEX
  5
2BB4
  8
OUTLINE
  6
CONTINUOUS
 62
     2
 10
0.1665577144503891
 20
0.6142975372514894
 30
0.0
 40
0.003
 41
0.003
  0
VERTEX
  5
2BB5
  8
OUTLINE
  6
CONTINUOUS
 62
     2
 10
0.1451817144503891
 20
0.6270935372514894
 30
0.0
 40
0.003
 41
0.003
  0
VERTEX
  5
2BB6
  8
OUTLINE
  6
CONTINUOUS
 62
     2
 10
0.1288357144503891
 20
0.6428335372514893
 30
0.0
 40
0.003
 41
0.003
  0
VERTEX
  5
2BB7
  8
OUTLINE
  6
CONTINUOUS
 62
     2
 10
0.1175887144503891
 20
0.6613735372514893
 30
0.0
 40
0.003
 41
0.003
  0
VERTEX
  5
2BB8
  8
OUTLINE
  6
CONTINUOUS
 62
     2
 10
0.1115077144503891
 20
0.6825675372514894
 30
0.0
 40
0.003
 41
0.003
  0
VERTEX
  5
2BB9
  8
OUTLINE
  6
CONTINUOUS
 62
     2
 10
0.1106597144503891
 20
0.7062735372514895
 30
0.0
 40
0.003
 41
0.003
  0
VERTEX
  5
2BBA
  8
OUTLINE
  6
CONTINUOUS
 62
     2
 10
0.1151137144503891
 20
0.7323455372514893
 30
0.0
 40
0.003
 41
0.003
  0
VERTEX
  5
2BBB
  8
OUTLINE
  6
CONTINUOUS
 62
     2
 10
0.1249367144503895
 20
0.7606395372514894
 30
0.0
 40
0.003
 41
0.003
  0
VERTEX
  5
2BBC
  8
OUTLINE
  6
CONTINUOUS
 62
     2
 10
0.14352081916548
 20
0.7824735630983444
 30
0.0
 40
0.003
 41
0.003
  0
VERTEX
  5
2BBD
  8
OUTLINE
  6
CONTINUOUS
 62
     2
 10
0.1695163288690109
 20
0.8008870491383453
 30
0.0
 40
0.003
 41
0.003
  0
VERTEX
  5
2BBE
  8
OUTLINE
  6
CONTINUOUS
 62
     2
 10
0.1953367144503893
 20
0.8092505372514893
 30
0.0
 40
0.003
 41
0.003
  0
VERTEX
  5
2BBF
  8
OUTLINE
  6
CONTINUOUS
 62
     2
 10
0.2207917144503893
 20
0.8110295372514893
 30
0.0
 40
0.003
 41
0.003
  0
VERTEX
  5
2BC0
  8
OUTLINE
  6
CONTINUOUS
 62
     2
 10
0.244945714450389
 20
0.8084815372514893
 30
0.0
 40
0.003
 41
0.003
  0
VERTEX
  5
2BC1
  8
OUTLINE
  6
CONTINUOUS
 62
     2
 10
0.2678817144503891
 20
0.8020305372514893
 30
0.0
 40
0.003
 41
0.003
  0
VERTEX
  5
2BC2
  8
OUTLINE
  6
CONTINUOUS
 62
     2
 10
0.2896797144503891
 20
0.7921025372514894
 30
0.0
 40
0.003
 41
0.003
  0
VERTEX
  5
2BC3
  8
OUTLINE
  6
CONTINUOUS
 62
     2
 10
0.3029037822088894
 20
0.7842888359595854
 30
0.0
 40
0.003
 41
0.003
  0
VERTEX
  5
2BC4
  8
OUTLINE
  6
CONTINUOUS
 62
     2
 10
0.3168242171890201
 20
0.7738083931971664
 30
0.0
  0
SEQEND
  5
28BC
  8
OUTLINE
  6
CONTINUOUS
 62
     2
  0
LINE
  5
27B0
  8
OUTLINE
  6
CONTINUOUS
 62
     1
 10
2.370195714450389
 20
1.20901253725149
 30
0.0
 11
2.337083714450389
 21
1.193412537251489
 31
0.0
  0
LINE
  5
27B1
  8
OUTLINE
  6
CONTINUOUS
 62
     1
 10
2.337083714450389
 20
1.193412537251489
 30
0.0
 11
2.303779714450389
 21
1.177812537251489
 31
0.0
  0
LINE
  5
27B2
  8
OUTLINE
  6
CONTINUOUS
 62
     1
 10
2.303779714450389
 20
1.177812537251489
 30
0.0
 11
2.270331714450389
 21
1.162212537251489
 31
0.0
  0
LINE
  5
27B3
  8
OUTLINE
  6
CONTINUOUS
 62
     1
 10
2.270331714450389
 20
1.162212537251489
 30
0.0
 11
2.236787714450389
 21
1.146612537251489
 31
0.0
  0
LINE
  5
27B4
  8
OUTLINE
  6
CONTINUOUS
 62
     1
 10
2.236787714450389
 20
1.146612537251489
 30
0.0
 11
2.20319571445039
 21
1.131012537251489
 31
0.0
  0
LINE
  5
27B5
  8
OUTLINE
  6
CONTINUOUS
 62
     1
 10
2.20319571445039
 20
1.131012537251489
 30
0.0
 11
2.120675714450389
 21
1.11746753725149
 31
0.0
  0
LINE
  5
27B6
  8
OUTLINE
  6
CONTINUOUS
 62
     1
 10
2.120675714450389
 20
1.11746753725149
 30
0.0
 11
2.058664714450389
 21
1.107215537251489
 31
0.0
  0
LINE
  5
27B7
  8
OUTLINE
  6
CONTINUOUS
 62
     1
 10
2.058664714450389
 20
1.107215537251489
 30
0.0
 11
2.014230714450389
 21
1.099705537251489
 31
0.0
  0
LINE
  5
27B8
  8
OUTLINE
  6
CONTINUOUS
 62
     1
 10
2.014230714450389
 20
1.099705537251489
 30
0.0
 11
1.98444571445039
 21
1.094387537251489
 31
0.0
  0
LINE
  5
27B9
  8
OUTLINE
  6
CONTINUOUS
 62
     1
 10
1.98444571445039
 20
1.094387537251489
 30
0.0
 11
1.966379714450389
 21
1.090709537251489
 31
0.0
  0
LINE
  5
27BA
  8
OUTLINE
  6
CONTINUOUS
 62
     1
 10
1.966379714450389
 20
1.090709537251489
 30
0.0
 11
1.957101714450389
 21
1.088121537251489
 31
0.0
  0
LINE
  5
27BB
  8
OUTLINE
  6
CONTINUOUS
 62
     1
 10
1.957101714450389
 20
1.088121537251489
 30
0.0
 11
1.953683714450389
 21
1.086073537251489
 31
0.0
  0
LINE
  5
27BC
  8
OUTLINE
  6
CONTINUOUS
 62
     1
 10
1.953683714450389
 20
1.086073537251489
 30
0.0
 11
1.95319571445039
 21
1.08401253725149
 31
0.0
  0
LINE
  5
27BD
  8
OUTLINE
  6
CONTINUOUS
 62
     1
 10
2.646109977125257
 20
0.9103647390533216
 30
0.0
 11
2.712964714450389
 21
1.011336537251489
 31
0.0
  0
LINE
  5
27BE
  8
OUTLINE
  6
CONTINUOUS
 62
     1
 10
2.712964714450389
 20
1.011336537251489
 30
0.0
 11
2.700384714450389
 21
1.018921537251489
 31
0.0
  0
LINE
  5
27BF
  8
OUTLINE
  6
CONTINUOUS
 62
     1
 10
2.700384714450389
 20
1.018921537251489
 30
0.0
 11
2.681662714450389
 21
1.028649537251489
 31
0.0
  0
LINE
  5
27C0
  8
OUTLINE
  6
CONTINUOUS
 62
     1
 10
2.681662714450389
 20
1.028649537251489
 30
0.0
 11
2.658006714450389
 21
1.040404537251489
 31
0.0
  0
LINE
  5
27C1
  8
OUTLINE
  6
CONTINUOUS
 62
     1
 10
2.658006714450389
 20
1.040404537251489
 30
0.0
 11
2.630621714450389
 21
1.054068537251489
 31
0.0
  0
LINE
  5
27C2
  8
OUTLINE
  6
CONTINUOUS
 62
     1
 10
2.630621714450389
 20
1.054068537251489
 30
0.0
 11
2.600716714450389
 21
1.069524537251489
 31
0.0
  0
LINE
  5
27C3
  8
OUTLINE
  6
CONTINUOUS
 62
     1
 10
2.600716714450389
 20
1.069524537251489
 30
0.0
 11
2.56949771445039
 21
1.086654537251489
 31
0.0
  0
LINE
  5
27C4
  8
OUTLINE
  6
CONTINUOUS
 62
     1
 10
2.56949771445039
 20
1.086654537251489
 30
0.0
 11
2.538171714450389
 21
1.10534053725149
 31
0.0
  0
LINE
  5
27C5
  8
OUTLINE
  6
CONTINUOUS
 62
     1
 10
2.538171714450389
 20
1.10534053725149
 30
0.0
 11
2.507946714450389
 21
1.125466537251489
 31
0.0
  0
LINE
  5
27C6
  8
OUTLINE
  6
CONTINUOUS
 62
     1
 10
2.507946714450389
 20
1.125466537251489
 30
0.0
 11
2.48002971445039
 21
1.146913537251489
 31
0.0
  0
LINE
  5
27C7
  8
OUTLINE
  6
CONTINUOUS
 62
     1
 10
2.48002971445039
 20
1.146913537251489
 30
0.0
 11
2.455627714450389
 21
1.16956553725149
 31
0.0
  0
LINE
  5
27C8
  8
OUTLINE
  6
CONTINUOUS
 62
     1
 10
2.455627714450389
 20
1.16956553725149
 30
0.0
 11
2.435946714450389
 21
1.193304537251489
 31
0.0
  0
LINE
  5
27C9
  8
OUTLINE
  6
CONTINUOUS
 62
     1
 10
2.435946714450389
 20
1.193304537251489
 30
0.0
 11
2.422195714450389
 21
1.218012537251489
 31
0.0
  0
LINE
  5
27CA
  8
OUTLINE
  6
CONTINUOUS
 62
     1
 10
2.422195714450389
 20
1.218012537251489
 30
0.0
 11
2.402936714450389
 21
1.22101253725149
 31
0.0
  0
LINE
  5
27CB
  8
OUTLINE
  6
CONTINUOUS
 62
     1
 10
2.402936714450389
 20
1.22101253725149
 30
0.0
 11
2.389454714450389
 21
1.218679537251489
 31
0.0
  0
LINE
  5
27CC
  8
OUTLINE
  6
CONTINUOUS
 62
     1
 10
2.389454714450389
 20
1.218679537251489
 30
0.0
 11
2.370195714450389
 21
1.20901253725149
 31
0.0
  0
LINE
  5
27CD
  8
OUTLINE
  6
CONTINUOUS
 62
     1
 10
1.489195714450389
 20
0.8710125372514894
 30
0.0
 11
1.495417714450389
 21
0.8796795372514894
 31
0.0
  0
LINE
  5
27CE
  8
OUTLINE
  6
CONTINUOUS
 62
     1
 10
1.495417714450389
 20
0.8796795372514894
 30
0.0
 11
1.515639714450389
 21
0.8890125372514894
 31
0.0
  0
LINE
  5
27CF
  8
OUTLINE
  6
CONTINUOUS
 62
     1
 10
1.515639714450389
 20
0.8890125372514894
 30
0.0
 11
1.567195714450389
 21
0.9070125372514895
 31
0.0
  0
LINE
  5
27D0
  8
OUTLINE
  6
CONTINUOUS
 62
     1
 10
1.95319571445039
 20
1.08401253725149
 30
0.0
 11
1.941834714450389
 21
1.064076537251489
 31
0.0
  0
LINE
  5
27D1
  8
OUTLINE
  6
CONTINUOUS
 62
     1
 10
1.941834714450389
 20
1.064076537251489
 30
0.0
 11
1.937124714450389
 21
1.042380537251489
 31
0.0
  0
LINE
  5
27D2
  8
OUTLINE
  6
CONTINUOUS
 62
     1
 10
1.937124714450389
 20
1.042380537251489
 30
0.0
 11
1.937121714450389
 21
1.01908653725149
 31
0.0
  0
LINE
  5
27D3
  8
OUTLINE
  6
CONTINUOUS
 62
     1
 10
1.937121714450389
 20
1.01908653725149
 30
0.0
 11
1.939884714450389
 21
0.9943605372514894
 31
0.0
  0
LINE
  5
27D4
  8
OUTLINE
  6
CONTINUOUS
 62
     1
 10
1.939884714450389
 20
0.9943605372514894
 30
0.0
 11
1.943469714450389
 21
0.9683675372514893
 31
0.0
  0
LINE
  5
27D5
  8
OUTLINE
  6
CONTINUOUS
 62
     1
 10
1.943469714450389
 20
0.9683675372514893
 30
0.0
 11
1.945936714450389
 21
0.9412715372514893
 31
0.0
  0
LINE
  5
27D6
  8
OUTLINE
  6
CONTINUOUS
 62
     1
 10
1.945936714450389
 20
0.9412715372514893
 30
0.0
 11
1.945340714450389
 21
0.9132375372514894
 31
0.0
  0
LINE
  5
27D7
  8
OUTLINE
  6
CONTINUOUS
 62
     1
 10
1.945340714450389
 20
0.9132375372514894
 30
0.0
 11
1.939741714450389
 21
0.8844295372514894
 31
0.0
  0
LINE
  5
27D8
  8
OUTLINE
  6
CONTINUOUS
 62
     1
 10
1.939741714450389
 20
0.8844295372514894
 30
0.0
 11
1.927195714450389
 21
0.8550125372514894
 31
0.0
  0
LINE
  5
27D9
  8
OUTLINE
  6
CONTINUOUS
 62
     1
 10
1.927195714450389
 20
0.8550125372514894
 30
0.0
 11
1.906195714450389
 21
0.8550125372514894
 31
0.0
  0
LINE
  5
27DA
  8
OUTLINE
  6
CONTINUOUS
 62
     1
 10
1.906195714450389
 20
0.8550125372514894
 30
0.0
 11
1.885195714450389
 21
0.8550125372514894
 31
0.0
  0
LINE
  5
27DB
  8
OUTLINE
  6
CONTINUOUS
 62
     1
 10
1.885195714450389
 20
0.8550125372514894
 30
0.0
 11
1.864195714450389
 21
0.8550125372514894
 31
0.0
  0
LINE
  5
27DC
  8
OUTLINE
  6
CONTINUOUS
 62
     1
 10
1.864195714450389
 20
0.8550125372514894
 30
0.0
 11
1.862158714450389
 21
0.8700125372514893
 31
0.0
  0
LINE
  5
27DD
  8
OUTLINE
  6
CONTINUOUS
 62
     1
 10
1.862158714450389
 20
0.8700125372514893
 30
0.0
 11
1.859899714450389
 21
0.8850125372514894
 31
0.0
  0
LINE
  5
27DE
  8
OUTLINE
  6
CONTINUOUS
 62
     1
 10
1.859899714450389
 20
0.8850125372514894
 30
0.0
 11
1.857195714450389
 21
0.9000125372514893
 31
0.0
  0
LINE
  5
27DF
  8
OUTLINE
  6
CONTINUOUS
 62
     1
 10
1.857195714450389
 20
0.9000125372514893
 30
0.0
 11
1.842195714450389
 21
0.8990125372514894
 31
0.0
  0
LINE
  5
27E0
  8
OUTLINE
  6
CONTINUOUS
 62
     1
 10
1.842195714450389
 20
0.8990125372514894
 30
0.0
 11
1.827195714450389
 21
0.8980125372514893
 31
0.0
  0
LINE
  5
27E1
  8
OUTLINE
  6
CONTINUOUS
 62
     1
 10
1.827195714450389
 20
0.8980125372514893
 30
0.0
 11
1.812195714450389
 21
0.8970125372514894
 31
0.0
  0
LINE
  5
27E2
  8
OUTLINE
  6
CONTINUOUS
 62
     1
 10
1.812195714450389
 20
0.8970125372514894
 30
0.0
 11
1.805195714450389
 21
0.8869755372514894
 31
0.0
  0
LINE
  5
27E3
  8
OUTLINE
  6
CONTINUOUS
 62
     1
 10
1.805195714450389
 20
0.8869755372514894
 30
0.0
 11
1.798195714450389
 21
0.8767165372514894
 31
0.0
  0
LINE
  5
27E4
  8
OUTLINE
  6
CONTINUOUS
 62
     1
 10
1.798195714450389
 20
0.8767165372514894
 30
0.0
 11
1.791195714450389
 21
0.8660125372514893
 31
0.0
  0
LINE
  5
27E5
  8
OUTLINE
  6
CONTINUOUS
 62
     1
 10
1.567195714450389
 20
0.9070125372514895
 30
0.0
 11
1.591465714450389
 21
0.9198175372514894
 31
0.0
  0
LINE
  5
27E6
  8
OUTLINE
  6
CONTINUOUS
 62
     1
 10
1.591465714450389
 20
0.9198175372514894
 30
0.0
 11
1.615851714450389
 21
0.9366995372514892
 31
0.0
  0
LINE
  5
27E7
  8
OUTLINE
  6
CONTINUOUS
 62
     1
 10
1.615851714450389
 20
0.9366995372514892
 30
0.0
 11
1.638597714450389
 21
0.9568645372514895
 31
0.0
  0
LINE
  5
27E8
  8
OUTLINE
  6
CONTINUOUS
 62
     1
 10
1.638597714450389
 20
0.9568645372514895
 30
0.0
 11
1.657945714450389
 21
0.9795125372514895
 31
0.0
  0
LINE
  5
27E9
  8
OUTLINE
  6
CONTINUOUS
 62
     1
 10
1.657945714450389
 20
0.9795125372514895
 30
0.0
 11
1.672136714450389
 21
1.003848537251489
 31
0.0
  0
LINE
  5
27EA
  8
OUTLINE
  6
CONTINUOUS
 62
     1
 10
1.672136714450389
 20
1.003848537251489
 30
0.0
 11
1.679414714450389
 21
1.029075537251489
 31
0.0
  0
LINE
  5
27EB
  8
OUTLINE
  6
CONTINUOUS
 62
     1
 10
1.679414714450389
 20
1.029075537251489
 30
0.0
 11
1.678019714450389
 21
1.05439553725149
 31
0.0
  0
LINE
  5
27EC
  8
OUTLINE
  6
CONTINUOUS
 62
     1
 10
1.678019714450389
 20
1.05439553725149
 30
0.0
 11
1.666195714450389
 21
1.079012537251489
 31
0.0
  0
LINE
  5
27ED
  8
OUTLINE
  6
CONTINUOUS
 62
     1
 10
1.666195714450389
 20
1.079012537251489
 30
0.0
 11
1.650510714450389
 21
1.078907537251489
 31
0.0
  0
LINE
  5
27EE
  8
OUTLINE
  6
CONTINUOUS
 62
     1
 10
1.650510714450389
 20
1.078907537251489
 30
0.0
 11
1.629766714450389
 21
1.078639537251489
 31
0.0
  0
LINE
  5
27EF
  8
OUTLINE
  6
CONTINUOUS
 62
     1
 10
1.629766714450389
 20
1.078639537251489
 30
0.0
 11
1.604588714450389
 21
1.078276537251489
 31
0.0
  0
LINE
  5
27F0
  8
OUTLINE
  6
CONTINUOUS
 62
     1
 10
1.604588714450389
 20
1.078276537251489
 30
0.0
 11
1.575603714450389
 21
1.077888537251489
 31
0.0
  0
LINE
  5
27F1
  8
OUTLINE
  6
CONTINUOUS
 62
     1
 10
1.575603714450389
 20
1.077888537251489
 30
0.0
 11
1.543436714450389
 21
1.077543537251489
 31
0.0
  0
LINE
  5
27F2
  8
OUTLINE
  6
CONTINUOUS
 62
     1
 10
1.543436714450389
 20
1.077543537251489
 30
0.0
 11
1.508711714450389
 21
1.077311537251489
 31
0.0
  0
LINE
  5
27F3
  8
OUTLINE
  6
CONTINUOUS
 62
     1
 10
1.508711714450389
 20
1.077311537251489
 30
0.0
 11
1.472055714450389
 21
1.077262537251489
 31
0.0
  0
LINE
  5
27F4
  8
OUTLINE
  6
CONTINUOUS
 62
     1
 10
1.472055714450389
 20
1.077262537251489
 30
0.0
 11
1.434094714450389
 21
1.077463537251489
 31
0.0
  0
LINE
  5
27F5
  8
OUTLINE
  6
CONTINUOUS
 62
     1
 10
1.434094714450389
 20
1.077463537251489
 30
0.0
 11
1.395451714450389
 21
1.07798553725149
 31
0.0
  0
LINE
  5
27F6
  8
OUTLINE
  6
CONTINUOUS
 62
     1
 10
1.395451714450389
 20
1.07798553725149
 30
0.0
 11
1.356753714450389
 21
1.078895537251489
 31
0.0
  0
LINE
  5
27F7
  8
OUTLINE
  6
CONTINUOUS
 62
     1
 10
1.356753714450389
 20
1.078895537251489
 30
0.0
 11
1.318626714450389
 21
1.080265537251489
 31
0.0
  0
LINE
  5
27F8
  8
OUTLINE
  6
CONTINUOUS
 62
     1
 10
1.318626714450389
 20
1.080265537251489
 30
0.0
 11
1.281695714450389
 21
1.082161537251489
 31
0.0
  0
LINE
  5
27F9
  8
OUTLINE
  6
CONTINUOUS
 62
     1
 10
1.281695714450389
 20
1.082161537251489
 30
0.0
 11
1.246584714450389
 21
1.084654537251489
 31
0.0
  0
LINE
  5
27FA
  8
OUTLINE
  6
CONTINUOUS
 62
     1
 10
1.246584714450389
 20
1.084654537251489
 30
0.0
 11
1.213921714450389
 21
1.087813537251489
 31
0.0
  0
LINE
  5
27FB
  8
OUTLINE
  6
CONTINUOUS
 62
     1
 10
1.213921714450389
 20
1.087813537251489
 30
0.0
 11
1.184330714450389
 21
1.09170753725149
 31
0.0
  0
LINE
  5
27FC
  8
OUTLINE
  6
CONTINUOUS
 62
     1
 10
1.184330714450389
 20
1.09170753725149
 30
0.0
 11
1.158436714450389
 21
1.096405537251489
 31
0.0
  0
LINE
  5
27FD
  8
OUTLINE
  6
CONTINUOUS
 62
     1
 10
1.158436714450389
 20
1.096405537251489
 30
0.0
 11
1.136865714450389
 21
1.101975537251489
 31
0.0
  0
LINE
  5
27FE
  8
OUTLINE
  6
CONTINUOUS
 62
     1
 10
1.136865714450389
 20
1.101975537251489
 30
0.0
 11
1.120243714450389
 21
1.108488537251489
 31
0.0
  0
LINE
  5
27FF
  8
OUTLINE
  6
CONTINUOUS
 62
     1
 10
1.120243714450389
 20
1.108488537251489
 30
0.0
 11
1.109195714450389
 21
1.116012537251489
 31
0.0
  0
LINE
  5
2800
  8
OUTLINE
  6
CONTINUOUS
 62
     1
 10
1.109195714450389
 20
1.116012537251489
 30
0.0
 11
1.085203714450389
 21
1.113634537251489
 31
0.0
  0
LINE
  5
2801
  8
OUTLINE
  6
CONTINUOUS
 62
     1
 10
1.085203714450389
 20
1.113634537251489
 30
0.0
 11
1.064306714450389
 21
1.109077537251489
 31
0.0
  0
LINE
  5
2802
  8
OUTLINE
  6
CONTINUOUS
 62
     1
 10
1.064306714450389
 20
1.109077537251489
 30
0.0
 11
1.046370714450389
 21
1.102460537251489
 31
0.0
  0
LINE
  5
2803
  8
OUTLINE
  6
CONTINUOUS
 62
     1
 10
1.046370714450389
 20
1.102460537251489
 30
0.0
 11
1.031265714450389
 21
1.093901537251489
 31
0.0
  0
LINE
  5
2804
  8
OUTLINE
  6
CONTINUOUS
 62
     1
 10
1.031265714450389
 20
1.093901537251489
 30
0.0
 11
1.018857714450389
 21
1.083518537251489
 31
0.0
  0
LINE
  5
2805
  8
OUTLINE
  6
CONTINUOUS
 62
     1
 10
1.018857714450389
 20
1.083518537251489
 30
0.0
 11
1.009014714450389
 21
1.071429537251489
 31
0.0
  0
LINE
  5
2806
  8
OUTLINE
  6
CONTINUOUS
 62
     1
 10
1.009014714450389
 20
1.071429537251489
 30
0.0
 11
1.001605714450389
 21
1.057752537251489
 31
0.0
  0
LINE
  5
2807
  8
OUTLINE
  6
CONTINUOUS
 62
     1
 10
1.001605714450389
 20
1.057752537251489
 30
0.0
 11
0.996495714450389
 21
1.042605537251489
 31
0.0
  0
LINE
  5
2808
  8
OUTLINE
  6
CONTINUOUS
 62
     1
 10
0.996495714450389
 20
1.042605537251489
 30
0.0
 11
0.9935547144503891
 21
1.026106537251489
 31
0.0
  0
LINE
  5
2809
  8
OUTLINE
  6
CONTINUOUS
 62
     1
 10
0.9935547144503891
 20
1.026106537251489
 30
0.0
 11
0.9926497144503892
 21
1.008373537251489
 31
0.0
  0
LINE
  5
280A
  8
OUTLINE
  6
CONTINUOUS
 62
     1
 10
0.9926497144503892
 20
1.008373537251489
 30
0.0
 11
0.9936487144503889
 21
0.9895255372514893
 31
0.0
  0
LINE
  5
280B
  8
OUTLINE
  6
CONTINUOUS
 62
     1
 10
0.9936487144503889
 20
0.9895255372514893
 30
0.0
 11
0.9964177144503892
 21
0.9696795372514893
 31
0.0
  0
LINE
  5
280C
  8
OUTLINE
  6
CONTINUOUS
 62
     1
 10
0.9964177144503892
 20
0.9696795372514893
 30
0.0
 11
1.000826714450389
 21
0.9489535372514895
 31
0.0
  0
LINE
  5
280D
  8
OUTLINE
  6
CONTINUOUS
 62
     1
 10
1.000826714450389
 20
0.9489535372514895
 30
0.0
 11
1.006741714450389
 21
0.9274665372514894
 31
0.0
  0
LINE
  5
280E
  8
OUTLINE
  6
CONTINUOUS
 62
     1
 10
1.006741714450389
 20
0.9274665372514894
 30
0.0
 11
1.014030714450389
 21
0.9053355372514893
 31
0.0
  0
LINE
  5
280F
  8
OUTLINE
  6
CONTINUOUS
 62
     1
 10
1.014030714450389
 20
0.9053355372514893
 30
0.0
 11
1.022561714450389
 21
0.8826795372514893
 31
0.0
  0
LINE
  5
2810
  8
OUTLINE
  6
CONTINUOUS
 62
     1
 10
1.022561714450389
 20
0.8826795372514893
 30
0.0
 11
1.032202714450389
 21
0.8596155372514893
 31
0.0
  0
LINE
  5
2811
  8
OUTLINE
  6
CONTINUOUS
 62
     1
 10
1.032202714450389
 20
0.8596155372514893
 30
0.0
 11
1.042820714450389
 21
0.8362625372514894
 31
0.0
  0
LINE
  5
2812
  8
OUTLINE
  6
CONTINUOUS
 62
     1
 10
1.042820714450389
 20
0.8362625372514894
 30
0.0
 11
1.054283714450389
 21
0.8127385372514893
 31
0.0
  0
LINE
  5
2813
  8
OUTLINE
  6
CONTINUOUS
 62
     1
 10
1.054283714450389
 20
0.8127385372514893
 30
0.0
 11
1.066458714450389
 21
0.7891605372514894
 31
0.0
  0
LINE
  5
2814
  8
OUTLINE
  6
CONTINUOUS
 62
     1
 10
1.066458714450389
 20
0.7891605372514894
 30
0.0
 11
1.079214714450389
 21
0.7656475372514893
 31
0.0
  0
LINE
  5
2815
  8
OUTLINE
  6
CONTINUOUS
 62
     1
 10
1.079214714450389
 20
0.7656475372514893
 30
0.0
 11
1.092418714450389
 21
0.7423185372514893
 31
0.0
  0
LINE
  5
2816
  8
OUTLINE
  6
CONTINUOUS
 62
     1
 10
1.092418714450389
 20
0.7423185372514893
 30
0.0
 11
1.105937714450389
 21
0.7192895372514894
 31
0.0
  0
LINE
  5
2817
  8
OUTLINE
  6
CONTINUOUS
 62
     1
 10
1.105937714450389
 20
0.7192895372514894
 30
0.0
 11
1.119639714450389
 21
0.6966795372514893
 31
0.0
  0
LINE
  5
2818
  8
OUTLINE
  6
CONTINUOUS
 62
     1
 10
1.119639714450389
 20
0.6966795372514893
 30
0.0
 11
1.133393714450389
 21
0.6746065372514893
 31
0.0
  0
LINE
  5
2819
  8
OUTLINE
  6
CONTINUOUS
 62
     1
 10
1.133393714450389
 20
0.6746065372514893
 30
0.0
 11
1.147065714450389
 21
0.6531885372514894
 31
0.0
  0
LINE
  5
281A
  8
OUTLINE
  6
CONTINUOUS
 62
     1
 10
1.147065714450389
 20
0.6531885372514894
 30
0.0
 11
1.160523714450389
 21
0.6325435372514894
 31
0.0
  0
LINE
  5
281B
  8
OUTLINE
  6
CONTINUOUS
 62
     1
 10
1.160523714450389
 20
0.6325435372514894
 30
0.0
 11
1.173635714450389
 21
0.6127905372514895
 31
0.0
  0
LINE
  5
281C
  8
OUTLINE
  6
CONTINUOUS
 62
     1
 10
1.173635714450389
 20
0.6127905372514895
 30
0.0
 11
1.186269714450389
 21
0.5940465372514894
 31
0.0
  0
LINE
  5
281D
  8
OUTLINE
  6
CONTINUOUS
 62
     1
 10
1.186269714450389
 20
0.5940465372514894
 30
0.0
 11
1.198292714450389
 21
0.5764295372514894
 31
0.0
  0
LINE
  5
281E
  8
OUTLINE
  6
CONTINUOUS
 62
     1
 10
1.198292714450389
 20
0.5764295372514894
 30
0.0
 11
1.209572714450389
 21
0.5600575372514893
 31
0.0
  0
LINE
  5
281F
  8
OUTLINE
  6
CONTINUOUS
 62
     1
 10
1.209572714450389
 20
0.5600575372514893
 30
0.0
 11
1.219977714450389
 21
0.5450495372514894
 31
0.0
  0
LINE
  5
2820
  8
OUTLINE
  6
CONTINUOUS
 62
     1
 10
1.219977714450389
 20
0.5450495372514894
 30
0.0
 11
1.229374714450389
 21
0.5315225372514894
 31
0.0
  0
LINE
  5
2821
  8
OUTLINE
  6
CONTINUOUS
 62
     1
 10
1.229374714450389
 20
0.5315225372514894
 30
0.0
 11
1.237631714450389
 21
0.5195955372514893
 31
0.0
  0
LINE
  5
2822
  8
OUTLINE
  6
CONTINUOUS
 62
     1
 10
1.237631714450389
 20
0.5195955372514893
 30
0.0
 11
1.244615714450389
 21
0.5093865372514894
 31
0.0
  0
LINE
  5
2823
  8
OUTLINE
  6
CONTINUOUS
 62
     1
 10
1.244615714450389
 20
0.5093865372514894
 30
0.0
 11
1.250195714450389
 21
0.5010125372514893
 31
0.0
  0
LINE
  5
2824
  8
OUTLINE
  6
CONTINUOUS
 62
     1
 10
1.250195714450389
 20
0.5010125372514893
 30
0.0
 11
1.250195714450389
 21
0.5010125372514893
 31
0.0
  0
LINE
  5
2825
  8
OUTLINE
  6
CONTINUOUS
 62
     1
 10
1.250195714450389
 20
0.5010125372514893
 30
0.0
 11
1.336467498370524
 21
0.3926822621233881
 31
0.0
  0
LINE
  5
2826
  8
OUTLINE
  6
CONTINUOUS
 62
     1
 10
1.336467498370524
 20
0.3926822621233881
 30
0.0
 11
1.421725046255377
 21
0.3326609484124512
 31
0.0
  0
LINE
  5
2827
  8
OUTLINE
  6
CONTINUOUS
 62
     1
 10
1.421725046255377
 20
0.3326609484124512
 30
0.0
 11
1.462938714450389
 21
0.3116335372514894
 31
0.0
  0
LINE
  5
2828
  8
OUTLINE
  6
CONTINUOUS
 62
     1
 10
1.462938714450389
 20
0.3116335372514894
 30
0.0
 11
1.490262714450389
 21
0.3058845372514893
 31
0.0
  0
LINE
  5
2829
  8
OUTLINE
  6
CONTINUOUS
 62
     1
 10
1.490262714450389
 20
0.3058845372514893
 30
0.0
 11
1.518428714450389
 21
0.3004585372514894
 31
0.0
  0
LINE
  5
282A
  8
OUTLINE
  6
CONTINUOUS
 62
     1
 10
1.518428714450389
 20
0.3004585372514894
 30
0.0
 11
1.547339714450389
 21
0.2953775372514893
 31
0.0
  0
LINE
  5
282B
  8
OUTLINE
  6
CONTINUOUS
 62
     1
 10
1.547339714450389
 20
0.2953775372514893
 30
0.0
 11
1.576902714450389
 21
0.2906625372514893
 31
0.0
  0
LINE
  5
282C
  8
OUTLINE
  6
CONTINUOUS
 62
     1
 10
1.576902714450389
 20
0.2906625372514893
 30
0.0
 11
1.607021714450389
 21
0.2863365372514894
 31
0.0
  0
LINE
  5
282D
  8
OUTLINE
  6
CONTINUOUS
 62
     1
 10
1.607021714450389
 20
0.2863365372514894
 30
0.0
 11
1.637600714450389
 21
0.2824215372514893
 31
0.0
  0
LINE
  5
282E
  8
OUTLINE
  6
CONTINUOUS
 62
     1
 10
1.637600714450389
 20
0.2824215372514893
 30
0.0
 11
1.668545714450389
 21
0.2789375372514893
 31
0.0
  0
LINE
  5
282F
  8
OUTLINE
  6
CONTINUOUS
 62
     1
 10
1.668545714450389
 20
0.2789375372514893
 30
0.0
 11
1.699759714450389
 21
0.2759085372514893
 31
0.0
  0
LINE
  5
2830
  8
OUTLINE
  6
CONTINUOUS
 62
     1
 10
1.699759714450389
 20
0.2759085372514893
 30
0.0
 11
1.731148714450389
 21
0.2733545372514894
 31
0.0
  0
LINE
  5
2831
  8
OUTLINE
  6
CONTINUOUS
 62
     1
 10
1.731148714450389
 20
0.2733545372514894
 30
0.0
 11
1.762617714450389
 21
0.2712985372514893
 31
0.0
  0
LINE
  5
2832
  8
OUTLINE
  6
CONTINUOUS
 62
     1
 10
1.762617714450389
 20
0.2712985372514893
 30
0.0
 11
1.794070714450389
 21
0.2697625372514894
 31
0.0
  0
LINE
  5
2833
  8
OUTLINE
  6
CONTINUOUS
 62
     1
 10
1.794070714450389
 20
0.2697625372514894
 30
0.0
 11
1.825412714450389
 21
0.2687675372514893
 31
0.0
  0
LINE
  5
2834
  8
OUTLINE
  6
CONTINUOUS
 62
     1
 10
1.825412714450389
 20
0.2687675372514893
 30
0.0
 11
1.856548714450389
 21
0.2683365372514894
 31
0.0
  0
LINE
  5
2835
  8
OUTLINE
  6
CONTINUOUS
 62
     1
 10
1.856548714450389
 20
0.2683365372514894
 30
0.0
 11
1.887383714450389
 21
0.2684895372514893
 31
0.0
  0
LINE
  5
2836
  8
OUTLINE
  6
CONTINUOUS
 62
     1
 10
1.887383714450389
 20
0.2684895372514893
 30
0.0
 11
1.917820714450389
 21
0.2692495372514894
 31
0.0
  0
LINE
  5
2837
  8
OUTLINE
  6
CONTINUOUS
 62
     1
 10
1.917820714450389
 20
0.2692495372514894
 30
0.0
 11
1.947766714450389
 21
0.2706395372514894
 31
0.0
  0
LINE
  5
2838
  8
OUTLINE
  6
CONTINUOUS
 62
     1
 10
1.947766714450389
 20
0.2706395372514894
 30
0.0
 11
1.97712571445039
 21
0.2726795372514894
 31
0.0
  0
LINE
  5
2839
  8
OUTLINE
  6
CONTINUOUS
 62
     1
 10
1.97712571445039
 20
0.2726795372514894
 30
0.0
 11
2.00580171445039
 21
0.2753915372514895
 31
0.0
  0
LINE
  5
283A
  8
OUTLINE
  6
CONTINUOUS
 62
     1
 10
2.00580171445039
 20
0.2753915372514895
 30
0.0
 11
2.033700714450389
 21
0.2787985372514894
 31
0.0
  0
LINE
  5
283B
  8
OUTLINE
  6
CONTINUOUS
 62
     1
 10
2.033700714450389
 20
0.2787985372514894
 30
0.0
 11
2.060726714450389
 21
0.2829215372514893
 31
0.0
  0
LINE
  5
283C
  8
OUTLINE
  6
CONTINUOUS
 62
     1
 10
2.060726714450389
 20
0.2829215372514893
 30
0.0
 11
2.086783714450389
 21
0.2877825372514893
 31
0.0
  0
LINE
  5
283D
  8
OUTLINE
  6
CONTINUOUS
 62
     1
 10
2.086783714450389
 20
0.2877825372514893
 30
0.0
 11
2.111778714450389
 21
0.2934035372514894
 31
0.0
  0
LINE
  5
283E
  8
OUTLINE
  6
CONTINUOUS
 62
     1
 10
2.111778714450389
 20
0.2934035372514894
 30
0.0
 11
2.135613714450389
 21
0.2998065372514893
 31
0.0
  0
LINE
  5
283F
  8
OUTLINE
  6
CONTINUOUS
 62
     1
 10
2.135613714450389
 20
0.2998065372514893
 30
0.0
 11
2.158195714450389
 21
0.3070125372514894
 31
0.0
  0
LINE
  5
2840
  8
OUTLINE
  6
CONTINUOUS
 62
     1
 10
2.158195714450389
 20
0.3070125372514894
 30
0.0
 11
2.158195714450389
 21
0.3070125372514894
 31
0.0
  0
LINE
  5
2841
  8
OUTLINE
  6
CONTINUOUS
 62
     1
 10
2.158195714450389
 20
0.3070125372514894
 30
0.0
 11
2.166421714450389
 21
0.3456675372514895
 31
0.0
  0
LINE
  5
2842
  8
OUTLINE
  6
CONTINUOUS
 62
     1
 10
2.166421714450389
 20
0.3456675372514895
 30
0.0
 11
2.17543371445039
 21
0.3799445372514894
 31
0.0
  0
LINE
  5
2843
  8
OUTLINE
  6
CONTINUOUS
 62
     1
 10
2.17543371445039
 20
0.3799445372514894
 30
0.0
 11
2.185273714450389
 21
0.4105435372514894
 31
0.0
  0
LINE
  5
2844
  8
OUTLINE
  6
CONTINUOUS
 62
     1
 10
2.185273714450389
 20
0.4105435372514894
 30
0.0
 11
2.195981714450389
 21
0.4381625372514895
 31
0.0
  0
LINE
  5
2845
  8
OUTLINE
  6
CONTINUOUS
 62
     1
 10
2.195981714450389
 20
0.4381625372514895
 30
0.0
 11
2.20759971445039
 21
0.4635005372514893
 31
0.0
  0
LINE
  5
2846
  8
OUTLINE
  6
CONTINUOUS
 62
     1
 10
2.20759971445039
 20
0.4635005372514893
 30
0.0
 11
2.22016771445039
 21
0.4872585372514893
 31
0.0
  0
LINE
  5
2847
  8
OUTLINE
  6
CONTINUOUS
 62
     1
 10
2.22016771445039
 20
0.4872585372514893
 30
0.0
 11
2.233726714450389
 21
0.5101335372514895
 31
0.0
  0
LINE
  5
2848
  8
OUTLINE
  6
CONTINUOUS
 62
     1
 10
2.233726714450389
 20
0.5101335372514895
 30
0.0
 11
2.248318714450389
 21
0.5328255372514894
 31
0.0
  0
LINE
  5
2849
  8
OUTLINE
  6
CONTINUOUS
 62
     1
 10
2.248318714450389
 20
0.5328255372514894
 30
0.0
 11
2.263983714450389
 21
0.5560345372514894
 31
0.0
  0
LINE
  5
284A
  8
OUTLINE
  6
CONTINUOUS
 62
     1
 10
2.263983714450389
 20
0.5560345372514894
 30
0.0
 11
2.280762714450389
 21
0.5804585372514894
 31
0.0
  0
LINE
  5
284B
  8
OUTLINE
  6
CONTINUOUS
 62
     1
 10
2.280762714450389
 20
0.5804585372514894
 30
0.0
 11
2.298697714450389
 21
0.6067965372514894
 31
0.0
  0
LINE
  5
284C
  8
OUTLINE
  6
CONTINUOUS
 62
     1
 10
2.298697714450389
 20
0.6067965372514894
 30
0.0
 11
2.317827714450389
 21
0.6357485372514893
 31
0.0
  0
LINE
  5
284D
  8
OUTLINE
  6
CONTINUOUS
 62
     1
 10
2.317827714450389
 20
0.6357485372514893
 30
0.0
 11
2.338195714450389
 21
0.6680125372514894
 31
0.0
  0
LINE
  5
284E
  8
OUTLINE
  6
CONTINUOUS
 62
     1
 10
2.338195714450389
 20
0.6680125372514894
 30
0.0
 11
2.360015714450389
 21
0.6824445372514894
 31
0.0
  0
LINE
  5
284F
  8
OUTLINE
  6
CONTINUOUS
 62
     1
 10
2.360015714450389
 20
0.6824445372514894
 30
0.0
 11
2.388017714450389
 21
0.7004325372514895
 31
0.0
  0
LINE
  5
2850
  8
OUTLINE
  6
CONTINUOUS
 62
     1
 10
2.388017714450389
 20
0.7004325372514895
 30
0.0
 11
2.420010714450389
 21
0.7210125372514893
 31
0.0
  0
LINE
  5
2851
  8
OUTLINE
  6
CONTINUOUS
 62
     1
 10
2.420010714450389
 20
0.7210125372514893
 30
0.0
 11
2.45380571445039
 21
0.7432225372514894
 31
0.0
  0
LINE
  5
2852
  8
OUTLINE
  6
CONTINUOUS
 62
     1
 10
2.45380571445039
 20
0.7432225372514894
 30
0.0
 11
2.487214714450389
 21
0.7660985372514895
 31
0.0
  0
LINE
  5
2853
  8
OUTLINE
  6
CONTINUOUS
 62
     1
 10
2.487214714450389
 20
0.7660985372514895
 30
0.0
 11
2.518047714450389
 21
0.7886795372514894
 31
0.0
  0
LINE
  5
2854
  8
OUTLINE
  6
CONTINUOUS
 62
     1
 10
2.518047714450389
 20
0.7886795372514894
 30
0.0
 11
2.544114714450389
 21
0.8100005372514894
 31
0.0
  0
LINE
  5
2855
  8
OUTLINE
  6
CONTINUOUS
 62
     1
 10
2.544114714450389
 20
0.8100005372514894
 30
0.0
 11
2.563227714450389
 21
0.8290985372514894
 31
0.0
  0
LINE
  5
2856
  8
OUTLINE
  6
CONTINUOUS
 62
     1
 10
2.563227714450389
 20
0.8290985372514894
 30
0.0
 11
2.646109977125257
 21
0.9103647390533216
 31
0.0
  0
LINE
  5
2857
  8
OUTLINE
  6
CONTINUOUS
 62
     1
 10
1.672004950562544
 20
0.8336364410606405
 30
0.0
 11
1.635023714450389
 21
0.8332155372514893
 31
0.0
  0
LINE
  5
2858
  8
OUTLINE
  6
CONTINUOUS
 62
     1
 10
1.635023714450389
 20
0.8332155372514893
 30
0.0
 11
1.610570714450389
 21
0.8351375372514893
 31
0.0
  0
LINE
  5
2859
  8
OUTLINE
  6
CONTINUOUS
 62
     1
 10
1.610570714450389
 20
0.8351375372514893
 30
0.0
 11
1.567179714450389
 21
0.8417465372514894
 31
0.0
  0
LINE
  5
285A
  8
OUTLINE
  6
CONTINUOUS
 62
     1
 10
1.567179714450389
 20
0.8417465372514894
 30
0.0
 11
1.489195714450389
 21
0.8550125372514894
 31
0.0
  0
LINE
  5
285B
  8
OUTLINE
  6
CONTINUOUS
 62
     1
 10
1.489195714450389
 20
0.8550125372514894
 30
0.0
 11
1.489195714450389
 21
0.8607165372514893
 31
0.0
  0
LINE
  5
285C
  8
OUTLINE
  6
CONTINUOUS
 62
     1
 10
1.489195714450389
 20
0.8607165372514893
 30
0.0
 11
1.489195714450389
 21
0.8659755372514895
 31
0.0
  0
LINE
  5
285D
  8
OUTLINE
  6
CONTINUOUS
 62
     1
 10
1.489195714450389
 20
0.8659755372514895
 30
0.0
 11
1.489195714450389
 21
0.8710125372514894
 31
0.0
  0
LINE
  5
285E
  8
OUTLINE
  6
CONTINUOUS
 62
     1
 10
1.791195714450389
 20
0.8660125372514893
 30
0.0
 11
1.759836714450389
 21
0.8395755372514893
 31
0.0
  0
LINE
  5
285F
  8
OUTLINE
  6
CONTINUOUS
 62
     1
 10
1.759836714450389
 20
0.8395755372514893
 30
0.0
 11
1.672004950562544
 21
0.8336364410606405
 31
0.0
  0
ENDSEC
  0
EOF
