0
SECTION
2
HEADER
0
ENDSEC
0
SECTION
2
TABLES
0
ENDSEC
0
SECTION
2
BLOCKS
0
ENDSEC
0
SECTION
2
ENTITIES
0
POLYLINE
8
R2V
62
0
66
1
70
8
0
VERTEX
8
R2V
62
0
70
32
10
5.691358
20
2.123457
30
0
0
VERTEX
8
R2V
62
0
70
32
10
5.679012
20
2.123457
30
0
0
VERTEX
8
R2V
62
0
70
32
10
5.679012
20
2.111111
30
0
0
VERTEX
8
R2V
62
0
70
32
10
5.691358
20
2.111111
30
0
0
VERTEX
8
R2V
62
0
70
32
10
5.691358
20
2.123457
30
0
0
SEQEND
0
POLYLINE
8
R2V
62
0
66
1
70
8
0
VERTEX
8
R2V
62
0
70
32
10
5.456790
20
2.567901
30
0
0
VERTEX
8
R2V
62
0
70
32
10
5.419753
20
2.358025
30
0
0
VERTEX
8
R2V
62
0
70
32
10
5.345679
20
2.148148
30
0
0
VERTEX
8
R2V
62
0
70
32
10
5.296296
20
2.086420
30
0
0
VERTEX
8
R2V
62
0
70
32
10
5.395062
20
2.345679
30
0
0
VERTEX
8
R2V
62
0
70
32
10
5.444444
20
2.567901
30
0
0
VERTEX
8
R2V
62
0
70
32
10
5.456790
20
2.567901
30
0
0
SEQEND
0
POLYLINE
8
R2V
62
0
66
1
70
8
0
VERTEX
8
R2V
62
0
70
32
10
4.666667
20
3.061728
30
0
0
VERTEX
8
R2V
62
0
70
32
10
4.666667
20
3.049383
30
0
0
VERTEX
8
R2V
62
0
70
32
10
4.654321
20
3.049383
30
0
0
VERTEX
8
R2V
62
0
70
32
10
4.654321
20
3.061728
30
0
0
VERTEX
8
R2V
62
0
70
32
10
4.666667
20
3.061728
30
0
0
SEQEND
0
POLYLINE
8
R2V
62
0
66
1
70
8
0
VERTEX
8
R2V
62
0
70
32
10
4.432099
20
2.864198
30
0
0
VERTEX
8
R2V
62
0
70
32
10
4.432099
20
2.851852
30
0
0
VERTEX
8
R2V
62
0
70
32
10
4.419753
20
2.851852
30
0
0
VERTEX
8
R2V
62
0
70
32
10
4.419753
20
2.864198
30
0
0
VERTEX
8
R2V
62
0
70
32
10
4.432099
20
2.864198
30
0
0
SEQEND
0
POLYLINE
8
R2V
62
0
66
1
70
8
0
VERTEX
8
R2V
62
0
70
32
10
4.407407
20
2.839506
30
0
0
VERTEX
8
R2V
62
0
70
32
10
4.407407
20
2.827160
30
0
0
VERTEX
8
R2V
62
0
70
32
10
4.395062
20
2.827160
30
0
0
VERTEX
8
R2V
62
0
70
32
10
4.395062
20
2.839506
30
0
0
VERTEX
8
R2V
62
0
70
32
10
4.407407
20
2.839506
30
0
0
SEQEND
0
POLYLINE
8
R2V
62
0
66
1
70
8
0
VERTEX
8
R2V
62
0
70
32
10
5.753086
20
4.271605
30
0
0
VERTEX
8
R2V
62
0
70
32
10
5.728395
20
4.098765
30
0
0
VERTEX
8
R2V
62
0
70
32
10
5.740741
20
4.098765
30
0
0
VERTEX
8
R2V
62
0
70
32
10
5.777778
20
4.012346
30
0
0
VERTEX
8
R2V
62
0
70
32
10
5.790123
20
4.012346
30
0
0
VERTEX
8
R2V
62
0
70
32
10
5.851852
20
3.913580
30
0
0
VERTEX
8
R2V
62
0
70
32
10
5.876543
20
3.913580
30
0
0
VERTEX
8
R2V
62
0
70
32
10
5.876543
20
3.938272
30
0
0
VERTEX
8
R2V
62
0
70
32
10
5.901235
20
3.938272
30
0
0
VERTEX
8
R2V
62
0
70
32
10
5.913580
20
3.975309
30
0
0
VERTEX
8
R2V
62
0
70
32
10
6.037037
20
4.000000
30
0
0
VERTEX
8
R2V
62
0
70
32
10
6.061728
20
4.037037
30
0
0
VERTEX
8
R2V
62
0
70
32
10
6.037037
20
4.037037
30
0
0
VERTEX
8
R2V
62
0
70
32
10
6.024691
20
4.074074
30
0
0
VERTEX
8
R2V
62
0
70
32
10
5.938272
20
4.123457
30
0
0
VERTEX
8
R2V
62
0
70
32
10
5.753086
20
4.259259
30
0
0
VERTEX
8
R2V
62
0
70
32
10
5.753086
20
4.271605
30
0
0
SEQEND
0
POLYLINE
8
R2V
62
0
66
1
70
8
0
VERTEX
8
R2V
62
0
70
32
10
3.493827
20
5.432099
30
0
0
VERTEX
8
R2V
62
0
70
32
10
3.469136
20
5.419753
30
0
0
VERTEX
8
R2V
62
0
70
32
10
3.518519
20
5.444444
30
0
0
VERTEX
8
R2V
62
0
70
32
10
3.493827
20
5.432099
30
0
0
SEQEND
0
POLYLINE
8
R2V
62
0
66
1
70
8
0
VERTEX
8
R2V
62
0
70
32
10
3.876543
20
5.296296
30
0
0
VERTEX
8
R2V
62
0
70
32
10
3.839506
20
5.160494
30
0
0
VERTEX
8
R2V
62
0
70
32
10
3.851852
20
5.160494
30
0
0
VERTEX
8
R2V
62
0
70
32
10
3.888889
20
5.148148
30
0
0
VERTEX
8
R2V
62
0
70
32
10
3.876543
20
5.296296
30
0
0
SEQEND
0
POLYLINE
8
R2V
62
0
66
1
70
8
0
VERTEX
8
R2V
62
0
70
32
10
2.913580
20
4.950617
30
0
0
VERTEX
8
R2V
62
0
70
32
10
2.913580
20
4.938272
30
0
0
VERTEX
8
R2V
62
0
70
32
10
2.975309
20
4.975309
30
0
0
VERTEX
8
R2V
62
0
70
32
10
3.037037
20
4.987654
30
0
0
VERTEX
8
R2V
62
0
70
32
10
3.148148
20
5.086420
30
0
0
VERTEX
8
R2V
62
0
70
32
10
3.197531
20
5.111111
30
0
0
VERTEX
8
R2V
62
0
70
32
10
3.444444
20
5.296296
30
0
0
VERTEX
8
R2V
62
0
70
32
10
3.617284
20
5.395062
30
0
0
VERTEX
8
R2V
62
0
70
32
10
3.567901
20
5.395062
30
0
0
VERTEX
8
R2V
62
0
70
32
10
3.530864
20
5.358025
30
0
0
VERTEX
8
R2V
62
0
70
32
10
3.469136
20
5.333333
30
0
0
VERTEX
8
R2V
62
0
70
32
10
3.049383
20
5.061728
30
0
0
VERTEX
8
R2V
62
0
70
32
10
2.913580
20
4.950617
30
0
0
SEQEND
0
POLYLINE
8
R2V
62
0
66
1
70
8
0
VERTEX
8
R2V
62
0
70
32
10
3.530864
20
5.641975
30
0
0
VERTEX
8
R2V
62
0
70
32
10
3.518519
20
5.604938
30
0
0
VERTEX
8
R2V
62
0
70
32
10
3.197531
20
5.543210
30
0
0
VERTEX
8
R2V
62
0
70
32
10
3.135802
20
5.518519
30
0
0
VERTEX
8
R2V
62
0
70
32
10
3.135802
20
5.543210
30
0
0
VERTEX
8
R2V
62
0
70
32
10
3.222222
20
5.580247
30
0
0
VERTEX
8
R2V
62
0
70
32
10
3.530864
20
5.641975
30
0
0
SEQEND
0
POLYLINE
8
R2V
62
0
66
1
70
8
0
VERTEX
8
R2V
62
0
70
32
10
1.543210
20
6.160494
30
0
0
VERTEX
8
R2V
62
0
70
32
10
1.456790
20
6.135802
30
0
0
VERTEX
8
R2V
62
0
70
32
10
1.481481
20
6.086420
30
0
0
VERTEX
8
R2V
62
0
70
32
10
1.506173
20
6.098765
30
0
0
VERTEX
8
R2V
62
0
70
32
10
1.506173
20
6.123457
30
0
0
VERTEX
8
R2V
62
0
70
32
10
1.543210
20
6.123457
30
0
0
VERTEX
8
R2V
62
0
70
32
10
1.567901
20
6.111111
30
0
0
VERTEX
8
R2V
62
0
70
32
10
1.567901
20
6.074074
30
0
0
VERTEX
8
R2V
62
0
70
32
10
1.617284
20
6.086420
30
0
0
VERTEX
8
R2V
62
0
70
32
10
1.592593
20
6.135802
30
0
0
VERTEX
8
R2V
62
0
70
32
10
1.543210
20
6.160494
30
0
0
SEQEND
0
POLYLINE
8
R2V
62
0
66
1
70
8
0
VERTEX
8
R2V
62
0
70
32
10
2.604938
20
6.629630
30
0
0
VERTEX
8
R2V
62
0
70
32
10
2.592593
20
6.629630
30
0
0
VERTEX
8
R2V
62
0
70
32
10
2.592593
20
6.617284
30
0
0
VERTEX
8
R2V
62
0
70
32
10
2.604938
20
6.617284
30
0
0
VERTEX
8
R2V
62
0
70
32
10
2.604938
20
6.629630
30
0
0
SEQEND
0
POLYLINE
8
R2V
62
0
66
1
70
8
0
VERTEX
8
R2V
62
0
70
32
10
4.641975
20
6.703704
30
0
0
VERTEX
8
R2V
62
0
70
32
10
4.679012
20
6.641975
30
0
0
VERTEX
8
R2V
62
0
70
32
10
4.691358
20
6.641975
30
0
0
VERTEX
8
R2V
62
0
70
32
10
4.740741
20
6.580247
30
0
0
VERTEX
8
R2V
62
0
70
32
10
4.629630
20
6.679012
30
0
0
VERTEX
8
R2V
62
0
70
32
10
4.641975
20
6.703704
30
0
0
SEQEND
0
POLYLINE
8
R2V
62
0
66
1
70
8
0
VERTEX
8
R2V
62
0
70
32
10
3.320988
20
6.950617
30
0
0
VERTEX
8
R2V
62
0
70
32
10
3.407407
20
6.864198
30
0
0
VERTEX
8
R2V
62
0
70
32
10
3.506173
20
6.703704
30
0
0
VERTEX
8
R2V
62
0
70
32
10
3.518519
20
6.703704
30
0
0
VERTEX
8
R2V
62
0
70
32
10
3.641975
20
6.407407
30
0
0
VERTEX
8
R2V
62
0
70
32
10
3.654321
20
6.407407
30
0
0
VERTEX
8
R2V
62
0
70
32
10
3.728395
20
6.222222
30
0
0
VERTEX
8
R2V
62
0
70
32
10
3.740741
20
6.222222
30
0
0
VERTEX
8
R2V
62
0
70
32
10
3.851852
20
5.962963
30
0
0
VERTEX
8
R2V
62
0
70
32
10
3.864198
20
5.962963
30
0
0
VERTEX
8
R2V
62
0
70
32
10
4.037037
20
5.617284
30
0
0
VERTEX
8
R2V
62
0
70
32
10
4.074074
20
5.506173
30
0
0
VERTEX
8
R2V
62
0
70
32
10
4.086420
20
5.506173
30
0
0
VERTEX
8
R2V
62
0
70
32
10
4.395062
20
4.876543
30
0
0
VERTEX
8
R2V
62
0
70
32
10
4.407407
20
4.876543
30
0
0
VERTEX
8
R2V
62
0
70
32
10
4.432099
20
4.814815
30
0
0
VERTEX
8
R2V
62
0
70
32
10
4.444444
20
4.814815
30
0
0
VERTEX
8
R2V
62
0
70
32
10
4.469136
20
4.753086
30
0
0
VERTEX
8
R2V
62
0
70
32
10
4.469136
20
5.283951
30
0
0
VERTEX
8
R2V
62
0
70
32
10
4.432099
20
5.592593
30
0
0
VERTEX
8
R2V
62
0
70
32
10
4.370370
20
5.975309
30
0
0
VERTEX
8
R2V
62
0
70
32
10
4.320988
20
6.246914
30
0
0
VERTEX
8
R2V
62
0
70
32
10
4.308642
20
6.370370
30
0
0
VERTEX
8
R2V
62
0
70
32
10
4.358025
20
6.407407
30
0
0
VERTEX
8
R2V
62
0
70
32
10
4.345679
20
6.506173
30
0
0
VERTEX
8
R2V
62
0
70
32
10
4.209877
20
6.641975
30
0
0
VERTEX
8
R2V
62
0
70
32
10
4.148148
20
6.679012
30
0
0
VERTEX
8
R2V
62
0
70
32
10
4.111111
20
6.728395
30
0
0
VERTEX
8
R2V
62
0
70
32
10
4.135802
20
6.728395
30
0
0
VERTEX
8
R2V
62
0
70
32
10
4.222222
20
6.641975
30
0
0
VERTEX
8
R2V
62
0
70
32
10
4.246914
20
6.641975
30
0
0
VERTEX
8
R2V
62
0
70
32
10
4.308642
20
6.567901
30
0
0
VERTEX
8
R2V
62
0
70
32
10
4.333333
20
6.567901
30
0
0
VERTEX
8
R2V
62
0
70
32
10
4.382716
20
6.481481
30
0
0
VERTEX
8
R2V
62
0
70
32
10
4.370370
20
6.382716
30
0
0
VERTEX
8
R2V
62
0
70
32
10
4.333333
20
6.358025
30
0
0
VERTEX
8
R2V
62
0
70
32
10
4.370370
20
6.049383
30
0
0
VERTEX
8
R2V
62
0
70
32
10
4.382716
20
6.049383
30
0
0
VERTEX
8
R2V
62
0
70
32
10
4.469136
20
5.543210
30
0
0
VERTEX
8
R2V
62
0
70
32
10
4.506173
20
5.111111
30
0
0
VERTEX
8
R2V
62
0
70
32
10
4.506173
20
4.728395
30
0
0
VERTEX
8
R2V
62
0
70
32
10
4.444444
20
4.740741
30
0
0
VERTEX
8
R2V
62
0
70
32
10
4.333333
20
4.950617
30
0
0
VERTEX
8
R2V
62
0
70
32
10
4.271605
20
5.049383
30
0
0
VERTEX
8
R2V
62
0
70
32
10
4.234568
20
5.160494
30
0
0
VERTEX
8
R2V
62
0
70
32
10
3.777778
20
6.049383
30
0
0
VERTEX
8
R2V
62
0
70
32
10
3.740741
20
6.160494
30
0
0
VERTEX
8
R2V
62
0
70
32
10
3.679012
20
6.259259
30
0
0
VERTEX
8
R2V
62
0
70
32
10
3.641975
20
6.370370
30
0
0
VERTEX
8
R2V
62
0
70
32
10
3.530864
20
6.580247
30
0
0
VERTEX
8
R2V
62
0
70
32
10
3.493827
20
6.691358
30
0
0
VERTEX
8
R2V
62
0
70
32
10
3.358025
20
6.876543
30
0
0
VERTEX
8
R2V
62
0
70
32
10
3.296296
20
6.913580
30
0
0
VERTEX
8
R2V
62
0
70
32
10
3.320988
20
6.950617
30
0
0
SEQEND
0
POLYLINE
8
R2V
62
0
66
1
70
8
0
VERTEX
8
R2V
62
0
70
32
10
1.925926
20
7.864198
30
0
0
VERTEX
8
R2V
62
0
70
32
10
1.925926
20
7.851852
30
0
0
VERTEX
8
R2V
62
0
70
32
10
1.901235
20
7.851852
30
0
0
VERTEX
8
R2V
62
0
70
32
10
1.901235
20
7.864198
30
0
0
VERTEX
8
R2V
62
0
70
32
10
1.925926
20
7.864198
30
0
0
SEQEND
0
POLYLINE
8
R2V
62
0
66
1
70
8
0
VERTEX
8
R2V
62
0
70
32
10
2.049383
20
7.839506
30
0
0
VERTEX
8
R2V
62
0
70
32
10
2.049383
20
7.827160
30
0
0
VERTEX
8
R2V
62
0
70
32
10
2.037037
20
7.827160
30
0
0
VERTEX
8
R2V
62
0
70
32
10
2.037037
20
7.839506
30
0
0
VERTEX
8
R2V
62
0
70
32
10
2.049383
20
7.839506
30
0
0
SEQEND
0
POLYLINE
8
R2V
62
0
66
1
70
8
0
VERTEX
8
R2V
62
0
70
32
10
2.061728
20
7.802469
30
0
0
VERTEX
8
R2V
62
0
70
32
10
2.061728
20
7.790123
30
0
0
VERTEX
8
R2V
62
0
70
32
10
2.049383
20
7.790123
30
0
0
VERTEX
8
R2V
62
0
70
32
10
2.049383
20
7.802469
30
0
0
VERTEX
8
R2V
62
0
70
32
10
2.061728
20
7.802469
30
0
0
SEQEND
0
POLYLINE
8
R2V
62
0
66
1
70
8
0
VERTEX
8
R2V
62
0
70
32
10
1.962963
20
7.790123
30
0
0
VERTEX
8
R2V
62
0
70
32
10
1.962963
20
7.777778
30
0
0
VERTEX
8
R2V
62
0
70
32
10
1.950617
20
7.777778
30
0
0
VERTEX
8
R2V
62
0
70
32
10
1.950617
20
7.790123
30
0
0
VERTEX
8
R2V
62
0
70
32
10
1.962963
20
7.790123
30
0
0
SEQEND
0
POLYLINE
8
R2V
62
0
66
1
70
8
0
VERTEX
8
R2V
62
0
70
32
10
2.086420
20
7.777778
30
0
0
VERTEX
8
R2V
62
0
70
32
10
2.086420
20
7.765432
30
0
0
VERTEX
8
R2V
62
0
70
32
10
2.061728
20
7.765432
30
0
0
VERTEX
8
R2V
62
0
70
32
10
2.061728
20
7.777778
30
0
0
VERTEX
8
R2V
62
0
70
32
10
2.086420
20
7.777778
30
0
0
SEQEND
0
POLYLINE
8
R2V
62
0
66
1
70
8
0
VERTEX
8
R2V
62
0
70
32
10
2.950617
20
7.753086
30
0
0
VERTEX
8
R2V
62
0
70
32
10
3.283951
20
7.604938
30
0
0
VERTEX
8
R2V
62
0
70
32
10
3.629630
20
7.432099
30
0
0
VERTEX
8
R2V
62
0
70
32
10
3.876543
20
7.296296
30
0
0
VERTEX
8
R2V
62
0
70
32
10
3.888889
20
7.271605
30
0
0
VERTEX
8
R2V
62
0
70
32
10
3.925926
20
7.271605
30
0
0
VERTEX
8
R2V
62
0
70
32
10
4.135802
20
7.111111
30
0
0
VERTEX
8
R2V
62
0
70
32
10
4.160494
20
7.111111
30
0
0
VERTEX
8
R2V
62
0
70
32
10
4.382716
20
6.925926
30
0
0
VERTEX
8
R2V
62
0
70
32
10
4.407407
20
6.925926
30
0
0
VERTEX
8
R2V
62
0
70
32
10
4.493827
20
6.827160
30
0
0
VERTEX
8
R2V
62
0
70
32
10
4.518519
20
6.827160
30
0
0
VERTEX
8
R2V
62
0
70
32
10
4.580247
20
6.740741
30
0
0
VERTEX
8
R2V
62
0
70
32
10
4.604938
20
6.740741
30
0
0
VERTEX
8
R2V
62
0
70
32
10
4.604938
20
6.716049
30
0
0
VERTEX
8
R2V
62
0
70
32
10
4.530864
20
6.790123
30
0
0
VERTEX
8
R2V
62
0
70
32
10
4.481481
20
6.814815
30
0
0
VERTEX
8
R2V
62
0
70
32
10
4.395062
20
6.901235
30
0
0
VERTEX
8
R2V
62
0
70
32
10
4.308642
20
6.950617
30
0
0
VERTEX
8
R2V
62
0
70
32
10
4.246914
20
7.012346
30
0
0
VERTEX
8
R2V
62
0
70
32
10
4.049383
20
7.123457
30
0
0
VERTEX
8
R2V
62
0
70
32
10
4.049383
20
7.148148
30
0
0
VERTEX
8
R2V
62
0
70
32
10
3.987654
20
7.172840
30
0
0
VERTEX
8
R2V
62
0
70
32
10
3.827160
20
7.283951
30
0
0
VERTEX
8
R2V
62
0
70
32
10
3.765432
20
7.308642
30
0
0
VERTEX
8
R2V
62
0
70
32
10
3.518519
20
7.444444
30
0
0
VERTEX
8
R2V
62
0
70
32
10
3.432099
20
7.506173
30
0
0
VERTEX
8
R2V
62
0
70
32
10
3.382716
20
7.518519
30
0
0
VERTEX
8
R2V
62
0
70
32
10
3.283951
20
7.580247
30
0
0
VERTEX
8
R2V
62
0
70
32
10
3.172840
20
7.617284
30
0
0
VERTEX
8
R2V
62
0
70
32
10
2.938272
20
7.740741
30
0
0
VERTEX
8
R2V
62
0
70
32
10
2.950617
20
7.753086
30
0
0
SEQEND
0
POLYLINE
8
R2V
62
0
66
1
70
8
0
VERTEX
8
R2V
62
0
70
32
10
1.987654
20
7.753086
30
0
0
VERTEX
8
R2V
62
0
70
32
10
1.987654
20
7.740741
30
0
0
VERTEX
8
R2V
62
0
70
32
10
1.975309
20
7.740741
30
0
0
VERTEX
8
R2V
62
0
70
32
10
1.975309
20
7.753086
30
0
0
VERTEX
8
R2V
62
0
70
32
10
1.987654
20
7.753086
30
0
0
SEQEND
0
POLYLINE
8
R2V
62
0
66
1
70
8
0
VERTEX
8
R2V
62
0
70
32
10
2.098765
20
7.740741
30
0
0
VERTEX
8
R2V
62
0
70
32
10
2.098765
20
7.728395
30
0
0
VERTEX
8
R2V
62
0
70
32
10
2.074074
20
7.728395
30
0
0
VERTEX
8
R2V
62
0
70
32
10
2.074074
20
7.740741
30
0
0
VERTEX
8
R2V
62
0
70
32
10
2.098765
20
7.740741
30
0
0
SEQEND
0
POLYLINE
8
R2V
62
0
66
1
70
8
0
VERTEX
8
R2V
62
0
70
32
10
2.111111
20
7.703704
30
0
0
VERTEX
8
R2V
62
0
70
32
10
2.111111
20
7.691358
30
0
0
VERTEX
8
R2V
62
0
70
32
10
2.098765
20
7.691358
30
0
0
VERTEX
8
R2V
62
0
70
32
10
2.098765
20
7.703704
30
0
0
VERTEX
8
R2V
62
0
70
32
10
2.111111
20
7.703704
30
0
0
SEQEND
0
POLYLINE
8
R2V
62
0
66
1
70
8
0
VERTEX
8
R2V
62
0
70
32
10
2.148148
20
7.617284
30
0
0
VERTEX
8
R2V
62
0
70
32
10
2.135802
20
7.617284
30
0
0
VERTEX
8
R2V
62
0
70
32
10
2.135802
20
7.604938
30
0
0
VERTEX
8
R2V
62
0
70
32
10
2.148148
20
7.604938
30
0
0
VERTEX
8
R2V
62
0
70
32
10
2.148148
20
7.617284
30
0
0
SEQEND
0
POLYLINE
8
R2V
62
0
66
1
70
8
0
VERTEX
8
R2V
62
0
70
32
10
2.049383
20
8.234568
30
0
0
VERTEX
8
R2V
62
0
70
32
10
2.049383
20
8.209877
30
0
0
VERTEX
8
R2V
62
0
70
32
10
2.024691
20
8.209877
30
0
0
VERTEX
8
R2V
62
0
70
32
10
2.024691
20
8.222222
30
0
0
VERTEX
8
R2V
62
0
70
32
10
2.037037
20
8.222222
30
0
0
VERTEX
8
R2V
62
0
70
32
10
2.037037
20
8.234568
30
0
0
VERTEX
8
R2V
62
0
70
32
10
2.049383
20
8.234568
30
0
0
SEQEND
0
POLYLINE
8
R2V
62
0
66
1
70
8
0
VERTEX
8
R2V
62
0
70
32
10
2.037037
20
8.197531
30
0
0
VERTEX
8
R2V
62
0
70
32
10
2.037037
20
8.172840
30
0
0
VERTEX
8
R2V
62
0
70
32
10
2.012346
20
8.172840
30
0
0
VERTEX
8
R2V
62
0
70
32
10
2.012346
20
8.185185
30
0
0
VERTEX
8
R2V
62
0
70
32
10
2.024691
20
8.185185
30
0
0
VERTEX
8
R2V
62
0
70
32
10
2.024691
20
8.197531
30
0
0
VERTEX
8
R2V
62
0
70
32
10
2.037037
20
8.197531
30
0
0
SEQEND
0
POLYLINE
8
R2V
62
0
66
1
70
8
0
VERTEX
8
R2V
62
0
70
32
10
1.864198
20
8.185185
30
0
0
VERTEX
8
R2V
62
0
70
32
10
1.864198
20
8.172840
30
0
0
VERTEX
8
R2V
62
0
70
32
10
1.839506
20
8.172840
30
0
0
VERTEX
8
R2V
62
0
70
32
10
1.839506
20
8.185185
30
0
0
VERTEX
8
R2V
62
0
70
32
10
1.864198
20
8.185185
30
0
0
SEQEND
0
POLYLINE
8
R2V
62
0
66
1
70
8
0
VERTEX
8
R2V
62
0
70
32
10
2.024691
20
8.148148
30
0
0
VERTEX
8
R2V
62
0
70
32
10
2.024691
20
8.135802
30
0
0
VERTEX
8
R2V
62
0
70
32
10
2.012346
20
8.135802
30
0
0
VERTEX
8
R2V
62
0
70
32
10
2.012346
20
8.148148
30
0
0
VERTEX
8
R2V
62
0
70
32
10
2.024691
20
8.148148
30
0
0
SEQEND
0
POLYLINE
8
R2V
62
0
66
1
70
8
0
VERTEX
8
R2V
62
0
70
32
10
1.851852
20
8.135802
30
0
0
VERTEX
8
R2V
62
0
70
32
10
1.851852
20
8.123457
30
0
0
VERTEX
8
R2V
62
0
70
32
10
1.839506
20
8.123457
30
0
0
VERTEX
8
R2V
62
0
70
32
10
1.839506
20
8.135802
30
0
0
VERTEX
8
R2V
62
0
70
32
10
1.851852
20
8.135802
30
0
0
SEQEND
0
POLYLINE
8
R2V
62
0
66
1
70
8
0
VERTEX
8
R2V
62
0
70
32
10
2.024691
20
8.111111
30
0
0
VERTEX
8
R2V
62
0
70
32
10
2.024691
20
8.098765
30
0
0
VERTEX
8
R2V
62
0
70
32
10
2.000000
20
8.098765
30
0
0
VERTEX
8
R2V
62
0
70
32
10
2.000000
20
8.111111
30
0
0
VERTEX
8
R2V
62
0
70
32
10
2.024691
20
8.111111
30
0
0
SEQEND
0
POLYLINE
8
R2V
62
0
66
1
70
8
0
VERTEX
8
R2V
62
0
70
32
10
2.024691
20
8.061728
30
0
0
VERTEX
8
R2V
62
0
70
32
10
2.024691
20
8.049383
30
0
0
VERTEX
8
R2V
62
0
70
32
10
2.000000
20
8.049383
30
0
0
VERTEX
8
R2V
62
0
70
32
10
2.000000
20
8.061728
30
0
0
VERTEX
8
R2V
62
0
70
32
10
2.024691
20
8.061728
30
0
0
SEQEND
0
POLYLINE
8
R2V
62
0
66
1
70
8
0
VERTEX
8
R2V
62
0
70
32
10
2.012346
20
8.037037
30
0
0
VERTEX
8
R2V
62
0
70
32
10
2.012346
20
8.024691
30
0
0
VERTEX
8
R2V
62
0
70
32
10
2.000000
20
8.024691
30
0
0
VERTEX
8
R2V
62
0
70
32
10
2.000000
20
8.037037
30
0
0
VERTEX
8
R2V
62
0
70
32
10
2.012346
20
8.037037
30
0
0
SEQEND
0
POLYLINE
8
R2V
62
0
66
1
70
8
0
VERTEX
8
R2V
62
0
70
32
10
2.024691
20
7.962963
30
0
0
VERTEX
8
R2V
62
0
70
32
10
2.024691
20
7.950617
30
0
0
VERTEX
8
R2V
62
0
70
32
10
2.012346
20
7.950617
30
0
0
VERTEX
8
R2V
62
0
70
32
10
2.012346
20
7.962963
30
0
0
VERTEX
8
R2V
62
0
70
32
10
2.024691
20
7.962963
30
0
0
SEQEND
0
POLYLINE
8
R2V
62
0
66
1
70
8
0
VERTEX
8
R2V
62
0
70
32
10
2.024691
20
7.925926
30
0
0
VERTEX
8
R2V
62
0
70
32
10
2.024691
20
7.913580
30
0
0
VERTEX
8
R2V
62
0
70
32
10
2.012346
20
7.913580
30
0
0
VERTEX
8
R2V
62
0
70
32
10
2.012346
20
7.925926
30
0
0
VERTEX
8
R2V
62
0
70
32
10
2.024691
20
7.925926
30
0
0
SEQEND
0
POLYLINE
8
R2V
62
0
66
1
70
8
0
VERTEX
8
R2V
62
0
70
32
10
1.888889
20
7.938272
30
0
0
VERTEX
8
R2V
62
0
70
32
10
1.888889
20
7.925926
30
0
0
VERTEX
8
R2V
62
0
70
32
10
1.876543
20
7.925926
30
0
0
VERTEX
8
R2V
62
0
70
32
10
1.876543
20
7.913580
30
0
0
VERTEX
8
R2V
62
0
70
32
10
1.864198
20
7.913580
30
0
0
VERTEX
8
R2V
62
0
70
32
10
1.864198
20
7.938272
30
0
0
VERTEX
8
R2V
62
0
70
32
10
1.888889
20
7.938272
30
0
0
SEQEND
0
POLYLINE
8
R2V
62
0
66
1
70
8
0
VERTEX
8
R2V
62
0
70
32
10
1.913580
20
7.888889
30
0
0
VERTEX
8
R2V
62
0
70
32
10
1.913580
20
7.876543
30
0
0
VERTEX
8
R2V
62
0
70
32
10
1.901235
20
7.876543
30
0
0
VERTEX
8
R2V
62
0
70
32
10
1.901235
20
7.888889
30
0
0
VERTEX
8
R2V
62
0
70
32
10
1.913580
20
7.888889
30
0
0
SEQEND
0
POLYLINE
8
R2V
62
0
66
1
70
8
0
VERTEX
8
R2V
62
0
70
32
10
2.074074
20
8.395062
30
0
0
VERTEX
8
R2V
62
0
70
32
10
2.074074
20
8.370370
30
0
0
VERTEX
8
R2V
62
0
70
32
10
2.086420
20
8.370370
30
0
0
VERTEX
8
R2V
62
0
70
32
10
2.086420
20
8.358025
30
0
0
VERTEX
8
R2V
62
0
70
32
10
2.061728
20
8.358025
30
0
0
VERTEX
8
R2V
62
0
70
32
10
2.061728
20
8.395062
30
0
0
VERTEX
8
R2V
62
0
70
32
10
2.074074
20
8.395062
30
0
0
SEQEND
0
POLYLINE
8
R2V
62
0
66
1
70
8
0
VERTEX
8
R2V
62
0
70
32
10
2.135802
20
8.333333
30
0
0
VERTEX
8
R2V
62
0
70
32
10
2.135802
20
8.320988
30
0
0
VERTEX
8
R2V
62
0
70
32
10
2.111111
20
8.320988
30
0
0
VERTEX
8
R2V
62
0
70
32
10
2.111111
20
8.333333
30
0
0
VERTEX
8
R2V
62
0
70
32
10
2.135802
20
8.333333
30
0
0
SEQEND
0
POLYLINE
8
R2V
62
0
66
1
70
8
0
VERTEX
8
R2V
62
0
70
32
10
2.086420
20
8.308642
30
0
0
VERTEX
8
R2V
62
0
70
32
10
2.086420
20
8.296296
30
0
0
VERTEX
8
R2V
62
0
70
32
10
2.074074
20
8.296296
30
0
0
VERTEX
8
R2V
62
0
70
32
10
2.074074
20
8.308642
30
0
0
VERTEX
8
R2V
62
0
70
32
10
2.086420
20
8.308642
30
0
0
SEQEND
0
POLYLINE
8
R2V
62
0
66
1
70
8
0
VERTEX
8
R2V
62
0
70
32
10
2.135802
20
7.629630
30
0
0
VERTEX
8
R2V
62
0
70
32
10
2.135802
20
7.617284
30
0
0
VERTEX
8
R2V
62
0
70
32
10
2.172840
20
7.641975
30
0
0
VERTEX
8
R2V
62
0
70
32
10
2.148148
20
7.666667
30
0
0
VERTEX
8
R2V
62
0
70
32
10
2.111111
20
7.666667
30
0
0
VERTEX
8
R2V
62
0
70
32
10
2.148148
20
7.666667
30
0
0
VERTEX
8
R2V
62
0
70
32
10
2.148148
20
7.703704
30
0
0
VERTEX
8
R2V
62
0
70
32
10
2.123457
20
7.703704
30
0
0
VERTEX
8
R2V
62
0
70
32
10
2.111111
20
7.814815
30
0
0
VERTEX
8
R2V
62
0
70
32
10
2.086420
20
7.814815
30
0
0
VERTEX
8
R2V
62
0
70
32
10
2.074074
20
8.012346
30
0
0
VERTEX
8
R2V
62
0
70
32
10
2.086420
20
8.185185
30
0
0
VERTEX
8
R2V
62
0
70
32
10
2.185185
20
8.308642
30
0
0
VERTEX
8
R2V
62
0
70
32
10
2.234568
20
8.333333
30
0
0
VERTEX
8
R2V
62
0
70
32
10
2.160494
20
8.333333
30
0
0
VERTEX
8
R2V
62
0
70
32
10
2.160494
20
8.358025
30
0
0
VERTEX
8
R2V
62
0
70
32
10
2.123457
20
8.358025
30
0
0
VERTEX
8
R2V
62
0
70
32
10
2.123457
20
8.382716
30
0
0
VERTEX
8
R2V
62
0
70
32
10
2.148148
20
8.395062
30
0
0
VERTEX
8
R2V
62
0
70
32
10
1.888889
20
8.395062
30
0
0
VERTEX
8
R2V
62
0
70
32
10
1.814815
20
8.345679
30
0
0
VERTEX
8
R2V
62
0
70
32
10
1.765432
20
8.222222
30
0
0
VERTEX
8
R2V
62
0
70
32
10
1.765432
20
8.037037
30
0
0
VERTEX
8
R2V
62
0
70
32
10
1.777778
20
8.037037
30
0
0
VERTEX
8
R2V
62
0
70
32
10
1.814815
20
7.913580
30
0
0
VERTEX
8
R2V
62
0
70
32
10
1.827160
20
7.913580
30
0
0
VERTEX
8
R2V
62
0
70
32
10
1.901235
20
7.790123
30
0
0
VERTEX
8
R2V
62
0
70
32
10
1.913580
20
7.790123
30
0
0
VERTEX
8
R2V
62
0
70
32
10
1.950617
20
7.728395
30
0
0
VERTEX
8
R2V
62
0
70
32
10
1.975309
20
7.728395
30
0
0
VERTEX
8
R2V
62
0
70
32
10
1.987654
20
7.691358
30
0
0
VERTEX
8
R2V
62
0
70
32
10
2.012346
20
7.691358
30
0
0
VERTEX
8
R2V
62
0
70
32
10
2.024691
20
7.716049
30
0
0
VERTEX
8
R2V
62
0
70
32
10
2.037037
20
7.641975
30
0
0
VERTEX
8
R2V
62
0
70
32
10
2.111111
20
7.641975
30
0
0
VERTEX
8
R2V
62
0
70
32
10
2.123457
20
7.629630
30
0
0
VERTEX
8
R2V
62
0
70
32
10
2.135802
20
7.629630
30
0
0
SEQEND
0
POLYLINE
8
R2V
62
0
66
1
70
8
0
VERTEX
8
R2V
62
0
70
32
10
1.259259
20
9.901235
30
0
0
VERTEX
8
R2V
62
0
70
32
10
1.456790
20
9.839506
30
0
0
VERTEX
8
R2V
62
0
70
32
10
1.592593
20
9.753086
30
0
0
VERTEX
8
R2V
62
0
70
32
10
1.641975
20
9.691358
30
0
0
VERTEX
8
R2V
62
0
70
32
10
1.666667
20
9.691358
30
0
0
VERTEX
8
R2V
62
0
70
32
10
1.777778
20
9.580247
30
0
0
VERTEX
8
R2V
62
0
70
32
10
1.814815
20
9.518519
30
0
0
VERTEX
8
R2V
62
0
70
32
10
1.827160
20
9.518519
30
0
0
VERTEX
8
R2V
62
0
70
32
10
1.913580
20
9.407407
30
0
0
VERTEX
8
R2V
62
0
70
32
10
1.913580
20
9.259259
30
0
0
VERTEX
8
R2V
62
0
70
32
10
1.864198
20
9.135802
30
0
0
VERTEX
8
R2V
62
0
70
32
10
1.864198
20
8.888889
30
0
0
VERTEX
8
R2V
62
0
70
32
10
1.876543
20
8.888889
30
0
0
VERTEX
8
R2V
62
0
70
32
10
1.913580
20
8.666667
30
0
0
VERTEX
8
R2V
62
0
70
32
10
1.925926
20
8.666667
30
0
0
VERTEX
8
R2V
62
0
70
32
10
1.950617
20
8.592593
30
0
0
VERTEX
8
R2V
62
0
70
32
10
1.962963
20
8.592593
30
0
0
VERTEX
8
R2V
62
0
70
32
10
2.074074
20
8.518519
30
0
0
VERTEX
8
R2V
62
0
70
32
10
2.123457
20
8.518519
30
0
0
VERTEX
8
R2V
62
0
70
32
10
2.370370
20
8.407407
30
0
0
VERTEX
8
R2V
62
0
70
32
10
2.604938
20
8.296296
30
0
0
VERTEX
8
R2V
62
0
70
32
10
2.654321
20
8.296296
30
0
0
VERTEX
8
R2V
62
0
70
32
10
3.024691
20
8.185185
30
0
0
VERTEX
8
R2V
62
0
70
32
10
3.246914
20
8.086420
30
0
0
VERTEX
8
R2V
62
0
70
32
10
3.283951
20
8.086420
30
0
0
VERTEX
8
R2V
62
0
70
32
10
3.530864
20
8.000000
30
0
0
VERTEX
8
R2V
62
0
70
32
10
3.691358
20
8.049383
30
0
0
VERTEX
8
R2V
62
0
70
32
10
3.790123
20
8.135802
30
0
0
VERTEX
8
R2V
62
0
70
32
10
3.814815
20
8.185185
30
0
0
VERTEX
8
R2V
62
0
70
32
10
3.925926
20
8.296296
30
0
0
VERTEX
8
R2V
62
0
70
32
10
3.950617
20
8.345679
30
0
0
VERTEX
8
R2V
62
0
70
32
10
4.012346
20
8.395062
30
0
0
VERTEX
8
R2V
62
0
70
32
10
4.037037
20
8.444444
30
0
0
VERTEX
8
R2V
62
0
70
32
10
4.098765
20
8.493827
30
0
0
VERTEX
8
R2V
62
0
70
32
10
4.123457
20
8.543210
30
0
0
VERTEX
8
R2V
62
0
70
32
10
4.197531
20
8.604938
30
0
0
VERTEX
8
R2V
62
0
70
32
10
4.222222
20
8.654321
30
0
0
VERTEX
8
R2V
62
0
70
32
10
4.345679
20
8.777778
30
0
0
VERTEX
8
R2V
62
0
70
32
10
4.444444
20
8.839506
30
0
0
VERTEX
8
R2V
62
0
70
32
10
4.481481
20
8.839506
30
0
0
VERTEX
8
R2V
62
0
70
32
10
4.481481
20
8.691358
30
0
0
VERTEX
8
R2V
62
0
70
32
10
4.419753
20
8.506173
30
0
0
VERTEX
8
R2V
62
0
70
32
10
4.382716
20
8.222222
30
0
0
VERTEX
8
R2V
62
0
70
32
10
4.407407
20
7.395062
30
0
0
VERTEX
8
R2V
62
0
70
32
10
4.419753
20
7.395062
30
0
0
VERTEX
8
R2V
62
0
70
32
10
4.493827
20
7.308642
30
0
0
VERTEX
8
R2V
62
0
70
32
10
4.518519
20
7.308642
30
0
0
VERTEX
8
R2V
62
0
70
32
10
4.641975
20
7.185185
30
0
0
VERTEX
8
R2V
62
0
70
32
10
4.679012
20
7.123457
30
0
0
VERTEX
8
R2V
62
0
70
32
10
4.691358
20
7.123457
30
0
0
VERTEX
8
R2V
62
0
70
32
10
4.765432
20
7.049383
30
0
0
VERTEX
8
R2V
62
0
70
32
10
4.790123
20
7.000000
30
0
0
VERTEX
8
R2V
62
0
70
32
10
4.802469
20
7.000000
30
0
0
VERTEX
8
R2V
62
0
70
32
10
5.037037
20
6.703704
30
0
0
VERTEX
8
R2V
62
0
70
32
10
5.259259
20
6.345679
30
0
0
VERTEX
8
R2V
62
0
70
32
10
5.358025
20
6.148148
30
0
0
VERTEX
8
R2V
62
0
70
32
10
5.370370
20
6.148148
30
0
0
VERTEX
8
R2V
62
0
70
32
10
5.407407
20
6.037037
30
0
0
VERTEX
8
R2V
62
0
70
32
10
5.419753
20
6.037037
30
0
0
VERTEX
8
R2V
62
0
70
32
10
5.456790
20
5.925926
30
0
0
VERTEX
8
R2V
62
0
70
32
10
5.469136
20
5.925926
30
0
0
VERTEX
8
R2V
62
0
70
32
10
5.592593
20
5.567901
30
0
0
VERTEX
8
R2V
62
0
70
32
10
5.679012
20
5.222222
30
0
0
VERTEX
8
R2V
62
0
70
32
10
5.740741
20
4.814815
30
0
0
VERTEX
8
R2V
62
0
70
32
10
5.753086
20
4.296296
30
0
0
VERTEX
8
R2V
62
0
70
32
10
5.765432
20
4.296296
30
0
0
VERTEX
8
R2V
62
0
70
32
10
5.814815
20
4.234568
30
0
0
VERTEX
8
R2V
62
0
70
32
10
5.839506
20
4.234568
30
0
0
VERTEX
8
R2V
62
0
70
32
10
5.864198
20
4.197531
30
0
0
VERTEX
8
R2V
62
0
70
32
10
5.888889
20
4.197531
30
0
0
VERTEX
8
R2V
62
0
70
32
10
6.074074
20
4.074074
30
0
0
VERTEX
8
R2V
62
0
70
32
10
6.074074
20
4.000000
30
0
0
VERTEX
8
R2V
62
0
70
32
10
6.024691
20
3.962963
30
0
0
VERTEX
8
R2V
62
0
70
32
10
5.925926
20
3.950617
30
0
0
VERTEX
8
R2V
62
0
70
32
10
5.888889
20
3.864198
30
0
0
VERTEX
8
R2V
62
0
70
32
10
5.901235
20
3.864198
30
0
0
VERTEX
8
R2V
62
0
70
32
10
6.148148
20
3.617284
30
0
0
VERTEX
8
R2V
62
0
70
32
10
6.172840
20
3.567901
30
0
0
VERTEX
8
R2V
62
0
70
32
10
6.185185
20
3.567901
30
0
0
VERTEX
8
R2V
62
0
70
32
10
6.185185
20
3.493827
30
0
0
VERTEX
8
R2V
62
0
70
32
10
6.135802
20
3.456790
30
0
0
VERTEX
8
R2V
62
0
70
32
10
5.913580
20
3.444444
30
0
0
VERTEX
8
R2V
62
0
70
32
10
5.814815
20
3.370370
30
0
0
VERTEX
8
R2V
62
0
70
32
10
5.802469
20
3.333333
30
0
0
VERTEX
8
R2V
62
0
70
32
10
5.765432
20
3.333333
30
0
0
VERTEX
8
R2V
62
0
70
32
10
5.716049
20
3.469136
30
0
0
VERTEX
8
R2V
62
0
70
32
10
5.654321
20
3.543210
30
0
0
VERTEX
8
R2V
62
0
70
32
10
5.617284
20
3.148148
30
0
0
VERTEX
8
R2V
62
0
70
32
10
5.530864
20
2.716049
30
0
0
VERTEX
8
R2V
62
0
70
32
10
5.543210
20
2.543210
30
0
0
VERTEX
8
R2V
62
0
70
32
10
5.555556
20
2.543210
30
0
0
VERTEX
8
R2V
62
0
70
32
10
5.728395
20
2.086420
30
0
0
VERTEX
8
R2V
62
0
70
32
10
5.753086
20
1.938272
30
0
0
VERTEX
8
R2V
62
0
70
32
10
5.740741
20
1.592593
30
0
0
VERTEX
8
R2V
62
0
70
32
10
5.691358
20
1.604938
30
0
0
VERTEX
8
R2V
62
0
70
32
10
5.555556
20
1.864198
30
0
0
VERTEX
8
R2V
62
0
70
32
10
5.530864
20
1.901235
30
0
0
VERTEX
8
R2V
62
0
70
32
10
5.419753
20
1.925926
30
0
0
VERTEX
8
R2V
62
0
70
32
10
5.382716
20
1.901235
30
0
0
VERTEX
8
R2V
62
0
70
32
10
5.345679
20
1.839506
30
0
0
VERTEX
8
R2V
62
0
70
32
10
5.259259
20
1.728395
30
0
0
VERTEX
8
R2V
62
0
70
32
10
5.234568
20
1.691358
30
0
0
VERTEX
8
R2V
62
0
70
32
10
5.234568
20
1.814815
30
0
0
VERTEX
8
R2V
62
0
70
32
10
5.234568
20
1.851852
30
0
0
VERTEX
8
R2V
62
0
70
32
10
5.098765
20
1.629630
30
0
0
VERTEX
8
R2V
62
0
70
32
10
5.061728
20
1.555556
30
0
0
VERTEX
8
R2V
62
0
70
32
10
5.074074
20
1.444444
30
0
0
VERTEX
8
R2V
62
0
70
32
10
5.086420
20
1.444444
30
0
0
VERTEX
8
R2V
62
0
70
32
10
5.160494
20
1.345679
30
0
0
VERTEX
8
R2V
62
0
70
32
10
5.172840
20
1.345679
30
0
0
VERTEX
8
R2V
62
0
70
32
10
5.209877
20
1.296296
30
0
0
VERTEX
8
R2V
62
0
70
32
10
5.234568
20
1.296296
30
0
0
VERTEX
8
R2V
62
0
70
32
10
5.283951
20
1.234568
30
0
0
VERTEX
8
R2V
62
0
70
32
10
5.308642
20
1.234568
30
0
0
VERTEX
8
R2V
62
0
70
32
10
5.345679
20
1.185185
30
0
0
VERTEX
8
R2V
62
0
70
32
10
5.370370
20
1.185185
30
0
0
VERTEX
8
R2V
62
0
70
32
10
5.543210
20
1.024691
30
0
0
VERTEX
8
R2V
62
0
70
32
10
5.567901
20
1.024691
30
0
0
VERTEX
8
R2V
62
0
70
32
10
5.839506
20
0.753086
30
0
0
VERTEX
8
R2V
62
0
70
32
10
5.876543
20
0.691358
30
0
0
VERTEX
8
R2V
62
0
70
32
10
5.888889
20
0.691358
30
0
0
VERTEX
8
R2V
62
0
70
32
10
6.024691
20
0.518519
30
0
0
VERTEX
8
R2V
62
0
70
32
10
6.049383
20
0.395062
30
0
0
VERTEX
8
R2V
62
0
70
32
10
5.987654
20
0.395062
30
0
0
VERTEX
8
R2V
62
0
70
32
10
5.876543
20
0.493827
30
0
0
VERTEX
8
R2V
62
0
70
32
10
5.530864
20
0.691358
30
0
0
VERTEX
8
R2V
62
0
70
32
10
5.419753
20
0.740741
30
0
0
VERTEX
8
R2V
62
0
70
32
10
4.925926
20
1.000000
30
0
0
VERTEX
8
R2V
62
0
70
32
10
4.703704
20
1.074074
30
0
0
VERTEX
8
R2V
62
0
70
32
10
4.209877
20
1.024691
30
0
0
VERTEX
8
R2V
62
0
70
32
10
3.913580
20
0.962963
30
0
0
VERTEX
8
R2V
62
0
70
32
10
3.592593
20
0.864198
30
0
0
VERTEX
8
R2V
62
0
70
32
10
2.987654
20
0.629630
30
0
0
VERTEX
8
R2V
62
0
70
32
10
2.876543
20
0.567901
30
0
0
VERTEX
8
R2V
62
0
70
32
10
2.913580
20
0.530864
30
0
0
VERTEX
8
R2V
62
0
70
32
10
2.938272
20
0.530864
30
0
0
VERTEX
8
R2V
62
0
70
32
10
2.950617
20
0.481481
30
0
0
VERTEX
8
R2V
62
0
70
32
10
2.790123
20
0.444444
30
0
0
VERTEX
8
R2V
62
0
70
32
10
2.654321
20
0.320988
30
0
0
VERTEX
8
R2V
62
0
70
32
10
2.604938
20
0.234568
30
0
0
VERTEX
8
R2V
62
0
70
32
10
2.555556
20
0.246914
30
0
0
VERTEX
8
R2V
62
0
70
32
10
2.592593
20
0.432099
30
0
0
VERTEX
8
R2V
62
0
70
32
10
2.666667
20
0.567901
30
0
0
VERTEX
8
R2V
62
0
70
32
10
2.802469
20
0.753086
30
0
0
VERTEX
8
R2V
62
0
70
32
10
2.888889
20
0.839506
30
0
0
VERTEX
8
R2V
62
0
70
32
10
2.925926
20
0.901235
30
0
0
VERTEX
8
R2V
62
0
70
32
10
3.086420
20
1.061728
30
0
0
VERTEX
8
R2V
62
0
70
32
10
3.135802
20
1.086420
30
0
0
VERTEX
8
R2V
62
0
70
32
10
3.185185
20
1.148148
30
0
0
VERTEX
8
R2V
62
0
70
32
10
3.234568
20
1.172840
30
0
0
VERTEX
8
R2V
62
0
70
32
10
3.333333
20
1.259259
30
0
0
VERTEX
8
R2V
62
0
70
32
10
3.691358
20
1.456790
30
0
0
VERTEX
8
R2V
62
0
70
32
10
4.160494
20
1.629630
30
0
0
VERTEX
8
R2V
62
0
70
32
10
4.567901
20
1.740741
30
0
0
VERTEX
8
R2V
62
0
70
32
10
4.604938
20
1.765432
30
0
0
VERTEX
8
R2V
62
0
70
32
10
4.641975
20
1.839506
30
0
0
VERTEX
8
R2V
62
0
70
32
10
4.679012
20
2.037037
30
0
0
VERTEX
8
R2V
62
0
70
32
10
4.716049
20
2.592593
30
0
0
VERTEX
8
R2V
62
0
70
32
10
4.654321
20
2.493827
30
0
0
VERTEX
8
R2V
62
0
70
32
10
4.567901
20
2.197531
30
0
0
VERTEX
8
R2V
62
0
70
32
10
4.518519
20
2.197531
30
0
0
VERTEX
8
R2V
62
0
70
32
10
4.555556
20
2.506173
30
0
0
VERTEX
8
R2V
62
0
70
32
10
4.506173
20
2.716049
30
0
0
VERTEX
8
R2V
62
0
70
32
10
4.444444
20
2.765432
30
0
0
VERTEX
8
R2V
62
0
70
32
10
4.358025
20
2.790123
30
0
0
VERTEX
8
R2V
62
0
70
32
10
4.358025
20
2.851852
30
0
0
VERTEX
8
R2V
62
0
70
32
10
4.419753
20
2.925926
30
0
0
VERTEX
8
R2V
62
0
70
32
10
4.469136
20
2.950617
30
0
0
VERTEX
8
R2V
62
0
70
32
10
4.691358
20
3.148148
30
0
0
VERTEX
8
R2V
62
0
70
32
10
4.716049
20
3.197531
30
0
0
VERTEX
8
R2V
62
0
70
32
10
4.740741
20
3.234568
30
0
0
VERTEX
8
R2V
62
0
70
32
10
4.716049
20
3.740741
30
0
0
VERTEX
8
R2V
62
0
70
32
10
4.641975
20
4.123457
30
0
0
VERTEX
8
R2V
62
0
70
32
10
4.518519
20
4.481481
30
0
0
VERTEX
8
R2V
62
0
70
32
10
4.407407
20
4.691358
30
0
0
VERTEX
8
R2V
62
0
70
32
10
4.172840
20
5.037037
30
0
0
VERTEX
8
R2V
62
0
70
32
10
4.135802
20
5.012346
30
0
0
VERTEX
8
R2V
62
0
70
32
10
4.061728
20
5.098765
30
0
0
VERTEX
8
R2V
62
0
70
32
10
3.901235
20
5.135802
30
0
0
VERTEX
8
R2V
62
0
70
32
10
3.246914
20
5.012346
30
0
0
VERTEX
8
R2V
62
0
70
32
10
2.913580
20
4.925926
30
0
0
VERTEX
8
R2V
62
0
70
32
10
2.703704
20
4.790123
30
0
0
VERTEX
8
R2V
62
0
70
32
10
2.641975
20
4.802469
30
0
0
VERTEX
8
R2V
62
0
70
32
10
2.641975
20
4.901235
30
0
0
VERTEX
8
R2V
62
0
70
32
10
2.728395
20
5.086420
30
0
0
VERTEX
8
R2V
62
0
70
32
10
2.876543
20
5.308642
30
0
0
VERTEX
8
R2V
62
0
70
32
10
3.012346
20
5.456790
30
0
0
VERTEX
8
R2V
62
0
70
32
10
3.037037
20
5.506173
30
0
0
VERTEX
8
R2V
62
0
70
32
10
3.111111
20
5.567901
30
0
0
VERTEX
8
R2V
62
0
70
32
10
3.135802
20
5.617284
30
0
0
VERTEX
8
R2V
62
0
70
32
10
3.185185
20
5.654321
30
0
0
VERTEX
8
R2V
62
0
70
32
10
3.209877
20
5.703704
30
0
0
VERTEX
8
R2V
62
0
70
32
10
3.271605
20
5.814815
30
0
0
VERTEX
8
R2V
62
0
70
32
10
3.271605
20
6.000000
30
0
0
VERTEX
8
R2V
62
0
70
32
10
3.123457
20
6.185185
30
0
0
VERTEX
8
R2V
62
0
70
32
10
3.049383
20
6.259259
30
0
0
VERTEX
8
R2V
62
0
70
32
10
2.962963
20
6.296296
30
0
0
VERTEX
8
R2V
62
0
70
32
10
2.876543
20
6.395062
30
0
0
VERTEX
8
R2V
62
0
70
32
10
2.802469
20
6.419753
30
0
0
VERTEX
8
R2V
62
0
70
32
10
2.740741
20
6.493827
30
0
0
VERTEX
8
R2V
62
0
70
32
10
2.666667
20
6.518519
30
0
0
VERTEX
8
R2V
62
0
70
32
10
2.543210
20
6.641975
30
0
0
VERTEX
8
R2V
62
0
70
32
10
2.432099
20
6.716049
30
0
0
VERTEX
8
R2V
62
0
70
32
10
2.407407
20
6.753086
30
0
0
VERTEX
8
R2V
62
0
70
32
10
2.382716
20
6.753086
30
0
0
VERTEX
8
R2V
62
0
70
32
10
2.358025
20
6.802469
30
0
0
VERTEX
8
R2V
62
0
70
32
10
2.037037
20
7.123457
30
0
0
VERTEX
8
R2V
62
0
70
32
10
1.975309
20
7.160494
30
0
0
VERTEX
8
R2V
62
0
70
32
10
1.938272
20
7.209877
30
0
0
VERTEX
8
R2V
62
0
70
32
10
1.888889
20
7.197531
30
0
0
VERTEX
8
R2V
62
0
70
32
10
1.864198
20
7.123457
30
0
0
VERTEX
8
R2V
62
0
70
32
10
1.876543
20
6.913580
30
0
0
VERTEX
8
R2V
62
0
70
32
10
1.888889
20
6.913580
30
0
0
VERTEX
8
R2V
62
0
70
32
10
1.925926
20
6.740741
30
0
0
VERTEX
8
R2V
62
0
70
32
10
1.938272
20
6.740741
30
0
0
VERTEX
8
R2V
62
0
70
32
10
2.000000
20
6.530864
30
0
0
VERTEX
8
R2V
62
0
70
32
10
2.012346
20
6.530864
30
0
0
VERTEX
8
R2V
62
0
70
32
10
2.098765
20
6.296296
30
0
0
VERTEX
8
R2V
62
0
70
32
10
2.111111
20
6.296296
30
0
0
VERTEX
8
R2V
62
0
70
32
10
2.148148
20
6.209877
30
0
0
VERTEX
8
R2V
62
0
70
32
10
2.135802
20
6.111111
30
0
0
VERTEX
8
R2V
62
0
70
32
10
2.098765
20
6.074074
30
0
0
VERTEX
8
R2V
62
0
70
32
10
1.901235
20
6.037037
30
0
0
VERTEX
8
R2V
62
0
70
32
10
1.530864
20
6.037037
30
0
0
VERTEX
8
R2V
62
0
70
32
10
1.456790
20
6.086420
30
0
0
VERTEX
8
R2V
62
0
70
32
10
1.407407
20
6.098765
30
0
0
VERTEX
8
R2V
62
0
70
32
10
1.333333
20
6.160494
30
0
0
VERTEX
8
R2V
62
0
70
32
10
1.271605
20
6.308642
30
0
0
VERTEX
8
R2V
62
0
70
32
10
1.246914
20
6.790123
30
0
0
VERTEX
8
R2V
62
0
70
32
10
1.123457
20
7.098765
30
0
0
VERTEX
8
R2V
62
0
70
32
10
1.049383
20
7.592593
30
0
0
VERTEX
8
R2V
62
0
70
32
10
0.975309
20
7.814815
30
0
0
VERTEX
8
R2V
62
0
70
32
10
0.962963
20
7.913580
30
0
0
VERTEX
8
R2V
62
0
70
32
10
0.913580
20
8.160494
30
0
0
VERTEX
8
R2V
62
0
70
32
10
0.925926
20
8.432099
30
0
0
VERTEX
8
R2V
62
0
70
32
10
0.975309
20
8.592593
30
0
0
VERTEX
8
R2V
62
0
70
32
10
1.012346
20
8.925926
30
0
0
VERTEX
8
R2V
62
0
70
32
10
1.037037
20
9.283951
30
0
0
VERTEX
8
R2V
62
0
70
32
10
1.061728
20
9.444444
30
0
0
VERTEX
8
R2V
62
0
70
32
10
1.037037
20
9.629630
30
0
0
VERTEX
8
R2V
62
0
70
32
10
1.049383
20
9.728395
30
0
0
VERTEX
8
R2V
62
0
70
32
10
1.111111
20
9.851852
30
0
0
VERTEX
8
R2V
62
0
70
32
10
1.160494
20
9.888889
30
0
0
VERTEX
8
R2V
62
0
70
32
10
1.259259
20
9.901235
30
0
0
SEQEND
0
POLYLINE
8
R2V
62
0
66
1
70
8
0
VERTEX
8
R2V
62
0
70
32
10
3.296296
20
5.049383
30
0
0
VERTEX
8
R2V
62
0
70
32
10
3.296296
20
5.037037
30
0
0
VERTEX
8
R2V
62
0
70
32
10
3.432099
20
5.074074
30
0
0
VERTEX
8
R2V
62
0
70
32
10
3.456790
20
5.123457
30
0
0
VERTEX
8
R2V
62
0
70
32
10
3.641975
20
5.320988
30
0
0
VERTEX
8
R2V
62
0
70
32
10
3.691358
20
5.345679
30
0
0
VERTEX
8
R2V
62
0
70
32
10
3.765432
20
5.395062
30
0
0
VERTEX
8
R2V
62
0
70
32
10
3.777778
20
5.370370
30
0
0
VERTEX
8
R2V
62
0
70
32
10
3.691358
20
5.320988
30
0
0
VERTEX
8
R2V
62
0
70
32
10
3.506173
20
5.148148
30
0
0
VERTEX
8
R2V
62
0
70
32
10
3.469136
20
5.086420
30
0
0
VERTEX
8
R2V
62
0
70
32
10
3.567901
20
5.098765
30
0
0
VERTEX
8
R2V
62
0
70
32
10
3.617284
20
5.209877
30
0
0
VERTEX
8
R2V
62
0
70
32
10
3.679012
20
5.296296
30
0
0
VERTEX
8
R2V
62
0
70
32
10
3.777778
20
5.358025
30
0
0
VERTEX
8
R2V
62
0
70
32
10
3.777778
20
5.320988
30
0
0
VERTEX
8
R2V
62
0
70
32
10
3.691358
20
5.271605
30
0
0
VERTEX
8
R2V
62
0
70
32
10
3.604938
20
5.111111
30
0
0
VERTEX
8
R2V
62
0
70
32
10
3.691358
20
5.123457
30
0
0
VERTEX
8
R2V
62
0
70
32
10
3.753086
20
5.271605
30
0
0
VERTEX
8
R2V
62
0
70
32
10
3.802469
20
5.308642
30
0
0
VERTEX
8
R2V
62
0
70
32
10
3.827160
20
5.358025
30
0
0
VERTEX
8
R2V
62
0
70
32
10
3.864198
20
5.358025
30
0
0
VERTEX
8
R2V
62
0
70
32
10
3.864198
20
5.333333
30
0
0
VERTEX
8
R2V
62
0
70
32
10
3.802469
20
5.296296
30
0
0
VERTEX
8
R2V
62
0
70
32
10
3.728395
20
5.185185
30
0
0
VERTEX
8
R2V
62
0
70
32
10
3.716049
20
5.135802
30
0
0
VERTEX
8
R2V
62
0
70
32
10
3.814815
20
5.148148
30
0
0
VERTEX
8
R2V
62
0
70
32
10
3.851852
20
5.320988
30
0
0
VERTEX
8
R2V
62
0
70
32
10
3.864198
20
5.320988
30
0
0
VERTEX
8
R2V
62
0
70
32
10
3.876543
20
5.308642
30
0
0
VERTEX
8
R2V
62
0
70
32
10
3.876543
20
5.333333
30
0
0
VERTEX
8
R2V
62
0
70
32
10
3.901235
20
5.333333
30
0
0
VERTEX
8
R2V
62
0
70
32
10
3.913580
20
5.160494
30
0
0
VERTEX
8
R2V
62
0
70
32
10
3.950617
20
5.160494
30
0
0
VERTEX
8
R2V
62
0
70
32
10
3.975309
20
5.148148
30
0
0
VERTEX
8
R2V
62
0
70
32
10
3.913580
20
5.296296
30
0
0
VERTEX
8
R2V
62
0
70
32
10
3.950617
20
5.296296
30
0
0
VERTEX
8
R2V
62
0
70
32
10
3.987654
20
5.185185
30
0
0
VERTEX
8
R2V
62
0
70
32
10
4.000000
20
5.185185
30
0
0
VERTEX
8
R2V
62
0
70
32
10
4.012346
20
5.135802
30
0
0
VERTEX
8
R2V
62
0
70
32
10
4.049383
20
5.135802
30
0
0
VERTEX
8
R2V
62
0
70
32
10
4.123457
20
5.074074
30
0
0
VERTEX
8
R2V
62
0
70
32
10
4.098765
20
5.148148
30
0
0
VERTEX
8
R2V
62
0
70
32
10
4.123457
20
5.160494
30
0
0
VERTEX
8
R2V
62
0
70
32
10
4.148148
20
5.111111
30
0
0
VERTEX
8
R2V
62
0
70
32
10
4.160494
20
5.111111
30
0
0
VERTEX
8
R2V
62
0
70
32
10
4.395062
20
4.765432
30
0
0
VERTEX
8
R2V
62
0
70
32
10
4.530864
20
4.506173
30
0
0
VERTEX
8
R2V
62
0
70
32
10
4.543210
20
4.506173
30
0
0
VERTEX
8
R2V
62
0
70
32
10
4.555556
20
4.432099
30
0
0
VERTEX
8
R2V
62
0
70
32
10
4.567901
20
4.432099
30
0
0
VERTEX
8
R2V
62
0
70
32
10
4.679012
20
4.086420
30
0
0
VERTEX
8
R2V
62
0
70
32
10
4.740741
20
3.740741
30
0
0
VERTEX
8
R2V
62
0
70
32
10
4.765432
20
3.234568
30
0
0
VERTEX
8
R2V
62
0
70
32
10
4.753086
20
3.185185
30
0
0
VERTEX
8
R2V
62
0
70
32
10
4.740741
20
3.197531
30
0
0
VERTEX
8
R2V
62
0
70
32
10
4.740741
20
3.172840
30
0
0
VERTEX
8
R2V
62
0
70
32
10
4.703704
20
3.148148
30
0
0
VERTEX
8
R2V
62
0
70
32
10
4.691358
20
3.098765
30
0
0
VERTEX
8
R2V
62
0
70
32
10
4.592593
20
3.024691
30
0
0
VERTEX
8
R2V
62
0
70
32
10
4.604938
20
3.000000
30
0
0
VERTEX
8
R2V
62
0
70
32
10
4.629630
20
3.024691
30
0
0
VERTEX
8
R2V
62
0
70
32
10
4.592593
20
2.987654
30
0
0
VERTEX
8
R2V
62
0
70
32
10
4.555556
20
2.987654
30
0
0
VERTEX
8
R2V
62
0
70
32
10
4.543210
20
2.950617
30
0
0
VERTEX
8
R2V
62
0
70
32
10
4.493827
20
2.950617
30
0
0
VERTEX
8
R2V
62
0
70
32
10
4.493827
20
2.925926
30
0
0
VERTEX
8
R2V
62
0
70
32
10
4.444444
20
2.913580
30
0
0
VERTEX
8
R2V
62
0
70
32
10
4.444444
20
2.888889
30
0
0
VERTEX
8
R2V
62
0
70
32
10
4.382716
20
2.851852
30
0
0
VERTEX
8
R2V
62
0
70
32
10
4.382716
20
2.802469
30
0
0
VERTEX
8
R2V
62
0
70
32
10
4.407407
20
2.802469
30
0
0
VERTEX
8
R2V
62
0
70
32
10
4.506173
20
2.765432
30
0
0
VERTEX
8
R2V
62
0
70
32
10
4.567901
20
2.592593
30
0
0
VERTEX
8
R2V
62
0
70
32
10
4.580247
20
2.592593
30
0
0
VERTEX
8
R2V
62
0
70
32
10
4.567901
20
2.333333
30
0
0
VERTEX
8
R2V
62
0
70
32
10
4.567901
20
2.320988
30
0
0
VERTEX
8
R2V
62
0
70
32
10
4.679012
20
2.604938
30
0
0
VERTEX
8
R2V
62
0
70
32
10
4.716049
20
2.654321
30
0
0
VERTEX
8
R2V
62
0
70
32
10
4.716049
20
2.703704
30
0
0
VERTEX
8
R2V
62
0
70
32
10
4.753086
20
2.703704
30
0
0
VERTEX
8
R2V
62
0
70
32
10
4.691358
20
1.962963
30
0
0
VERTEX
8
R2V
62
0
70
32
10
4.641975
20
1.777778
30
0
0
VERTEX
8
R2V
62
0
70
32
10
4.580247
20
1.716049
30
0
0
VERTEX
8
R2V
62
0
70
32
10
4.098765
20
1.580247
30
0
0
VERTEX
8
R2V
62
0
70
32
10
3.765432
20
1.456790
30
0
0
VERTEX
8
R2V
62
0
70
32
10
3.530864
20
1.345679
30
0
0
VERTEX
8
R2V
62
0
70
32
10
3.296296
20
1.197531
30
0
0
VERTEX
8
R2V
62
0
70
32
10
3.135802
20
1.049383
30
0
0
VERTEX
8
R2V
62
0
70
32
10
3.074074
20
1.012346
30
0
0
VERTEX
8
R2V
62
0
70
32
10
2.901235
20
0.839506
30
0
0
VERTEX
8
R2V
62
0
70
32
10
2.864198
20
0.777778
30
0
0
VERTEX
8
R2V
62
0
70
32
10
2.777778
20
0.691358
30
0
0
VERTEX
8
R2V
62
0
70
32
10
2.641975
20
0.481481
30
0
0
VERTEX
8
R2V
62
0
70
32
10
2.592593
20
0.358025
30
0
0
VERTEX
8
R2V
62
0
70
32
10
2.592593
20
0.283951
30
0
0
SEQEND
0
POLYLINE
8
R2V
62
0
66
1
70
8
0
VERTEX
8
R2V
62
0
70
32
10
3.654321
20
5.382716
30
0
0
VERTEX
8
R2V
62
0
70
32
10
3.592593
20
5.358025
30
0
0
VERTEX
8
R2V
62
0
70
32
10
3.407407
20
5.234568
30
0
0
VERTEX
8
R2V
62
0
70
32
10
3.098765
20
5.000000
30
0
0
VERTEX
8
R2V
62
0
70
32
10
3.234568
20
5.024691
30
0
0
VERTEX
8
R2V
62
0
70
32
10
3.234568
20
5.049383
30
0
0
VERTEX
8
R2V
62
0
70
32
10
3.296296
20
5.086420
30
0
0
VERTEX
8
R2V
62
0
70
32
10
3.333333
20
5.135802
30
0
0
VERTEX
8
R2V
62
0
70
32
10
3.382716
20
5.160494
30
0
0
VERTEX
8
R2V
62
0
70
32
10
3.419753
20
5.209877
30
0
0
VERTEX
8
R2V
62
0
70
32
10
3.469136
20
5.234568
30
0
0
VERTEX
8
R2V
62
0
70
32
10
3.580247
20
5.333333
30
0
0
VERTEX
8
R2V
62
0
70
32
10
3.703704
20
5.395062
30
0
0
VERTEX
8
R2V
62
0
70
32
10
3.703704
20
5.370370
30
0
0
VERTEX
8
R2V
62
0
70
32
10
3.543210
20
5.271605
30
0
0
VERTEX
8
R2V
62
0
70
32
10
3.469136
20
5.197531
30
0
0
VERTEX
8
R2V
62
0
70
32
10
3.407407
20
5.160494
30
0
0
VERTEX
8
R2V
62
0
70
32
10
3.382716
20
5.123457
30
0
0
VERTEX
8
R2V
62
0
70
32
10
3.320988
20
5.086420
30
0
0
VERTEX
8
R2V
62
0
70
32
10
3.296296
20
5.049383
30
0
0
SEQEND
0
POLYLINE
8
R2V
62
0
66
1
70
8
0
VERTEX
8
R2V
62
0
70
32
10
5.271605
20
1.790123
30
0
0
VERTEX
8
R2V
62
0
70
32
10
5.271605
20
1.777778
30
0
0
VERTEX
8
R2V
62
0
70
32
10
5.283951
20
1.827160
30
0
0
VERTEX
8
R2V
62
0
70
32
10
5.320988
20
1.839506
30
0
0
VERTEX
8
R2V
62
0
70
32
10
5.320988
20
1.876543
30
0
0
VERTEX
8
R2V
62
0
70
32
10
5.370370
20
1.901235
30
0
0
VERTEX
8
R2V
62
0
70
32
10
5.370370
20
1.925926
30
0
0
VERTEX
8
R2V
62
0
70
32
10
5.493827
20
1.950617
30
0
0
VERTEX
8
R2V
62
0
70
32
10
5.555556
20
1.913580
30
0
0
VERTEX
8
R2V
62
0
70
32
10
5.691358
20
1.654321
30
0
0
VERTEX
8
R2V
62
0
70
32
10
5.691358
20
2.012346
30
0
0
VERTEX
8
R2V
62
0
70
32
10
5.530864
20
2.469136
30
0
0
VERTEX
8
R2V
62
0
70
32
10
5.506173
20
2.543210
30
0
0
VERTEX
8
R2V
62
0
70
32
10
5.506173
20
2.629630
30
0
0
VERTEX
8
R2V
62
0
70
32
10
5.506173
20
2.728395
30
0
0
VERTEX
8
R2V
62
0
70
32
10
5.567901
20
2.987654
30
0
0
VERTEX
8
R2V
62
0
70
32
10
5.617284
20
3.320988
30
0
0
VERTEX
8
R2V
62
0
70
32
10
5.617284
20
3.543210
30
0
0
VERTEX
8
R2V
62
0
70
32
10
5.617284
20
3.901235
30
0
0
VERTEX
8
R2V
62
0
70
32
10
5.666667
20
4.172840
30
0
0
VERTEX
8
R2V
62
0
70
32
10
5.679012
20
4.172840
30
0
0
VERTEX
8
R2V
62
0
70
32
10
5.629630
20
3.580247
30
0
0
VERTEX
8
R2V
62
0
70
32
10
5.666667
20
3.580247
30
0
0
VERTEX
8
R2V
62
0
70
32
10
5.740741
20
3.481481
30
0
0
VERTEX
8
R2V
62
0
70
32
10
5.777778
20
3.370370
30
0
0
VERTEX
8
R2V
62
0
70
32
10
5.802469
20
3.370370
30
0
0
VERTEX
8
R2V
62
0
70
32
10
5.827160
20
3.419753
30
0
0
VERTEX
8
R2V
62
0
70
32
10
5.901235
20
3.469136
30
0
0
VERTEX
8
R2V
62
0
70
32
10
6.049383
20
3.481481
30
0
0
VERTEX
8
R2V
62
0
70
32
10
6.148148
20
3.493827
30
0
0
VERTEX
8
R2V
62
0
70
32
10
6.172840
20
3.530864
30
0
0
VERTEX
8
R2V
62
0
70
32
10
5.938272
20
3.790123
30
0
0
VERTEX
8
R2V
62
0
70
32
10
5.876543
20
3.839506
30
0
0
VERTEX
8
R2V
62
0
70
32
10
5.851852
20
3.888889
30
0
0
VERTEX
8
R2V
62
0
70
32
10
5.814815
20
3.913580
30
0
0
VERTEX
8
R2V
62
0
70
32
10
5.790123
20
3.962963
30
0
0
VERTEX
8
R2V
62
0
70
32
10
5.716049
20
4.061728
30
0
0
VERTEX
8
R2V
62
0
70
32
10
5.716049
20
4.370370
30
0
0
VERTEX
8
R2V
62
0
70
32
10
5.716049
20
4.802469
30
0
0
VERTEX
8
R2V
62
0
70
32
10
5.629630
20
5.320988
30
0
0
VERTEX
8
R2V
62
0
70
32
10
5.493827
20
5.790123
30
0
0
VERTEX
8
R2V
62
0
70
32
10
5.296296
20
6.222222
30
0
0
VERTEX
8
R2V
62
0
70
32
10
5.086420
20
6.580247
30
0
0
VERTEX
8
R2V
62
0
70
32
10
4.925926
20
6.802469
30
0
0
VERTEX
8
R2V
62
0
70
32
10
4.765432
20
6.987654
30
0
0
VERTEX
8
R2V
62
0
70
32
10
4.740741
20
7.037037
30
0
0
VERTEX
8
R2V
62
0
70
32
10
4.641975
20
7.123457
30
0
0
VERTEX
8
R2V
62
0
70
32
10
4.617284
20
7.172840
30
0
0
VERTEX
8
R2V
62
0
70
32
10
4.493827
20
7.296296
30
0
0
VERTEX
8
R2V
62
0
70
32
10
4.444444
20
7.320988
30
0
0
VERTEX
8
R2V
62
0
70
32
10
4.382716
20
7.382716
30
0
0
VERTEX
8
R2V
62
0
70
32
10
4.370370
20
7.543210
30
0
0
VERTEX
8
R2V
62
0
70
32
10
4.370370
20
8.382716
30
0
0
VERTEX
8
R2V
62
0
70
32
10
4.444444
20
8.703704
30
0
0
VERTEX
8
R2V
62
0
70
32
10
4.469136
20
8.814815
30
0
0
VERTEX
8
R2V
62
0
70
32
10
4.407407
20
8.790123
30
0
0
VERTEX
8
R2V
62
0
70
32
10
4.197531
20
8.592593
30
0
0
VERTEX
8
R2V
62
0
70
32
10
4.160494
20
8.530864
30
0
0
VERTEX
8
R2V
62
0
70
32
10
4.111111
20
8.493827
30
0
0
VERTEX
8
R2V
62
0
70
32
10
4.074074
20
8.432099
30
0
0
VERTEX
8
R2V
62
0
70
32
10
4.024691
20
8.395062
30
0
0
VERTEX
8
R2V
62
0
70
32
10
3.987654
20
8.333333
30
0
0
VERTEX
8
R2V
62
0
70
32
10
3.938272
20
8.296296
30
0
0
VERTEX
8
R2V
62
0
70
32
10
3.901235
20
8.234568
30
0
0
VERTEX
8
R2V
62
0
70
32
10
3.864198
20
8.209877
30
0
0
VERTEX
8
R2V
62
0
70
32
10
3.827160
20
8.148148
30
0
0
VERTEX
8
R2V
62
0
70
32
10
3.790123
20
8.123457
30
0
0
VERTEX
8
R2V
62
0
70
32
10
3.753086
20
8.061728
30
0
0
VERTEX
8
R2V
62
0
70
32
10
3.654321
20
8.000000
30
0
0
VERTEX
8
R2V
62
0
70
32
10
3.481481
20
7.975309
30
0
0
VERTEX
8
R2V
62
0
70
32
10
2.888889
20
8.209877
30
0
0
VERTEX
8
R2V
62
0
70
32
10
2.580247
20
8.283951
30
0
0
VERTEX
8
R2V
62
0
70
32
10
2.493827
20
8.333333
30
0
0
VERTEX
8
R2V
62
0
70
32
10
2.370370
20
8.370370
30
0
0
VERTEX
8
R2V
62
0
70
32
10
2.370370
20
8.333333
30
0
0
VERTEX
8
R2V
62
0
70
32
10
2.271605
20
8.320988
30
0
0
VERTEX
8
R2V
62
0
70
32
10
2.185185
20
8.271605
30
0
0
VERTEX
8
R2V
62
0
70
32
10
2.123457
20
8.197531
30
0
0
VERTEX
8
R2V
62
0
70
32
10
2.098765
20
8.135802
30
0
0
VERTEX
8
R2V
62
0
70
32
10
2.111111
20
7.827160
30
0
0
VERTEX
8
R2V
62
0
70
32
10
2.123457
20
7.827160
30
0
0
VERTEX
8
R2V
62
0
70
32
10
2.172840
20
7.641975
30
0
0
VERTEX
8
R2V
62
0
70
32
10
2.185185
20
7.641975
30
0
0
VERTEX
8
R2V
62
0
70
32
10
2.222222
20
7.555556
30
0
0
VERTEX
8
R2V
62
0
70
32
10
2.234568
20
7.555556
30
0
0
VERTEX
8
R2V
62
0
70
32
10
2.283951
20
7.469136
30
0
0
VERTEX
8
R2V
62
0
70
32
10
2.296296
20
7.469136
30
0
0
VERTEX
8
R2V
62
0
70
32
10
2.320988
20
7.419753
30
0
0
VERTEX
8
R2V
62
0
70
32
10
2.283951
20
7.419753
30
0
0
VERTEX
8
R2V
62
0
70
32
10
2.209877
20
7.506173
30
0
0
VERTEX
8
R2V
62
0
70
32
10
2.160494
20
7.530864
30
0
0
VERTEX
8
R2V
62
0
70
32
10
2.086420
20
7.604938
30
0
0
VERTEX
8
R2V
62
0
70
32
10
2.037037
20
7.629630
30
0
0
VERTEX
8
R2V
62
0
70
32
10
2.000000
20
7.679012
30
0
0
VERTEX
8
R2V
62
0
70
32
10
1.950617
20
7.703704
30
0
0
VERTEX
8
R2V
62
0
70
32
10
1.839506
20
7.814815
30
0
0
VERTEX
8
R2V
62
0
70
32
10
1.802469
20
7.901235
30
0
0
VERTEX
8
R2V
62
0
70
32
10
1.740741
20
8.024691
30
0
0
VERTEX
8
R2V
62
0
70
32
10
1.740741
20
8.234568
30
0
0
VERTEX
8
R2V
62
0
70
32
10
1.790123
20
8.345679
30
0
0
VERTEX
8
R2V
62
0
70
32
10
1.876543
20
8.419753
30
0
0
VERTEX
8
R2V
62
0
70
32
10
2.185185
20
8.419753
30
0
0
VERTEX
8
R2V
62
0
70
32
10
2.246914
20
8.382716
30
0
0
VERTEX
8
R2V
62
0
70
32
10
2.308642
20
8.382716
30
0
0
VERTEX
8
R2V
62
0
70
32
10
2.370370
20
8.370370
30
0
0
VERTEX
8
R2V
62
0
70
32
10
2.172840
20
8.481481
30
0
0
VERTEX
8
R2V
62
0
70
32
10
2.049383
20
8.506173
30
0
0
VERTEX
8
R2V
62
0
70
32
10
1.913580
20
8.592593
30
0
0
VERTEX
8
R2V
62
0
70
32
10
1.851852
20
8.802469
30
0
0
VERTEX
8
R2V
62
0
70
32
10
1.839506
20
9.012346
30
0
0
VERTEX
8
R2V
62
0
70
32
10
1.851852
20
9.185185
30
0
0
VERTEX
8
R2V
62
0
70
32
10
1.901235
20
9.308642
30
0
0
VERTEX
8
R2V
62
0
70
32
10
1.876543
20
9.419753
30
0
0
VERTEX
8
R2V
62
0
70
32
10
1.777778
20
9.518519
30
0
0
VERTEX
8
R2V
62
0
70
32
10
1.753086
20
9.567901
30
0
0
VERTEX
8
R2V
62
0
70
32
10
1.629630
20
9.691358
30
0
0
VERTEX
8
R2V
62
0
70
32
10
1.580247
20
9.716049
30
0
0
VERTEX
8
R2V
62
0
70
32
10
1.543210
20
9.765432
30
0
0
VERTEX
8
R2V
62
0
70
32
10
1.456790
20
9.802469
30
0
0
VERTEX
8
R2V
62
0
70
32
10
1.333333
20
9.864198
30
0
0
VERTEX
8
R2V
62
0
70
32
10
1.172840
20
9.864198
30
0
0
VERTEX
8
R2V
62
0
70
32
10
1.123457
20
9.827160
30
0
0
VERTEX
8
R2V
62
0
70
32
10
1.061728
20
9.691358
30
0
0
VERTEX
8
R2V
62
0
70
32
10
1.074074
20
9.456790
30
0
0
VERTEX
8
R2V
62
0
70
32
10
1.086420
20
9.456790
30
0
0
VERTEX
8
R2V
62
0
70
32
10
1.061728
20
9.185185
30
0
0
VERTEX
8
R2V
62
0
70
32
10
1.012346
20
8.666667
30
0
0
VERTEX
8
R2V
62
0
70
32
10
0.938272
20
8.358025
30
0
0
VERTEX
8
R2V
62
0
70
32
10
0.950617
20
8.061728
30
0
0
VERTEX
8
R2V
62
0
70
32
10
0.962963
20
8.061728
30
0
0
VERTEX
8
R2V
62
0
70
32
10
1.000000
20
7.827160
30
0
0
VERTEX
8
R2V
62
0
70
32
10
1.012346
20
7.827160
30
0
0
VERTEX
8
R2V
62
0
70
32
10
1.098765
20
7.506173
30
0
0
VERTEX
8
R2V
62
0
70
32
10
1.123457
20
7.222222
30
0
0
VERTEX
8
R2V
62
0
70
32
10
1.135802
20
7.222222
30
0
0
VERTEX
8
R2V
62
0
70
32
10
1.172840
20
7.024691
30
0
0
VERTEX
8
R2V
62
0
70
32
10
1.185185
20
7.024691
30
0
0
VERTEX
8
R2V
62
0
70
32
10
1.271605
20
6.802469
30
0
0
VERTEX
8
R2V
62
0
70
32
10
1.283951
20
6.592593
30
0
0
VERTEX
8
R2V
62
0
70
32
10
1.296296
20
6.308642
30
0
0
VERTEX
8
R2V
62
0
70
32
10
1.308642
20
6.308642
30
0
0
VERTEX
8
R2V
62
0
70
32
10
1.345679
20
6.197531
30
0
0
VERTEX
8
R2V
62
0
70
32
10
1.358025
20
6.197531
30
0
0
VERTEX
8
R2V
62
0
70
32
10
1.395062
20
6.135802
30
0
0
VERTEX
8
R2V
62
0
70
32
10
1.407407
20
6.135802
30
0
0
VERTEX
8
R2V
62
0
70
32
10
1.432099
20
6.123457
30
0
0
VERTEX
8
R2V
62
0
70
32
10
1.444444
20
6.160494
30
0
0
VERTEX
8
R2V
62
0
70
32
10
1.543210
20
6.185185
30
0
0
VERTEX
8
R2V
62
0
70
32
10
1.617284
20
6.160494
30
0
0
VERTEX
8
R2V
62
0
70
32
10
1.641975
20
6.074074
30
0
0
VERTEX
8
R2V
62
0
70
32
10
1.629630
20
6.061728
30
0
0
VERTEX
8
R2V
62
0
70
32
10
1.975309
20
6.074074
30
0
0
VERTEX
8
R2V
62
0
70
32
10
2.111111
20
6.111111
30
0
0
VERTEX
8
R2V
62
0
70
32
10
2.111111
20
6.234568
30
0
0
VERTEX
8
R2V
62
0
70
32
10
1.975309
20
6.518519
30
0
0
VERTEX
8
R2V
62
0
70
32
10
1.864198
20
6.864198
30
0
0
VERTEX
8
R2V
62
0
70
32
10
1.839506
20
7.123457
30
0
0
VERTEX
8
R2V
62
0
70
32
10
1.876543
20
7.222222
30
0
0
VERTEX
8
R2V
62
0
70
32
10
1.925926
20
7.246914
30
0
0
VERTEX
8
R2V
62
0
70
32
10
2.037037
20
7.135802
30
0
0
VERTEX
8
R2V
62
0
70
32
10
2.061728
20
7.135802
30
0
0
VERTEX
8
R2V
62
0
70
32
10
2.395062
20
6.802469
30
0
0
VERTEX
8
R2V
62
0
70
32
10
2.419753
20
6.753086
30
0
0
VERTEX
8
R2V
62
0
70
32
10
2.444444
20
6.753086
30
0
0
VERTEX
8
R2V
62
0
70
32
10
2.493827
20
6.691358
30
0
0
VERTEX
8
R2V
62
0
70
32
10
2.518519
20
6.691358
30
0
0
VERTEX
8
R2V
62
0
70
32
10
2.555556
20
6.654321
30
0
0
VERTEX
8
R2V
62
0
70
32
10
2.580247
20
6.654321
30
0
0
VERTEX
8
R2V
62
0
70
32
10
2.641975
20
6.641975
30
0
0
VERTEX
8
R2V
62
0
70
32
10
2.728395
20
6.691358
30
0
0
VERTEX
8
R2V
62
0
70
32
10
2.765432
20
6.876543
30
0
0
VERTEX
8
R2V
62
0
70
32
10
2.728395
20
7.000000
30
0
0
VERTEX
8
R2V
62
0
70
32
10
2.740741
20
7.148148
30
0
0
VERTEX
8
R2V
62
0
70
32
10
2.777778
20
7.148148
30
0
0
VERTEX
8
R2V
62
0
70
32
10
2.753086
20
7.111111
30
0
0
VERTEX
8
R2V
62
0
70
32
10
2.765432
20
6.913580
30
0
0
VERTEX
8
R2V
62
0
70
32
10
2.777778
20
6.913580
30
0
0
VERTEX
8
R2V
62
0
70
32
10
2.765432
20
6.691358
30
0
0
VERTEX
8
R2V
62
0
70
32
10
2.728395
20
6.641975
30
0
0
VERTEX
8
R2V
62
0
70
32
10
2.604938
20
6.604938
30
0
0
VERTEX
8
R2V
62
0
70
32
10
2.617284
20
6.604938
30
0
0
VERTEX
8
R2V
62
0
70
32
10
2.666667
20
6.543210
30
0
0
VERTEX
8
R2V
62
0
70
32
10
2.691358
20
6.543210
30
0
0
VERTEX
8
R2V
62
0
70
32
10
2.777778
20
6.493827
30
0
0
VERTEX
8
R2V
62
0
70
32
10
2.888889
20
6.506173
30
0
0
VERTEX
8
R2V
62
0
70
32
10
2.913580
20
6.555556
30
0
0
VERTEX
8
R2V
62
0
70
32
10
2.950617
20
6.592593
30
0
0
VERTEX
8
R2V
62
0
70
32
10
2.975309
20
6.703704
30
0
0
VERTEX
8
R2V
62
0
70
32
10
2.950617
20
6.765432
30
0
0
VERTEX
8
R2V
62
0
70
32
10
2.962963
20
6.938272
30
0
0
VERTEX
8
R2V
62
0
70
32
10
3.000000
20
6.938272
30
0
0
VERTEX
8
R2V
62
0
70
32
10
2.962963
20
6.876543
30
0
0
VERTEX
8
R2V
62
0
70
32
10
2.987654
20
6.629630
30
0
0
VERTEX
8
R2V
62
0
70
32
10
2.950617
20
6.543210
30
0
0
VERTEX
8
R2V
62
0
70
32
10
2.913580
20
6.493827
30
0
0
VERTEX
8
R2V
62
0
70
32
10
2.802469
20
6.469136
30
0
0
VERTEX
8
R2V
62
0
70
32
10
2.851852
20
6.419753
30
0
0
VERTEX
8
R2V
62
0
70
32
10
2.876543
20
6.419753
30
0
0
VERTEX
8
R2V
62
0
70
32
10
2.901235
20
6.395062
30
0
0
VERTEX
8
R2V
62
0
70
32
10
3.024691
20
6.407407
30
0
0
VERTEX
8
R2V
62
0
70
32
10
3.074074
20
6.444444
30
0
0
VERTEX
8
R2V
62
0
70
32
10
3.111111
20
6.580247
30
0
0
VERTEX
8
R2V
62
0
70
32
10
3.123457
20
6.753086
30
0
0
VERTEX
8
R2V
62
0
70
32
10
3.160494
20
6.777778
30
0
0
VERTEX
8
R2V
62
0
70
32
10
3.148148
20
6.691358
30
0
0
VERTEX
8
R2V
62
0
70
32
10
3.123457
20
6.481481
30
0
0
VERTEX
8
R2V
62
0
70
32
10
3.074074
20
6.395062
30
0
0
VERTEX
8
R2V
62
0
70
32
10
3.024691
20
6.370370
30
0
0
VERTEX
8
R2V
62
0
70
32
10
2.950617
20
6.358025
30
0
0
VERTEX
8
R2V
62
0
70
32
10
3.000000
20
6.296296
30
0
0
VERTEX
8
R2V
62
0
70
32
10
3.024691
20
6.296296
30
0
0
VERTEX
8
R2V
62
0
70
32
10
3.086420
20
6.271605
30
0
0
VERTEX
8
R2V
62
0
70
32
10
3.135802
20
6.259259
30
0
0
VERTEX
8
R2V
62
0
70
32
10
3.222222
20
6.320988
30
0
0
VERTEX
8
R2V
62
0
70
32
10
3.283951
20
6.481481
30
0
0
VERTEX
8
R2V
62
0
70
32
10
3.296296
20
6.604938
30
0
0
VERTEX
8
R2V
62
0
70
32
10
3.333333
20
6.617284
30
0
0
VERTEX
8
R2V
62
0
70
32
10
3.296296
20
6.530864
30
0
0
VERTEX
8
R2V
62
0
70
32
10
3.283951
20
6.370370
30
0
0
VERTEX
8
R2V
62
0
70
32
10
3.209877
20
6.259259
30
0
0
VERTEX
8
R2V
62
0
70
32
10
3.098765
20
6.246914
30
0
0
VERTEX
8
R2V
62
0
70
32
10
3.259259
20
6.074074
30
0
0
VERTEX
8
R2V
62
0
70
32
10
3.308642
20
5.975309
30
0
0
VERTEX
8
R2V
62
0
70
32
10
3.308642
20
5.851852
30
0
0
VERTEX
8
R2V
62
0
70
32
10
3.296296
20
5.814815
30
0
0
VERTEX
8
R2V
62
0
70
32
10
3.333333
20
5.814815
30
0
0
VERTEX
8
R2V
62
0
70
32
10
3.432099
20
5.777778
30
0
0
VERTEX
8
R2V
62
0
70
32
10
3.419753
20
5.740741
30
0
0
VERTEX
8
R2V
62
0
70
32
10
3.444444
20
5.740741
30
0
0
VERTEX
8
R2V
62
0
70
32
10
3.469136
20
5.703704
30
0
0
VERTEX
8
R2V
62
0
70
32
10
3.469136
20
5.641975
30
0
0
VERTEX
8
R2V
62
0
70
32
10
3.222222
20
5.617284
30
0
0
VERTEX
8
R2V
62
0
70
32
10
3.222222
20
5.641975
30
0
0
VERTEX
8
R2V
62
0
70
32
10
3.444444
20
5.679012
30
0
0
VERTEX
8
R2V
62
0
70
32
10
3.259259
20
5.691358
30
0
0
VERTEX
8
R2V
62
0
70
32
10
3.432099
20
5.716049
30
0
0
VERTEX
8
R2V
62
0
70
32
10
3.296296
20
5.728395
30
0
0
VERTEX
8
R2V
62
0
70
32
10
3.296296
20
5.765432
30
0
0
VERTEX
8
R2V
62
0
70
32
10
3.320988
20
5.765432
30
0
0
VERTEX
8
R2V
62
0
70
32
10
3.395062
20
5.753086
30
0
0
VERTEX
8
R2V
62
0
70
32
10
3.308642
20
5.790123
30
0
0
VERTEX
8
R2V
62
0
70
32
10
3.283951
20
5.814815
30
0
0
VERTEX
8
R2V
62
0
70
32
10
3.246914
20
5.703704
30
0
0
VERTEX
8
R2V
62
0
70
32
10
3.111111
20
5.555556
30
0
0
VERTEX
8
R2V
62
0
70
32
10
3.074074
20
5.493827
30
0
0
VERTEX
8
R2V
62
0
70
32
10
3.024691
20
5.456790
30
0
0
VERTEX
8
R2V
62
0
70
32
10
2.987654
20
5.395062
30
0
0
VERTEX
8
R2V
62
0
70
32
10
2.950617
20
5.370370
30
0
0
VERTEX
8
R2V
62
0
70
32
10
2.925926
20
5.320988
30
0
0
VERTEX
8
R2V
62
0
70
32
10
2.839506
20
5.222222
30
0
0
VERTEX
8
R2V
62
0
70
32
10
2.679012
20
4.938272
30
0
0
VERTEX
8
R2V
62
0
70
32
10
2.666667
20
4.814815
30
0
0
VERTEX
8
R2V
62
0
70
32
10
2.716049
20
4.827160
30
0
0
VERTEX
8
R2V
62
0
70
32
10
2.814815
20
4.901235
30
0
0
VERTEX
8
R2V
62
0
70
32
10
2.864198
20
4.925926
30
0
0
VERTEX
8
R2V
62
0
70
32
10
2.901235
20
4.987654
30
0
0
VERTEX
8
R2V
62
0
70
32
10
2.962963
20
5.024691
30
0
0
VERTEX
8
R2V
62
0
70
32
10
3.209877
20
5.209877
30
0
0
VERTEX
8
R2V
62
0
70
32
10
3.518519
20
5.382716
30
0
0
VERTEX
8
R2V
62
0
70
32
10
3.592593
20
5.444444
30
0
0
VERTEX
8
R2V
62
0
70
32
10
3.506173
20
5.407407
30
0
0
VERTEX
8
R2V
62
0
70
32
10
3.148148
20
5.197531
30
0
0
VERTEX
8
R2V
62
0
70
32
10
2.925926
20
5.049383
30
0
0
VERTEX
8
R2V
62
0
70
32
10
2.777778
20
4.925926
30
0
0
VERTEX
8
R2V
62
0
70
32
10
2.740741
20
4.864198
30
0
0
VERTEX
8
R2V
62
0
70
32
10
2.716049
20
4.864198
30
0
0
VERTEX
8
R2V
62
0
70
32
10
2.740741
20
4.913580
30
0
0
VERTEX
8
R2V
62
0
70
32
10
2.802469
20
4.987654
30
0
0
VERTEX
8
R2V
62
0
70
32
10
2.864198
20
5.024691
30
0
0
VERTEX
8
R2V
62
0
70
32
10
2.962963
20
5.111111
30
0
0
VERTEX
8
R2V
62
0
70
32
10
3.049383
20
5.160494
30
0
0
VERTEX
8
R2V
62
0
70
32
10
3.320988
20
5.333333
30
0
0
VERTEX
8
R2V
62
0
70
32
10
3.382716
20
5.358025
30
0
0
VERTEX
8
R2V
62
0
70
32
10
3.469136
20
5.419753
30
0
0
VERTEX
8
R2V
62
0
70
32
10
3.209877
20
5.296296
30
0
0
VERTEX
8
R2V
62
0
70
32
10
2.876543
20
5.098765
30
0
0
VERTEX
8
R2V
62
0
70
32
10
2.802469
20
5.024691
30
0
0
VERTEX
8
R2V
62
0
70
32
10
2.777778
20
5.024691
30
0
0
VERTEX
8
R2V
62
0
70
32
10
2.765432
20
5.000000
30
0
0
VERTEX
8
R2V
62
0
70
32
10
2.753086
20
5.037037
30
0
0
VERTEX
8
R2V
62
0
70
32
10
2.802469
20
5.061728
30
0
0
VERTEX
8
R2V
62
0
70
32
10
2.864198
20
5.123457
30
0
0
VERTEX
8
R2V
62
0
70
32
10
3.222222
20
5.333333
30
0
0
VERTEX
8
R2V
62
0
70
32
10
3.333333
20
5.382716
30
0
0
VERTEX
8
R2V
62
0
70
32
10
3.506173
20
5.481481
30
0
0
VERTEX
8
R2V
62
0
70
32
10
3.345679
20
5.432099
30
0
0
VERTEX
8
R2V
62
0
70
32
10
3.111111
20
5.308642
30
0
0
VERTEX
8
R2V
62
0
70
32
10
2.851852
20
5.135802
30
0
0
VERTEX
8
R2V
62
0
70
32
10
2.814815
20
5.148148
30
0
0
VERTEX
8
R2V
62
0
70
32
10
3.074074
20
5.320988
30
0
0
VERTEX
8
R2V
62
0
70
32
10
3.135802
20
5.345679
30
0
0
VERTEX
8
R2V
62
0
70
32
10
3.308642
20
5.444444
30
0
0
VERTEX
8
R2V
62
0
70
32
10
3.469136
20
5.506173
30
0
0
VERTEX
8
R2V
62
0
70
32
10
3.358025
20
5.481481
30
0
0
VERTEX
8
R2V
62
0
70
32
10
3.012346
20
5.320988
30
0
0
VERTEX
8
R2V
62
0
70
32
10
2.925926
20
5.271605
30
0
0
VERTEX
8
R2V
62
0
70
32
10
2.938272
20
5.308642
30
0
0
VERTEX
8
R2V
62
0
70
32
10
3.160494
20
5.432099
30
0
0
VERTEX
8
R2V
62
0
70
32
10
3.444444
20
5.543210
30
0
0
VERTEX
8
R2V
62
0
70
32
10
3.271605
20
5.506173
30
0
0
VERTEX
8
R2V
62
0
70
32
10
3.024691
20
5.395062
30
0
0
VERTEX
8
R2V
62
0
70
32
10
3.024691
20
5.419753
30
0
0
VERTEX
8
R2V
62
0
70
32
10
3.259259
20
5.530864
30
0
0
VERTEX
8
R2V
62
0
70
32
10
3.506173
20
5.592593
30
0
0
VERTEX
8
R2V
62
0
70
32
10
3.506173
20
5.567901
30
0
0
VERTEX
8
R2V
62
0
70
32
10
3.444444
20
5.543210
30
0
0
VERTEX
8
R2V
62
0
70
32
10
3.469136
20
5.543210
30
0
0
VERTEX
8
R2V
62
0
70
32
10
3.469136
20
5.506173
30
0
0
VERTEX
8
R2V
62
0
70
32
10
3.530864
20
5.518519
30
0
0
VERTEX
8
R2V
62
0
70
32
10
3.543210
20
5.518519
30
0
0
VERTEX
8
R2V
62
0
70
32
10
3.506173
20
5.481481
30
0
0
VERTEX
8
R2V
62
0
70
32
10
3.530864
20
5.481481
30
0
0
VERTEX
8
R2V
62
0
70
32
10
3.543210
20
5.444444
30
0
0
VERTEX
8
R2V
62
0
70
32
10
3.654321
20
5.506173
30
0
0
VERTEX
8
R2V
62
0
70
32
10
3.654321
20
5.469136
30
0
0
VERTEX
8
R2V
62
0
70
32
10
3.592593
20
5.444444
30
0
0
VERTEX
8
R2V
62
0
70
32
10
3.617284
20
5.444444
30
0
0
VERTEX
8
R2V
62
0
70
32
10
3.617284
20
5.407407
30
0
0
VERTEX
8
R2V
62
0
70
32
10
3.679012
20
5.432099
30
0
0
VERTEX
8
R2V
62
0
70
32
10
3.703704
20
5.432099
30
0
0
VERTEX
8
R2V
62
0
70
32
10
3.654321
20
5.382716
30
0
0
SEQEND
0
POLYLINE
8
R2V
62
0
66
1
70
8
0
VERTEX
8
R2V
62
0
70
32
10
2.592593
20
0.283951
30
0
0
VERTEX
8
R2V
62
0
70
32
10
2.592593
20
0.271605
30
0
0
VERTEX
8
R2V
62
0
70
32
10
2.691358
20
0.407407
30
0
0
VERTEX
8
R2V
62
0
70
32
10
2.790123
20
0.456790
30
0
0
VERTEX
8
R2V
62
0
70
32
10
2.790123
20
0.481481
30
0
0
VERTEX
8
R2V
62
0
70
32
10
2.901235
20
0.506173
30
0
0
VERTEX
8
R2V
62
0
70
32
10
2.851852
20
0.543210
30
0
0
VERTEX
8
R2V
62
0
70
32
10
2.864198
20
0.592593
30
0
0
VERTEX
8
R2V
62
0
70
32
10
3.024691
20
0.679012
30
0
0
VERTEX
8
R2V
62
0
70
32
10
3.185185
20
0.728395
30
0
0
VERTEX
8
R2V
62
0
70
32
10
3.234568
20
0.765432
30
0
0
VERTEX
8
R2V
62
0
70
32
10
3.308642
20
0.777778
30
0
0
VERTEX
8
R2V
62
0
70
32
10
3.691358
20
0.925926
30
0
0
VERTEX
8
R2V
62
0
70
32
10
4.012346
20
1.012346
30
0
0
VERTEX
8
R2V
62
0
70
32
10
4.098765
20
1.024691
30
0
0
VERTEX
8
R2V
62
0
70
32
10
4.197531
20
1.037037
30
0
0
VERTEX
8
R2V
62
0
70
32
10
4.469136
20
1.086420
30
0
0
VERTEX
8
R2V
62
0
70
32
10
4.753086
20
1.086420
30
0
0
VERTEX
8
R2V
62
0
70
32
10
4.827160
20
1.049383
30
0
0
VERTEX
8
R2V
62
0
70
32
10
4.888889
20
1.049383
30
0
0
VERTEX
8
R2V
62
0
70
32
10
4.925926
20
1.012346
30
0
0
VERTEX
8
R2V
62
0
70
32
10
4.950617
20
1.012346
30
0
0
VERTEX
8
R2V
62
0
70
32
10
4.962963
20
1.000000
30
0
0
VERTEX
8
R2V
62
0
70
32
10
4.987654
20
1.000000
30
0
0
VERTEX
8
R2V
62
0
70
32
10
5.296296
20
0.839506
30
0
0
VERTEX
8
R2V
62
0
70
32
10
5.444444
20
0.753086
30
0
0
VERTEX
8
R2V
62
0
70
32
10
5.481481
20
0.753086
30
0
0
VERTEX
8
R2V
62
0
70
32
10
5.518519
20
0.716049
30
0
0
VERTEX
8
R2V
62
0
70
32
10
5.543210
20
0.716049
30
0
0
VERTEX
8
R2V
62
0
70
32
10
5.765432
20
0.580247
30
0
0
VERTEX
8
R2V
62
0
70
32
10
5.802469
20
0.580247
30
0
0
VERTEX
8
R2V
62
0
70
32
10
5.839506
20
0.530864
30
0
0
VERTEX
8
R2V
62
0
70
32
10
5.864198
20
0.530864
30
0
0
VERTEX
8
R2V
62
0
70
32
10
6.024691
20
0.407407
30
0
0
VERTEX
8
R2V
62
0
70
32
10
5.987654
20
0.530864
30
0
0
VERTEX
8
R2V
62
0
70
32
10
5.827160
20
0.703704
30
0
0
VERTEX
8
R2V
62
0
70
32
10
5.790123
20
0.765432
30
0
0
VERTEX
8
R2V
62
0
70
32
10
5.543210
20
1.012346
30
0
0
VERTEX
8
R2V
62
0
70
32
10
5.481481
20
1.049383
30
0
0
VERTEX
8
R2V
62
0
70
32
10
5.444444
20
1.098765
30
0
0
VERTEX
8
R2V
62
0
70
32
10
5.296296
20
1.197531
30
0
0
VERTEX
8
R2V
62
0
70
32
10
5.209877
20
1.283951
30
0
0
VERTEX
8
R2V
62
0
70
32
10
5.148148
20
1.320988
30
0
0
VERTEX
8
R2V
62
0
70
32
10
5.061728
20
1.419753
30
0
0
VERTEX
8
R2V
62
0
70
32
10
5.037037
20
1.469136
30
0
0
VERTEX
8
R2V
62
0
70
32
10
5.049383
20
1.580247
30
0
0
VERTEX
8
R2V
62
0
70
32
10
5.098765
20
1.654321
30
0
0
VERTEX
8
R2V
62
0
70
32
10
5.111111
20
1.703704
30
0
0
VERTEX
8
R2V
62
0
70
32
10
5.246914
20
1.925926
30
0
0
VERTEX
8
R2V
62
0
70
32
10
5.246914
20
1.962963
30
0
0
VERTEX
8
R2V
62
0
70
32
10
5.271605
20
1.962963
30
0
0
VERTEX
8
R2V
62
0
70
32
10
5.271605
20
1.814815
30
0
0
VERTEX
8
R2V
62
0
70
32
10
5.271605
20
1.790123
30
0
0
SEQEND
0
ENDSEC
0
EOF
