  0
SECTION
  2
HEADER
  9
$ACADVER
  1
AC1009
  9
$DWGCODEPAGE
  3
ansi_1252
  9
$INSBASE
 10
0.0
 20
0.0
 30
0.0
  9
$EXTMIN
 10
129.2140667260789
 20
37.13563232434094
 30
0.0
  9
$EXTMAX
 10
252.7697779088036
 20
87.6326095765037
 30
0.0
  9
$LIMMIN
 10
0.0
 20
0.0
  9
$LIMMAX
 10
12.0
 20
9.0
  9
$ORTHOMODE
 70
     0
  9
$REGENMODE
 70
     1
  9
$FILLMODE
 70
     1
  9
$QTEXTMODE
 70
     0
  9
$MIRRTEXT
 70
     1
  9
$DRAGMODE
 70
     2
  9
$LTSCALE
 40
1.0
  9
$OSMODE
 70
    37
  9
$ATTMODE
 70
     1
  9
$TEXTSIZE
 40
2.364859105415806
  9
$TRACEWID
 40
0.05
  9
$TEXTSTYLE
  7
STANDARD
  9
$CLAYER
  8
0
  9
$CELTYPE
  6
BYBLOCK
  9
$CECOLOR
 62
    40
  9
$DIMSCALE
 40
1.0
  9
$DIMASZ
 40
0.18
  9
$DIMEXO
 40
0.0625
  9
$DIMDLI
 40
0.38
  9
$DIMRND
 40
0.0
  9
$DIMDLE
 40
0.0
  9
$DIMEXE
 40
0.18
  9
$DIMTP
 40
0.0
  9
$DIMTM
 40
0.0
  9
$DIMTXT
 40
0.18
  9
$DIMCEN
 40
0.09
  9
$DIMTSZ
 40
0.0
  9
$DIMTOL
 70
     0
  9
$DIMLIM
 70
     0
  9
$DIMTIH
 70
     1
  9
$DIMTOH
 70
     1
  9
$DIMSE1
 70
     0
  9
$DIMSE2
 70
     0
  9
$DIMTAD
 70
     0
  9
$DIMZIN
 70
     0
  9
$DIMBLK
  1

  9
$DIMASO
 70
     1
  9
$DIMSHO
 70
     1
  9
$DIMPOST
  1

  9
$DIMAPOST
  1

  9
$DIMALT
 70
     0
  9
$DIMALTD
 70
     2
  9
$DIMALTF
 40
25.4
  9
$DIMLFAC
 40
1.0
  9
$DIMTOFL
 70
     0
  9
$DIMTVP
 40
0.0
  9
$DIMTIX
 70
     0
  9
$DIMSOXD
 70
     0
  9
$DIMSAH
 70
     0
  9
$DIMBLK1
  1

  9
$DIMBLK2
  1

  9
$DIMSTYLE
  2
STANDARD
  9
$DIMCLRD
 70
     0
  9
$DIMCLRE
 70
     0
  9
$DIMCLRT
 70
     0
  9
$DIMTFAC
 40
1.0
  9
$DIMGAP
 40
0.09
  9
$LUNITS
 70
     2
  9
$LUPREC
 70
     4
  9
$SKETCHINC
 40
0.1
  9
$FILLETRAD
 40
0.5
  9
$AUNITS
 70
     0
  9
$AUPREC
 70
     0
  9
$MENU
  1
.
  9
$ELEVATION
 40
0.0
  9
$PELEVATION
 40
0.0
  9
$THICKNESS
 40
0.0
  9
$LIMCHECK
 70
     0
  9
$CHAMFERA
 40
0.5
  9
$CHAMFERB
 40
0.5
  9
$SKPOLY
 70
     0
  9
$TDCREATE
 40
2453353.508792488
  9
$TDUPDATE
 40
4881879.844085926
  9
$TDINDWG
 40
4881544.065984908
  9
$TDUSRTIMER
 40
4881544.065984908
  9
$USRTIMER
 70
     1
  9
$ANGBASE
 50
0.0
  9
$ANGDIR
 70
     0
  9
$PDMODE
 70
     0
  9
$PDSIZE
 40
0.0
  9
$PLINEWID
 40
0.0
  9
$COORDS
 70
     1
  9
$SPLFRAME
 70
     0
  9
$SPLINETYPE
 70
     6
  9
$SPLINESEGS
 70
     8
  9
$ATTDIA
 70
     0
  9
$ATTREQ
 70
     1
  9
$HANDLING
 70
     1
  9
$HANDSEED
  5
16F0
  9
$SURFTAB1
 70
     6
  9
$SURFTAB2
 70
     6
  9
$SURFTYPE
 70
     6
  9
$SURFU
 70
     6
  9
$SURFV
 70
     6
  9
$UCSNAME
  2

  9
$UCSORG
 10
0.0
 20
0.0
 30
0.0
  9
$UCSXDIR
 10
1.0
 20
0.0
 30
0.0
  9
$UCSYDIR
 10
0.0
 20
1.0
 30
0.0
  9
$PUCSNAME
  2

  9
$PUCSORG
 10
0.0
 20
0.0
 30
0.0
  9
$PUCSXDIR
 10
1.0
 20
0.0
 30
0.0
  9
$PUCSYDIR
 10
0.0
 20
1.0
 30
0.0
  9
$USERI1
 70
     0
  9
$USERI2
 70
     0
  9
$USERI3
 70
     0
  9
$USERI4
 70
     0
  9
$USERI5
 70
     0
  9
$USERR1
 40
0.0
  9
$USERR2
 40
0.0
  9
$USERR3
 40
0.0
  9
$USERR4
 40
0.0
  9
$USERR5
 40
0.0
  9
$WORLDVIEW
 70
     1
  9
$SHADEDGE
 70
     3
  9
$SHADEDIF
 70
    70
  9
$TILEMODE
 70
     1
  9
$MAXACTVP
 70
    64
  9
$PLIMCHECK
 70
     0
  9
$PEXTMIN
 10
0.0
 20
0.0
 30
0.0
  9
$PEXTMAX
 10
0.0
 20
0.0
 30
0.0
  9
$PLIMMIN
 10
0.0
 20
0.0
  9
$PLIMMAX
 10
0.0
 20
0.0
  9
$UNITMODE
 70
     0
  9
$VISRETAIN
 70
     1
  9
$PLINEGEN
 70
     0
  9
$PSLTSCALE
 70
     1
  0
ENDSEC
  0
SECTION
  2
TABLES
  0
TABLE
  2
VPORT
 70
     1
  0
VPORT
  2
*ACTIVE
 70
     0
 10
0.0
 20
0.0
 11
1.0
 21
1.0
 12
190.687171535342
 22
61.95168814956635
 13
0.0
 23
0.0
 14
0.5
 24
0.5
 15
0.5
 25
0.5
 16
0.0
 26
0.0
 36
1.0
 17
0.0
 27
0.0
 37
0.0
 40
86.96935188536266
 41
1.972972972850329
 42
50.0
 43
0.0
 44
0.0
 50
0.0
 51
0.0
 71
    16
 72
   100
 73
     1
 74
     1
 75
     0
 76
     0
 77
     0
 78
     0
  0
ENDTAB
  0
TABLE
  2
LTYPE
 70
     1
  0
LTYPE
  2
CONTINUOUS
 70
     0
  3
Solid line
 72
    65
 73
     0
 40
0.0
  0
ENDTAB
  0
TABLE
  2
LAYER
 70
     2
  0
LAYER
  2
0
 70
     0
 62
     7
  6
CONTINUOUS
  0
LAYER
  2
LAYER_1
 70
     0
 62
     7
  6
CONTINUOUS
  0
ENDTAB
  0
TABLE
  2
STYLE
 70
     1
  0
STYLE
  2
STANDARD
 70
     0
 40
0.0
 41
1.0
 50
0.0
 71
     0
 42
0.2
  3
txt
  4

  0
ENDTAB
  0
TABLE
  2
VIEW
 70
     0
  0
ENDTAB
  0
TABLE
  2
UCS
 70
     0
  0
ENDTAB
  0
TABLE
  2
APPID
 70
     1
  0
APPID
  2
ACAD
 70
     0
  0
ENDTAB
  0
TABLE
  2
DIMSTYLE
 70
     1
  0
DIMSTYLE
  2
STANDARD
 70
     0
  3

  4

  5

  6

  7

 40
1.0
 41
0.18
 42
0.0625
 43
0.38
 44
0.18
 45
0.0
 46
0.0
 47
0.0
 48
0.0
140
0.18
141
0.09
142
0.0
143
25.4
144
1.0
145
0.0
146
1.0
147
0.09
 71
     0
 72
     0
 73
     1
 74
     1
 75
     0
 76
     0
 77
     0
 78
     0
170
     0
171
     2
172
     0
173
     0
174
     0
175
     0
176
     0
177
     0
178
     0
  0
ENDTAB
  0
ENDSEC
  0
SECTION
  2
BLOCKS
  0
BLOCK
  8
0
  2
$MODEL_SPACE
 70
     0
 10
0.0
 20
0.0
 30
0.0
  3
$MODEL_SPACE
  1

  0
ENDBLK
  5
21
  8
0
  0
BLOCK
 67
     1
  8
0
  2
$PAPER_SPACE
 70
     0
 10
0.0
 20
0.0
 30
0.0
  3
$PAPER_SPACE
  1

  0
ENDBLK
  5
76
 67
     1
  8
0
  0
ENDSEC
  0
SECTION
  2
ENTITIES
  0
LINE
  5
E5C
  8
LAYER_1
 62
    40
 10
146.3018939884219
 20
41.46600023654958
 30
0.0
 11
141.6875878989803
 21
61.95681076347979
 31
0.0
  0
LINE
  5
E5D
  8
LAYER_1
 62
    40
 10
137.3340635907593
 20
62.51193325336691
 30
0.0
 11
137.2009559630364
 21
61.42737135216733
 31
0.0
  0
LINE
  5
E5E
  8
LAYER_1
 62
    40
 10
137.2009559630364
 20
61.42737135216733
 30
0.0
 11
141.3285724740247
 21
41.1585556148523
 31
0.0
  0
LINE
  5
E5F
  8
LAYER_1
 62
    40
 10
141.1563431703608
 20
41.17769220414829
 30
0.0
 11
136.7009479604041
 21
61.45135777369785
 31
0.0
  0
LINE
  5
E60
  8
LAYER_1
 62
    40
 10
136.7009479604041
 20
61.45135777369785
 30
0.0
 11
136.4076911816018
 21
62.32665877153541
 31
0.0
  0
LINE
  5
E61
  8
LAYER_1
 62
    40
 10
135.9197869561816
 20
62.52204016335436
 30
0.0
 11
139.8793099630364
 21
44.28230335216733
 31
0.0
  0
LINE
  5
E62
  8
LAYER_1
 62
    40
 10
139.8793099630364
 20
44.28230335216733
 30
0.0
 11
140.6496495725442
 21
41.06668043379242
 31
0.0
  0
LINE
  5
E63
  8
LAYER_1
 62
    40
 10
140.6328609112821
 20
41.1086383656354
 30
0.0
 11
141.1968841645081
 21
39.46810208911433
 31
0.0
  0
LINE
  5
E64
  8
LAYER_1
 62
    40
 10
141.1968841645081
 20
39.46810208911433
 30
0.0
 11
141.1563431703608
 21
41.17769220414829
 31
0.0
  0
LINE
  5
E65
  8
LAYER_1
 62
    40
 10
204.3043861036362
 20
56.07745158765695
 30
0.0
 11
178.0308471641234
 21
51.34162626069999
 31
0.0
  0
LINE
  5
E67
  8
LAYER_1
 62
    40
 10
175.6242806879075
 20
53.59938364482385
 30
0.0
 11
173.2324885982903
 21
52.97283217256069
 31
0.0
  0
LINE
  5
E68
  8
LAYER_1
 62
    40
 10
175.6242806879075
 20
82.49256047677339
 30
0.0
 11
158.8771772760687
 21
82.47446520361039
 31
0.0
  0
LINE
  5
E69
  8
LAYER_1
 62
    40
 10
200.2029174324517
 20
75.89564000461243
 30
0.0
 11
199.4443720593832
 21
85.25103293912412
 31
0.0
  0
LINE
  5
E6A
  8
LAYER_1
 62
    40
 10
206.7403818782834
 20
75.38352
 30
0.0
 11
208.9363983109418
 21
75.87002860565846
 31
0.0
  0
LINE
  5
E6B
  8
LAYER_1
 62
    40
 10
209.519432252343
 20
76.81525029853614
 30
0.0
 11
206.5892432843202
 21
85.05671377963905
 31
0.0
  0
LINE
  5
E6C
  8
LAYER_1
 62
    40
 10
175.6242806879075
 20
82.49256047677339
 30
0.0
 11
202.0900775687683
 21
87.6326095765037
 31
0.0
  0
LINE
  5
E6D
  8
LAYER_1
 62
    40
 10
175.630612667614
 20
69.76424088763862
 30
0.0
 11
204.2128147805483
 21
74.85758201503063
 31
0.0
  0
LINE
  5
E6E
  8
LAYER_1
 62
    40
 10
204.2128147805483
 20
74.85758201503063
 30
0.0
 11
206.7403818782834
 21
75.38352
 31
0.0
  0
LINE
  5
E6F
  8
LAYER_1
 62
    40
 10
206.7403818782834
 20
75.38352
 30
0.0
 11
206.7403818782834
 21
75.38352
 31
0.0
  0
ARC
  5
E70
  8
0
  6
BYBLOCK
 62
    40
 10
141.6476509620248
 20
50.96831669015511
 30
0.0
 40
9.911763491432279
 50
120.7764785442754
 51
264.1236242329226
  0
ARC
  5
E71
  8
0
  6
BYBLOCK
 62
    40
 10
218.9201934551608
 20
55.45575095105715
 30
0.0
 40
18.22246048202161
 50
12.1320107536987
 51
173.6720384437494
  0
LINE
  5
E72
  8
0
  6
BYBLOCK
 62
    40
 10
236.7356729896142
 20
59.28547091161703
 30
0.0
 11
232.0558345177169
 21
58.66248977062779
 31
0.0
  0
ARC
  5
E74
  8
0
  6
BYBLOCK
 62
    40
 10
202.663239014627
 20
83.41655497806595
 30
0.0
 40
4.254836121406677
 50
22.67360922448644
 51
97.74174862824953
  0
LINE
  5
E75
  8
0
  6
BYBLOCK
 62
    40
 10
158.8771772760687
 20
82.47446520361039
 30
0.0
 11
158.8903730918327
 21
71.55011868373646
 31
0.0
  0
LINE
  5
E76
  8
0
  6
BYBLOCK
 62
    40
 10
202.0900775687683
 20
87.6326095765037
 30
0.0
 11
176.6424050353323
 21
87.62497612000672
 31
0.0
  0
LINE
  5
E77
  8
0
  6
BYBLOCK
 62
    40
 10
176.6424050353323
 20
87.62497612000672
 30
0.0
 11
158.8771772760687
 21
82.47446520361039
 31
0.0
  0
ARC
  5
E78
  8
0
  6
BYBLOCK
 62
    40
 10
142.3136108366065
 20
56.82222198578386
 30
0.0
 40
8.565565426243369
 50
86.67805960015343
 51
138.2843732587933
  0
ARC
  5
E79
  8
0
  6
BYBLOCK
 62
    40
 10
139.0035056017441
 20
50.789714686864
 30
0.0
 40
9.821136570796021
 50
105.450975198966
 51
279.5888462937707
  0
LINE
  5
E7A
  8
0
  6
BYBLOCK
 62
    40
 10
175.6242806879075
 20
82.49256047677339
 30
0.0
 11
175.6242806879075
 21
53.59938364482385
 31
0.0
  0
LINE
  5
E7B
  8
0
  6
BYBLOCK
 62
    40
 10
175.630612667614
 20
69.76424088763862
 30
0.0
 11
158.8903730918327
 21
71.55011868373646
 31
0.0
  0
ARC
  5
E7C
  8
0
  6
BYBLOCK
 62
    40
 10
218.6820353236333
 20
57.78661181422915
 30
0.0
 40
13.45715841165179
 50
252.5978145575762
 51
133.5919317872589
  0
ARC
  5
E7D
  8
0
  6
BYBLOCK
 62
    40
 10
217.1118528419229
 20
57.22493323374622
 30
0.0
 40
12.87189587892034
 50
126.7899677352609
 51
272.8193277455747
  0
CIRCLE
  5
E7E
  8
0
  6
BYBLOCK
 62
    40
 10
220.6967835348618
 20
56.5210669425172
 30
0.0
 40
4.390784682827452
  0
ARC
  5
E7F
  8
0
  6
BYBLOCK
 62
    40
 10
224.3447584663024
 20
54.64372958723353
 30
0.0
 40
13.70781850722105
 50
77.0196223035733
 51
225.0321424698617
  0
LINE
  5
E80
  8
0
  6
BYBLOCK
 62
    40
 10
174.196105552239
 20
71.08107629867068
 30
0.0
 11
174.256753764725
 21
81.30144665786543
 31
0.0
  0
LINE
  5
E81
  8
0
  6
BYBLOCK
 62
    40
 10
174.256753764725
 20
81.30144665786543
 30
0.0
 11
160.1805312157854
 21
81.30144665786543
 31
0.0
  0
LINE
  5
E82
  8
0
  6
BYBLOCK
 62
    40
 10
160.1805312157854
 20
81.30144665786543
 30
0.0
 11
160.1969895346978
 21
72.38331964913962
 31
0.0
  0
LINE
  5
E83
  8
0
  6
BYBLOCK
 62
    40
 10
160.1969895346978
 20
72.38331964913962
 30
0.0
 11
174.196105552239
 21
71.08107629867068
 31
0.0
  0
LINE
  5
E84
  8
0
  6
BYBLOCK
 62
    40
 10
158.8903730918327
 20
71.55011868373646
 30
0.0
 11
156.9280441053277
 21
70.21213874901335
 31
0.0
  0
LINE
  5
E85
  8
0
  6
BYBLOCK
 62
    40
 10
198.0537055420909
 20
85.12460871027936
 30
0.0
 11
177.067283553862
 21
81.33188184493679
 31
0.0
  0
LINE
  5
E86
  8
0
  6
BYBLOCK
 62
    40
 10
177.067283553862
 20
81.33188184493679
 30
0.0
 11
177.0610409232707
 21
71.34152496876448
 31
0.0
  0
LINE
  5
E87
  8
0
  6
BYBLOCK
 62
    40
 10
177.0610409232707
 20
71.34152496876448
 30
0.0
 11
198.6858266863147
 21
75.51636731807817
 31
0.0
  0
LINE
  5
E88
  8
0
  6
BYBLOCK
 62
    40
 10
198.6858266863147
 20
75.51636731807817
 30
0.0
 11
198.0537055420909
 21
85.12460871027936
 31
0.0
  0
POLYLINE
  5
E89
  8
0
  6
BYBLOCK
 62
     1
 66
     1
 10
0.0
 20
0.0
 30
0.0
 70
     1
  0
VERTEX
  5
1580
  8
0
  6
BYBLOCK
 62
     1
 10
195.8565402048523
 20
51.92985758732607
 30
0.0
  0
VERTEX
  5
1581
  8
0
  6
BYBLOCK
 62
     1
 10
195.9536504920769
 20
51.69318183451587
 30
0.0
  0
VERTEX
  5
1582
  8
0
  6
BYBLOCK
 62
     1
 10
196.1592405515437
 20
51.48430334251024
 30
0.0
  0
VERTEX
  5
1583
  8
0
  6
BYBLOCK
 62
     1
 10
196.4654096725637
 20
51.31124919461656
 30
0.0
  0
VERTEX
  5
1584
  8
0
  6
BYBLOCK
 62
     1
 10
196.8603919475177
 20
51.18066976468848
 30
0.0
  0
VERTEX
  5
1585
  8
0
  6
BYBLOCK
 62
     1
 10
197.3290084290879
 20
51.09758314698837
 30
0.0
  0
VERTEX
  5
1586
  8
0
  6
BYBLOCK
 62
     1
 10
197.8532504486905
 20
51.06518231363892
 30
0.0
  0
VERTEX
  5
1587
  8
0
  6
BYBLOCK
 62
     1
 10
198.4129716795107
 20
51.08471241049516
 30
0.0
  0
VERTEX
  5
1588
  8
0
  6
BYBLOCK
 62
     1
 10
198.9866623485433
 20
51.1554229068875
 30
0.0
  0
VERTEX
  5
1589
  8
0
  6
BYBLOCK
 62
     1
 10
199.5522758451067
 20
51.27459643809449
 30
0.0
  0
VERTEX
  5
158A
  8
0
  6
BYBLOCK
 62
     1
 10
200.0880759597279
 20
51.43765323214515
 30
0.0
  0
VERTEX
  5
158B
  8
0
  6
BYBLOCK
 62
     1
 10
200.5734721944819
 20
51.63832710788738
 30
0.0
  0
VERTEX
  5
158C
  8
0
  6
BYBLOCK
 62
     1
 10
200.9898110442807
 20
51.86890628081564
 30
0.0
  0
VERTEX
  5
158D
  8
0
  6
BYBLOCK
 62
     1
 10
201.3210928406118
 20
52.12052972262458
 30
0.0
  0
VERTEX
  5
158E
  8
0
  6
BYBLOCK
 62
     1
 10
201.5545866098274
 20
52.38352768555753
 30
0.0
  0
VERTEX
  5
158F
  8
0
  6
BYBLOCK
 62
     1
 10
201.6813193173213
 20
52.64779330538994
 30
0.0
  0
VERTEX
  5
1590
  8
0
  6
BYBLOCK
 62
     1
 10
201.6964206962169
 20
52.90317100255351
 30
0.0
  0
VERTEX
  5
1591
  8
0
  6
BYBLOCK
 62
     1
 10
201.5993104089923
 20
53.13984675536371
 30
0.0
  0
VERTEX
  5
1592
  8
0
  6
BYBLOCK
 62
     1
 10
201.3937203495254
 20
53.34872524736934
 30
0.0
  0
VERTEX
  5
1593
  8
0
  6
BYBLOCK
 62
     1
 10
201.0875512285054
 20
53.52177939526302
 30
0.0
  0
VERTEX
  5
1594
  8
0
  6
BYBLOCK
 62
     1
 10
200.6925689535514
 20
53.6523588251911
 30
0.0
  0
VERTEX
  5
1595
  8
0
  6
BYBLOCK
 62
     1
 10
200.2239524719813
 20
53.73544544289121
 30
0.0
  0
VERTEX
  5
1596
  8
0
  6
BYBLOCK
 62
     1
 10
199.6997104523786
 20
53.76784627624065
 30
0.0
  0
VERTEX
  5
1597
  8
0
  6
BYBLOCK
 62
     1
 10
199.1399892215584
 20
53.74831617938442
 30
0.0
  0
VERTEX
  5
1598
  8
0
  6
BYBLOCK
 62
     1
 10
198.5662985525258
 20
53.67760568299207
 30
0.0
  0
VERTEX
  5
1599
  8
0
  6
BYBLOCK
 62
     1
 10
198.0006850559624
 20
53.55843215178508
 30
0.0
  0
VERTEX
  5
159A
  8
0
  6
BYBLOCK
 62
     1
 10
197.4648849413413
 20
53.39537535773443
 30
0.0
  0
VERTEX
  5
159B
  8
0
  6
BYBLOCK
 62
     1
 10
196.9794887065872
 20
53.19470148199219
 30
0.0
  0
VERTEX
  5
159C
  8
0
  6
BYBLOCK
 62
     1
 10
196.5631498567885
 20
52.96412230906393
 30
0.0
  0
VERTEX
  5
159D
  8
0
  6
BYBLOCK
 62
     1
 10
196.2318680604573
 20
52.71249886725499
 30
0.0
  0
VERTEX
  5
159E
  8
0
  6
BYBLOCK
 62
     1
 10
195.9983742912417
 20
52.44950090432204
 30
0.0
  0
VERTEX
  5
159F
  8
0
  6
BYBLOCK
 62
     1
 10
195.8716415837479
 20
52.18523528448964
 30
0.0
  0
SEQEND
  5
157F
  8
0
  6
BYBLOCK
 62
     1
  0
LINE
  5
E8A
  8
0
  6
BYBLOCK
 62
    40
 10
175.630612667614
 20
69.76424088763862
 30
0.0
 11
172.5047509312898
 21
67.18286767030864
 31
0.0
  0
ARC
  5
E8B
  8
0
  6
BYBLOCK
 62
    40
 10
170.1517215244765
 20
65.20363332929472
 30
0.0
 40
3.101540353379728
 50
353.5808560638831
 51
88.74315357019152
  0
LINE
  5
E8C
  8
0
  6
BYBLOCK
 62
    40
 10
173.2338171402029
 20
64.85687811424658
 30
0.0
 11
173.2409043705341
 21
52.02581713546572
 31
0.0
  0
LINE
  5
E8D
  8
0
  6
BYBLOCK
 62
    40
 10
173.2336839880414
 20
52.97242415730172
 30
0.0
 11
178.0308471641234
 21
51.34162626069999
 31
0.0
  0
LINE
  5
E8E
  8
0
  6
BYBLOCK
 62
    40
 10
198.4211762355946
 20
53.64654195468144
 30
0.0
 11
177.6880231206067
 21
50.1454496594091
 31
0.0
  0
LINE
  5
E8F
  8
0
  6
BYBLOCK
 62
    40
 10
197.9104809345494
 20
51.07263763741325
 30
0.0
 11
177.0622451260859
 21
47.74339614595187
 31
0.0
  0
LINE
  5
E92
  8
0
  6
BYBLOCK
 62
    40
 10
170.2197517935978
 20
68.30442749307375
 30
0.0
 11
156.9280441053277
 21
70.21213874901335
 31
0.0
  0
ARC
  5
E94
  8
0
  6
BYBLOCK
 62
    40
 10
166.5510566773336
 20
57.05804062512782
 30
0.0
 40
4.214571555709389
 50
34.91095021876241
 51
92.37254385618491
  0
ARC
  5
E96
  8
0
  6
BYBLOCK
 62
    40
 10
166.1679241227142
 20
56.70983982557185
 30
0.0
 40
2.707819506674302
 50
34.98570765144734
 51
101.0879520473202
  0
CIRCLE
  5
E97
  8
0
  6
BYBLOCK
 62
    40
 10
159.7406160297464
 20
47.7249924591242
 30
0.0
 40
10.14111155493984
  0
ARC
  5
E98
  8
0
  6
BYBLOCK
 62
    40
 10
156.7233623771687
 20
47.27015623167145
 30
0.0
 40
10.14081352350713
 50
89.54257758702657
 51
287.2243586514354
  0
LINE
  5
E99
  8
0
  6
BYBLOCK
 62
    40
 10
165.6471681366835
 20
59.36711280434894
 30
0.0
 11
154.4876714153956
 21
57.79444851021049
 31
0.0
  0
LINE
  5
E9A
  8
0
  6
BYBLOCK
 62
    40
 10
166.3765866100345
 20
61.26899937508147
 30
0.0
 11
154.8712942768981
 21
59.30153832325588
 31
0.0
  0
ARC
  5
E9B
  8
0
  6
BYBLOCK
 62
    40
 10
154.3994087540757
 20
61.32205671336664
 30
0.0
 40
2.074890481790567
 50
205.6159487776222
 51
283.1456187916797
  0
ARC
  5
E9C
  8
0
  6
BYBLOCK
 62
    40
 10
154.0674290602517
 20
60.94704374073687
 30
0.0
 40
3.180481146712654
 50
198.3554134028899
 51
277.5927920555832
  0
ARC
  5
E9D
  8
0
  6
BYBLOCK
 62
    40
 10
151.8237955628286
 20
60.07667014639675
 30
0.0
 40
0.7860545799764623
 50
26.30463372751275
 51
189.6076965777412
  0
ARC
  5
E9E
  8
0
  6
BYBLOCK
 62
    40
 10
143.0414069373265
 20
61.20779894479299
 30
0.0
 40
4.172020912483986
 50
15.87029437276701
 51
93.18025683853649
  0
LINE
  5
E9F
  8
0
  6
BYBLOCK
 62
    40
 10
147.0544038359155
 20
62.34868210538313
 30
0.0
 11
148.8347832539517
 21
54.23988443932825
 31
0.0
  0
ARC
  5
EA0
  8
0
  6
BYBLOCK
 62
    40
 10
139.0228479603684
 20
58.4074271712017
 30
0.0
 40
4.438351363464469
 50
53.10219519801186
 51
112.3645410436075
  0
ARC
  5
EA1
  8
0
  6
BYBLOCK
 62
    40
 10
141.3575918299474
 20
46.66999347095808
 30
0.0
 40
7.203684226116971
 50
268.7216770428348
 51
313.2804481410996
  0
LINE
  5
EA2
  8
0
  6
BYBLOCK
 62
    40
 10
146.3018939884219
 20
41.46600023654958
 30
0.0
 11
147.8714890010331
 21
42.34934381360592
 31
0.0
  0
CIRCLE
  5
EA3
  8
0
  6
BYBLOCK
 62
    40
 10
159.6556927649237
 20
47.81277174156625
 30
0.0
 40
5.830957457391719
  0
POLYLINE
  5
EA4
  8
0
  6
BYBLOCK
 62
     1
 66
     1
 10
0.0
 20
0.0
 30
0.0
 70
     1
  0
VERTEX
  5
15A1
  8
0
  6
BYBLOCK
 62
     1
 10
148.8533597355781
 20
69.2622518389158
 30
0.0
  0
VERTEX
  5
15A2
  8
0
  6
BYBLOCK
 62
     1
 10
148.7323432571377
 20
69.21758089514704
 30
0.0
  0
VERTEX
  5
15A3
  8
0
  6
BYBLOCK
 62
     1
 10
148.6239575745738
 20
69.13053715028565
 30
0.0
  0
VERTEX
  5
15A4
  8
0
  6
BYBLOCK
 62
     1
 10
148.5323678888838
 20
69.00446564663197
 30
0.0
  0
VERTEX
  5
15A5
  8
0
  6
BYBLOCK
 62
     1
 10
148.4610939403249
 20
68.84421124136972
 30
0.0
  0
VERTEX
  5
15A6
  8
0
  6
BYBLOCK
 62
     1
 10
148.4128747467691
 20
68.6559324214214
 30
0.0
  0
VERTEX
  5
15A7
  8
0
  6
BYBLOCK
 62
     1
 10
148.3895633447833
 20
68.44686463624963
 30
0.0
  0
VERTEX
  5
15A8
  8
0
  6
BYBLOCK
 62
     1
 10
148.3920555784725
 20
68.22504224359203
 30
0.0
  0
VERTEX
  5
15A9
  8
0
  6
BYBLOCK
 62
     1
 10
148.4202556726937
 20
67.99898975359898
 30
0.0
  0
VERTEX
  5
15AA
  8
0
  6
BYBLOCK
 62
     1
 10
148.4730799136408
 20
67.77739423668923
 30
0.0
  0
VERTEX
  5
15AB
  8
0
  6
BYBLOCK
 62
     1
 10
148.5484982953585
 20
67.5687714843054
 30
0.0
  0
VERTEX
  5
15AC
  8
0
  6
BYBLOCK
 62
     1
 10
148.6436125317323
 20
67.38113875182465
 30
0.0
  0
VERTEX
  5
15AD
  8
0
  6
BYBLOCK
 62
     1
 10
148.7547674359991
 20
67.22170665993053
 30
0.0
  0
VERTEX
  5
15AE
  8
0
  6
BYBLOCK
 62
     1
 10
148.8776913875244
 20
67.09660209450401
 30
0.0
  0
VERTEX
  5
15AF
  8
0
  6
BYBLOCK
 62
     1
 10
149.0076604877875
 20
67.01063275383496
 30
0.0
  0
VERTEX
  5
15B0
  8
0
  6
BYBLOCK
 62
     1
 10
149.1396800971529
 20
66.96710239147315
 30
0.0
  0
VERTEX
  5
15B1
  8
0
  6
BYBLOCK
 62
     1
 10
149.2686767760701
 20
66.96768385483202
 30
0.0
  0
VERTEX
  5
15B2
  8
0
  6
BYBLOCK
 62
     1
 10
149.3896932545105
 20
67.01235479860078
 30
0.0
  0
VERTEX
  5
15B3
  8
0
  6
BYBLOCK
 62
     1
 10
149.4980789370744
 20
67.09939854346217
 30
0.0
  0
VERTEX
  5
15B4
  8
0
  6
BYBLOCK
 62
     1
 10
149.5896686227643
 20
67.22547004711585
 30
0.0
  0
VERTEX
  5
15B5
  8
0
  6
BYBLOCK
 62
     1
 10
149.6609425713233
 20
67.3857244523781
 30
0.0
  0
VERTEX
  5
15B6
  8
0
  6
BYBLOCK
 62
     1
 10
149.709161764879
 20
67.57400327232644
 30
0.0
  0
VERTEX
  5
15B7
  8
0
  6
BYBLOCK
 62
     1
 10
149.7324731668649
 20
67.78307105749819
 30
0.0
  0
VERTEX
  5
15B8
  8
0
  6
BYBLOCK
 62
     1
 10
149.7299809331757
 20
68.00489345015579
 30
0.0
  0
VERTEX
  5
15B9
  8
0
  6
BYBLOCK
 62
     1
 10
149.7017808389545
 20
68.23094594014884
 30
0.0
  0
VERTEX
  5
15BA
  8
0
  6
BYBLOCK
 62
     1
 10
149.6489565980073
 20
68.45254145705859
 30
0.0
  0
VERTEX
  5
15BB
  8
0
  6
BYBLOCK
 62
     1
 10
149.5735382162897
 20
68.66116420944242
 30
0.0
  0
VERTEX
  5
15BC
  8
0
  6
BYBLOCK
 62
     1
 10
149.4784239799159
 20
68.84879694192318
 30
0.0
  0
VERTEX
  5
15BD
  8
0
  6
BYBLOCK
 62
     1
 10
149.3672690756491
 20
69.00822903381729
 30
0.0
  0
VERTEX
  5
15BE
  8
0
  6
BYBLOCK
 62
     1
 10
149.2443451241238
 20
69.13333359924383
 30
0.0
  0
VERTEX
  5
15BF
  8
0
  6
BYBLOCK
 62
     1
 10
149.1143760238606
 20
69.21930293991287
 30
0.0
  0
VERTEX
  5
15C0
  8
0
  6
BYBLOCK
 62
     1
 10
148.9823564144953
 20
69.26283330227467
 30
0.0
  0
SEQEND
  5
15A0
  8
0
  6
BYBLOCK
 62
     1
  0
POLYLINE
  5
EA5
  8
0
  6
BYBLOCK
 62
     1
 66
     1
 10
0.0
 20
0.0
 30
0.0
 70
     1
  0
VERTEX
  5
15C2
  8
0
  6
BYBLOCK
 62
     1
 10
150.6365219638055
 20
68.82006719215505
 30
0.0
  0
VERTEX
  5
15C3
  8
0
  6
BYBLOCK
 62
     1
 10
150.5040333057468
 20
68.78455133896196
 30
0.0
  0
VERTEX
  5
15C4
  8
0
  6
BYBLOCK
 62
     1
 10
150.3807927042231
 20
68.70293894132942
 30
0.0
  0
VERTEX
  5
15C5
  8
0
  6
BYBLOCK
 62
     1
 10
150.2715362264367
 20
68.57836631792966
 30
0.0
  0
VERTEX
  5
15C6
  8
0
  6
BYBLOCK
 62
     1
 10
150.1804625375574
 20
68.41562072481884
 30
0.0
  0
VERTEX
  5
15C7
  8
0
  6
BYBLOCK
 62
     1
 10
150.111071548374
 20
68.2209563838714
 30
0.0
  0
VERTEX
  5
15C8
  8
0
  6
BYBLOCK
 62
     1
 10
150.0660299156859
 20
68.00185413654093
 30
0.0
  0
VERTEX
  5
15C9
  8
0
  6
BYBLOCK
 62
     1
 10
150.0470685641777
 20
67.76673395931839
 30
0.0
  0
VERTEX
  5
15CA
  8
0
  6
BYBLOCK
 62
     1
 10
150.0549161679542
 20
67.52463138875753
 30
0.0
  0
VERTEX
  5
15CB
  8
0
  6
BYBLOCK
 62
     1
 10
150.0892711480032
 20
67.28485029087231
 30
0.0
  0
VERTEX
  5
15CC
  8
0
  6
BYBLOCK
 62
     1
 10
150.148813261708
 20
67.0566053187837
 30
0.0
  0
VERTEX
  5
15CD
  8
0
  6
BYBLOCK
 62
     1
 10
150.2312543390306
 20
66.84866779876776
 30
0.0
  0
VERTEX
  5
15CE
  8
0
  6
BYBLOCK
 62
     1
 10
150.3334262156027
 20
66.66902865310604
 30
0.0
  0
VERTEX
  5
15CF
  8
0
  6
BYBLOCK
 62
     1
 10
150.4514024835066
 20
66.52459131342351
 30
0.0
  0
VERTEX
  5
15D0
  8
0
  6
BYBLOCK
 62
     1
 10
150.5806493809284
 20
66.42090642568277
 30
0.0
  0
VERTEX
  5
15D1
  8
0
  6
BYBLOCK
 62
     1
 10
150.7162000220827
 20
66.36195854197257
 30
0.0
  0
VERTEX
  5
15D2
  8
0
  6
BYBLOCK
 62
     1
 10
150.8528452718477
 20
66.3500129964055
 30
0.0
  0
VERTEX
  5
15D3
  8
0
  6
BYBLOCK
 62
     1
 10
150.9853339299065
 20
66.38552884959859
 30
0.0
  0
VERTEX
  5
15D4
  8
0
  6
BYBLOCK
 62
     1
 10
151.1085745314302
 20
66.46714124723113
 30
0.0
  0
VERTEX
  5
15D5
  8
0
  6
BYBLOCK
 62
     1
 10
151.2178310092166
 20
66.59171387063088
 30
0.0
  0
VERTEX
  5
15D6
  8
0
  6
BYBLOCK
 62
     1
 10
151.3089046980959
 20
66.75445946374171
 30
0.0
  0
VERTEX
  5
15D7
  8
0
  6
BYBLOCK
 62
     1
 10
151.3782956872793
 20
66.94912380468915
 30
0.0
  0
VERTEX
  5
15D8
  8
0
  6
BYBLOCK
 62
     1
 10
151.4233373199674
 20
67.16822605201962
 30
0.0
  0
VERTEX
  5
15D9
  8
0
  6
BYBLOCK
 62
     1
 10
151.4422986714756
 20
67.40334622924216
 30
0.0
  0
VERTEX
  5
15DA
  8
0
  6
BYBLOCK
 62
     1
 10
151.4344510676991
 20
67.64544879980302
 30
0.0
  0
VERTEX
  5
15DB
  8
0
  6
BYBLOCK
 62
     1
 10
151.4000960876501
 20
67.88522989768823
 30
0.0
  0
VERTEX
  5
15DC
  8
0
  6
BYBLOCK
 62
     1
 10
151.3405539739453
 20
68.11347486977685
 30
0.0
  0
VERTEX
  5
15DD
  8
0
  6
BYBLOCK
 62
     1
 10
151.2581128966227
 20
68.32141238979278
 30
0.0
  0
VERTEX
  5
15DE
  8
0
  6
BYBLOCK
 62
     1
 10
151.1559410200505
 20
68.50105153545451
 30
0.0
  0
VERTEX
  5
15DF
  8
0
  6
BYBLOCK
 62
     1
 10
151.0379647521467
 20
68.64548887513703
 30
0.0
  0
VERTEX
  5
15E0
  8
0
  6
BYBLOCK
 62
     1
 10
150.9087178547249
 20
68.74917376287777
 30
0.0
  0
VERTEX
  5
15E1
  8
0
  6
BYBLOCK
 62
     1
 10
150.7731672135705
 20
68.80812164658798
 30
0.0
  0
SEQEND
  5
15C1
  8
0
  6
BYBLOCK
 62
     1
  0
POLYLINE
  5
EA6
  8
0
  6
BYBLOCK
 62
     1
 66
     1
 10
0.0
 20
0.0
 30
0.0
 70
     1
  0
VERTEX
  5
15E3
  8
0
  6
BYBLOCK
 62
     1
 10
147.1404626346737
 20
69.69047611414189
 30
0.0
  0
VERTEX
  5
15E4
  8
0
  6
BYBLOCK
 62
     1
 10
147.0304466945663
 20
69.65503835391827
 30
0.0
  0
VERTEX
  5
15E5
  8
0
  6
BYBLOCK
 62
     1
 10
146.9301440782549
 20
69.58119276831017
 30
0.0
  0
VERTEX
  5
15E6
  8
0
  6
BYBLOCK
 62
     1
 10
146.843409359034
 20
69.47177720175941
 30
0.0
  0
VERTEX
  5
15E7
  8
0
  6
BYBLOCK
 62
     1
 10
146.7735757035218
 20
69.33099643312758
 30
0.0
  0
VERTEX
  5
15E8
  8
0
  6
BYBLOCK
 62
     1
 10
146.7233267799366
 20
69.16426058840244
 30
0.0
  0
VERTEX
  5
15E9
  8
0
  6
BYBLOCK
 62
     1
 10
146.6945936262319
 20
68.97797723259025
 30
0.0
  0
VERTEX
  5
15EA
  8
0
  6
BYBLOCK
 62
     1
 10
146.6884804413906
 20
68.77930513058593
 30
0.0
  0
VERTEX
  5
15EB
  8
0
  6
BYBLOCK
 62
     1
 10
146.705222151678
 20
68.57587913985294
 30
0.0
  0
VERTEX
  5
15EC
  8
0
  6
BYBLOCK
 62
     1
 10
146.7441753825566
 20
68.37551680713253
 30
0.0
  0
VERTEX
  5
15ED
  8
0
  6
BYBLOCK
 62
     1
 10
146.8038431832089
 20
68.18591794450664
 30
0.0
  0
VERTEX
  5
15EE
  8
0
  6
BYBLOCK
 62
     1
 10
146.881932553518
 20
68.01436872993773
 30
0.0
  0
VERTEX
  5
15EF
  8
0
  6
BYBLOCK
 62
     1
 10
146.9754425627759
 20
67.86746170353578
 30
0.0
  0
VERTEX
  5
15F0
  8
0
  6
BYBLOCK
 62
     1
 10
147.0807796737678
 20
67.75084241993901
 30
0.0
  0
VERTEX
  5
15F1
  8
0
  6
BYBLOCK
 62
     1
 10
147.1938958403921
 20
67.66899249281515
 30
0.0
  0
VERTEX
  5
15F2
  8
0
  6
BYBLOCK
 62
     1
 10
147.3104440718017
 20
67.62505736896166
 30
0.0
  0
VERTEX
  5
15F3
  8
0
  6
BYBLOCK
 62
     1
 10
147.4259454848244
 20
67.62072545054912
 30
0.0
  0
VERTEX
  5
15F4
  8
0
  6
BYBLOCK
 62
     1
 10
147.5359614249318
 20
67.65616321077273
 30
0.0
  0
VERTEX
  5
15F5
  8
0
  6
BYBLOCK
 62
     1
 10
147.6362640412432
 20
67.73000879638083
 30
0.0
  0
VERTEX
  5
15F6
  8
0
  6
BYBLOCK
 62
     1
 10
147.7229987604641
 20
67.8394243629316
 30
0.0
  0
VERTEX
  5
15F7
  8
0
  6
BYBLOCK
 62
     1
 10
147.7928324159763
 20
67.98020513156342
 30
0.0
  0
VERTEX
  5
15F8
  8
0
  6
BYBLOCK
 62
     1
 10
147.8430813395615
 20
68.14694097628856
 30
0.0
  0
VERTEX
  5
15F9
  8
0
  6
BYBLOCK
 62
     1
 10
147.8718144932662
 20
68.33322433210076
 30
0.0
  0
VERTEX
  5
15FA
  8
0
  6
BYBLOCK
 62
     1
 10
147.8779276781075
 20
68.53189643410508
 30
0.0
  0
VERTEX
  5
15FB
  8
0
  6
BYBLOCK
 62
     1
 10
147.8611859678201
 20
68.73532242483806
 30
0.0
  0
VERTEX
  5
15FC
  8
0
  6
BYBLOCK
 62
     1
 10
147.8222327369415
 20
68.93568475755849
 30
0.0
  0
VERTEX
  5
15FD
  8
0
  6
BYBLOCK
 62
     1
 10
147.7625649362892
 20
69.12528362018436
 30
0.0
  0
VERTEX
  5
15FE
  8
0
  6
BYBLOCK
 62
     1
 10
147.6844755659801
 20
69.29683283475328
 30
0.0
  0
VERTEX
  5
15FF
  8
0
  6
BYBLOCK
 62
     1
 10
147.5909655567222
 20
69.44373986115522
 30
0.0
  0
VERTEX
  5
1600
  8
0
  6
BYBLOCK
 62
     1
 10
147.4856284457302
 20
69.56035914475201
 30
0.0
  0
VERTEX
  5
1601
  8
0
  6
BYBLOCK
 62
     1
 10
147.372512279106
 20
69.64220907187585
 30
0.0
  0
VERTEX
  5
1602
  8
0
  6
BYBLOCK
 62
     1
 10
147.2559640476964
 20
69.68614419572934
 30
0.0
  0
SEQEND
  5
15E2
  8
0
  6
BYBLOCK
 62
     1
  0
ARC
  5
EA7
  8
0
  6
BYBLOCK
 62
    40
 10
147.5993007995619
 20
68.67322135245335
 30
0.0
 40
1.377887711755891
 50
94.24463879605408
 51
237.3034334064422
  0
ARC
  5
EA8
  8
0
  6
BYBLOCK
 62
    40
 10
150.5543525210971
 20
67.58918257419207
 30
0.0
 40
1.67134792252248
 50
281.2245028061607
 51
46.34119941215104
  0
LINE
  5
EA9
  8
0
  6
BYBLOCK
 62
    40
 10
151.7081882370853
 20
68.79834220742086
 30
0.0
 11
147.4973161973621
 21
70.0473296768303
 31
0.0
  0
LINE
  5
EAA
  8
0
  6
BYBLOCK
 62
    40
 10
150.8796868179964
 20
65.94980419401826
 30
0.0
 11
146.8711557997763
 21
67.51344755116631
 31
0.0
  0
LINE
  5
EAB
  8
0
  6
BYBLOCK
 62
    40
 10
147.4973161973621
 20
70.0473296768303
 30
0.0
 11
155.4375376292656
 21
69.6183299435551
 31
0.0
  0
LINE
  5
EAC
  8
0
  6
BYBLOCK
 62
    40
 10
155.4375376292656
 20
69.6183299435551
 30
0.0
 11
159.416225191155
 21
68.61991542607666
 31
0.0
  0
LINE
  5
EAD
  8
0
  6
BYBLOCK
 62
    40
 10
159.416225191155
 20
68.61991542607666
 30
0.0
 11
151.7081882370853
 21
68.79834220742086
 31
0.0
  0
LINE
  5
EAE
  8
0
  6
BYBLOCK
 62
    40
 10
150.8851175713085
 20
65.92254806854687
 30
0.0
 11
159.5598297226034
 21
66.64339609797904
 31
0.0
  0
ARC
  5
EAF
  8
0
  6
BYBLOCK
 62
    40
 10
159.4268648885395
 20
67.6272119795443
 30
0.0
 40
0.9927604625072699
 50
277.6970092573503
 51
90.61406698699447
  0
LINE
  5
EB0
  8
0
  6
BYBLOCK
 62
    40
 10
146.82423427124
 20
63.02658459178777
 30
0.0
 11
166.7140967430515
 21
65.62244229632258
 31
0.0
  0
LINE
  5
EB2
  8
0
  6
BYBLOCK
 62
    40
 10
166.7140967430515
 20
65.62244229632258
 30
0.0
 11
159.5598297226034
 21
66.64339609797904
 31
0.0
  0
LINE
  5
EB3
  8
0
  6
BYBLOCK
 62
    40
 10
146.8711557997763
 20
67.51344755116631
 30
0.0
 11
146.8711557997763
 21
65.92254806854687
 31
0.0
  0
LINE
  5
EB4
  8
0
  6
BYBLOCK
 62
    40
 10
146.8711557997763
 20
65.92254806854687
 30
0.0
 11
150.8385147109224
 21
64.19998964338743
 31
0.0
  0
LINE
  5
EB5
  8
0
  6
BYBLOCK
 62
    40
 10
150.8385147109224
 20
64.19998964338743
 30
0.0
 11
150.8851175713085
 21
65.92254806854687
 31
0.0
  0
ARC
  5
EB6
  8
0
  6
BYBLOCK
 62
    40
 10
158.5165234604585
 20
64.51057481480646
 30
0.0
 40
2.381839326801358
 50
8.681824117490303
 51
64.30076924996858
  0
LINE
  5
EB7
  8
0
  6
BYBLOCK
 62
    40
 10
150.8385147109224
 20
64.19998964338743
 30
0.0
 11
160.8710712468273
 21
64.87010687235248
 31
0.0
  0
ARC
  5
EB9
  8
0
  6
BYBLOCK
 62
    40
 10
146.9409025381905
 20
64.43554974899331
 30
0.0
 40
1.483527783766824
 50
92.54385342290863
 51
173.9804260426913
  0
ARC
  5
EBC
  8
0
  6
BYBLOCK
 62
    40
 10
202.2020654448221
 20
83.29238180178102
 30
0.0
 40
2.421053299663133
 50
5.037414321349553
 51
91.74765220625353
  0
LINE
  5
EBD
  8
0
  6
BYBLOCK
 62
    40
 10
202.1282292372896
 20
85.71230892759844
 30
0.0
 11
199.4443720593832
 21
85.25103293912412
 31
0.0
  0
LINE
  5
EBE
  8
0
  6
BYBLOCK
 62
    40
 10
204.6137676022004
 20
83.50496539452998
 30
0.0
 11
205.6458416376811
 21
76.79648416390519
 31
0.0
  0
LINE
  5
EBF
  8
0
  6
BYBLOCK
 62
    40
 10
205.6458416376811
 20
76.79648416390519
 30
0.0
 11
200.2029174324517
 21
75.89564000461243
 31
0.0
  0
POLYLINE
  5
EC0
  8
0
  6
BYBLOCK
 62
    40
 66
     1
 10
0.0
 20
0.0
 30
0.0
 70
     1
  0
VERTEX
  5
1604
  8
0
  6
BYBLOCK
 62
    40
 10
146.3615900297538
 20
50.90441441199911
 30
0.0
  0
VERTEX
  5
1605
  8
0
  6
BYBLOCK
 62
    40
 10
146.5887603463214
 20
50.94096572623804
 30
0.0
  0
VERTEX
  5
1606
  8
0
  6
BYBLOCK
 62
    40
 10
146.807436957948
 20
51.05065467860742
 30
0.0
  0
VERTEX
  5
1607
  8
0
  6
BYBLOCK
 62
    40
 10
147.0092162450839
 20
51.22926598418194
 30
0.0
  0
VERTEX
  5
1608
  8
0
  6
BYBLOCK
 62
    40
 10
147.1863439428836
 20
51.46993571065477
 30
0.0
  0
VERTEX
  5
1609
  8
0
  6
BYBLOCK
 62
    40
 10
147.3320131332551
 20
51.76341505540666
 30
0.0
  0
VERTEX
  5
160A
  8
0
  6
BYBLOCK
 62
    40
 10
147.4406258309045
 20
52.09842577180395
 30
0.0
  0
VERTEX
  5
160B
  8
0
  6
BYBLOCK
 62
    40
 10
147.508008110772
 20
52.46209358589164
 30
0.0
  0
VERTEX
  5
160C
  8
0
  6
BYBLOCK
 62
    40
 10
147.5315705096307
 20
52.84044294752158
 30
0.0
  0
VERTEX
  5
160D
  8
0
  6
BYBLOCK
 62
    40
 10
147.5104075377062
 20
53.21893410290716
 30
0.0
  0
VERTEX
  5
160E
  8
0
  6
BYBLOCK
 62
    40
 10
147.4453324761415
 20
53.58302184920714
 30
0.0
  0
VERTEX
  5
160F
  8
0
  6
BYBLOCK
 62
    40
 10
147.3388461230578
 20
53.91871449851399
 30
0.0
  0
VERTEX
  5
1610
  8
0
  6
BYBLOCK
 62
    40
 10
147.195040689286
 20
54.21311157057345
 30
0.0
  0
VERTEX
  5
1611
  8
0
  6
BYBLOCK
 62
    40
 10
147.0194425369989
 20
54.45489955100607
 30
0.0
  0
VERTEX
  5
1612
  8
0
  6
BYBLOCK
 62
    40
 10
146.8187998047123
 20
54.63478666332007
 30
0.0
  0
VERTEX
  5
1613
  8
0
  6
BYBLOCK
 62
    40
 10
146.6008230801063
 20
54.7458599466711
 30
0.0
  0
VERTEX
  5
1614
  8
0
  6
BYBLOCK
 62
    40
 10
146.3738890864646
 20
54.78385091707058
 30
0.0
  0
VERTEX
  5
1615
  8
0
  6
BYBLOCK
 62
    40
 10
146.146718769897
 20
54.74729960283163
 30
0.0
  0
VERTEX
  5
1616
  8
0
  6
BYBLOCK
 62
    40
 10
145.9280421582704
 20
54.63761065046226
 30
0.0
  0
VERTEX
  5
1617
  8
0
  6
BYBLOCK
 62
    40
 10
145.7262628711345
 20
54.45899934488774
 30
0.0
  0
VERTEX
  5
1618
  8
0
  6
BYBLOCK
 62
    40
 10
145.5491351733348
 20
54.21832961841491
 30
0.0
  0
VERTEX
  5
1619
  8
0
  6
BYBLOCK
 62
    40
 10
145.4034659829634
 20
53.92485027366301
 30
0.0
  0
VERTEX
  5
161A
  8
0
  6
BYBLOCK
 62
    40
 10
145.2948532853139
 20
53.58983955726573
 30
0.0
  0
VERTEX
  5
161B
  8
0
  6
BYBLOCK
 62
    40
 10
145.2274710054464
 20
53.22617174317804
 30
0.0
  0
VERTEX
  5
161C
  8
0
  6
BYBLOCK
 62
    40
 10
145.2039086065878
 20
52.84782238154809
 30
0.0
  0
VERTEX
  5
161D
  8
0
  6
BYBLOCK
 62
    40
 10
145.2250715785122
 20
52.46933122616252
 30
0.0
  0
VERTEX
  5
161E
  8
0
  6
BYBLOCK
 62
    40
 10
145.2901466400769
 20
52.10524347986254
 30
0.0
  0
VERTEX
  5
161F
  8
0
  6
BYBLOCK
 62
    40
 10
145.3966329931606
 20
51.76955083055569
 30
0.0
  0
VERTEX
  5
1620
  8
0
  6
BYBLOCK
 62
    40
 10
145.5404384269324
 20
51.47515375849623
 30
0.0
  0
VERTEX
  5
1621
  8
0
  6
BYBLOCK
 62
    40
 10
145.7160365792195
 20
51.2333657780636
 30
0.0
  0
VERTEX
  5
1622
  8
0
  6
BYBLOCK
 62
    40
 10
145.9166793115061
 20
51.05347866574959
 30
0.0
  0
VERTEX
  5
1623
  8
0
  6
BYBLOCK
 62
    40
 10
146.1346560361122
 20
50.94240538239858
 30
0.0
  0
SEQEND
  5
1603
  8
0
  6
BYBLOCK
 62
    40
  0
POLYLINE
  5
EC1
  8
0
  6
BYBLOCK
 62
    40
 66
     1
 10
0.0
 20
0.0
 30
0.0
 70
     1
  0
VERTEX
  5
1625
  8
0
  6
BYBLOCK
 62
    40
 10
135.7889806944316
 20
52.45710490122957
 30
0.0
  0
VERTEX
  5
1626
  8
0
  6
BYBLOCK
 62
    40
 10
136.0154968073489
 20
52.49428805096996
 30
0.0
  0
VERTEX
  5
1627
  8
0
  6
BYBLOCK
 62
    40
 10
136.2333080330784
 20
52.60440857259911
 30
0.0
  0
VERTEX
  5
1628
  8
0
  6
BYBLOCK
 62
    40
 10
136.4340440083653
 20
52.78323459622715
 30
0.0
  0
VERTEX
  5
1629
  8
0
  6
BYBLOCK
 62
    40
 10
136.6099905622535
 20
53.02389393805284
 30
0.0
  0
VERTEX
  5
162A
  8
0
  6
BYBLOCK
 62
    40
 10
136.7543861673489
 20
53.3171381945331
 30
0.0
  0
VERTEX
  5
162B
  8
0
  6
BYBLOCK
 62
    40
 10
136.8616817815257
 20
53.65169815334471
 30
0.0
  0
VERTEX
  5
162C
  8
0
  6
BYBLOCK
 62
    40
 10
136.9277540945032
 20
54.01471686289391
 30
0.0
  0
VERTEX
  5
162D
  8
0
  6
BYBLOCK
 62
    40
 10
136.9500639843475
 20
54.39224371775595
 30
0.0
  0
VERTEX
  5
162E
  8
0
  6
BYBLOCK
 62
    40
 10
136.9277540945032
 20
54.76977057261799
 30
0.0
  0
VERTEX
  5
162F
  8
0
  6
BYBLOCK
 62
    40
 10
136.8616817815257
 20
55.13278928216717
 30
0.0
  0
VERTEX
  5
1630
  8
0
  6
BYBLOCK
 62
    40
 10
136.7543861673489
 20
55.46734924097878
 30
0.0
  0
VERTEX
  5
1631
  8
0
  6
BYBLOCK
 62
    40
 10
136.6099905622535
 20
55.76059349745906
 30
0.0
  0
VERTEX
  5
1632
  8
0
  6
BYBLOCK
 62
    40
 10
136.4340440083653
 20
56.00125283928475
 30
0.0
  0
VERTEX
  5
1633
  8
0
  6
BYBLOCK
 62
    40
 10
136.2333080330784
 20
56.18007886291279
 30
0.0
  0
VERTEX
  5
1634
  8
0
  6
BYBLOCK
 62
    40
 10
136.0154968073489
 20
56.29019938454194
 30
0.0
  0
VERTEX
  5
1635
  8
0
  6
BYBLOCK
 62
    40
 10
135.7889806944316
 20
56.32738253428232
 30
0.0
  0
VERTEX
  5
1636
  8
0
  6
BYBLOCK
 62
    40
 10
135.5624645815144
 20
56.29019938454194
 30
0.0
  0
VERTEX
  5
1637
  8
0
  6
BYBLOCK
 62
    40
 10
135.3446533557849
 20
56.18007886291279
 30
0.0
  0
VERTEX
  5
1638
  8
0
  6
BYBLOCK
 62
    40
 10
135.143917380498
 20
56.00125283928475
 30
0.0
  0
VERTEX
  5
1639
  8
0
  6
BYBLOCK
 62
    40
 10
134.9679708266098
 20
55.76059349745906
 30
0.0
  0
VERTEX
  5
163A
  8
0
  6
BYBLOCK
 62
    40
 10
134.8235752215144
 20
55.46734924097878
 30
0.0
  0
VERTEX
  5
163B
  8
0
  6
BYBLOCK
 62
    40
 10
134.7162796073376
 20
55.13278928216717
 30
0.0
  0
VERTEX
  5
163C
  8
0
  6
BYBLOCK
 62
    40
 10
134.6502072943601
 20
54.76977057261799
 30
0.0
  0
VERTEX
  5
163D
  8
0
  6
BYBLOCK
 62
    40
 10
134.6278974045158
 20
54.39224371775595
 30
0.0
  0
VERTEX
  5
163E
  8
0
  6
BYBLOCK
 62
    40
 10
134.6502072943601
 20
54.01471686289391
 30
0.0
  0
VERTEX
  5
163F
  8
0
  6
BYBLOCK
 62
    40
 10
134.7162796073376
 20
53.65169815334471
 30
0.0
  0
VERTEX
  5
1640
  8
0
  6
BYBLOCK
 62
    40
 10
134.8235752215144
 20
53.3171381945331
 30
0.0
  0
VERTEX
  5
1641
  8
0
  6
BYBLOCK
 62
    40
 10
134.9679708266098
 20
53.02389393805284
 30
0.0
  0
VERTEX
  5
1642
  8
0
  6
BYBLOCK
 62
    40
 10
135.143917380498
 20
52.78323459622715
 30
0.0
  0
VERTEX
  5
1643
  8
0
  6
BYBLOCK
 62
    40
 10
135.3446533557849
 20
52.60440857259911
 30
0.0
  0
VERTEX
  5
1644
  8
0
  6
BYBLOCK
 62
    40
 10
135.5624645815144
 20
52.49428805096996
 30
0.0
  0
SEQEND
  5
1624
  8
0
  6
BYBLOCK
 62
    40
  0
LINE
  5
EC2
  8
0
  6
BYBLOCK
 62
    40
 10
146.3738890864646
 20
54.78385091707058
 30
0.0
 11
149.3036573332012
 21
54.15521119642595
 31
0.0
  0
LINE
  5
EC3
  8
0
  6
BYBLOCK
 62
    40
 10
146.673049035644
 20
50.97619644508402
 30
0.0
 11
147.4691859238571
 21
51.26911130017511
 31
0.0
  0
LINE
  5
EC4
  8
0
  6
BYBLOCK
 62
    40
 10
135.9858964428341
 20
56.29584984633216
 30
0.0
 11
137.3018955108951
 21
55.98785006444555
 31
0.0
  0
LINE
  5
EC5
  8
0
  6
BYBLOCK
 62
    40
 10
136.0892081730688
 20
52.53887723868411
 30
0.0
 11
137.9738950350114
 21
52.96385220592239
 31
0.0
  0
ARC
  5
EC6
  8
0
  6
BYBLOCK
 62
    40
 10
136.1172902756697
 20
62.30835806075216
 30
0.0
 40
0.290976978782386
 50
3.605941659569389
 51
132.7467633465495
  0
LINE
  5
EC7
  8
0
  6
BYBLOCK
 62
    40
 10
141.3285724740247
 20
41.17769220414829
 30
0.0
 11
141.3328856902815
 21
39.49409251507352
 31
0.0
  0
LINE
  5
EC8
  8
0
  6
BYBLOCK
 62
    40
 10
204.3043861036362
 20
56.07745158765695
 30
0.0
 11
200.8087572419937
 21
57.46421910246459
 31
0.0
  0
LINE
  5
EC9
  8
0
  6
BYBLOCK
 62
    40
 10
200.8087572419937
 20
57.46421910246459
 30
0.0
 11
175.6242806879075
 21
53.59938364482385
 31
0.0
  0
ARC
  5
ECA
  8
0
  6
BYBLOCK
 62
    40
 10
208.8173961330852
 20
76.5958568708335
 30
0.0
 40
0.7355189928625902
 50
279.3110115957182
 51
17.35455554540906
  0
LINE
  5
ECC
  8
0
  6
BYBLOCK
 62
    40
 10
204.4882364120125
 20
54.72921599289742
 30
0.0
 11
199.2382887172671
 21
53.74868101489049
 31
0.0
  0
ARC
  5
ECD
  8
0
  6
BYBLOCK
 62
    40
 10
160.4089653704389
 20
61.91953898047552
 30
0.0
 40
1.698540508376224
 50
200.7036787709203
 51
263.2584360427399
  0
ARC
  5
ECE
  8
0
  6
BYBLOCK
 62
    40
 10
158.1299578681681
 20
60.9804152256902
 30
0.0
 40
0.7687564675048387
 50
26.13522076140808
 51
181.8563989892889
  0
ARC
  5
ECF
  8
0
  6
BYBLOCK
 62
    40
 10
159.015998064414
 20
61.42616621552375
 30
0.0
 40
1.720038524641618
 50
195.8804019805453
 51
244.0870106400963
  0
ARC
  5
ED0
  8
0
  6
BYBLOCK
 62
    40
 10
164.7535443423582
 20
62.41189726629809
 30
0.0
 40
1.720038524641618
 50
195.8804019805453
 51
244.0870106400963
  0
ARC
  5
ED1
  8
0
  6
BYBLOCK
 62
    40
 10
166.146511648383
 20
62.90527003124986
 30
0.0
 40
1.698540508376224
 50
200.7036787709203
 51
263.2584360427399
  0
ARC
  5
ED2
  8
0
  6
BYBLOCK
 62
    40
 10
163.8675041461122
 20
61.96614627646454
 30
0.0
 40
0.7687564675048387
 50
26.13522076140808
 51
181.8563989892889
  0
ARC
  5
ED3
  8
0
  6
BYBLOCK
 62
    40
 10
147.2770171682311
 20
61.85321062812746
 30
0.0
 40
1.25770378484112
 50
277.3111962777226
 51
111.1006615898983
  0
LINE
  5
ED4
  8
0
  6
BYBLOCK
 62
    40
 10
199.7788795098611
 20
74.0632625013244
 30
0.0
 11
199.8604094623985
 21
57.3650691860381
 31
0.0
  0
ARC
  5
ED5
  8
0
  6
BYBLOCK
 62
    40
 10
166.2929139269309
 20
64.43522084608705
 30
0.0
 40
1.263938982488656
 50
262.2162736334801
 51
71.13466384273869
  0
LINE
  5
ED6
  8
0
  6
BYBLOCK
 62
    40
 10
166.1217334045137
 20
63.18292735804222
 30
0.0
 11
147.4370705825295
 21
60.6057324860444
 31
0.0
  0
LINE
  5
ED7
  8
0
  6
BYBLOCK
 62
    40
 10
166.1217334045137
 20
63.18292735804222
 30
0.0
 11
165.9974477897434
 21
61.20592353318689
 31
0.0
  0
LINE
  5
ED8
  8
0
  6
BYBLOCK
 62
    40
 10
178.0308471641234
 20
51.34162626069999
 30
0.0
 11
178.0750754419506
 21
50.23509734369905
 31
0.0
  0
LINE
  5
ED9
  8
0
  6
BYBLOCK
 62
    40
 10
173.2409043705341
 20
52.02581713546572
 30
0.0
 11
178.0750754419506
 21
50.23509734369905
 31
0.0
  0
POLYLINE
  5
EDA
  8
0
  6
BYBLOCK
 62
     4
 66
     1
 10
0.0
 20
0.0
 30
0.0
  0
VERTEX
  5
1646
  8
0
  6
BYBLOCK
 62
     4
 10
220.7716779213627
 20
44.49578970175816
 30
0.0
  0
VERTEX
  5
1647
  8
0
  6
BYBLOCK
 62
     4
 10
221.8163088253447
 20
44.3999453063966
 30
0.0
  0
VERTEX
  5
1648
  8
0
  6
BYBLOCK
 62
     4
 10
222.8876681806564
 20
44.29450095982899
 30
0.0
  0
VERTEX
  5
1649
  8
0
  6
BYBLOCK
 62
     4
 10
223.9053942662411
 20
44.18457373020962
 30
0.0
  0
VERTEX
  5
164A
  8
0
  6
BYBLOCK
 62
     4
 10
224.8706422002708
 20
44.07340565087655
 30
0.0
  0
VERTEX
  5
164B
  8
0
  6
BYBLOCK
 62
     4
 10
225.7845671009174
 20
43.96423875516786
 30
0.0
  0
VERTEX
  5
164C
  8
0
  6
BYBLOCK
 62
     4
 10
226.648324086353
 20
43.8603150764216
 30
0.0
  0
VERTEX
  5
164D
  8
0
  6
BYBLOCK
 62
     4
 10
227.4630682747496
 20
43.76487664797583
 30
0.0
  0
VERTEX
  5
164E
  8
0
  6
BYBLOCK
 62
     4
 10
228.2299547842792
 20
43.68116550316863
 30
0.0
  0
VERTEX
  5
164F
  8
0
  6
BYBLOCK
 62
     4
 10
228.9501387331139
 20
43.61242367533805
 30
0.0
  0
VERTEX
  5
1650
  8
0
  6
BYBLOCK
 62
     4
 10
229.6247752394257
 20
43.56189319782216
 30
0.0
  0
VERTEX
  5
1651
  8
0
  6
BYBLOCK
 62
     4
 10
230.2550194213866
 20
43.53281610395902
 30
0.0
  0
VERTEX
  5
1652
  8
0
  6
BYBLOCK
 62
     4
 10
230.8420263971685
 20
43.52843442708669
 30
0.0
  0
VERTEX
  5
1653
  8
0
  6
BYBLOCK
 62
     4
 10
231.3869512849436
 20
43.55199020054324
 30
0.0
  0
VERTEX
  5
1654
  8
0
  6
BYBLOCK
 62
     4
 10
231.8909492028838
 20
43.60672545766674
 30
0.0
  0
VERTEX
  5
1655
  8
0
  6
BYBLOCK
 62
     4
 10
232.3551752691612
 20
43.69588223179524
 30
0.0
  0
VERTEX
  5
1656
  8
0
  6
BYBLOCK
 62
     4
 10
232.7807846019477
 20
43.82270255626679
 30
0.0
  0
VERTEX
  5
1657
  8
0
  6
BYBLOCK
 62
     4
 10
233.1689323194155
 20
43.99042846441948
 30
0.0
  0
VERTEX
  5
1658
  8
0
  6
BYBLOCK
 62
     4
 10
233.5207735397365
 20
44.20230198959136
 30
0.0
  0
VERTEX
  5
1659
  8
0
  6
BYBLOCK
 62
     4
 10
233.8374633810827
 20
44.46156516512049
 30
0.0
  0
VERTEX
  5
165A
  8
0
  6
BYBLOCK
 62
     4
 10
234.1201569616262
 20
44.77146002434495
 30
0.0
  0
VERTEX
  5
165B
  8
0
  6
BYBLOCK
 62
     4
 10
234.3700095888585
 20
45.13522812706367
 30
0.0
  0
VERTEX
  5
165C
  8
0
  6
BYBLOCK
 62
     4
 10
234.5899422961418
 20
45.55169447702632
 30
0.0
  0
VERTEX
  5
165D
  8
0
  6
BYBLOCK
 62
     4
 10
234.7889600106705
 20
46.00446662064478
 30
0.0
  0
VERTEX
  5
165E
  8
0
  6
BYBLOCK
 62
     4
 10
234.9773770064789
 20
46.47387707517576
 30
0.0
  0
VERTEX
  5
165F
  8
0
  6
BYBLOCK
 62
     4
 10
235.1655075576013
 20
46.94025835787609
 30
0.0
  0
VERTEX
  5
1660
  8
0
  6
BYBLOCK
 62
     4
 10
235.363665938072
 20
47.38394298600252
 30
0.0
  0
VERTEX
  5
1661
  8
0
  6
BYBLOCK
 62
     4
 10
235.5821664219253
 20
47.78526347681181
 30
0.0
  0
VERTEX
  5
1662
  8
0
  6
BYBLOCK
 62
     4
 10
235.8313232831955
 20
48.12455234756072
 30
0.0
  0
VERTEX
  5
1663
  8
0
  6
BYBLOCK
 62
     4
 10
236.1214507959168
 20
48.38214211550608
 30
0.0
  0
VERTEX
  5
1664
  8
0
  6
BYBLOCK
 62
     4
 10
236.4615253138908
 20
48.54116804354215
 30
0.0
  0
VERTEX
  5
1665
  8
0
  6
BYBLOCK
 62
     4
 10
236.8490876156203
 20
48.60872123886274
 30
0.0
  0
VERTEX
  5
1666
  8
0
  6
BYBLOCK
 62
     4
 10
237.2758779244448
 20
48.60404411655084
 30
0.0
  0
VERTEX
  5
1667
  8
0
  6
BYBLOCK
 62
     4
 10
237.7335910773544
 20
48.54647416939967
 30
0.0
  0
VERTEX
  5
1668
  8
0
  6
BYBLOCK
 62
     4
 10
238.2139219113394
 20
48.4553488902025
 30
0.0
  0
VERTEX
  5
1669
  8
0
  6
BYBLOCK
 62
     4
 10
238.7085652633901
 20
48.35000577175251
 30
0.0
  0
VERTEX
  5
166A
  8
0
  6
BYBLOCK
 62
     4
 10
239.2092159704968
 20
48.24978230684297
 30
0.0
  0
VERTEX
  5
166B
  8
0
  6
BYBLOCK
 62
     4
 10
239.7075688696495
 20
48.17401598826708
 30
0.0
  0
VERTEX
  5
166C
  8
0
  6
BYBLOCK
 62
     4
 10
240.1953187978386
 20
48.14204430881806
 30
0.0
  0
VERTEX
  5
166D
  8
0
  6
BYBLOCK
 62
     4
 10
240.6641605920543
 20
48.17320476128917
 30
0.0
  0
VERTEX
  5
166E
  8
0
  6
BYBLOCK
 62
     4
 10
241.1058027385968
 20
48.28672700856999
 30
0.0
  0
VERTEX
  5
166F
  8
0
  6
BYBLOCK
 62
     4
 10
241.5132644008962
 20
48.49148633008716
 30
0.0
  0
VERTEX
  5
1670
  8
0
  6
BYBLOCK
 62
     4
 10
241.8819448677758
 20
48.77755495267228
 30
0.0
  0
VERTEX
  5
1671
  8
0
  6
BYBLOCK
 62
     4
 10
242.2074951368023
 20
49.13301659752781
 30
0.0
  0
VERTEX
  5
1672
  8
0
  6
BYBLOCK
 62
     4
 10
242.4855662055427
 20
49.54595498585621
 30
0.0
  0
VERTEX
  5
1673
  8
0
  6
BYBLOCK
 62
     4
 10
242.7118090715635
 20
50.00445383885994
 30
0.0
  0
VERTEX
  5
1674
  8
0
  6
BYBLOCK
 62
     4
 10
242.8818747324317
 20
50.49659687774148
 30
0.0
  0
VERTEX
  5
1675
  8
0
  6
BYBLOCK
 62
     4
 10
242.9914141857141
 20
51.01046782370327
 30
0.0
  0
VERTEX
  5
1676
  8
0
  6
BYBLOCK
 62
     4
 10
243.0360784289774
 20
51.53415039794781
 30
0.0
  0
VERTEX
  5
1677
  8
0
  6
BYBLOCK
 62
     4
 10
243.0147445132623
 20
52.0567551577153
 30
0.0
  0
VERTEX
  5
1678
  8
0
  6
BYBLOCK
 62
     4
 10
242.939985439593
 20
52.57175200987544
 30
0.0
  0
VERTEX
  5
1679
  8
0
  6
BYBLOCK
 62
     4
 10
242.8280081254354
 20
53.07376751799634
 30
0.0
  0
VERTEX
  5
167A
  8
0
  6
BYBLOCK
 62
     4
 10
242.6950195150275
 20
53.55742825416765
 30
0.0
  0
VERTEX
  5
167B
  8
0
  6
BYBLOCK
 62
     4
 10
242.5572265526072
 20
54.01736079047902
 30
0.0
  0
VERTEX
  5
167C
  8
0
  6
BYBLOCK
 62
     4
 10
242.4308361824126
 20
54.44819169902009
 30
0.0
  0
VERTEX
  5
167D
  8
0
  6
BYBLOCK
 62
     4
 10
242.3320553486819
 20
54.84454755188049
 30
0.0
  0
VERTEX
  5
167E
  8
0
  6
BYBLOCK
 62
     4
 10
242.2770909956528
 20
55.20105492114988
 30
0.0
  0
VERTEX
  5
167F
  8
0
  6
BYBLOCK
 62
     4
 10
242.2821500675637
 20
55.51234037891793
 30
0.0
  0
VERTEX
  5
1680
  8
0
  6
BYBLOCK
 62
     4
 10
242.3629125778658
 20
55.77439351787906
 30
0.0
  0
VERTEX
  5
1681
  8
0
  6
BYBLOCK
 62
     4
 10
242.5292306441326
 20
55.99827904564863
 30
0.0
  0
VERTEX
  5
1682
  8
0
  6
BYBLOCK
 62
     4
 10
242.7873331359348
 20
56.20443398554109
 30
0.0
  0
VERTEX
  5
1683
  8
0
  6
BYBLOCK
 62
     4
 10
243.1433943896254
 20
56.41343642284999
 30
0.0
  0
VERTEX
  5
1684
  8
0
  6
BYBLOCK
 62
     4
 10
243.6035887415571
 20
56.64586444286891
 30
0.0
  0
VERTEX
  5
1685
  8
0
  6
BYBLOCK
 62
     4
 10
244.1740905280828
 20
56.92229613089141
 30
0.0
  0
VERTEX
  5
1686
  8
0
  6
BYBLOCK
 62
     4
 10
244.8610740855553
 20
57.26330957221105
 30
0.0
  0
VERTEX
  5
1687
  8
0
  6
BYBLOCK
 62
     4
 10
245.6707137503274
 20
57.68948285212142
 30
0.0
  0
VERTEX
  5
1688
  8
0
  6
BYBLOCK
 62
     4
 10
246.6091832887711
 20
58.22139359235383
 30
0.0
  0
VERTEX
  5
1689
  8
0
  6
BYBLOCK
 62
     4
 10
247.6630975230902
 20
58.86371223634166
 30
0.0
  0
VERTEX
  5
168A
  8
0
  6
BYBLOCK
 62
     4
 10
248.7479356324879
 20
59.56325501274948
 30
0.0
  0
VERTEX
  5
168B
  8
0
  6
BYBLOCK
 62
     4
 10
249.6725862873485
 20
60.28824144679651
 30
0.0
  0
VERTEX
  5
168C
  8
0
  6
BYBLOCK
 62
     4
 10
250.4454846251992
 20
60.95453311735747
 30
0.0
  0
VERTEX
  5
168D
  8
0
  6
BYBLOCK
 62
     4
 10
251.0318212952928
 20
61.54086978745111
 30
0.0
  0
VERTEX
  5
168E
  8
0
  6
BYBLOCK
 62
     4
 10
252.7697779088036
 20
63.70058894159102
 30
0.0
  0
VERTEX
  5
168F
  8
0
  6
BYBLOCK
 62
     4
 10
250.8719112943582
 20
62.20716145801207
 30
0.0
  0
VERTEX
  5
1690
  8
0
  6
BYBLOCK
 62
     4
 10
250.1256646233299
 20
61.6741281215633
 30
0.0
  0
VERTEX
  5
1691
  8
0
  6
BYBLOCK
 62
     4
 10
249.459372952769
 20
61.22104978558186
 30
0.0
  0
VERTEX
  5
1692
  8
0
  6
BYBLOCK
 62
     4
 10
248.6598229480958
 20
60.71466811595553
 30
0.0
  0
VERTEX
  5
1693
  8
0
  6
BYBLOCK
 62
     4
 10
247.5889920797038
 20
60.11930635638461
 30
0.0
  0
VERTEX
  5
1694
  8
0
  6
BYBLOCK
 62
     4
 10
246.3902646246745
 20
59.54425498076213
 30
0.0
  0
VERTEX
  5
1695
  8
0
  6
BYBLOCK
 62
     4
 10
245.2225585736916
 20
58.97431909913414
 30
0.0
  0
VERTEX
  5
1696
  8
0
  6
BYBLOCK
 62
     4
 10
244.1619496803556
 20
58.45128864743117
 30
0.0
  0
VERTEX
  5
1697
  8
0
  6
BYBLOCK
 62
     4
 10
243.2623141433494
 20
58.00247101456098
 30
0.0
  0
VERTEX
  5
1698
  8
0
  6
BYBLOCK
 62
     4
 10
242.5217332942091
 20
57.61877413051922
 30
0.0
  0
VERTEX
  5
1699
  8
0
  6
BYBLOCK
 62
     4
 10
241.9296617120375
 20
57.28547800401074
 30
0.0
  0
VERTEX
  5
169A
  8
0
  6
BYBLOCK
 62
     4
 10
241.4755539759376
 20
56.9878626437404
 30
0.0
  0
VERTEX
  5
169B
  8
0
  6
BYBLOCK
 62
     4
 10
241.1488646650123
 20
56.71120805841304
 30
0.0
  0
VERTEX
  5
169C
  8
0
  6
BYBLOCK
 62
     4
 10
240.9390483583644
 20
56.44079425673347
 30
0.0
  0
VERTEX
  5
169D
  8
0
  6
BYBLOCK
 62
     4
 10
240.8355596350968
 20
56.16190124740659
 30
0.0
  0
VERTEX
  5
169E
  8
0
  6
BYBLOCK
 62
     4
 10
240.8267873101507
 20
55.86158953980322
 30
0.0
  0
VERTEX
  5
169F
  8
0
  6
BYBLOCK
 62
     4
 10
240.89528651647
 20
55.53666558433326
 30
0.0
  0
VERTEX
  5
16A0
  8
0
  6
BYBLOCK
 62
     4
 10
241.0216265235584
 20
55.18725348019308
 30
0.0
  0
VERTEX
  5
16A1
  8
0
  6
BYBLOCK
 62
     4
 10
241.1863749392577
 20
54.81348010260636
 30
0.0
  0
VERTEX
  5
16A2
  8
0
  6
BYBLOCK
 62
     4
 10
241.3700993714095
 20
54.4154723267967
 30
0.0
  0
VERTEX
  5
16A3
  8
0
  6
BYBLOCK
 62
     4
 10
241.5533674278555
 20
53.99335702798777
 30
0.0
  0
VERTEX
  5
16A4
  8
0
  6
BYBLOCK
 62
     4
 10
241.7167467164375
 20
53.54726108140322
 30
0.0
  0
VERTEX
  5
16A5
  8
0
  6
BYBLOCK
 62
     4
 10
241.8408048449971
 20
53.07731136226668
 30
0.0
  0
VERTEX
  5
16A6
  8
0
  6
BYBLOCK
 62
     4
 10
241.9061104176274
 20
52.58363543693527
 30
0.0
  0
VERTEX
  5
16A7
  8
0
  6
BYBLOCK
 62
     4
 10
241.8982990802457
 20
52.0698760516464
 30
0.0
  0
VERTEX
  5
16A8
  8
0
  6
BYBLOCK
 62
     4
 10
241.8198608507643
 20
51.55136840582431
 30
0.0
  0
VERTEX
  5
16A9
  8
0
  6
BYBLOCK
 62
     4
 10
241.6767856820846
 20
51.0458757232675
 30
0.0
  0
VERTEX
  5
16AA
  8
0
  6
BYBLOCK
 62
     4
 10
241.4750635271077
 20
50.5711612277745
 30
0.0
  0
VERTEX
  5
16AB
  8
0
  6
BYBLOCK
 62
     4
 10
241.2206843387348
 20
50.14498814314382
 30
0.0
  0
VERTEX
  5
16AC
  8
0
  6
BYBLOCK
 62
     4
 10
240.9196380698671
 20
49.78511969317396
 30
0.0
  0
VERTEX
  5
16AD
  8
0
  6
BYBLOCK
 62
     4
 10
240.577914673406
 20
49.50931910166343
 30
0.0
  0
VERTEX
  5
16AE
  8
0
  6
BYBLOCK
 62
     4
 10
240.2015035155374
 20
49.33533411408381
 30
0.0
  0
VERTEX
  5
16AF
  8
0
  6
BYBLOCK
 62
     4
 10
239.7959882932084
 20
49.27021038172303
 30
0.0
  0
VERTEX
  5
16B0
  8
0
  6
BYBLOCK
 62
     4
 10
239.3658391562929
 20
49.29161670273317
 30
0.0
  0
VERTEX
  5
16B1
  8
0
  6
BYBLOCK
 62
     4
 10
238.9153368749068
 20
49.37222578532436
 30
0.0
  0
VERTEX
  5
16B2
  8
0
  6
BYBLOCK
 62
     4
 10
238.448762219166
 20
49.48471033770674
 30
0.0
  0
VERTEX
  5
16B3
  8
0
  6
BYBLOCK
 62
     4
 10
237.9703959591866
 20
49.60174306809046
 30
0.0
  0
VERTEX
  5
16B4
  8
0
  6
BYBLOCK
 62
     4
 10
237.4845188650845
 20
49.69599668468563
 30
0.0
  0
VERTEX
  5
16B5
  8
0
  6
BYBLOCK
 62
     4
 10
236.9957372538041
 20
49.74114682506395
 30
0.0
  0
VERTEX
  5
16B6
  8
0
  6
BYBLOCK
 62
     4
 10
236.5129596700087
 20
49.72412322766718
 30
0.0
  0
VERTEX
  5
16B7
  8
0
  6
BYBLOCK
 62
     4
 10
236.0481377167405
 20
49.6412305421081
 30
0.0
  0
VERTEX
  5
16B8
  8
0
  6
BYBLOCK
 62
     4
 10
235.6132872060312
 20
49.48897123003398
 30
0.0
  0
VERTEX
  5
16B9
  8
0
  6
BYBLOCK
 62
     4
 10
235.2204239499118
 20
49.26384775309202
 30
0.0
  0
VERTEX
  5
16BA
  8
0
  6
BYBLOCK
 62
     4
 10
234.880334519782
 20
48.9635867741482
 30
0.0
  0
VERTEX
  5
16BB
  8
0
  6
BYBLOCK
 62
     4
 10
234.5885903719083
 20
48.60106769509181
 30
0.0
  0
VERTEX
  5
16BC
  8
0
  6
BYBLOCK
 62
     4
 10
234.3304887986353
 20
48.19940196162033
 30
0.0
  0
VERTEX
  5
16BD
  8
0
  6
BYBLOCK
 62
     4
 10
234.0911340536078
 20
47.78189326674705
 30
0.0
  0
VERTEX
  5
16BE
  8
0
  6
BYBLOCK
 62
     4
 10
233.8556303904704
 20
47.37184530348525
 30
0.0
  0
VERTEX
  5
16BF
  8
0
  6
BYBLOCK
 62
     4
 10
233.6090820628676
 20
46.99256176484827
 30
0.0
  0
VERTEX
  5
16C0
  8
0
  6
BYBLOCK
 62
     4
 10
233.3365933244443
 20
46.6673463438494
 30
0.0
  0
VERTEX
  5
16C1
  8
0
  6
BYBLOCK
 62
     4
 10
233.0243985180046
 20
46.41746427376565
 30
0.0
  0
VERTEX
  5
16C2
  8
0
  6
BYBLOCK
 62
     4
 10
232.6696439954888
 20
46.24449765838417
 30
0.0
  0
VERTEX
  5
16C3
  8
0
  6
BYBLOCK
 62
     4
 10
232.2755858818623
 20
46.13900776636363
 30
0.0
  0
VERTEX
  5
16C4
  8
0
  6
BYBLOCK
 62
     4
 10
231.8455474572035
 20
46.09143473167831
 30
0.0
  0
VERTEX
  5
16C5
  8
0
  6
BYBLOCK
 62
     4
 10
231.3828520015906
 20
46.09221868830253
 30
0.0
  0
VERTEX
  5
16C6
  8
0
  6
BYBLOCK
 62
     4
 10
230.8908227951019
 20
46.13179977021055
 30
0.0
  0
VERTEX
  5
16C7
  8
0
  6
BYBLOCK
 62
     4
 10
230.3727831178156
 20
46.20061811137668
 30
0.0
  0
VERTEX
  5
16C8
  8
0
  6
BYBLOCK
 62
     4
 10
229.83205624981
 20
46.28911384577521
 30
0.0
  0
VERTEX
  5
16C9
  8
0
  6
BYBLOCK
 62
     4
 10
229.2719654711635
 20
46.38772710738043
 30
0.0
  0
VERTEX
  5
16CA
  8
0
  6
BYBLOCK
 62
     4
 10
228.6958340619543
 20
46.48689803016664
 30
0.0
  0
VERTEX
  5
16CB
  8
0
  6
BYBLOCK
 62
     4
 10
228.1069853022606
 20
46.5770667481081
 30
0.0
  0
VERTEX
  5
16CC
  8
0
  6
BYBLOCK
 62
     4
 10
227.5087424721607
 20
46.64867339517915
 30
0.0
  0
VERTEX
  5
16CD
  8
0
  6
BYBLOCK
 62
     4
 10
226.9044288517331
 20
46.69215810535404
 30
0.0
  0
VERTEX
  5
16CE
  8
0
  6
BYBLOCK
 62
     4
 10
226.2973678539035
 20
46.6979610161561
 30
0.0
  0
SEQEND
  5
1645
  8
0
  6
BYBLOCK
 62
     4
  0
ARC
  5
EE7
  8
0
  6
BYBLOCK
 62
    40
 10
207.1576137143406
 20
66.50325270759463
 30
0.0
 40
10.16586781336261
 50
41.19370037381861
 51
76.5421582397657
  0
LINE
  5
EE9
  8
0
  6
BYBLOCK
 62
    40
 10
209.5235144109972
 20
76.38998029018336
 30
0.0
 11
222.8355299392723
 21
73.2625096610702
 31
0.0
  0
LINE
  5
F01
  8
0
  6
BYBLOCK
 62
    40
 10
236.7356729896142
 20
59.28547091161703
 30
0.0
 11
236.7497771125076
 21
57.69170502465936
 31
0.0
  0
LINE
  5
F02
  8
0
  6
BYBLOCK
 62
    40
 10
236.7497771125076
 20
57.69170502465936
 30
0.0
 11
232.1154406950282
 21
56.94595086254113
 31
0.0
  0
LINE
  5
F0C
  8
0
  6
BYBLOCK
 62
    40
 10
195.2676081318709
 20
71.13293727454297
 30
0.0
 11
198.6361069712877
 21
71.64731921533434
 31
0.0
  0
LINE
  5
F0D
  8
0
  6
BYBLOCK
 62
    40
 10
198.6361069712877
 20
71.64731921533434
 30
0.0
 11
198.6361069712877
 21
70.82321979094571
 31
0.0
  0
LINE
  5
F0E
  8
0
  6
BYBLOCK
 62
    40
 10
198.6361069712877
 20
70.82321979094571
 30
0.0
 11
195.2676081318709
 21
70.23870172892978
 31
0.0
  0
LINE
  5
F0F
  8
0
  6
BYBLOCK
 62
    40
 10
195.2676081318709
 20
70.23870172892978
 30
0.0
 11
195.2686662199066
 21
71.12160061701745
 31
0.0
  0
TEXT
  5
10AC
  8
0
  6
BYBLOCK
 62
     2
 10
180.410328362106
 20
41.40836057911706
 30
0.0
 40
2.364859105415806
  1
Rat Coupe
  0
ARC
  5
10AD
  8
0
  6
BYBLOCK
 62
     4
 10
266.2303826337163
 20
13.03890538977168
 30
0.0
 40
52.41940537496609
 50
104.8794797694831
 51
133.1148206770127
  0
ARC
  5
1231
  8
0
  6
BYBLOCK
 62
    40
 10
177.066463933978
 20
54.3845031420683
 30
0.0
 40
6.641108336129319
 50
205.8067363238596
 51
269.9636024755474
  0
ARC
  5
1232
  8
0
  6
BYBLOCK
 62
    40
 10
176.7553685509354
 20
54.71682102632609
 30
0.0
 40
4.724605399759783
 50
195.3805996117611
 51
282.4298345022384
  0
LINE
  5
1234
  8
0
  6
BYBLOCK
 62
    40
 10
170.0071845308079
 20
59.47005091918408
 30
0.0
 11
172.1999736347457
 21
53.46371554752856
 31
0.0
  0
LINE
  5
1237
  8
0
  6
BYBLOCK
 62
    40
 10
168.3864273670279
 20
58.26242793440678
 30
0.0
 11
170.9604329257711
 21
51.73780951745381
 31
0.0
  0
LINE
  5
123C
  8
0
  6
BYBLOCK
 62
    40
 10
169.3646164242687
 20
50.62957408414558
 30
0.0
 11
171.1760509014346
 21
51.16982647207227
 31
0.0
  0
LINE
  5
123E
  8
0
  6
BYBLOCK
 62
    40
 10
168.8313410982616
 20
52.16075390605831
 30
0.0
 11
170.6109960231966
 21
52.66922674175402
 31
0.0
  0
LINE
  5
123F
  8
0
  6
BYBLOCK
 62
    40
 10
173.2486988583681
 20
52.03363569713439
 30
0.0
 11
172.9626828882892
 21
51.93829704044144
 31
0.0
  0
LINE
  5
1240
  8
0
  6
BYBLOCK
 62
    40
 10
173.2486988583681
 20
53.20947912968071
 30
0.0
 11
172.3906509481316
 21
52.98702226406384
 31
0.0
  0
LINE
  5
1241
  8
0
  6
BYBLOCK
 62
    40
 10
156.9280441053277
 20
70.21213874901335
 30
0.0
 11
156.2998177883316
 21
69.40800906325836
 31
0.0
  0
LINE
  5
1244
  8
0
  6
BYBLOCK
 62
    40
 10
168.6816421761023
 20
66.72431743263454
 30
0.0
 11
171.0430581648359
 21
66.2754977118953
 31
0.0
  0
LINE
  5
1245
  8
0
  6
BYBLOCK
 62
    40
 10
171.0430581648359
 20
66.2754977118953
 30
0.0
 11
171.0676303502629
 21
65.15547251290386
 31
0.0
  0
LINE
  5
1246
  8
0
  6
BYBLOCK
 62
    40
 10
171.0676303502629
 20
65.15547251290386
 30
0.0
 11
168.6816421761023
 21
65.6025671047544
 31
0.0
  0
LINE
  5
1247
  8
0
  6
BYBLOCK
 62
    40
 10
168.6816421761023
 20
65.6025671047544
 30
0.0
 11
168.6816421761023
 21
66.72431743263454
 31
0.0
  0
LINE
  5
124B
  8
0
  6
BYBLOCK
 62
    40
 10
164.1554539640138
 20
56.79534443300194
 30
0.0
 11
167.2214821126392
 21
59.18554844371512
 31
0.0
  0
LINE
  5
124C
  8
0
  6
BYBLOCK
 62
    40
 10
168.8190840060534
 20
60.56641370144546
 30
0.0
 11
169.9562124356704
 21
61.50798054583319
 31
0.0
  0
LINE
  5
124D
  8
0
  6
BYBLOCK
 62
    40
 10
169.9562124356704
 20
61.50798054583319
 30
0.0
 11
170.943610881452
 21
60.80269594170345
 31
0.0
  0
LINE
  5
124E
  8
0
  6
BYBLOCK
 62
    40
 10
170.943610881452
 20
60.80269594170345
 30
0.0
 11
169.7339587989894
 21
59.74079498586907
 31
0.0
  0
LINE
  5
124F
  8
0
  6
BYBLOCK
 62
    40
 10
168.2600959515807
 20
58.35465737256187
 30
0.0
 11
165.494295124408
 21
56.05898179478516
 31
0.0
  0
POLYLINE
  5
13D2
  8
0
  6
BYBLOCK
 62
     5
 66
     1
 10
0.0
 20
0.0
 30
0.0
 70
     1
  0
VERTEX
  5
16D0
  8
0
  6
BYBLOCK
 62
     5
 10
202.1134432983527
 20
42.58948248040939
 30
0.0
  0
VERTEX
  5
16D1
  8
0
  6
BYBLOCK
 62
     5
 10
201.8743850989602
 20
43.33768346246458
 30
0.0
  0
VERTEX
  5
16D2
  8
0
  6
BYBLOCK
 62
     5
 10
201.1849415177104
 20
44.05145776883961
 30
0.0
  0
VERTEX
  5
16D3
  8
0
  6
BYBLOCK
 62
     5
 10
200.0716074847865
 20
44.7033754532297
 30
0.0
  0
VERTEX
  5
16D4
  8
0
  6
BYBLOCK
 62
     5
 10
198.5771678027088
 20
45.26838368462342
 30
0.0
  0
VERTEX
  5
16D5
  8
0
  6
BYBLOCK
 62
     5
 10
196.7590529503681
 20
45.72476951354856
 30
0.0
  0
VERTEX
  5
16D6
  8
0
  6
BYBLOCK
 62
     5
 10
194.6871320619293
 20
46.05499428854365
 30
0.0
  0
VERTEX
  5
16D7
  8
0
  6
BYBLOCK
 62
     5
 10
192.4410278951885
 20
46.24636765669783
 30
0.0
  0
VERTEX
  5
16D8
  8
0
  6
BYBLOCK
 62
     5
 10
190.1070569736437
 20
46.29153524679634
 30
0.0
  0
VERTEX
  5
16D9
  8
0
  6
BYBLOCK
 62
     5
 10
187.7749124909041
 20
46.18876129368198
 30
0.0
  0
VERTEX
  5
16DA
  8
0
  6
BYBLOCK
 62
     5
 10
185.5342174515596
 20
45.94199534273662
 30
0.0
  0
VERTEX
  5
16DB
  8
0
  6
BYBLOCK
 62
     5
 10
183.4710805093758
 20
45.56072047106718
 30
0.0
  0
VERTEX
  5
16DC
  8
0
  6
BYBLOCK
 62
     5
 10
181.6647868600206
 20
45.05958885817048
 30
0.0
  0
VERTEX
  5
16DD
  8
0
  6
BYBLOCK
 62
     5
 10
180.1847513554573
 20
44.4578587108923
 30
0.0
  0
VERTEX
  5
16DE
  8
0
  6
BYBLOCK
 62
     5
 10
179.087850930113
 20
43.7786541813384
 30
0.0
  0
VERTEX
  5
16DF
  8
0
  6
BYBLOCK
 62
     5
 10
178.4162388521847
 20
43.04807671867724
 30
0.0
  0
VERTEX
  5
16E0
  8
0
  6
BYBLOCK
 62
     5
 10
178.1957247971828
 20
42.29420200508631
 30
0.0
  0
VERTEX
  5
16E1
  8
0
  6
BYBLOCK
 62
     5
 10
178.4347829965754
 20
41.54600102303112
 30
0.0
  0
VERTEX
  5
16E2
  8
0
  6
BYBLOCK
 62
     5
 10
179.1242265778251
 20
40.8322267166561
 30
0.0
  0
VERTEX
  5
16E3
  8
0
  6
BYBLOCK
 62
     5
 10
180.237560610749
 20
40.180309032266
 30
0.0
  0
VERTEX
  5
16E4
  8
0
  6
BYBLOCK
 62
     5
 10
181.7320002928268
 20
39.61530080087228
 30
0.0
  0
VERTEX
  5
16E5
  8
0
  6
BYBLOCK
 62
     5
 10
183.5501151451675
 20
39.15891497194715
 30
0.0
  0
VERTEX
  5
16E6
  8
0
  6
BYBLOCK
 62
     5
 10
185.6220360336063
 20
38.82869019695205
 30
0.0
  0
VERTEX
  5
16E7
  8
0
  6
BYBLOCK
 62
     5
 10
187.8681402003471
 20
38.63731682879788
 30
0.0
  0
VERTEX
  5
16E8
  8
0
  6
BYBLOCK
 62
     5
 10
190.2021111218919
 20
38.59214923869937
 30
0.0
  0
VERTEX
  5
16E9
  8
0
  6
BYBLOCK
 62
     5
 10
192.5342556046315
 20
38.69492319181374
 30
0.0
  0
VERTEX
  5
16EA
  8
0
  6
BYBLOCK
 62
     5
 10
194.774950643976
 20
38.94168914275909
 30
0.0
  0
VERTEX
  5
16EB
  8
0
  6
BYBLOCK
 62
     5
 10
196.8380875861597
 20
39.32296401442854
 30
0.0
  0
VERTEX
  5
16EC
  8
0
  6
BYBLOCK
 62
     5
 10
198.644381235515
 20
39.82409562732524
 30
0.0
  0
VERTEX
  5
16ED
  8
0
  6
BYBLOCK
 62
     5
 10
200.1244167400782
 20
40.42582577460342
 30
0.0
  0
VERTEX
  5
16EE
  8
0
  6
BYBLOCK
 62
     5
 10
201.2213171654226
 20
41.10503030415732
 30
0.0
  0
VERTEX
  5
16EF
  8
0
  6
BYBLOCK
 62
     5
 10
201.8929292433509
 20
41.83560776681848
 30
0.0
  0
SEQEND
  5
16CF
  8
0
  6
BYBLOCK
 62
     5
  0
ARC
  5
13D3
  8
0
  6
BYBLOCK
 62
    40
 10
140.2967387849565
 20
50.10060971999499
 30
0.0
 40
4.862968470252152
 50
149.9076721380403
 51
262.4635568132779
  0
ENDSEC
  0
EOF
