  0
SECTION
  2
HEADER
  9
$ACADVER
  1
AC1009
  9
$DWGCODEPAGE
  3
ansi_1252
  9
$INSBASE
 10
0.0
 20
0.0
 30
0.0
  9
$EXTMIN
 10
0.5540116043780401
 20
0.437311010624029
 30
0.0
  9
$EXTMAX
 10
205.0487551293379
 20
74.72613391947878
 30
0.0
  9
$LIMMIN
 10
0.0
 20
0.0
  9
$LIMMAX
 10
12.0
 20
9.0
  9
$ORTHOMODE
 70
     0
  9
$REGENMODE
 70
     1
  9
$FILLMODE
 70
     1
  9
$QTEXTMODE
 70
     0
  9
$MIRRTEXT
 70
     1
  9
$DRAGMODE
 70
     2
  9
$LTSCALE
 40
1.0
  9
$OSMODE
 70
    37
  9
$ATTMODE
 70
     1
  9
$TEXTSIZE
 40
0.2
  9
$TRACEWID
 40
0.05
  9
$TEXTSTYLE
  7
STANDARD
  9
$CLAYER
  8
0
  9
$CELTYPE
  6
BYBLOCK
  9
$CECOLOR
 62
   256
  9
$DIMSCALE
 40
1.0
  9
$DIMASZ
 40
0.18
  9
$DIMEXO
 40
0.0625
  9
$DIMDLI
 40
0.38
  9
$DIMRND
 40
0.0
  9
$DIMDLE
 40
0.0
  9
$DIMEXE
 40
0.18
  9
$DIMTP
 40
0.0
  9
$DIMTM
 40
0.0
  9
$DIMTXT
 40
0.18
  9
$DIMCEN
 40
0.09
  9
$DIMTSZ
 40
0.0
  9
$DIMTOL
 70
     0
  9
$DIMLIM
 70
     0
  9
$DIMTIH
 70
     1
  9
$DIMTOH
 70
     1
  9
$DIMSE1
 70
     0
  9
$DIMSE2
 70
     0
  9
$DIMTAD
 70
     0
  9
$DIMZIN
 70
     0
  9
$DIMBLK
  1

  9
$DIMASO
 70
     1
  9
$DIMSHO
 70
     1
  9
$DIMPOST
  1

  9
$DIMAPOST
  1

  9
$DIMALT
 70
     0
  9
$DIMALTD
 70
     2
  9
$DIMALTF
 40
25.4
  9
$DIMLFAC
 40
1.0
  9
$DIMTOFL
 70
     0
  9
$DIMTVP
 40
0.0
  9
$DIMTIX
 70
     0
  9
$DIMSOXD
 70
     0
  9
$DIMSAH
 70
     0
  9
$DIMBLK1
  1

  9
$DIMBLK2
  1

  9
$DIMSTYLE
  2
STANDARD
  9
$DIMCLRD
 70
     0
  9
$DIMCLRE
 70
     0
  9
$DIMCLRT
 70
     0
  9
$DIMTFAC
 40
1.0
  9
$DIMGAP
 40
0.09
  9
$LUNITS
 70
     2
  9
$LUPREC
 70
     4
  9
$SKETCHINC
 40
0.1
  9
$FILLETRAD
 40
0.5
  9
$AUNITS
 70
     0
  9
$AUPREC
 70
     0
  9
$MENU
  1
.
  9
$ELEVATION
 40
0.0
  9
$PELEVATION
 40
0.0
  9
$THICKNESS
 40
0.0
  9
$LIMCHECK
 70
     0
  9
$CHAMFERA
 40
0.5
  9
$CHAMFERB
 40
0.5
  9
$SKPOLY
 70
     0
  9
$TDCREATE
 40
2453353.508792488
  9
$TDUPDATE
 40
4910479.937112592
  9
$TDINDWG
 40
9791572.06217926
  9
$TDUSRTIMER
 40
9791572.06217926
  9
$USRTIMER
 70
     1
  9
$ANGBASE
 50
0.0
  9
$ANGDIR
 70
     0
  9
$PDMODE
 70
     0
  9
$PDSIZE
 40
0.0
  9
$PLINEWID
 40
0.0
  9
$COORDS
 70
     1
  9
$SPLFRAME
 70
     0
  9
$SPLINETYPE
 70
     6
  9
$SPLINESEGS
 70
     8
  9
$ATTDIA
 70
     0
  9
$ATTREQ
 70
     1
  9
$HANDLING
 70
     1
  9
$HANDSEED
  5
1CF
  9
$SURFTAB1
 70
     6
  9
$SURFTAB2
 70
     6
  9
$SURFTYPE
 70
     6
  9
$SURFU
 70
     6
  9
$SURFV
 70
     6
  9
$UCSNAME
  2

  9
$UCSORG
 10
0.0
 20
0.0
 30
0.0
  9
$UCSXDIR
 10
1.0
 20
0.0
 30
0.0
  9
$UCSYDIR
 10
0.0
 20
1.0
 30
0.0
  9
$PUCSNAME
  2

  9
$PUCSORG
 10
0.0
 20
0.0
 30
0.0
  9
$PUCSXDIR
 10
1.0
 20
0.0
 30
0.0
  9
$PUCSYDIR
 10
0.0
 20
1.0
 30
0.0
  9
$USERI1
 70
     0
  9
$USERI2
 70
     0
  9
$USERI3
 70
     0
  9
$USERI4
 70
     0
  9
$USERI5
 70
     0
  9
$USERR1
 40
0.0
  9
$USERR2
 40
0.0
  9
$USERR3
 40
0.0
  9
$USERR4
 40
0.0
  9
$USERR5
 40
0.0
  9
$WORLDVIEW
 70
     1
  9
$SHADEDGE
 70
     3
  9
$SHADEDIF
 70
    70
  9
$TILEMODE
 70
     1
  9
$MAXACTVP
 70
    64
  9
$PLIMCHECK
 70
     0
  9
$PEXTMIN
 10
0.0
 20
0.0
 30
0.0
  9
$PEXTMAX
 10
0.0
 20
0.0
 30
0.0
  9
$PLIMMIN
 10
0.0
 20
0.0
  9
$PLIMMAX
 10
0.0
 20
0.0
  9
$UNITMODE
 70
     0
  9
$VISRETAIN
 70
     1
  9
$PLINEGEN
 70
     0
  9
$PSLTSCALE
 70
     1
  0
ENDSEC
  0
SECTION
  2
TABLES
  0
TABLE
  2
VPORT
 70
     1
  0
VPORT
  2
*ACTIVE
 70
     0
 10
0.0
 20
0.0
 11
1.0
 21
1.0
 12
109.2883767415169
 22
44.71361499639084
 13
0.0
 23
0.0
 14
0.5
 24
0.5
 15
0.5
 25
0.5
 16
0.0
 26
0.0
 36
1.0
 17
0.0
 27
0.0
 37
0.0
 40
132.6513318445888
 41
1.972972972850329
 42
50.0
 43
0.0
 44
0.0
 50
0.0
 51
0.0
 71
    16
 72
   100
 73
     1
 74
     3
 75
     0
 76
     0
 77
     0
 78
     0
  0
ENDTAB
  0
TABLE
  2
LTYPE
 70
     1
  0
LTYPE
  2
CONTINUOUS
 70
     0
  3
Solid line
 72
    65
 73
     0
 40
0.0
  0
ENDTAB
  0
TABLE
  2
LAYER
 70
     2
  0
LAYER
  2
0
 70
     0
 62
     7
  6
CONTINUOUS
  0
LAYER
  2
LAYER_1
 70
     0
 62
     7
  6
CONTINUOUS
  0
ENDTAB
  0
TABLE
  2
STYLE
 70
     1
  0
STYLE
  2
STANDARD
 70
     0
 40
0.0
 41
1.0
 50
0.0
 71
     0
 42
0.2
  3
txt
  4

  0
ENDTAB
  0
TABLE
  2
VIEW
 70
     0
  0
ENDTAB
  0
TABLE
  2
UCS
 70
     0
  0
ENDTAB
  0
TABLE
  2
APPID
 70
     1
  0
APPID
  2
ACAD
 70
     0
  0
ENDTAB
  0
TABLE
  2
DIMSTYLE
 70
     1
  0
DIMSTYLE
  2
STANDARD
 70
     0
  3

  4

  5

  6

  7

 40
1.0
 41
0.18
 42
0.0625
 43
0.38
 44
0.18
 45
0.0
 46
0.0
 47
0.0
 48
0.0
140
0.18
141
0.09
142
0.0
143
25.4
144
1.0
145
0.0
146
1.0
147
0.09
 71
     0
 72
     0
 73
     1
 74
     1
 75
     0
 76
     0
 77
     0
 78
     0
170
     0
171
     2
172
     0
173
     0
174
     0
175
     0
176
     0
177
     0
178
     0
  0
ENDTAB
  0
ENDSEC
  0
SECTION
  2
BLOCKS
  0
BLOCK
  8
0
  2
$MODEL_SPACE
 70
     0
 10
0.0
 20
0.0
 30
0.0
  3
$MODEL_SPACE
  1

  0
ENDBLK
  5
21
  8
0
  0
BLOCK
 67
     1
  8
0
  2
$PAPER_SPACE
 70
     0
 10
0.0
 20
0.0
 30
0.0
  3
$PAPER_SPACE
  1

  0
ENDBLK
  5
76
 67
     1
  8
0
  0
ENDSEC
  0
SECTION
  2
ENTITIES
  0
LINE
  5
1B4
  8
LAYER_1
 10
7.92453
 20
31.105574
 30
0.0
 11
7.92453
 21
51.550516
 31
0.0
  0
LINE
  5
1B5
  8
LAYER_1
 10
7.92453
 20
51.550516
 30
0.0
 11
12.228419
 21
52.953034
 31
0.0
  0
LINE
  5
23
  8
LAYER_1
 10
12.228419
 20
52.953034
 30
0.0
 11
19.710279
 21
55.273285
 31
0.0
  0
LINE
  5
24
  8
LAYER_1
 10
19.710279
 20
55.273285
 30
0.0
 11
27.335147
 21
57.406553
 31
0.0
  0
LINE
  5
25
  8
LAYER_1
 10
27.335147
 20
57.406553
 30
0.0
 11
35.075192
 21
59.347031
 31
0.0
  0
LINE
  5
26
  8
LAYER_1
 10
35.075192
 20
59.347031
 30
0.0
 11
42.902582
 21
61.088911
 31
0.0
  0
LINE
  5
1B6
  8
LAYER_1
 10
42.902582
 20
61.088911
 30
0.0
 11
50.789487
 21
62.626385
 31
0.0
  0
LINE
  5
28
  8
LAYER_1
 10
50.789487
 20
62.626385
 30
0.0
 11
58.708075
 21
63.953644
 31
0.0
  0
LINE
  5
29
  8
LAYER_1
 10
58.708075
 20
63.953644
 30
0.0
 11
66.63051400000001
 21
65.06488
 31
0.0
  0
LINE
  5
2A
  8
LAYER_1
 10
66.63051400000001
 20
65.06488
 30
0.0
 11
74.52897400000001
 21
65.954285
 31
0.0
  0
LINE
  5
2B
  8
LAYER_1
 10
74.52897400000001
 20
65.954285
 30
0.0
 11
81.99578700000001
 21
66.63886599999999
 31
0.0
  0
LINE
  5
2C
  8
LAYER_1
 10
81.99578700000001
 20
66.63886599999999
 30
0.0
 11
88.222075
 21
67.02722300000001
 31
0.0
  0
LINE
  5
2D
  8
LAYER_1
 10
88.222075
 20
67.02722300000001
 30
0.0
 11
95.11597999999999
 21
67.20113000000001
 31
0.0
  0
LINE
  5
2E
  8
LAYER_1
 10
95.11597999999999
 20
67.20113000000001
 30
0.0
 11
104.58564
 21
67.24235899999999
 31
0.0
  0
LINE
  5
2F
  8
LAYER_1
 10
104.58564
 20
67.24235899999999
 30
0.0
 11
113.719784
 21
67.20995000000001
 31
0.0
  0
LINE
  5
30
  8
LAYER_1
 10
113.719784
 20
67.20995000000001
 30
0.0
 11
120.286671
 21
67.058595
 31
0.0
  0
LINE
  5
31
  8
LAYER_1
 10
120.286671
 20
67.058595
 30
0.0
 11
126.164431
 21
66.713345
 31
0.0
  0
LINE
  5
32
  8
LAYER_1
 10
126.164431
 20
66.713345
 30
0.0
 11
133.231196
 21
66.099255
 31
0.0
  0
LINE
  5
33
  8
LAYER_1
 10
133.231196
 20
66.099255
 30
0.0
 11
140.937232
 21
65.25990899999999
 31
0.0
  0
LINE
  5
34
  8
LAYER_1
 10
140.937232
 20
65.25990899999999
 30
0.0
 11
148.873779
 21
64.16677900000001
 31
0.0
  0
LINE
  5
35
  8
LAYER_1
 10
148.873779
 20
64.16677900000001
 30
0.0
 11
156.93219
 21
62.841915
 31
0.0
  0
LINE
  5
36
  8
LAYER_1
 10
156.93219
 20
62.841915
 30
0.0
 11
165.003817
 21
61.307364
 31
0.0
  0
LINE
  5
37
  8
LAYER_1
 10
165.003817
 20
61.307364
 30
0.0
 11
172.980012
 21
59.585176
 31
0.0
  0
LINE
  5
38
  8
LAYER_1
 10
172.980012
 20
59.585176
 30
0.0
 11
180.752127
 21
57.6974
 31
0.0
  0
LINE
  5
39
  8
LAYER_1
 10
180.752127
 20
57.6974
 30
0.0
 11
188.211516
 21
55.666085
 31
0.0
  0
LINE
  5
3A
  8
LAYER_1
 10
188.211516
 20
55.666085
 30
0.0
 11
195.249529
 21
53.513279
 31
0.0
  0
LINE
  5
3B
  8
LAYER_1
 10
195.249529
 20
53.513279
 30
0.0
 11
197.860085
 21
52.665198
 31
0.0
  0
LINE
  5
3C
  8
LAYER_1
 10
197.860085
 20
52.665198
 30
0.0
 11
197.860085
 21
32.368473
 31
0.0
  0
LINE
  5
3D
  8
LAYER_1
 10
197.860085
 20
32.368473
 30
0.0
 11
197.8409847130503
 21
11.35193478385968
 31
0.0
  0
LINE
  5
3E
  8
LAYER_1
 10
197.8409847130503
 20
11.35193478385968
 30
0.0
 11
193.423165
 21
13.592663
 31
0.0
  0
LINE
  5
3F
  8
LAYER_1
 10
193.423165
 20
13.592663
 30
0.0
 11
184.767746
 21
16.56103
 31
0.0
  0
LINE
  5
40
  8
LAYER_1
 10
184.767746
 20
16.56103
 30
0.0
 11
175.958866
 21
19.213271
 31
0.0
  0
LINE
  5
41
  8
LAYER_1
 10
175.958866
 20
19.213271
 30
0.0
 11
167.014502
 21
21.548292
 31
0.0
  0
LINE
  5
42
  8
LAYER_1
 10
167.014502
 20
21.548292
 30
0.0
 11
157.952634
 21
23.564997
 31
0.0
  0
LINE
  5
43
  8
LAYER_1
 10
157.952634
 20
23.564997
 30
0.0
 11
148.79124
 21
25.262291
 31
0.0
  0
LINE
  5
44
  8
LAYER_1
 10
148.79124
 20
25.262291
 30
0.0
 11
139.548297
 21
26.639079
 31
0.0
  0
LINE
  5
45
  8
LAYER_1
 10
139.548297
 20
26.639079
 30
0.0
 11
130.241785
 21
27.694265
 31
0.0
  0
LINE
  5
46
  8
LAYER_1
 10
130.241785
 20
27.694265
 30
0.0
 11
120.889682
 21
28.426755
 31
0.0
  0
LINE
  5
47
  8
LAYER_1
 10
120.889682
 20
28.426755
 30
0.0
 11
111.509966
 21
28.835453
 31
0.0
  0
LINE
  5
48
  8
LAYER_1
 10
111.509966
 20
28.835453
 30
0.0
 11
102.120615
 21
28.919263
 31
0.0
  0
LINE
  5
49
  8
LAYER_1
 10
102.120615
 20
28.919263
 30
0.0
 11
92.739608
 21
28.67709
 31
0.0
  0
LINE
  5
4A
  8
LAYER_1
 10
92.739608
 20
28.67709
 30
0.0
 11
83.384923
 21
28.107839
 31
0.0
  0
LINE
  5
4B
  8
LAYER_1
 10
83.384923
 20
28.107839
 30
0.0
 11
74.074539
 21
27.210415
 31
0.0
  0
LINE
  5
4C
  8
LAYER_1
 10
74.074539
 20
27.210415
 30
0.0
 11
64.82643400000001
 21
25.983723
 31
0.0
  0
LINE
  5
4D
  8
LAYER_1
 10
64.82643400000001
 20
25.983723
 30
0.0
 11
55.658586
 21
24.426667
 31
0.0
  0
LINE
  5
4E
  8
LAYER_1
 10
55.658586
 20
24.426667
 30
0.0
 11
46.588974
 21
22.538151
 31
0.0
  0
LINE
  5
4F
  8
LAYER_1
 10
46.588974
 20
22.538151
 30
0.0
 11
36.775376
 21
20.085078
 31
0.0
  0
LINE
  5
50
  8
LAYER_1
 10
36.775376
 20
20.085078
 30
0.0
 11
26.674844
 21
17.189452
 31
0.0
  0
LINE
  5
51
  8
LAYER_1
 10
26.674844
 20
17.189452
 30
0.0
 11
17.377965
 21
14.183103
 31
0.0
  0
LINE
  5
52
  8
LAYER_1
 10
17.377965
 20
14.183103
 30
0.0
 11
9.975325
 21
11.397858
 31
0.0
  0
LINE
  5
53
  8
LAYER_1
 10
9.975325
 20
11.397858
 30
0.0
 11
7.967718318274152
 21
10.73412589103503
 31
0.0
  0
LINE
  5
54
  8
LAYER_1
 10
7.967718318274152
 20
10.73412589103503
 30
0.0
 11
7.92453
 21
31.105574
 31
0.0
  0
LINE
  5
55
  8
LAYER_1
 10
7.92453
 20
31.105574
 30
0.0
 11
7.92453
 21
31.105574
 31
0.0
  0
LINE
  5
56
  8
LAYER_1
 10
24.787308
 20
23.046653
 30
0.0
 11
27.680085
 21
23.941509
 31
0.0
  0
LINE
  5
57
  8
LAYER_1
 10
27.680085
 20
23.941509
 30
0.0
 11
27.680085
 21
29.65879
 31
0.0
  0
LINE
  5
58
  8
LAYER_1
 10
27.680085
 20
29.65879
 30
0.0
 11
27.757392
 21
34.51305
 31
0.0
  0
LINE
  5
1B7
  8
LAYER_1
 10
27.757392
 20
34.51305
 30
0.0
 11
27.910127
 21
35.24625
 31
0.0
  0
LINE
  5
1B8
  8
LAYER_1
 10
27.910127
 20
35.24625
 30
0.0
 11
28.188785
 21
35.414393
 31
0.0
  0
LINE
  5
5B
  8
LAYER_1
 10
28.188785
 20
35.414393
 30
0.0
 11
30.595765
 21
36.065985
 31
0.0
  0
LINE
  5
5C
  8
LAYER_1
 10
30.595765
 20
36.065985
 30
0.0
 11
32.038527
 21
36.459928
 31
0.0
  0
LINE
  5
5D
  8
LAYER_1
 10
32.038527
 20
36.459928
 30
0.0
 11
32.841616
 21
36.545881
 31
0.0
  0
LINE
  5
1B9
  8
LAYER_1
 10
32.841616
 20
36.545881
 30
0.0
 11
33.956718
 21
35.032424
 31
0.0
  0
LINE
  5
5F
  8
LAYER_1
 10
33.956718
 20
35.032424
 30
0.0
 11
36.149636
 21
31.580977
 31
0.0
  0
LINE
  5
60
  8
LAYER_1
 10
36.149636
 20
31.580977
 30
0.0
 11
38.540862
 21
27.870312
 31
0.0
  0
LINE
  5
61
  8
LAYER_1
 10
38.540862
 20
27.870312
 30
0.0
 11
39.179436
 21
27.092659
 31
0.0
  0
LINE
  5
62
  8
LAYER_1
 10
39.179436
 20
27.092659
 30
0.0
 11
39.533418
 21
26.913784
 31
0.0
  0
LINE
  5
63
  8
LAYER_1
 10
39.533418
 20
26.913784
 30
0.0
 11
40.380085
 21
27.166722
 31
0.0
  0
LINE
  5
64
  8
LAYER_1
 10
40.380085
 20
27.166722
 30
0.0
 11
44.947558
 21
28.625125
 31
0.0
  0
LINE
  5
65
  8
LAYER_1
 10
44.947558
 20
28.625125
 30
0.0
 11
44.90433
 21
28.948847
 31
0.0
  0
LINE
  5
66
  8
LAYER_1
 10
44.90433
 20
28.948847
 30
0.0
 11
44.335275
 21
30.068246
 31
0.0
  0
LINE
  5
67
  8
LAYER_1
 10
44.335275
 20
30.068246
 30
0.0
 11
40.627554
 21
36.503401
 31
0.0
  0
LINE
  5
68
  8
LAYER_1
 10
40.627554
 20
36.503401
 30
0.0
 11
38.968974
 21
39.617551
 31
0.0
  0
LINE
  5
69
  8
LAYER_1
 10
38.968974
 20
39.617551
 30
0.0
 11
39.196956
 21
39.944934
 31
0.0
  0
LINE
  5
6A
  8
LAYER_1
 10
39.196956
 20
39.944934
 30
0.0
 11
39.745085
 21
40.349396
 31
0.0
  0
LINE
  5
1BA
  8
LAYER_1
 10
39.745085
 20
40.349396
 30
0.0
 11
40.771507
 21
41.100999
 31
0.0
  0
LINE
  5
1BB
  8
LAYER_1
 10
40.771507
 20
41.100999
 30
0.0
 11
41.786466
 21
42.091925
 31
0.0
  0
LINE
  5
6D
  8
LAYER_1
 10
41.786466
 20
42.091925
 30
0.0
 11
42.66577
 21
43.185507
 31
0.0
  0
LINE
  5
6E
  8
LAYER_1
 10
42.66577
 20
43.185507
 30
0.0
 11
43.285224
 21
44.245078
 31
0.0
  0
LINE
  5
6F
  8
LAYER_1
 10
43.285224
 20
44.245078
 30
0.0
 11
43.70467
 21
45.558318
 31
0.0
  0
LINE
  5
70
  8
LAYER_1
 10
43.70467
 20
45.558318
 30
0.0
 11
43.841382
 21
46.933218
 31
0.0
  0
LINE
  5
71
  8
LAYER_1
 10
43.841382
 20
46.933218
 30
0.0
 11
43.716578
 21
48.312875
 31
0.0
  0
LINE
  5
72
  8
LAYER_1
 10
43.716578
 20
48.312875
 30
0.0
 11
43.351474
 21
49.640382
 31
0.0
  0
LINE
  5
1BC
  8
LAYER_1
 10
43.351474
 20
49.640382
 30
0.0
 11
42.76729
 21
50.858835
 31
0.0
  0
LINE
  5
1BD
  8
LAYER_1
 10
42.76729
 20
50.858835
 30
0.0
 11
41.985242
 21
51.911329
 31
0.0
  0
LINE
  5
1BE
  8
LAYER_1
 10
41.985242
 20
51.911329
 30
0.0
 11
41.026548
 21
52.740959
 31
0.0
  0
LINE
  5
1BF
  8
LAYER_1
 10
41.026548
 20
52.740959
 30
0.0
 11
39.912425
 21
53.29082
 31
0.0
  0
LINE
  5
77
  8
LAYER_1
 10
39.912425
 20
53.29082
 30
0.0
 11
38.15595
 21
53.568027
 31
0.0
  0
LINE
  5
78
  8
LAYER_1
 10
38.15595
 20
53.568027
 30
0.0
 11
35.827651
 21
53.4226
 31
0.0
  0
LINE
  5
79
  8
LAYER_1
 10
35.827651
 20
53.4226
 30
0.0
 11
32.906987
 21
52.851737
 31
0.0
  0
LINE
  5
7A
  8
LAYER_1
 10
32.906987
 20
52.851737
 30
0.0
 11
29.373418
 21
51.852635
 31
0.0
  0
LINE
  5
7B
  8
LAYER_1
 10
29.373418
 20
51.852635
 30
0.0
 11
22.952863
 21
49.84065
 31
0.0
  0
LINE
  5
7C
  8
LAYER_1
 10
22.952863
 20
49.84065
 30
0.0
 11
21.188974
 21
49.298411
 31
0.0
  0
LINE
  5
7D
  8
LAYER_1
 10
21.188974
 20
49.298411
 30
0.0
 11
21.188974
 21
35.593774
 31
0.0
  0
LINE
  5
7E
  8
LAYER_1
 10
21.188974
 20
35.593774
 30
0.0
 11
21.26067
 21
24.701041
 31
0.0
  0
LINE
  5
7F
  8
LAYER_1
 10
21.26067
 20
24.701041
 30
0.0
 11
21.36885
 21
22.572284
 31
0.0
  0
LINE
  5
80
  8
LAYER_1
 10
21.36885
 20
22.572284
 30
0.0
 11
21.541752
 21
22.020465
 31
0.0
  0
LINE
  5
81
  8
LAYER_1
 10
21.541752
 20
22.020465
 30
0.0
 11
24.787308
 21
23.046653
 31
0.0
  0
LINE
  5
82
  8
LAYER_1
 10
24.787308
 20
23.046653
 30
0.0
 11
24.787308
 21
23.046653
 31
0.0
  0
LINE
  5
83
  8
LAYER_1
 10
26.967858
 20
42.967738
 30
0.0
 11
26.914846
 21
46.02576
 31
0.0
  0
LINE
  5
84
  8
LAYER_1
 10
26.914846
 20
46.02576
 30
0.0
 11
28.081522
 21
46.540722
 31
0.0
  0
LINE
  5
85
  8
LAYER_1
 10
28.081522
 20
46.540722
 30
0.0
 11
30.600258
 21
47.26727
 31
0.0
  0
LINE
  5
86
  8
LAYER_1
 10
30.600258
 20
47.26727
 30
0.0
 11
33.358973
 21
47.915671
 31
0.0
  0
LINE
  5
87
  8
LAYER_1
 10
33.358973
 20
47.915671
 30
0.0
 11
35.245588
 21
48.19619
 31
0.0
  0
LINE
  5
88
  8
LAYER_1
 10
35.245588
 20
48.19619
 30
0.0
 11
36.114603
 21
47.989526
 31
0.0
  0
LINE
  5
89
  8
LAYER_1
 10
36.114603
 20
47.989526
 30
0.0
 11
37.002133
 21
47.439995
 31
0.0
  0
LINE
  5
8A
  8
LAYER_1
 10
37.002133
 20
47.439995
 30
0.0
 11
37.726338
 21
46.625506
 31
0.0
  0
LINE
  5
8B
  8
LAYER_1
 10
37.726338
 20
46.625506
 30
0.0
 11
37.752474
 21
45.577808
 31
0.0
  0
LINE
  5
8C
  8
LAYER_1
 10
37.752474
 20
45.577808
 30
0.0
 11
37.561121
 21
44.809812
 31
0.0
  0
LINE
  5
8D
  8
LAYER_1
 10
37.561121
 20
44.809812
 30
0.0
 11
37.197502
 21
44.107931
 31
0.0
  0
LINE
  5
8E
  8
LAYER_1
 10
37.197502
 20
44.107931
 30
0.0
 11
36.654288
 21
43.467213
 31
0.0
  0
LINE
  5
8F
  8
LAYER_1
 10
36.654288
 20
43.467213
 30
0.0
 11
35.924148
 21
42.882704
 31
0.0
  0
LINE
  5
90
  8
LAYER_1
 10
35.924148
 20
42.882704
 30
0.0
 11
33.873772
 21
41.86251
 31
0.0
  0
LINE
  5
91
  8
LAYER_1
 10
33.873772
 20
41.86251
 30
0.0
 11
30.987732
 21
41.007733
 31
0.0
  0
LINE
  5
1C0
  8
LAYER_1
 10
30.987732
 20
41.007733
 30
0.0
 11
27.567634
 21
40.293967
 31
0.0
  0
LINE
  5
1C1
  8
LAYER_1
 10
27.567634
 20
40.293967
 30
0.0
 11
27.367809
 21
40.427314
 31
0.0
  0
LINE
  5
94
  8
LAYER_1
 10
27.367809
 20
40.427314
 30
0.0
 11
27.211336
 21
40.872373
 31
0.0
  0
LINE
  5
95
  8
LAYER_1
 10
27.211336
 20
40.872373
 30
0.0
 11
26.967858
 21
42.967738
 31
0.0
  0
LINE
  5
96
  8
LAYER_1
 10
26.967858
 20
42.967738
 30
0.0
 11
26.967858
 21
42.967738
 31
0.0
  0
LINE
  5
1C2
  8
LAYER_1
 10
187.13564
 20
23.182747
 30
0.0
 11
183.890085
 21
29.962481
 31
0.0
  0
LINE
  5
1C3
  8
LAYER_1
 10
183.890085
 20
29.962481
 30
0.0
 11
180.644529
 21
36.77259
 31
0.0
  0
LINE
  5
99
  8
LAYER_1
 10
180.644529
 20
36.77259
 30
0.0
 11
181.06705
 21
36.907301
 31
0.0
  0
LINE
  5
9A
  8
LAYER_1
 10
181.06705
 20
36.907301
 30
0.0
 11
181.768422
 21
37.235293
 31
0.0
  0
LINE
  5
9B
  8
LAYER_1
 10
181.768422
 20
37.235293
 30
0.0
 11
182.719769
 21
38.034016
 31
0.0
  0
LINE
  5
9C
  8
LAYER_1
 10
182.719769
 20
38.034016
 30
0.0
 11
183.631856
 21
39.025587
 31
0.0
  0
LINE
  5
9D
  8
LAYER_1
 10
183.631856
 20
39.025587
 30
0.0
 11
184.21545
 21
39.932125
 31
0.0
  0
LINE
  5
9E
  8
LAYER_1
 10
184.21545
 20
39.932125
 30
0.0
 11
184.51596
 21
41.180598
 31
0.0
  0
LINE
  5
9F
  8
LAYER_1
 10
184.51596
 20
41.180598
 30
0.0
 11
184.58089
 21
42.726283
 31
0.0
  0
LINE
  5
A0
  8
LAYER_1
 10
184.58089
 20
42.726283
 30
0.0
 11
184.419009
 21
44.288104
 31
0.0
  0
LINE
  5
A1
  8
LAYER_1
 10
184.419009
 20
44.288104
 30
0.0
 11
184.039087
 21
45.584985
 31
0.0
  0
LINE
  5
A2
  8
LAYER_1
 10
184.039087
 20
45.584985
 30
0.0
 11
183.191827
 21
46.955251
 31
0.0
  0
LINE
  5
A3
  8
LAYER_1
 10
183.191827
 20
46.955251
 30
0.0
 11
181.946454
 21
48.295889
 31
0.0
  0
LINE
  5
A4
  8
LAYER_1
 10
181.946454
 20
48.295889
 30
0.0
 11
180.403189
 21
49.514908
 31
0.0
  0
LINE
  5
A5
  8
LAYER_1
 10
180.403189
 20
49.514908
 30
0.0
 11
178.662251
 21
50.520318
 31
0.0
  0
LINE
  5
A6
  8
LAYER_1
 10
178.662251
 20
50.520318
 30
0.0
 11
175.605766
 21
51.640805
 31
0.0
  0
LINE
  5
A7
  8
LAYER_1
 10
175.605766
 20
51.640805
 30
0.0
 11
170.700994
 21
52.969603
 31
0.0
  0
LINE
  5
A8
  8
LAYER_1
 10
170.700994
 20
52.969603
 30
0.0
 11
164.770367
 21
54.405078
 31
0.0
  0
LINE
  5
A9
  8
LAYER_1
 10
164.770367
 20
54.405078
 30
0.0
 11
164.625898
 21
46.065696
 31
0.0
  0
LINE
  5
AA
  8
LAYER_1
 10
164.625898
 20
46.065696
 30
0.0
 11
164.730238
 21
33.889194
 31
0.0
  0
LINE
  5
AB
  8
LAYER_1
 10
164.730238
 20
33.889194
 30
0.0
 11
164.900568
 21
28.472198
 31
0.0
  0
LINE
  5
AC
  8
LAYER_1
 10
164.900568
 20
28.472198
 30
0.0
 11
165.78755
 21
28.270014
 31
0.0
  0
LINE
  5
AD
  8
LAYER_1
 10
165.78755
 20
28.270014
 30
0.0
 11
167.097862
 21
28.021861
 31
0.0
  0
LINE
  5
AE
  8
LAYER_1
 10
167.097862
 20
28.021861
 30
0.0
 11
168.08564
 21
27.795059
 31
0.0
  0
LINE
  5
AF
  8
LAYER_1
 10
168.08564
 20
27.795059
 30
0.0
 11
169.50173
 21
27.470512
 31
0.0
  0
LINE
  5
B0
  8
LAYER_1
 10
169.50173
 20
27.470512
 30
0.0
 11
170.353375
 21
27.326802
 31
0.0
  0
LINE
  5
B1
  8
LAYER_1
 10
170.353375
 20
27.326802
 30
0.0
 11
170.244894
 21
32.300999
 31
0.0
  0
LINE
  5
B2
  8
LAYER_1
 10
170.244894
 20
32.300999
 30
0.0
 11
170.228272
 21
36.400849
 31
0.0
  0
LINE
  5
B3
  8
LAYER_1
 10
170.228272
 20
36.400849
 30
0.0
 11
170.343882
 21
37.035066
 31
0.0
  0
LINE
  5
B4
  8
LAYER_1
 10
170.343882
 20
37.035066
 30
0.0
 11
170.567909
 21
37.109617
 31
0.0
  0
LINE
  5
B5
  8
LAYER_1
 10
170.567909
 20
37.109617
 30
0.0
 11
173.303221
 21
36.591364
 31
0.0
  0
LINE
  5
B6
  8
LAYER_1
 10
173.303221
 20
36.591364
 30
0.0
 11
175.60704
 21
36.238688
 31
0.0
  0
LINE
  5
B7
  8
LAYER_1
 10
175.60704
 20
36.238688
 30
0.0
 11
177.528779
 21
32.269105
 31
0.0
  0
LINE
  5
B8
  8
LAYER_1
 10
177.528779
 20
32.269105
 30
0.0
 11
180.302543
 21
26.433605
 31
0.0
  0
LINE
  5
B9
  8
LAYER_1
 10
180.302543
 20
26.433605
 30
0.0
 11
181.154567
 21
24.56769
 31
0.0
  0
LINE
  5
BA
  8
LAYER_1
 10
181.154567
 20
24.56769
 30
0.0
 11
183.933437
 21
23.850132
 31
0.0
  0
LINE
  5
BB
  8
LAYER_1
 10
183.933437
 20
23.850132
 30
0.0
 11
186.67871
 21
23.164006
 31
0.0
  0
LINE
  5
BC
  8
LAYER_1
 10
186.67871
 20
23.164006
 30
0.0
 11
187.06436
 21
23.112123
 31
0.0
  0
LINE
  5
BD
  8
LAYER_1
 10
187.06436
 20
23.112123
 30
0.0
 11
187.13564
 21
23.182747
 31
0.0
  0
LINE
  5
BE
  8
LAYER_1
 10
187.13564
 20
23.182747
 30
0.0
 11
187.13564
 21
23.182747
 31
0.0
  0
LINE
  5
BF
  8
LAYER_1
 10
173.306751
 20
40.887091
 30
0.0
 11
171.26064
 21
41.450994
 31
0.0
  0
LINE
  5
C0
  8
LAYER_1
 10
171.26064
 20
41.450994
 30
0.0
 11
170.202307
 21
41.726835
 31
0.0
  0
LINE
  5
C1
  8
LAYER_1
 10
170.202307
 20
41.726835
 30
0.0
 11
170.202307
 21
45.243733
 31
0.0
  0
LINE
  5
C2
  8
LAYER_1
 10
170.202307
 20
45.243733
 30
0.0
 11
170.278997
 21
47.878526
 31
0.0
  0
LINE
  5
C3
  8
LAYER_1
 10
170.278997
 20
47.878526
 30
0.0
 11
170.508064
 21
48.760634
 31
0.0
  0
LINE
  5
C4
  8
LAYER_1
 10
170.508064
 20
48.760634
 30
0.0
 11
171.695819
 21
48.553057
 31
0.0
  0
LINE
  5
C5
  8
LAYER_1
 10
171.695819
 20
48.553057
 30
0.0
 11
173.525215
 21
48.050988
 31
0.0
  0
LINE
  5
C6
  8
LAYER_1
 10
173.525215
 20
48.050988
 30
0.0
 11
176.711466
 21
46.88735
 31
0.0
  0
LINE
  5
C7
  8
LAYER_1
 10
176.711466
 20
46.88735
 30
0.0
 11
177.544543
 21
46.339468
 31
0.0
  0
LINE
  5
C8
  8
LAYER_1
 10
177.544543
 20
46.339468
 30
0.0
 11
178.244388
 21
45.689091
 31
0.0
  0
LINE
  5
C9
  8
LAYER_1
 10
178.244388
 20
45.689091
 30
0.0
 11
178.798246
 21
44.967746
 31
0.0
  0
LINE
  5
CA
  8
LAYER_1
 10
178.798246
 20
44.967746
 30
0.0
 11
179.193364
 21
44.206961
 31
0.0
  0
LINE
  5
CB
  8
LAYER_1
 10
179.193364
 20
44.206961
 30
0.0
 11
179.416986
 21
43.438263
 31
0.0
  0
LINE
  5
CC
  8
LAYER_1
 10
179.416986
 20
43.438263
 30
0.0
 11
179.456359
 21
42.693179
 31
0.0
  0
LINE
  5
CD
  8
LAYER_1
 10
179.456359
 20
42.693179
 30
0.0
 11
179.298729
 21
42.003237
 31
0.0
  0
LINE
  5
CE
  8
LAYER_1
 10
179.298729
 20
42.003237
 30
0.0
 11
178.931341
 21
41.399965
 31
0.0
  0
LINE
  5
CF
  8
LAYER_1
 10
178.931341
 20
41.399965
 30
0.0
 11
178.556464
 21
41.048305
 31
0.0
  0
LINE
  5
D0
  8
LAYER_1
 10
178.556464
 20
41.048305
 30
0.0
 11
178.090548
 21
40.834786
 31
0.0
  0
LINE
  5
D1
  8
LAYER_1
 10
178.090548
 20
40.834786
 30
0.0
 11
176.320786
 21
40.662646
 31
0.0
  0
LINE
  5
D2
  8
LAYER_1
 10
176.320786
 20
40.662646
 30
0.0
 11
174.599582
 21
40.702333
 31
0.0
  0
LINE
  5
D3
  8
LAYER_1
 10
174.599582
 20
40.702333
 30
0.0
 11
173.306751
 21
40.887091
 31
0.0
  0
LINE
  5
D4
  8
LAYER_1
 10
173.306751
 20
40.887091
 30
0.0
 11
173.306751
 21
40.887091
 31
0.0
  0
LINE
  5
D5
  8
LAYER_1
 10
54.362587
 20
30.280638
 30
0.0
 11
54.691099
 21
30.477946
 31
0.0
  0
LINE
  5
D6
  8
LAYER_1
 10
54.691099
 20
30.477946
 30
0.0
 11
55.016688
 21
31.01956
 31
0.0
  0
LINE
  5
D7
  8
LAYER_1
 10
55.016688
 20
31.01956
 30
0.0
 11
55.910345
 21
33.688996
 31
0.0
  0
LINE
  5
D8
  8
LAYER_1
 10
55.910345
 20
33.688996
 30
0.0
 11
57.167842
 21
37.322297
 31
0.0
  0
LINE
  5
D9
  8
LAYER_1
 10
57.167842
 20
37.322297
 30
0.0
 11
58.509338
 21
37.687967
 31
0.0
  0
LINE
  5
DA
  8
LAYER_1
 10
58.509338
 20
37.687967
 30
0.0
 11
61.33087
 21
38.213931
 31
0.0
  0
LINE
  5
DB
  8
LAYER_1
 10
61.33087
 20
38.213931
 30
0.0
 11
66.34452899999999
 21
38.884002
 31
0.0
  0
LINE
  5
DC
  8
LAYER_1
 10
66.34452899999999
 20
38.884002
 30
0.0
 11
66.801121
 21
38.496313
 31
0.0
  0
LINE
  5
DD
  8
LAYER_1
 10
66.801121
 20
38.496313
 30
0.0
 11
67.3068
 21
37.541242
 31
0.0
  0
LINE
  5
DE
  8
LAYER_1
 10
67.3068
 20
37.541242
 30
0.0
 11
68.66490899999999
 21
34.341988
 31
0.0
  0
LINE
  5
DF
  8
LAYER_1
 10
68.66490899999999
 20
34.341988
 30
0.0
 11
69.48408499999999
 21
32.482234
 31
0.0
  0
LINE
  5
E0
  8
LAYER_1
 10
69.48408499999999
 20
32.482234
 30
0.0
 11
71.512642
 21
32.845477
 31
0.0
  0
LINE
  5
E1
  8
LAYER_1
 10
71.512642
 20
32.845477
 30
0.0
 11
74.488613
 21
33.223564
 31
0.0
  0
LINE
  5
E2
  8
LAYER_1
 10
74.488613
 20
33.223564
 30
0.0
 11
75.16794400000001
 21
33.321511
 31
0.0
  0
LINE
  5
E3
  8
LAYER_1
 10
75.16794400000001
 20
33.321511
 30
0.0
 11
75.29326
 21
33.59119
 31
0.0
  0
LINE
  5
E4
  8
LAYER_1
 10
75.29326
 20
33.59119
 30
0.0
 11
73.11900799999999
 21
38.459523
 31
0.0
  0
LINE
  5
E5
  8
LAYER_1
 10
73.11900799999999
 20
38.459523
 30
0.0
 11
70.51920300000001
 21
44.245078
 31
0.0
  0
LINE
  5
E6
  8
LAYER_1
 10
70.51920300000001
 20
44.245078
 30
0.0
 11
68.60297
 21
48.478412
 31
0.0
  0
LINE
  5
E7
  8
LAYER_1
 10
68.60297
 20
48.478412
 30
0.0
 11
66.49652
 21
53.135078
 31
0.0
  0
LINE
  5
E8
  8
LAYER_1
 10
66.49652
 20
53.135078
 30
0.0
 11
64.850431
 21
56.768821
 31
0.0
  0
LINE
  5
E9
  8
LAYER_1
 10
64.850431
 20
56.768821
 30
0.0
 11
63.962878
 21
58.709235
 31
0.0
  0
LINE
  5
EA
  8
LAYER_1
 10
63.962878
 20
58.709235
 30
0.0
 11
61.837593
 21
58.529657
 31
0.0
  0
LINE
  5
EB
  8
LAYER_1
 10
61.837593
 20
58.529657
 30
0.0
 11
59.612588
 21
58.306352
 31
0.0
  0
LINE
  5
EC
  8
LAYER_1
 10
59.612588
 20
58.306352
 30
0.0
 11
58.909361
 21
58.128814
 31
0.0
  0
LINE
  5
ED
  8
LAYER_1
 10
58.909361
 20
58.128814
 30
0.0
 11
58.390539
 21
57.834113
 31
0.0
  0
LINE
  5
EE
  8
LAYER_1
 10
58.390539
 20
57.834113
 30
0.0
 11
57.989789
 21
57.367317
 31
0.0
  0
LINE
  5
EF
  8
LAYER_1
 10
57.989789
 20
57.367317
 30
0.0
 11
57.640777
 21
56.673495
 31
0.0
  0
LINE
  5
F0
  8
LAYER_1
 10
57.640777
 20
56.673495
 30
0.0
 11
56.832635
 21
54.385055
 31
0.0
  0
LINE
  5
F1
  8
LAYER_1
 10
56.832635
 20
54.385055
 30
0.0
 11
51.755154
 21
38.997142
 31
0.0
  0
LINE
  5
F2
  8
LAYER_1
 10
51.755154
 20
38.997142
 30
0.0
 11
48.744734
 21
29.483391
 31
0.0
  0
LINE
  5
F3
  8
LAYER_1
 10
48.744734
 20
29.483391
 30
0.0
 11
54.362587
 21
30.280638
 31
0.0
  0
LINE
  5
F4
  8
LAYER_1
 10
54.362587
 20
30.280638
 30
0.0
 11
54.362587
 21
30.280638
 31
0.0
  0
LINE
  5
F5
  8
LAYER_1
 10
58.260702
 20
42.19225
 30
0.0
 11
61.240549
 21
51.646167
 31
0.0
  0
LINE
  5
F6
  8
LAYER_1
 10
61.240549
 20
51.646167
 30
0.0
 11
61.864711
 21
50.535311
 31
0.0
  0
LINE
  5
F7
  8
LAYER_1
 10
61.864711
 20
50.535311
 30
0.0
 11
63.098197
 21
47.838069
 31
0.0
  0
LINE
  5
F8
  8
LAYER_1
 10
63.098197
 20
47.838069
 30
0.0
 11
64.991663
 21
43.133964
 31
0.0
  0
LINE
  5
F9
  8
LAYER_1
 10
64.991663
 20
43.133964
 30
0.0
 11
64.911455
 21
42.923717
 31
0.0
  0
LINE
  5
FA
  8
LAYER_1
 10
64.911455
 20
42.923717
 30
0.0
 11
64.537752
 21
42.740494
 31
0.0
  0
LINE
  5
FB
  8
LAYER_1
 10
64.537752
 20
42.740494
 30
0.0
 11
62.67564
 21
42.378743
 31
0.0
  0
LINE
  5
FC
  8
LAYER_1
 10
62.67564
 20
42.378743
 30
0.0
 11
59.197268
 21
41.860363
 31
0.0
  0
LINE
  5
FD
  8
LAYER_1
 10
59.197268
 20
41.860363
 30
0.0
 11
58.329685
 21
41.80767
 31
0.0
  0
LINE
  5
FE
  8
LAYER_1
 10
58.329685
 20
41.80767
 30
0.0
 11
58.22229
 21
41.935761
 31
0.0
  0
LINE
  5
FF
  8
LAYER_1
 10
58.22229
 20
41.935761
 30
0.0
 11
58.260702
 21
42.19225
 31
0.0
  0
LINE
  5
100
  8
LAYER_1
 10
58.260702
 20
42.19225
 30
0.0
 11
58.260702
 21
42.19225
 31
0.0
  0
LINE
  5
101
  8
LAYER_1
 10
158.868028
 20
34.677576
 30
0.0
 11
157.092469
 21
35.095609
 31
0.0
  0
LINE
  5
102
  8
LAYER_1
 10
157.092469
 20
35.095609
 30
0.0
 11
155.103418
 21
35.381218
 31
0.0
  0
LINE
  5
103
  8
LAYER_1
 10
155.103418
 20
35.381218
 30
0.0
 11
145.86064
 21
37.068709
 31
0.0
  0
LINE
  5
104
  8
LAYER_1
 10
145.86064
 20
37.068709
 30
0.0
 11
145.084529
 21
37.234371
 31
0.0
  0
LINE
  5
105
  8
LAYER_1
 10
145.084529
 20
37.234371
 30
0.0
 11
145.084529
 21
40.880837
 31
0.0
  0
LINE
  5
106
  8
LAYER_1
 10
145.084529
 20
40.880837
 30
0.0
 11
145.164418
 21
43.935604
 31
0.0
  0
LINE
  5
107
  8
LAYER_1
 10
145.164418
 20
43.935604
 30
0.0
 11
145.31331
 21
44.414717
 31
0.0
  0
LINE
  5
108
  8
LAYER_1
 10
145.31331
 20
44.414717
 30
0.0
 11
145.578418
 21
44.515752
 31
0.0
  0
LINE
  5
109
  8
LAYER_1
 10
145.578418
 20
44.515752
 30
0.0
 11
149.529978
 21
43.857683
 31
0.0
  0
LINE
  5
10A
  8
LAYER_1
 10
149.529978
 20
43.857683
 30
0.0
 11
153.128311
 21
43.351823
 31
0.0
  0
LINE
  5
10B
  8
LAYER_1
 10
153.128311
 20
43.351823
 30
0.0
 11
153.271827
 21
44.012229
 31
0.0
  0
LINE
  5
10C
  8
LAYER_1
 10
153.271827
 20
44.012229
 30
0.0
 11
153.263998
 21
45.186548
 31
0.0
  0
LINE
  5
10D
  8
LAYER_1
 10
153.263998
 20
45.186548
 30
0.0
 11
153.135297
 21
46.352466
 31
0.0
  0
LINE
  5
10E
  8
LAYER_1
 10
153.135297
 20
46.352466
 30
0.0
 11
152.916196
 21
46.987666
 31
0.0
  0
LINE
  5
10F
  8
LAYER_1
 10
152.916196
 20
46.987666
 30
0.0
 11
151.568585
 21
47.371926
 31
0.0
  0
LINE
  5
110
  8
LAYER_1
 10
151.568585
 20
47.371926
 30
0.0
 11
148.823974
 21
47.91425
 31
0.0
  0
LINE
  5
111
  8
LAYER_1
 10
148.823974
 20
47.91425
 30
0.0
 11
145.084529
 21
48.569132
 31
0.0
  0
LINE
  5
112
  8
LAYER_1
 10
145.084529
 20
48.569132
 30
0.0
 11
145.084529
 21
51.223901
 31
0.0
  0
LINE
  5
113
  8
LAYER_1
 10
145.084529
 20
51.223901
 30
0.0
 11
145.164225
 21
53.426086
 31
0.0
  0
LINE
  5
114
  8
LAYER_1
 10
145.164225
 20
53.426086
 30
0.0
 11
145.313093
 21
53.73158
 31
0.0
  0
LINE
  5
115
  8
LAYER_1
 10
145.313093
 20
53.73158
 30
0.0
 11
145.578418
 21
53.728691
 31
0.0
  0
LINE
  5
116
  8
LAYER_1
 10
145.578418
 20
53.728691
 30
0.0
 11
151.293418
 21
52.719856
 31
0.0
  0
LINE
  5
117
  8
LAYER_1
 10
151.293418
 20
52.719856
 30
0.0
 11
157.149529
 21
51.716553
 31
0.0
  0
LINE
  5
118
  8
LAYER_1
 10
157.149529
 20
51.716553
 30
0.0
 11
157.508165
 21
51.677459
 31
0.0
  0
LINE
  5
119
  8
LAYER_1
 10
157.508165
 20
51.677459
 30
0.0
 11
157.697622
 21
51.881563
 31
0.0
  0
LINE
  5
11A
  8
LAYER_1
 10
157.697622
 20
51.881563
 30
0.0
 11
157.784529
 21
53.68877
 31
0.0
  0
LINE
  5
11B
  8
LAYER_1
 10
157.784529
 20
53.68877
 30
0.0
 11
157.687966
 21
55.505643
 31
0.0
  0
LINE
  5
11C
  8
LAYER_1
 10
157.687966
 20
55.505643
 30
0.0
 11
157.497302
 21
55.816567
 31
0.0
  0
LINE
  5
11D
  8
LAYER_1
 10
157.497302
 20
55.816567
 30
0.0
 11
157.149529
 21
55.950662
 31
0.0
  0
LINE
  5
11E
  8
LAYER_1
 10
157.149529
 20
55.950662
 30
0.0
 11
148.753418
 21
57.368411
 31
0.0
  0
LINE
  5
11F
  8
LAYER_1
 10
148.753418
 20
57.368411
 30
0.0
 11
140.357307
 21
58.78616
 31
0.0
  0
LINE
  5
120
  8
LAYER_1
 10
140.357307
 20
58.78616
 30
0.0
 11
139.722307
 21
58.931386
 31
0.0
  0
LINE
  5
121
  8
LAYER_1
 10
139.722307
 20
58.931386
 30
0.0
 11
139.722307
 21
46.090276
 31
0.0
  0
LINE
  5
122
  8
LAYER_1
 10
139.722307
 20
46.090276
 30
0.0
 11
139.722307
 21
33.249164
 31
0.0
  0
LINE
  5
123
  8
LAYER_1
 10
139.722307
 20
33.249164
 30
0.0
 11
140.357307
 21
33.113788
 31
0.0
  0
LINE
  5
124
  8
LAYER_1
 10
140.357307
 20
33.113788
 30
0.0
 11
144.943418
 21
32.279161
 31
0.0
  0
LINE
  5
125
  8
LAYER_1
 10
144.943418
 20
32.279161
 30
0.0
 11
151.293418
 21
31.136615
 31
0.0
  0
LINE
  5
126
  8
LAYER_1
 10
151.293418
 20
31.136615
 30
0.0
 11
157.743375
 21
30.008333
 31
0.0
  0
LINE
  5
127
  8
LAYER_1
 10
157.743375
 20
30.008333
 30
0.0
 11
158.872264
 21
29.703403
 31
0.0
  0
LINE
  5
128
  8
LAYER_1
 10
158.872264
 20
29.703403
 30
0.0
 11
159.025143
 21
30.29942
 31
0.0
  0
LINE
  5
129
  8
LAYER_1
 10
159.025143
 20
30.29942
 30
0.0
 11
159.136755
 21
31.990233
 31
0.0
  0
LINE
  5
12A
  8
LAYER_1
 10
159.136755
 20
31.990233
 30
0.0
 11
159.116873
 21
33.929487
 31
0.0
  0
LINE
  5
12B
  8
LAYER_1
 10
159.116873
 20
33.929487
 30
0.0
 11
158.868028
 21
34.677576
 31
0.0
  0
LINE
  5
12C
  8
LAYER_1
 10
158.868028
 20
34.677576
 30
0.0
 11
158.868028
 21
34.677576
 31
0.0
  0
LINE
  5
12D
  8
LAYER_1
 10
81.584529
 20
33.804744
 30
0.0
 11
84.26564000000001
 21
34.225295
 31
0.0
  0
LINE
  5
12E
  8
LAYER_1
 10
84.26564000000001
 20
34.225295
 30
0.0
 11
85.112307
 21
34.365997
 31
0.0
  0
LINE
  5
12F
  8
LAYER_1
 10
85.112307
 20
34.365997
 30
0.0
 11
85.023681
 21
43.599902
 31
0.0
  0
LINE
  5
130
  8
LAYER_1
 10
85.023681
 20
43.599902
 30
0.0
 11
85.01606200000001
 21
51.54759
 31
0.0
  0
LINE
  5
131
  8
LAYER_1
 10
85.01606200000001
 20
51.54759
 30
0.0
 11
85.165773
 21
52.37666
 31
0.0
  0
LINE
  5
132
  8
LAYER_1
 10
85.165773
 20
52.37666
 30
0.0
 11
85.471818
 21
52.137778
 31
0.0
  0
LINE
  5
133
  8
LAYER_1
 10
85.471818
 20
52.137778
 30
0.0
 11
90.75491700000001
 21
44.809523
 31
0.0
  0
LINE
  5
134
  8
LAYER_1
 10
90.75491700000001
 20
44.809523
 30
0.0
 11
96.688546
 21
36.625078
 31
0.0
  0
LINE
  5
135
  8
LAYER_1
 10
96.688546
 20
36.625078
 30
0.0
 11
97.875844
 21
35.072856
 31
0.0
  0
LINE
  5
136
  8
LAYER_1
 10
97.875844
 20
35.072856
 30
0.0
 11
100.498986
 21
35.164581
 31
0.0
  0
LINE
  5
137
  8
LAYER_1
 10
100.498986
 20
35.164581
 30
0.0
 11
103.122129
 21
35.256309
 31
0.0
  0
LINE
  5
138
  8
LAYER_1
 10
103.122129
 20
35.256309
 30
0.0
 11
102.92349
 21
47.72347
 31
0.0
  0
LINE
  5
139
  8
LAYER_1
 10
102.92349
 20
47.72347
 30
0.0
 11
102.556911
 21
60.863107
 31
0.0
  0
LINE
  5
13A
  8
LAYER_1
 10
102.556911
 20
60.863107
 30
0.0
 11
102.416717
 21
61.245554
 31
0.0
  0
LINE
  5
13B
  8
LAYER_1
 10
102.416717
 20
61.245554
 30
0.0
 11
102.080192
 21
61.423896
 31
0.0
  0
LINE
  5
13C
  8
LAYER_1
 10
102.080192
 20
61.423896
 30
0.0
 11
99.827128
 21
61.342187
 31
0.0
  0
LINE
  5
13D
  8
LAYER_1
 10
99.827128
 20
61.342187
 30
0.0
 11
97.235834
 21
61.093047
 31
0.0
  0
LINE
  5
13E
  8
LAYER_1
 10
97.235834
 20
61.093047
 30
0.0
 11
97.38258999999999
 21
52.852856
 31
0.0
  0
LINE
  5
13F
  8
LAYER_1
 10
97.38258999999999
 20
52.852856
 30
0.0
 11
97.534222
 21
44.611157
 31
0.0
  0
LINE
  5
140
  8
LAYER_1
 10
97.534222
 20
44.611157
 30
0.0
 11
91.198762
 21
52.51338
 31
0.0
  0
LINE
  5
141
  8
LAYER_1
 10
91.198762
 20
52.51338
 30
0.0
 11
86.671032
 21
58.126469
 31
0.0
  0
LINE
  5
142
  8
LAYER_1
 10
86.671032
 20
58.126469
 30
0.0
 11
84.647312
 21
60.444633
 31
0.0
  0
LINE
  5
143
  8
LAYER_1
 10
84.647312
 20
60.444633
 30
0.0
 11
81.86675099999999
 21
60.374078
 31
0.0
  0
LINE
  5
144
  8
LAYER_1
 10
81.86675099999999
 20
60.374078
 30
0.0
 11
79.326751
 21
60.331744
 31
0.0
  0
LINE
  5
145
  8
LAYER_1
 10
79.326751
 20
60.331744
 30
0.0
 11
79.326751
 21
46.92619
 31
0.0
  0
LINE
  5
146
  8
LAYER_1
 10
79.326751
 20
46.92619
 30
0.0
 11
79.38892800000001
 21
37.459142
 31
0.0
  0
LINE
  5
147
  8
LAYER_1
 10
79.38892800000001
 20
37.459142
 30
0.0
 11
79.53841799999999
 21
33.522765
 31
0.0
  0
LINE
  5
148
  8
LAYER_1
 10
79.53841799999999
 20
33.522765
 30
0.0
 11
81.584529
 21
33.804744
 31
0.0
  0
LINE
  5
149
  8
LAYER_1
 10
81.584529
 20
33.804744
 30
0.0
 11
81.584529
 21
33.804744
 31
0.0
  0
LINE
  5
14A
  8
LAYER_1
 10
126.971676
 20
34.972611
 30
0.0
 11
128.617595
 21
35.950257
 31
0.0
  0
LINE
  5
14B
  8
LAYER_1
 10
128.617595
 20
35.950257
 30
0.0
 11
129.994139
 21
37.088747
 31
0.0
  0
LINE
  5
14C
  8
LAYER_1
 10
129.994139
 20
37.088747
 30
0.0
 11
131.112385
 21
38.398952
 31
0.0
  0
LINE
  5
14D
  8
LAYER_1
 10
131.112385
 20
38.398952
 30
0.0
 11
131.983412
 21
39.891747
 31
0.0
  0
LINE
  5
14E
  8
LAYER_1
 10
131.983412
 20
39.891747
 30
0.0
 11
132.649794
 21
41.798831
 31
0.0
  0
LINE
  5
14F
  8
LAYER_1
 10
132.649794
 20
41.798831
 30
0.0
 11
132.894355
 21
44.546359
 31
0.0
  0
LINE
  5
150
  8
LAYER_1
 10
132.894355
 20
44.546359
 30
0.0
 11
133.017522
 21
47.53575
 31
0.0
  0
LINE
  5
151
  8
LAYER_1
 10
133.017522
 20
47.53575
 30
0.0
 11
127.973802
 21
47.88029
 31
0.0
  0
LINE
  5
152
  8
LAYER_1
 10
127.973802
 20
47.88029
 30
0.0
 11
122.153974
 21
48.374043
 31
0.0
  0
LINE
  5
153
  8
LAYER_1
 10
122.153974
 20
48.374043
 30
0.0
 11
121.377862
 21
48.52326
 31
0.0
  0
LINE
  5
154
  8
LAYER_1
 10
121.377862
 20
48.52326
 30
0.0
 11
121.377862
 21
46.38417
 31
0.0
  0
LINE
  5
155
  8
LAYER_1
 10
121.377862
 20
46.38417
 30
0.0
 11
121.377862
 21
44.245078
 31
0.0
  0
LINE
  5
156
  8
LAYER_1
 10
121.377862
 20
44.245078
 30
0.0
 11
122.718418
 21
44.229579
 31
0.0
  0
LINE
  5
157
  8
LAYER_1
 10
122.718418
 20
44.229579
 30
0.0
 11
126.365021
 21
44.059501
 31
0.0
  0
LINE
  5
158
  8
LAYER_1
 10
126.365021
 20
44.059501
 30
0.0
 11
128.672796
 21
43.817554
 31
0.0
  0
LINE
  5
159
  8
LAYER_1
 10
128.672796
 20
43.817554
 30
0.0
 11
128.664149
 21
43.326367
 31
0.0
  0
LINE
  5
15A
  8
LAYER_1
 10
128.664149
 20
43.326367
 30
0.0
 11
128.315445
 21
42.440142
 31
0.0
  0
LINE
  5
15B
  8
LAYER_1
 10
128.315445
 20
42.440142
 30
0.0
 11
127.755146
 21
41.427264
 31
0.0
  0
LINE
  5
15C
  8
LAYER_1
 10
127.755146
 20
41.427264
 30
0.0
 11
127.111715
 21
40.556121
 31
0.0
  0
LINE
  5
15D
  8
LAYER_1
 10
127.111715
 20
40.556121
 30
0.0
 11
125.803203
 21
39.490252
 31
0.0
  0
LINE
  5
15E
  8
LAYER_1
 10
125.803203
 20
39.490252
 30
0.0
 11
124.209538
 21
38.863642
 31
0.0
  0
LINE
  5
15F
  8
LAYER_1
 10
124.209538
 20
38.863642
 30
0.0
 11
122.348091
 21
38.680364
 31
0.0
  0
LINE
  5
160
  8
LAYER_1
 10
122.348091
 20
38.680364
 30
0.0
 11
120.236234
 21
38.944488
 31
0.0
  0
LINE
  5
161
  8
LAYER_1
 10
120.236234
 20
38.944488
 30
0.0
 11
119.375367
 21
39.314656
 31
0.0
  0
LINE
  5
162
  8
LAYER_1
 10
119.375367
 20
39.314656
 30
0.0
 11
118.312034
 21
40.009943
 31
0.0
  0
LINE
  5
163
  8
LAYER_1
 10
118.312034
 20
40.009943
 30
0.0
 11
117.284342
 21
40.854956
 31
0.0
  0
LINE
  5
164
  8
LAYER_1
 10
117.284342
 20
40.854956
 30
0.0
 11
116.530397
 21
41.674299
 31
0.0
  0
LINE
  5
165
  8
LAYER_1
 10
116.530397
 20
41.674299
 30
0.0
 11
115.722039
 21
43.094839
 31
0.0
  0
LINE
  5
166
  8
LAYER_1
 10
115.722039
 20
43.094839
 30
0.0
 11
115.206421
 21
44.766679
 31
0.0
  0
LINE
  5
167
  8
LAYER_1
 10
115.206421
 20
44.766679
 30
0.0
 11
114.954802
 21
46.829728
 31
0.0
  0
LINE
  5
168
  8
LAYER_1
 10
114.954802
 20
46.829728
 30
0.0
 11
114.93844
 21
49.423896
 31
0.0
  0
LINE
  5
169
  8
LAYER_1
 10
114.93844
 20
49.423896
 30
0.0
 11
115.066733
 21
51.635212
 31
0.0
  0
LINE
  5
16A
  8
LAYER_1
 10
115.066733
 20
51.635212
 30
0.0
 11
115.33202
 21
53.181229
 31
0.0
  0
LINE
  5
16B
  8
LAYER_1
 10
115.33202
 20
53.181229
 30
0.0
 11
115.803627
 21
54.313958
 31
0.0
  0
LINE
  5
16C
  8
LAYER_1
 10
115.803627
 20
54.313958
 30
0.0
 11
116.550877
 21
55.285411
 31
0.0
  0
LINE
  5
16D
  8
LAYER_1
 10
116.550877
 20
55.285411
 30
0.0
 11
117.086454
 21
55.725331
 31
0.0
  0
LINE
  5
16E
  8
LAYER_1
 10
117.086454
 20
55.725331
 30
0.0
 11
117.781587
 21
56.087522
 31
0.0
  0
LINE
  5
16F
  8
LAYER_1
 10
117.781587
 20
56.087522
 30
0.0
 11
119.514115
 21
56.557784
 31
0.0
  0
LINE
  5
170
  8
LAYER_1
 10
119.514115
 20
56.557784
 30
0.0
 11
121.475647
 21
56.654337
 31
0.0
  0
LINE
  5
171
  8
LAYER_1
 10
121.475647
 20
56.654337
 30
0.0
 11
123.393369
 21
56.33532
 31
0.0
  0
LINE
  5
172
  8
LAYER_1
 10
123.393369
 20
56.33532
 30
0.0
 11
124.495961
 21
55.837488
 31
0.0
  0
LINE
  5
173
  8
LAYER_1
 10
124.495961
 20
55.837488
 30
0.0
 11
125.567116
 21
55.05631
 31
0.0
  0
LINE
  5
174
  8
LAYER_1
 10
125.567116
 20
55.05631
 30
0.0
 11
126.496682
 21
54.0881
 31
0.0
  0
LINE
  5
175
  8
LAYER_1
 10
126.496682
 20
54.0881
 30
0.0
 11
127.174506
 21
53.029172
 31
0.0
  0
LINE
  5
176
  8
LAYER_1
 10
127.174506
 20
53.029172
 30
0.0
 11
127.694703
 21
52.202465
 31
0.0
  0
LINE
  5
177
  8
LAYER_1
 10
127.694703
 20
52.202465
 30
0.0
 11
128.151196
 21
51.999724
 31
0.0
  0
LINE
  5
178
  8
LAYER_1
 10
128.151196
 20
51.999724
 30
0.0
 11
129.98564
 21
52.455132
 31
0.0
  0
LINE
  5
179
  8
LAYER_1
 10
129.98564
 20
52.455132
 30
0.0
 11
131.627451
 21
52.994927
 31
0.0
  0
LINE
  5
17A
  8
LAYER_1
 10
131.627451
 20
52.994927
 30
0.0
 11
131.628832
 21
53.548499
 31
0.0
  0
LINE
  5
17B
  8
LAYER_1
 10
131.628832
 20
53.548499
 30
0.0
 11
131.207518
 21
54.551383
 31
0.0
  0
LINE
  5
17C
  8
LAYER_1
 10
131.207518
 20
54.551383
 30
0.0
 11
130.510124
 21
55.719104
 31
0.0
  0
LINE
  5
17D
  8
LAYER_1
 10
130.510124
 20
55.719104
 30
0.0
 11
129.683267
 21
56.767187
 31
0.0
  0
LINE
  5
17E
  8
LAYER_1
 10
129.683267
 20
56.767187
 30
0.0
 11
128.404414
 21
57.950808
 31
0.0
  0
LINE
  5
17F
  8
LAYER_1
 10
128.404414
 20
57.950808
 30
0.0
 11
126.993813
 21
58.940201
 31
0.0
  0
LINE
  5
180
  8
LAYER_1
 10
126.993813
 20
58.940201
 30
0.0
 11
125.471909
 21
59.729446
 31
0.0
  0
LINE
  5
181
  8
LAYER_1
 10
125.471909
 20
59.729446
 30
0.0
 11
123.859147
 21
60.312624
 31
0.0
  0
LINE
  5
182
  8
LAYER_1
 10
123.859147
 20
60.312624
 30
0.0
 11
122.175973
 21
60.683815
 31
0.0
  0
LINE
  5
183
  8
LAYER_1
 10
122.175973
 20
60.683815
 30
0.0
 11
120.442831
 21
60.837098
 31
0.0
  0
LINE
  5
184
  8
LAYER_1
 10
120.442831
 20
60.837098
 30
0.0
 11
118.680167
 21
60.766553
 31
0.0
  0
LINE
  5
185
  8
LAYER_1
 10
118.680167
 20
60.766553
 30
0.0
 11
116.908425
 21
60.46626
 31
0.0
  0
LINE
  5
186
  8
LAYER_1
 10
116.908425
 20
60.46626
 30
0.0
 11
115.039913
 21
59.874324
 31
0.0
  0
LINE
  5
187
  8
LAYER_1
 10
115.039913
 20
59.874324
 30
0.0
 11
113.448051
 21
59.016176
 31
0.0
  0
LINE
  5
188
  8
LAYER_1
 10
113.448051
 20
59.016176
 30
0.0
 11
112.036894
 21
57.826385
 31
0.0
  0
LINE
  5
189
  8
LAYER_1
 10
112.036894
 20
57.826385
 30
0.0
 11
110.710497
 21
56.239522
 31
0.0
  0
LINE
  5
18A
  8
LAYER_1
 10
110.710497
 20
56.239522
 30
0.0
 11
109.965084
 21
54.839713
 31
0.0
  0
LINE
  5
18B
  8
LAYER_1
 10
109.965084
 20
54.839713
 30
0.0
 11
109.425562
 21
53.046435
 31
0.0
  0
LINE
  5
18C
  8
LAYER_1
 10
109.425562
 20
53.046435
 30
0.0
 11
109.092961
 21
50.975282
 31
0.0
  0
LINE
  5
18D
  8
LAYER_1
 10
109.092961
 20
50.975282
 30
0.0
 11
108.968315
 21
48.741842
 31
0.0
  0
LINE
  5
18E
  8
LAYER_1
 10
108.968315
 20
48.741842
 30
0.0
 11
109.052655
 21
46.461709
 31
0.0
  0
LINE
  5
18F
  8
LAYER_1
 10
109.052655
 20
46.461709
 30
0.0
 11
109.347014
 21
44.250473
 31
0.0
  0
LINE
  5
190
  8
LAYER_1
 10
109.347014
 20
44.250473
 30
0.0
 11
109.852424
 21
42.223725
 31
0.0
  0
LINE
  5
191
  8
LAYER_1
 10
109.852424
 20
42.223725
 30
0.0
 11
110.569917
 21
40.497057
 31
0.0
  0
LINE
  5
192
  8
LAYER_1
 10
110.569917
 20
40.497057
 30
0.0
 11
111.618508
 21
38.90954
 31
0.0
  0
LINE
  5
193
  8
LAYER_1
 10
111.618508
 20
38.90954
 30
0.0
 11
112.972124
 21
37.419321
 31
0.0
  0
LINE
  5
194
  8
LAYER_1
 10
112.972124
 20
37.419321
 30
0.0
 11
114.509668
 21
36.142304
 31
0.0
  0
LINE
  5
195
  8
LAYER_1
 10
114.509668
 20
36.142304
 30
0.0
 11
116.110044
 21
35.194395
 31
0.0
  0
LINE
  5
196
  8
LAYER_1
 10
116.110044
 20
35.194395
 30
0.0
 11
117.752682
 21
34.509703
 31
0.0
  0
LINE
  5
197
  8
LAYER_1
 10
117.752682
 20
34.509703
 30
0.0
 11
119.257361
 21
34.09864
 31
0.0
  0
LINE
  5
198
  8
LAYER_1
 10
119.257361
 20
34.09864
 30
0.0
 11
120.846649
 21
33.918694
 31
0.0
  0
LINE
  5
199
  8
LAYER_1
 10
120.846649
 20
33.918694
 30
0.0
 11
122.743112
 21
33.92735
 31
0.0
  0
LINE
  5
19A
  8
LAYER_1
 10
122.743112
 20
33.92735
 30
0.0
 11
125.009201
 21
34.1802
 31
0.0
  0
LINE
  5
19B
  8
LAYER_1
 10
125.009201
 20
34.1802
 30
0.0
 11
126.971676
 21
34.972611
 31
0.0
  0
LINE
  5
19C
  8
LAYER_1
 10
126.971676
 20
34.972611
 30
0.0
 11
126.971676
 21
34.972611
 31
0.0
  0
ARC
  5
1A6
  8
0
  6
BYBLOCK
 10
105.478056149751
 20
-237.741596782283
 30
0.0
 40
312.5382068757601
 50
71.42248859482893
 51
109.6160771583493
  0
ARC
  5
1A7
  8
0
  6
BYBLOCK
 10
104.2119009920451
 20
-232.38554706498
 30
0.0
 40
254.8557263920093
 50
66.69270103357614
 51
113.9996866673458
  0
LINE
  5
1A8
  8
0
  6
BYBLOCK
 10
205.0487551293379
 20
58.51134693614138
 30
0.0
 11
205.0487551293379
 21
1.672928796273482
 31
0.0
  0
LINE
  5
1AB
  8
0
  6
BYBLOCK
 10
0.5540116043783394
 20
56.65792025766743
 30
0.0
 11
0.5540116043783394
 21
0.4373110106241782
 31
0.0
  0
ENDSEC
  0
EOF
