0
SECTION
2
HEADER
9
$EXTMIN
10
0.359024
20
0.422623
9
$EXTMAX
10
43.484657
20
15.705414
0
ENDSEC
0
SECTION
2
TABLES
0
TABLE
2
LTYPE
70
1
0
LTYPE
2
0
70
0
3
Solid Line
72
65
73
0
40
0.0
0
ENDTAB
0
TABLE
2
LAYER
70
1
0
LAYER
2
1
70
0
62
7
6
0
0
ENDTAB
0
ENDSEC
0
SECTION
2
BLOCKS
0
ENDSEC
0
SECTION
2
ENTITIES
0
POLYLINE
8
1
66
1
70
1
0
VERTEX
8
1
10
43.453972
20
5.993317
42
0.000840
0
VERTEX
8
1
10
43.352440
20
4.767502
42
-0.152240
0
VERTEX
8
1
10
43.242882
20
4.508942
42
-0.262803
0
VERTEX
8
1
10
42.984093
20
4.429855
0
VERTEX
8
1
10
42.958916
20
4.434921
42
-0.168630
0
VERTEX
8
1
10
42.754677
20
4.166077
42
-0.126590
0
VERTEX
8
1
10
42.601433
20
4.121323
0
VERTEX
8
1
10
41.068359
20
3.831009
0
VERTEX
8
1
10
42.295998
20
3.768723
0
VERTEX
8
1
10
42.296913
20
3.767685
0
VERTEX
8
1
10
42.276299
20
2.914856
0
VERTEX
8
1
10
38.859779
20
3.226898
0
VERTEX
8
1
10
38.859772
20
3.079987
42
-0.613574
0
VERTEX
8
1
10
38.798424
20
3.031982
0
VERTEX
8
1
10
38.787186
20
3.035217
0
VERTEX
8
1
10
38.776382
20
3.039703
42
-0.018020
0
VERTEX
8
1
10
38.536331
20
3.059265
0
VERTEX
8
1
10
38.515129
20
3.036057
42
-0.074591
0
VERTEX
8
1
10
38.257774
20
2.625366
42
-0.128949
0
VERTEX
8
1
10
37.848518
20
2.361267
42
-0.070543
0
VERTEX
8
1
10
37.655510
20
2.318832
0
VERTEX
8
1
10
37.515808
20
2.310455
0
VERTEX
8
1
10
37.383217
20
2.313095
42
-0.174851
0
VERTEX
8
1
10
36.485748
20
2.694336
42
-0.121048
0
VERTEX
8
1
10
35.953522
20
3.514694
42
-0.040331
0
VERTEX
8
1
10
35.653740
20
2.788818
42
-0.088249
0
VERTEX
8
1
10
35.328804
20
2.356659
42
-0.132949
0
VERTEX
8
1
10
34.841171
20
2.118423
0
VERTEX
8
1
10
34.785072
20
2.107193
42
-0.140567
0
VERTEX
8
1
10
33.633224
20
2.266617
42
-0.005765
0
VERTEX
8
1
10
33.247353
20
2.447586
0
VERTEX
8
1
10
33.210449
20
2.463135
0
VERTEX
8
1
10
33.173210
20
2.477844
0
VERTEX
8
1
10
33.128143
20
2.485413
0
VERTEX
8
1
10
33.053612
20
2.483459
0
VERTEX
8
1
10
32.983429
20
2.486572
42
-0.237702
0
VERTEX
8
1
10
32.398926
20
2.830811
42
-0.046409
0
VERTEX
8
1
10
32.226707
20
3.165405
0
VERTEX
8
1
10
32.218117
20
3.183472
42
0.334044
0
VERTEX
8
1
10
32.131363
20
3.234695
42
0.215411
0
VERTEX
8
1
10
31.993431
20
3.162277
42
-0.158814
0
VERTEX
8
1
10
31.142647
20
2.602982
42
-0.068396
0
VERTEX
8
1
10
30.767624
20
2.559830
42
-0.086727
0
VERTEX
8
1
10
29.822754
20
2.717316
42
-0.086770
0
VERTEX
8
1
10
29.349403
20
2.980469
0
VERTEX
8
1
10
29.342354
20
2.986984
0
VERTEX
8
1
10
12.756958
20
2.185318
42
-0.015230
0
VERTEX
8
1
10
12.473633
20
2.265945
0
VERTEX
8
1
10
12.446793
20
2.212341
42
-0.061619
0
VERTEX
8
1
10
12.065460
20
1.393570
0
VERTEX
8
1
10
12.004593
20
1.303650
0
VERTEX
8
1
10
11.942390
20
1.219772
42
-0.160380
0
VERTEX
8
1
10
10.932556
20
0.524994
42
-0.019115
0
VERTEX
8
1
10
10.703087
20
0.462967
42
-0.088045
0
VERTEX
8
1
10
9.664604
20
0.473801
0
VERTEX
8
1
10
9.537933
20
0.502731
0
VERTEX
8
1
10
9.417969
20
0.537018
42
-0.152311
0
VERTEX
8
1
10
8.416618
20
1.218369
42
-0.059356
0
VERTEX
8
1
10
8.259888
20
1.470612
0
VERTEX
8
1
10
8.209671
20
1.482758
42
-0.129542
0
VERTEX
8
1
10
7.601334
20
1.718262
42
-0.071401
0
VERTEX
8
1
10
7.465660
20
1.852158
42
-0.000219
0
VERTEX
8
1
10
2.250290
20
1.809921
42
-0.035682
0
VERTEX
8
1
10
1.986748
20
1.862259
42
-0.011122
0
VERTEX
8
1
10
0.956291
20
2.134491
0
VERTEX
8
1
10
0.910858
20
2.150604
42
-0.175615
0
VERTEX
8
1
10
0.648811
20
2.460068
42
-0.096567
0
VERTEX
8
1
10
0.570129
20
2.893631
0
VERTEX
8
1
10
0.509491
20
2.974457
42
-0.076455
0
VERTEX
8
1
10
0.469536
20
3.080688
42
-0.037672
0
VERTEX
8
1
10
0.359398
20
3.650497
42
-0.148421
0
VERTEX
8
1
10
0.426186
20
3.902695
42
0.021569
0
VERTEX
8
1
10
0.482475
20
4.008575
0
VERTEX
8
1
10
0.486343
20
4.030777
42
-0.023073
0
VERTEX
8
1
10
0.516632
20
5.331909
42
-0.019198
0
VERTEX
8
1
10
0.717163
20
7.379501
0
VERTEX
8
1
10
0.722969
20
7.405441
0
VERTEX
8
1
10
0.730591
20
7.430908
42
-0.279785
0
VERTEX
8
1
10
0.902206
20
7.598938
0
VERTEX
8
1
10
0.920380
20
7.601532
0
VERTEX
8
1
10
1.319954
20
7.601700
0
VERTEX
8
1
10
1.320503
20
7.604172
42
-0.006628
0
VERTEX
8
1
10
1.594452
20
9.284790
0
VERTEX
8
1
10
1.610725
20
9.367661
0
VERTEX
8
1
10
1.603874
20
9.372406
42
-0.056854
0
VERTEX
8
1
10
1.358055
20
9.380157
42
-0.106875
0
VERTEX
8
1
10
1.277809
20
9.415497
42
-0.069316
0
VERTEX
8
1
10
1.180885
20
9.801300
42
-0.037706
0
VERTEX
8
1
10
1.135429
20
10.756165
42
-0.113228
0
VERTEX
8
1
10
1.167107
20
10.880829
0
VERTEX
8
1
10
1.174072
20
10.889984
0
VERTEX
8
1
10
1.182503
20
10.897797
42
-0.090185
0
VERTEX
8
1
10
1.283607
20
10.924927
0
VERTEX
8
1
10
1.298058
20
10.928482
0
VERTEX
8
1
10
1.312378
20
10.932526
0
VERTEX
8
1
10
1.314674
20
10.944305
42
-0.196914
0
VERTEX
8
1
10
1.279869
20
11.124130
42
-0.202151
0
VERTEX
8
1
10
1.362404
20
11.226852
0
VERTEX
8
1
10
1.903297
20
11.393158
42
0.001570
0
VERTEX
8
1
10
2.287231
20
13.912689
0
VERTEX
8
1
10
2.299156
20
13.996872
42
-0.014886
0
VERTEX
8
1
10
2.378120
20
14.312378
42
-0.130431
0
VERTEX
8
1
10
2.521713
20
14.552612
0
VERTEX
8
1
10
2.604904
20
14.627823
0
VERTEX
8
1
10
2.691185
20
14.698059
42
-0.091549
0
VERTEX
8
1
10
3.635361
20
15.163956
42
-0.065076
0
VERTEX
8
1
10
4.677544
20
15.330475
0
VERTEX
8
1
10
4.694046
20
15.341110
42
-0.165261
0
VERTEX
8
1
10
4.736816
20
15.542816
42
-0.238267
0
VERTEX
8
1
10
4.901398
20
15.621658
0
VERTEX
8
1
10
4.924706
20
15.621857
0
VERTEX
8
1
10
5.486298
20
15.309845
42
0.006946
0
VERTEX
8
1
10
7.372841
20
15.283783
42
0.019942
0
VERTEX
8
1
10
7.507179
20
15.289383
42
-0.219373
0
VERTEX
8
1
10
7.558289
20
15.417847
0
VERTEX
8
1
10
7.568184
20
15.424225
42
-0.565715
0
VERTEX
8
1
10
7.700043
20
15.350067
42
-0.071462
0
VERTEX
8
1
10
7.695412
20
15.268036
42
0.002824
0
VERTEX
8
1
10
9.568329
20
15.187592
0
VERTEX
8
1
10
9.644615
20
15.185394
0
VERTEX
8
1
10
9.680801
20
15.184769
0
VERTEX
8
1
10
9.710289
20
15.210129
42
-0.090957
0
VERTEX
8
1
10
9.987564
20
15.538361
42
-0.126559
0
VERTEX
8
1
10
10.337685
20
15.676590
42
-0.042678
0
VERTEX
8
1
10
10.961998
20
15.702820
0
VERTEX
8
1
10
11.043419
20
15.695450
42
-0.140836
0
VERTEX
8
1
10
11.566933
20
15.490387
42
-0.159567
0
VERTEX
8
1
10
11.840225
20
15.080505
42
0.003048
0
VERTEX
8
1
10
13.877892
20
14.999939
0
VERTEX
8
1
10
13.974289
20
14.997559
0
VERTEX
8
1
10
14.009155
20
14.998810
0
VERTEX
8
1
10
14.043739
20
15.021347
42
-0.034912
0
VERTEX
8
1
10
14.840775
20
15.434601
42
-0.005661
0
VERTEX
8
1
10
17.170799
20
15.283325
42
-0.020388
0
VERTEX
8
1
10
17.359894
20
15.260895
42
-0.184217
0
VERTEX
8
1
10
17.534416
20
15.113373
42
-0.095107
0
VERTEX
8
1
10
17.673264
20
14.726593
0
VERTEX
8
1
10
17.683365
20
14.725800
0
VERTEX
8
1
10
24.192886
20
14.393051
0
VERTEX
8
1
10
24.196304
20
14.394028
0
VERTEX
8
1
10
25.214447
20
14.788849
0
VERTEX
8
1
10
27.183525
20
14.704941
42
-0.161505
0
VERTEX
8
1
10
27.455475
20
14.609879
42
-0.192675
0
VERTEX
8
1
10
27.590309
20
14.337219
42
-0.057779
0
VERTEX
8
1
10
27.590286
20
14.184708
0
VERTEX
8
1
10
28.921852
20
14.101425
42
-0.204861
0
VERTEX
8
1
10
29.960190
20
14.208923
42
-0.083565
0
VERTEX
8
1
10
30.443260
20
13.976624
0
VERTEX
8
1
10
31.734970
20
13.934799
0
VERTEX
8
1
10
32.964348
20
14.205582
0
VERTEX
8
1
10
34.755653
20
13.976379
0
VERTEX
8
1
10
34.797287
20
13.705948
0
VERTEX
8
1
10
34.801620
20
13.705353
42
-0.000742
0
VERTEX
8
1
10
40.879166
20
13.175095
0
VERTEX
8
1
10
40.945862
20
13.179230
0
VERTEX
8
1
10
40.963600
20
13.598053
42
-0.375746
0
VERTEX
8
1
10
41.100807
20
13.807465
42
-0.104259
0
VERTEX
8
1
10
41.309166
20
13.829163
42
-0.011506
0
VERTEX
8
1
10
41.541725
20
13.809036
42
-0.298784
0
VERTEX
8
1
10
41.793282
20
13.911118
42
-0.006123
0
VERTEX
8
1
10
42.950188
20
13.784927
42
-0.274245
0
VERTEX
8
1
10
43.176292
20
13.553009
42
-0.047285
0
VERTEX
8
1
10
43.192680
20
13.460754
42
0.003592
0
VERTEX
8
1
10
43.244453
20
11.495010
42
0.000442
0
VERTEX
8
1
10
43.338753
20
8.313278
0
VERTEX
8
1
10
43.484657
20
6.306931
42
0.007671
0
SEQEND
0
POLYLINE
8
1
66
1
70
1
0
VERTEX
8
1
10
43.025932
20
9.830841
0
VERTEX
8
1
10
43.168221
20
9.830841
0
VERTEX
8
1
10
43.145821
20
10.580841
0
VERTEX
8
1
10
43.006645
20
10.580841
0
SEQEND
0
POLYLINE
8
1
66
1
70
1
0
VERTEX
8
1
10
43.142250
20
10.705719
0
VERTEX
8
1
10
43.120399
20
11.451691
0
VERTEX
8
1
10
43.119209
20
11.476563
0
VERTEX
8
1
10
42.986565
20
11.476563
0
VERTEX
8
1
10
42.985893
20
11.464966
0
VERTEX
8
1
10
43.003532
20
10.705719
0
SEQEND
0
POLYLINE
8
1
66
1
70
1
0
VERTEX
8
1
10
43.093880
20
12.390305
0
VERTEX
8
1
10
43.089989
20
12.393127
0
VERTEX
8
1
10
42.967735
20
12.393127
0
VERTEX
8
1
10
42.966133
20
12.388016
0
VERTEX
8
1
10
42.967598
20
12.319412
0
VERTEX
8
1
10
42.968147
20
12.309937
0
VERTEX
8
1
10
43.096214
20
12.309937
0
SEQEND
0
POLYLINE
8
1
66
1
70
1
0
VERTEX
8
1
10
42.970985
20
12.184860
0
VERTEX
8
1
10
42.970818
20
12.167618
0
VERTEX
8
1
10
42.982872
20
11.601624
0
VERTEX
8
1
10
43.115639
20
11.601608
0
VERTEX
8
1
10
43.115547
20
11.624100
0
VERTEX
8
1
10
43.099663
20
12.184875
0
SEQEND
0
POLYLINE
8
1
66
1
70
1
0
VERTEX
8
1
10
43.029030
20
9.705780
0
VERTEX
8
1
10
43.050743
20
8.960266
0
VERTEX
8
1
10
43.193703
20
8.973190
0
VERTEX
8
1
10
43.171654
20
9.705780
0
SEQEND
0
POLYLINE
8
1
66
1
70
1
0
VERTEX
8
1
10
43.056862
20
8.771973
0
VERTEX
8
1
10
43.061195
20
8.770187
0
VERTEX
8
1
10
43.197289
20
8.783661
0
VERTEX
8
1
10
43.199150
20
8.788193
0
VERTEX
8
1
10
43.197716
20
8.841339
0
VERTEX
8
1
10
43.196999
20
8.848083
0
VERTEX
8
1
10
43.054878
20
8.835205
0
SEQEND
0
POLYLINE
8
1
66
1
70
1
0
VERTEX
8
1
10
41.134506
20
13.686752
42
0.415938
0
VERTEX
8
1
10
41.089104
20
13.607361
0
VERTEX
8
1
10
41.070259
20
13.160416
0
VERTEX
8
1
10
41.091156
20
13.156036
0
VERTEX
8
1
10
41.412971
20
13.126740
0
VERTEX
8
1
10
41.435677
20
13.133804
42
-0.020333
0
VERTEX
8
1
10
41.467125
20
13.625900
0
VERTEX
8
1
10
41.473793
20
13.656845
0
VERTEX
8
1
10
41.482140
20
13.687378
42
0.050167
0
VERTEX
8
1
10
41.205147
20
13.703049
42
0.076143
0
SEQEND
0
POLYLINE
8
1
66
1
70
1
0
VERTEX
8
1
10
42.479408
20
13.400864
42
0.295479
0
VERTEX
8
1
10
42.305946
20
13.561096
42
0.010327
0
VERTEX
8
1
10
41.609306
20
13.672989
42
0.078972
0
VERTEX
8
1
10
41.582558
20
13.539932
42
0.007452
0
VERTEX
8
1
10
41.560326
20
13.120148
0
VERTEX
8
1
10
41.622154
20
13.107452
42
-0.004697
0
VERTEX
8
1
10
42.317970
20
13.039093
42
-0.040143
0
VERTEX
8
1
10
42.481422
20
13.043549
0
VERTEX
8
1
10
42.489876
20
13.048523
42
0.048156
0
SEQEND
0
POLYLINE
8
1
66
1
70
1
0
VERTEX
8
1
10
43.068977
20
13.368851
0
VERTEX
8
1
10
43.067970
20
13.450226
0
VERTEX
8
1
10
43.064125
20
13.482697
0
VERTEX
8
1
10
43.057671
20
13.513199
42
0.293529
0
VERTEX
8
1
10
42.917595
20
13.663910
0
VERTEX
8
1
10
42.913887
20
13.664459
42
0.005320
0
VERTEX
8
1
10
41.794960
20
13.785309
42
0.110292
0
VERTEX
8
1
10
41.710060
20
13.785431
42
-0.010849
0
VERTEX
8
1
10
42.353035
20
13.678253
0
VERTEX
8
1
10
42.374840
20
13.671600
42
-0.336758
0
VERTEX
8
1
10
42.610893
20
13.340012
42
-0.040463
0
VERTEX
8
1
10
42.613548
20
13.023071
42
-0.264229
0
VERTEX
8
1
10
42.918953
20
12.738312
42
-0.058545
0
VERTEX
8
1
10
42.963707
20
12.518188
0
VERTEX
8
1
10
43.090111
20
12.518188
42
-0.001525
0
SEQEND
0
POLYLINE
8
1
66
1
70
1
0
VERTEX
8
1
10
43.260353
20
5.178680
0
VERTEX
8
1
10
43.256660
20
5.185303
0
VERTEX
8
1
10
43.061089
20
5.185303
42
0.005427
0
VERTEX
8
1
10
43.022484
20
4.713333
42
-0.026311
0
VERTEX
8
1
10
42.996895
20
4.563339
0
VERTEX
8
1
10
43.003456
20
4.553314
42
0.355617
0
VERTEX
8
1
10
43.182182
20
4.636230
42
0.116740
0
VERTEX
8
1
10
43.234367
20
4.852158
0
SEQEND
0
POLYLINE
8
1
66
1
70
1
0
VERTEX
8
1
10
43.108864
20
7.631119
42
-0.005077
0
VERTEX
8
1
10
43.172005
20
6.477051
42
0.002835
0
VERTEX
8
1
10
43.072227
20
5.310364
0
VERTEX
8
1
10
43.271217
20
5.310364
42
-0.004713
0
VERTEX
8
1
10
43.359047
20
6.312241
0
VERTEX
8
1
10
43.213631
20
8.309662
0
VERTEX
8
1
10
43.202797
20
8.658630
0
VERTEX
8
1
10
43.061287
20
8.644547
42
0.008294
0
VERTEX
8
1
10
43.104637
20
7.683548
0
SEQEND
0
POLYLINE
8
1
66
1
70
1
0
VERTEX
8
1
10
3.225037
20
13.236221
0
VERTEX
8
1
10
3.207741
20
13.258759
42
-0.162743
0
VERTEX
8
1
10
2.687164
20
13.327209
42
-0.063978
0
VERTEX
8
1
10
2.425652
20
13.486786
0
VERTEX
8
1
10
2.101990
20
11.433441
0
VERTEX
8
1
10
2.102104
20
11.431381
42
-0.004849
0
VERTEX
8
1
10
2.897980
20
11.625732
42
0.010344
0
VERTEX
8
1
10
3.035927
20
12.272736
42
-0.008030
0
SEQEND
0
POLYLINE
8
1
66
1
70
1
0
VERTEX
8
1
10
2.689438
20
10.002670
42
0.004712
0
VERTEX
8
1
10
2.497818
20
8.319763
42
0.015417
0
VERTEX
8
1
10
2.480682
20
8.097977
0
VERTEX
8
1
10
1.648087
20
8.125687
0
VERTEX
8
1
10
2.092339
20
11.153595
42
-0.033547
0
VERTEX
8
1
10
2.700157
20
11.311722
42
-0.058314
0
VERTEX
8
1
10
2.831718
20
11.321747
0
VERTEX
8
1
10
2.842270
20
11.317032
0
VERTEX
8
1
10
2.840706
20
11.294693
42
-0.006438
0
VERTEX
8
1
10
2.723808
20
10.287399
0
SEQEND
0
POLYLINE
8
1
66
1
70
1
0
VERTEX
8
1
10
3.766335
20
5.924271
42
-0.000987
0
VERTEX
8
1
10
3.793411
20
2.015121
0
VERTEX
8
1
10
3.668983
20
2.014435
0
VERTEX
8
1
10
3.668785
20
2.019440
42
0.002588
0
VERTEX
8
1
10
3.623329
20
7.355194
42
0.002991
0
VERTEX
8
1
10
3.616623
20
7.613403
42
-0.008013
0
VERTEX
8
1
10
2.607605
20
7.537674
0
VERTEX
8
1
10
2.544144
20
7.535583
42
-0.008176
0
VERTEX
8
1
10
1.754074
20
7.556107
0
VERTEX
8
1
10
1.534752
20
7.563293
0
VERTEX
8
1
10
1.538887
20
7.688141
42
0.005697
0
VERTEX
8
1
10
2.570015
20
7.661011
42
0.010713
0
VERTEX
8
1
10
3.732689
20
7.749146
0
VERTEX
8
1
10
3.741402
20
7.619415
42
-0.004722
0
SEQEND
0
POLYLINE
8
1
66
1
70
1
0
VERTEX
8
1
10
1.353989
20
4.306244
42
0.010101
0
VERTEX
8
1
10
1.181671
20
4.279694
0
VERTEX
8
1
10
1.165710
20
4.270599
42
0.097517
0
VERTEX
8
1
10
1.073097
20
4.110458
42
0.024662
0
VERTEX
8
1
10
0.995079
20
3.889603
42
0.023841
0
VERTEX
8
1
10
1.687294
20
3.976517
0
VERTEX
8
1
10
1.729012
20
3.985306
0
VERTEX
8
1
10
1.764641
20
3.994202
0
VERTEX
8
1
10
1.789093
20
4.013535
42
-0.260935
0
VERTEX
8
1
10
2.104630
20
4.403412
42
0.003416
0
SEQEND
0
POLYLINE
8
1
66
1
70
1
0
VERTEX
8
1
10
2.333214
20
4.432129
0
VERTEX
8
1
10
3.366638
20
4.641678
42
-0.207253
0
VERTEX
8
1
10
3.486855
20
4.626907
42
-0.322353
0
VERTEX
8
1
10
3.498894
20
4.554916
42
-0.098540
0
VERTEX
8
1
10
3.443153
20
4.454697
42
0.008133
0
VERTEX
8
1
10
3.377617
20
4.352173
42
-0.153622
0
VERTEX
8
1
10
3.260818
20
4.290207
0
VERTEX
8
1
10
3.203011
20
4.274734
42
-0.013129
0
VERTEX
8
1
10
2.121765
20
4.044266
0
VERTEX
8
1
10
1.897865
20
4.000885
42
-0.152734
0
VERTEX
8
1
10
2.135269
20
4.346497
42
-0.124670
0
SEQEND
0
POLYLINE
8
1
66
1
70
1
0
VERTEX
8
1
10
5.171585
20
9.375595
42
0.025536
0
VERTEX
8
1
10
4.870674
20
9.602234
42
0.142515
0
VERTEX
8
1
10
4.733292
20
9.656479
42
0.367009
0
VERTEX
8
1
10
4.649803
20
9.577530
42
0.211516
0
VERTEX
8
1
10
4.695198
20
9.423004
42
0.083338
0
VERTEX
8
1
10
4.870064
20
9.264206
42
0.056171
0
VERTEX
8
1
10
4.855560
20
8.963577
42
0.307711
0
VERTEX
8
1
10
4.939545
20
8.875702
0
VERTEX
8
1
10
4.939392
20
8.806274
0
VERTEX
8
1
10
4.053749
20
8.778625
0
VERTEX
8
1
10
4.050842
20
8.779907
42
-0.003764
0
VERTEX
8
1
10
4.188576
20
10.108780
42
-0.039038
0
VERTEX
8
1
10
4.216560
20
10.270981
0
VERTEX
8
1
10
4.224648
20
10.311600
42
0.035670
0
VERTEX
8
1
10
4.272911
20
10.875565
0
VERTEX
8
1
10
4.328552
20
11.403534
42
0.000716
0
VERTEX
8
1
10
5.611809
20
11.389053
0
VERTEX
8
1
10
5.636459
20
11.385406
42
-0.364951
0
VERTEX
8
1
10
5.772911
20
11.234879
0
VERTEX
8
1
10
5.772911
20
9.910294
0
VERTEX
8
1
10
5.772530
20
9.900345
0
VERTEX
8
1
10
5.661819
20
8.973160
42
0.003059
0
SEQEND
0
POLYLINE
8
1
66
1
70
1
0
VERTEX
8
1
10
5.003448
20
9.170761
0
VERTEX
8
1
10
5.042374
20
9.219681
0
VERTEX
8
1
10
5.514526
20
8.844681
0
VERTEX
8
1
10
5.475769
20
8.795761
0
SEQEND
0
POLYLINE
8
1
66
1
70
1
0
VERTEX
8
1
10
6.444702
20
10.205841
0
VERTEX
8
1
10
6.444702
20
10.768250
0
VERTEX
8
1
10
7.819641
20
10.830780
0
VERTEX
8
1
10
7.819641
20
10.205841
0
SEQEND
0
POLYLINE
8
1
66
1
70
1
0
VERTEX
8
1
10
6.548920
20
11.289154
0
VERTEX
8
1
10
7.777954
20
11.289154
0
VERTEX
8
1
10
7.777954
20
11.164093
0
VERTEX
8
1
10
6.444702
20
11.059875
42
-0.117608
0
VERTEX
8
1
10
6.464821
20
11.263092
42
-0.496249
0
SEQEND
0
POLYLINE
8
1
66
1
70
1
0
VERTEX
8
1
10
4.418816
20
5.375824
0
VERTEX
8
1
10
4.543701
20
5.375824
0
VERTEX
8
1
10
4.543701
20
2.042343
0
VERTEX
8
1
10
4.418816
20
2.042343
0
SEQEND
0
POLYLINE
8
1
66
1
70
1
0
VERTEX
8
1
10
3.974228
20
8.514648
0
VERTEX
8
1
10
4.099281
20
8.514648
0
VERTEX
8
1
10
4.099281
20
2.014786
0
VERTEX
8
1
10
3.974228
20
2.014786
0
SEQEND
0
POLYLINE
8
1
66
1
70
1
0
VERTEX
8
1
10
13.182625
20
5.884613
0
VERTEX
8
1
10
13.182625
20
5.137024
0
VERTEX
8
1
10
13.189491
20
5.134140
0
VERTEX
8
1
10
27.054817
20
5.444305
0
VERTEX
8
1
10
27.057571
20
5.319321
0
VERTEX
8
1
10
13.057564
20
5.006210
0
VERTEX
8
1
10
13.057564
20
5.752563
0
VERTEX
8
1
10
13.051964
20
5.755478
0
VERTEX
8
1
10
4.261032
20
5.480103
0
VERTEX
8
1
10
4.257065
20
5.604919
0
SEQEND
0
POLYLINE
8
1
66
1
70
1
0
VERTEX
8
1
10
7.283585
20
5.339996
0
VERTEX
8
1
10
7.408638
20
5.339996
0
VERTEX
8
1
10
7.408638
20
2.256287
0
VERTEX
8
1
10
7.283585
20
2.256287
0
SEQEND
0
POLYLINE
8
1
66
1
70
1
0
VERTEX
8
1
10
9.700493
20
13.715195
0
VERTEX
8
1
10
9.825378
20
13.716568
0
VERTEX
8
1
10
9.908745
20
6.090851
0
VERTEX
8
1
10
9.783859
20
6.089478
0
SEQEND
0
POLYLINE
8
1
66
1
70
1
0
VERTEX
8
1
10
13.492508
20
4.589996
0
VERTEX
8
1
10
13.617561
20
4.589996
0
VERTEX
8
1
10
13.617561
20
2.506393
0
VERTEX
8
1
10
13.492508
20
2.506393
0
SEQEND
0
POLYLINE
8
1
66
1
70
1
0
VERTEX
8
1
10
18.034691
20
4.715057
0
VERTEX
8
1
10
18.159576
20
4.715057
0
VERTEX
8
1
10
18.159576
20
2.714828
0
VERTEX
8
1
10
18.034691
20
2.714828
0
SEQEND
0
POLYLINE
8
1
66
1
70
1
0
VERTEX
8
1
10
21.451538
20
4.798416
0
VERTEX
8
1
10
21.576599
20
4.798416
0
VERTEX
8
1
10
21.576599
20
2.839890
0
VERTEX
8
1
10
21.451538
20
2.839890
0
SEQEND
0
POLYLINE
8
1
66
1
70
1
0
VERTEX
8
1
10
25.410469
20
4.965164
0
VERTEX
8
1
10
25.535187
20
4.965164
0
VERTEX
8
1
10
25.535187
20
3.089996
0
VERTEX
8
1
10
25.410469
20
3.089996
0
SEQEND
0
POLYLINE
8
1
66
1
70
1
0
VERTEX
8
1
10
27.285637
20
5.673477
0
VERTEX
8
1
10
27.410347
20
5.673477
0
VERTEX
8
1
10
27.410347
20
3.173019
0
VERTEX
8
1
10
27.285637
20
3.173019
0
SEQEND
0
POLYLINE
8
1
66
1
70
1
0
VERTEX
8
1
10
29.077431
20
5.631790
0
VERTEX
8
1
10
29.202484
20
5.631790
0
VERTEX
8
1
10
29.202484
20
3.298080
0
VERTEX
8
1
10
29.077431
20
3.298080
0
SEQEND
0
POLYLINE
8
1
66
1
70
1
0
VERTEX
8
1
10
29.636223
20
3.068985
0
VERTEX
8
1
10
31.719818
20
3.194046
0
VERTEX
8
1
10
31.727051
20
3.068985
0
VERTEX
8
1
10
29.643806
20
2.944275
0
SEQEND
0
POLYLINE
8
1
66
1
70
1
0
VERTEX
8
1
10
32.744392
20
5.715164
0
VERTEX
8
1
10
32.869446
20
5.715164
0
VERTEX
8
1
10
32.869446
20
3.548203
0
VERTEX
8
1
10
32.744392
20
3.548203
0
SEQEND
0
POLYLINE
8
1
66
1
70
1
0
VERTEX
8
1
10
25.285416
20
12.923676
0
VERTEX
8
1
10
25.410126
20
12.924545
0
VERTEX
8
1
10
25.451813
20
5.882080
0
VERTEX
8
1
10
25.327103
20
5.881393
0
SEQEND
0
POLYLINE
8
1
66
1
70
1
0
VERTEX
8
1
10
25.638191
20
5.985947
0
VERTEX
8
1
10
39.014465
20
6.277573
0
VERTEX
8
1
10
39.017220
20
6.152695
0
VERTEX
8
1
10
25.640945
20
5.860886
0
SEQEND
0
POLYLINE
8
1
66
1
70
1
0
VERTEX
8
1
10
9.840187
20
14.216110
0
VERTEX
8
1
10
9.852249
20
14.465881
0
VERTEX
8
1
10
25.436996
20
13.715698
0
VERTEX
8
1
10
25.425285
20
13.466110
0
SEQEND
0
POLYLINE
8
1
66
1
70
1
0
VERTEX
8
1
10
10.976212
20
13.306427
0
VERTEX
8
1
10
10.986198
20
13.556198
0
VERTEX
8
1
10
24.125107
20
13.028412
0
VERTEX
8
1
10
24.115112
20
12.778641
0
SEQEND
0
POLYLINE
8
1
66
1
70
1
0
VERTEX
8
1
10
10.800682
20
13.070267
0
VERTEX
8
1
10
11.050621
20
13.070267
0
VERTEX
8
1
10
11.050621
20
11.542374
0
VERTEX
8
1
10
10.800682
20
11.542374
0
SEQEND
0
POLYLINE
8
1
66
1
70
1
0
VERTEX
8
1
10
24.134064
20
12.597946
0
VERTEX
8
1
10
24.383835
20
12.597946
0
VERTEX
8
1
10
24.383835
20
11.236786
0
VERTEX
8
1
10
24.134064
20
11.236786
0
SEQEND
0
POLYLINE
8
1
66
1
70
1
0
VERTEX
8
1
10
9.477936
20
13.834045
0
VERTEX
8
1
10
9.484657
20
14.083984
0
VERTEX
8
1
10
10.512329
20
14.056259
0
VERTEX
8
1
10
10.505608
20
13.806305
0
SEQEND
0
POLYLINE
8
1
66
1
70
1
0
VERTEX
8
1
10
24.741776
20
13.139679
0
VERTEX
8
1
10
24.748322
20
13.389633
0
VERTEX
8
1
10
25.776337
20
13.361725
0
VERTEX
8
1
10
25.769447
20
13.111954
0
SEQEND
0
POLYLINE
8
1
66
1
70
1
0
VERTEX
8
1
10
14.181747
20
12.854691
42
-0.304270
0
VERTEX
8
1
10
14.412544
20
12.640945
42
-0.086437
0
VERTEX
8
1
10
14.432274
20
12.489975
0
VERTEX
8
1
10
14.403732
20
10.783417
0
VERTEX
8
1
10
13.174751
20
10.822662
0
VERTEX
8
1
10
13.178497
20
10.947708
0
VERTEX
8
1
10
14.280914
20
10.912430
0
VERTEX
8
1
10
14.307472
20
12.520203
42
0.234980
0
VERTEX
8
1
10
14.220291
20
12.711166
42
0.154581
0
VERTEX
8
1
10
14.146370
20
12.730148
0
VERTEX
8
1
10
13.145073
20
12.764694
0
VERTEX
8
1
10
13.149895
20
12.889465
0
SEQEND
0
POLYLINE
8
1
66
1
70
1
0
VERTEX
8
1
10
12.997429
20
12.895065
0
VERTEX
8
1
10
12.992638
20
12.770996
0
VERTEX
8
1
10
12.991409
20
12.770584
0
VERTEX
8
1
10
11.917938
20
12.813721
42
0.450667
0
VERTEX
8
1
10
11.796761
20
12.722183
0
VERTEX
8
1
10
11.795067
20
10.991791
0
VERTEX
8
1
10
13.024284
20
10.952576
0
VERTEX
8
1
10
13.020531
20
10.827835
0
VERTEX
8
1
10
11.672577
20
10.870621
0
VERTEX
8
1
10
11.668671
20
10.873703
0
VERTEX
8
1
10
11.668678
20
12.684464
0
VERTEX
8
1
10
11.669327
20
12.708145
42
-0.458505
0
VERTEX
8
1
10
11.928856
20
12.938248
0
SEQEND
0
POLYLINE
8
1
66
1
70
1
0
VERTEX
8
1
10
17.224091
20
12.799042
42
-0.303908
0
VERTEX
8
1
10
17.454224
20
12.585480
42
-0.086436
0
VERTEX
8
1
10
17.473953
20
12.434509
0
VERTEX
8
1
10
17.445412
20
10.727951
0
VERTEX
8
1
10
16.216423
20
10.767181
0
VERTEX
8
1
10
16.220169
20
10.892075
0
VERTEX
8
1
10
17.322594
20
10.856964
0
VERTEX
8
1
10
17.349136
20
12.464737
42
0.237331
0
VERTEX
8
1
10
17.260979
20
12.655975
42
0.173991
0
VERTEX
8
1
10
17.166176
20
12.675095
0
VERTEX
8
1
10
16.186745
20
12.709045
0
VERTEX
8
1
10
16.191566
20
12.833832
0
SEQEND
0
POLYLINE
8
1
66
1
70
1
0
VERTEX
8
1
10
16.039108
20
12.839600
0
VERTEX
8
1
10
16.034317
20
12.715363
0
VERTEX
8
1
10
16.033089
20
12.714951
0
VERTEX
8
1
10
14.959450
20
12.758255
42
0.452586
0
VERTEX
8
1
10
14.838417
20
12.666565
0
VERTEX
8
1
10
14.836739
20
10.936157
0
VERTEX
8
1
10
16.065964
20
10.896927
0
VERTEX
8
1
10
16.062035
20
10.772202
0
VERTEX
8
1
10
14.714256
20
10.815170
0
VERTEX
8
1
10
14.710350
20
10.818237
0
VERTEX
8
1
10
14.710358
20
12.628815
0
VERTEX
8
1
10
14.711006
20
12.652496
42
-0.457913
0
VERTEX
8
1
10
14.970535
20
12.882599
0
SEQEND
0
POLYLINE
8
1
66
1
70
1
0
VERTEX
8
1
10
25.925858
20
13.571182
0
VERTEX
8
1
10
25.932404
20
13.696075
0
VERTEX
8
1
10
34.762184
20
13.243729
0
VERTEX
8
1
10
34.755638
20
13.118835
0
SEQEND
0
POLYLINE
8
1
66
1
70
1
0
VERTEX
8
1
10
7.710045
20
15.125793
0
VERTEX
8
1
10
7.710434
20
15.125473
0
VERTEX
8
1
10
7.710434
20
14.634338
0
VERTEX
8
1
10
7.725922
20
14.628723
0
VERTEX
8
1
10
9.482590
20
14.538742
0
VERTEX
8
1
10
9.476234
20
14.414215
0
VERTEX
8
1
10
9.474754
20
14.413925
0
VERTEX
8
1
10
7.586830
20
14.510742
0
VERTEX
8
1
10
7.585373
20
14.512711
0
VERTEX
8
1
10
7.585373
20
15.125778
0
SEQEND
0
POLYLINE
8
1
66
1
70
1
0
VERTEX
8
1
10
4.027275
20
10.862350
42
-0.106230
0
VERTEX
8
1
10
3.852806
20
10.448425
42
-0.126376
0
VERTEX
8
1
10
3.719315
20
10.336227
0
VERTEX
8
1
10
3.670280
20
10.450607
42
0.146001
0
VERTEX
8
1
10
3.782539
20
10.566956
42
0.092858
0
VERTEX
8
1
10
3.906189
20
10.902573
42
0.020133
0
VERTEX
8
1
10
3.887733
20
11.397064
42
0.004337
0
VERTEX
8
1
10
3.840897
20
12.117874
0
VERTEX
8
1
10
3.964340
20
12.126923
0
VERTEX
8
1
10
3.965736
20
12.122940
42
-0.012430
0
VERTEX
8
1
10
4.030273
20
11.001328
42
-0.039773
0
SEQEND
0
POLYLINE
8
1
66
1
0
VERTEX
8
1
10
4.026932
20
10.860245
0
VERTEX
8
1
10
4.027283
20
10.862137
0
VERTEX
8
1
10
4.026932
20
10.860245
0
SEQEND
0
POLYLINE
8
1
66
1
70
1
0
VERTEX
8
1
10
6.659897
20
3.590912
0
VERTEX
8
1
10
6.661919
20
3.590591
0
VERTEX
8
1
10
6.661919
20
3.466339
0
VERTEX
8
1
10
6.515892
20
3.466187
0
VERTEX
8
1
10
6.502068
20
3.463379
0
VERTEX
8
1
10
6.502075
20
2.936432
0
VERTEX
8
1
10
6.510628
20
2.924286
0
VERTEX
8
1
10
6.689621
20
2.924286
0
VERTEX
8
1
10
6.689651
20
2.800507
0
VERTEX
8
1
10
6.689285
20
2.799225
0
VERTEX
8
1
10
6.377815
20
2.799240
0
VERTEX
8
1
10
6.377007
20
2.804855
0
VERTEX
8
1
10
6.377007
20
3.590912
0
SEQEND
0
POLYLINE
8
1
66
1
70
1
0
VERTEX
8
1
10
7.043732
20
3.590912
0
VERTEX
8
1
10
7.043808
20
2.800217
0
VERTEX
8
1
10
7.041130
20
2.799225
0
VERTEX
8
1
10
6.801437
20
2.799225
0
VERTEX
8
1
10
6.800751
20
2.800186
0
VERTEX
8
1
10
6.800751
20
2.923660
0
VERTEX
8
1
10
6.801071
20
2.924286
0
VERTEX
8
1
10
6.910408
20
2.924286
0
VERTEX
8
1
10
6.918747
20
2.933563
0
VERTEX
8
1
10
6.918747
20
3.446152
0
VERTEX
8
1
10
6.915428
20
3.466202
0
VERTEX
8
1
10
6.800583
20
3.466248
0
VERTEX
8
1
10
6.800583
20
3.590912
0
SEQEND
0
POLYLINE
8
1
66
1
70
1
0
VERTEX
8
1
10
12.494415
20
5.560303
0
VERTEX
8
1
10
12.495155
20
5.559296
0
VERTEX
8
1
10
12.495155
20
5.435074
0
VERTEX
8
1
10
12.397415
20
5.434845
42
0.389504
0
VERTEX
8
1
10
12.340302
20
5.372711
0
VERTEX
8
1
10
12.340523
20
5.054855
42
0.389591
0
VERTEX
8
1
10
12.402824
20
4.997894
0
VERTEX
8
1
10
12.508080
20
4.997894
0
VERTEX
8
1
10
12.508934
20
4.996887
0
VERTEX
8
1
10
12.508934
20
4.872833
0
VERTEX
8
1
10
12.403671
20
4.872833
42
-0.415100
0
VERTEX
8
1
10
12.215240
20
5.060242
0
VERTEX
8
1
10
12.215240
20
5.370209
42
-0.417366
0
VERTEX
8
1
10
12.402824
20
5.560303
0
SEQEND
0
POLYLINE
8
1
66
1
70
1
0
VERTEX
8
1
10
12.648926
20
4.872818
0
VERTEX
8
1
10
12.647942
20
4.873306
0
VERTEX
8
1
10
12.647942
20
4.997894
0
VERTEX
8
1
10
12.715042
20
4.997910
42
0.421091
0
VERTEX
8
1
10
12.777657
20
5.061417
0
VERTEX
8
1
10
12.777649
20
5.372711
42
0.420666
0
VERTEX
8
1
10
12.713905
20
5.435074
0
VERTEX
8
1
10
12.621429
20
5.435074
0
VERTEX
8
1
10
12.620033
20
5.435547
0
VERTEX
8
1
10
12.620033
20
5.560303
0
VERTEX
8
1
10
12.714928
20
5.560287
42
-0.415876
0
VERTEX
8
1
10
12.902710
20
5.371536
0
VERTEX
8
1
10
12.902710
20
5.060242
42
-0.450229
0
VERTEX
8
1
10
12.687607
20
4.872803
0
VERTEX
8
1
10
12.668266
20
4.872757
0
SEQEND
0
POLYLINE
8
1
66
1
70
1
0
VERTEX
8
1
10
8.810989
20
4.661835
42
-0.198724
0
VERTEX
8
1
10
10.614166
20
5.220566
42
-0.117428
0
VERTEX
8
1
10
11.676064
20
4.845245
42
-0.057948
0
VERTEX
8
1
10
12.248146
20
4.377777
0
VERTEX
8
1
10
12.426895
20
4.122757
42
-0.110624
0
VERTEX
8
1
10
12.755096
20
3.096130
42
-0.043307
0
VERTEX
8
1
10
12.765694
20
2.372040
0
VERTEX
8
1
10
12.641075
20
2.379288
42
0.054886
0
VERTEX
8
1
10
12.608437
20
3.247040
0
VERTEX
8
1
10
12.594566
20
3.322891
42
0.123990
0
VERTEX
8
1
10
12.156563
20
4.292603
0
VERTEX
8
1
10
12.055801
20
4.391205
0
VERTEX
8
1
10
11.955002
20
4.482010
0
VERTEX
8
1
10
11.854355
20
4.565262
0
VERTEX
8
1
10
11.754021
20
4.641266
0
VERTEX
8
1
10
11.654167
20
4.710312
42
0.136874
0
VERTEX
8
1
10
10.475342
20
5.105286
42
0.187235
0
VERTEX
8
1
10
8.870010
20
4.547974
0
VERTEX
8
1
10
8.829819
20
4.510986
42
0.110692
0
VERTEX
8
1
10
8.365883
20
3.908295
42
0.070590
0
VERTEX
8
1
10
8.141586
20
3.190796
42
0.081478
0
VERTEX
8
1
10
8.137970
20
1.829788
0
VERTEX
8
1
10
7.677864
20
1.813507
0
VERTEX
8
1
10
7.673424
20
1.938309
0
VERTEX
8
1
10
7.989105
20
1.949539
0
VERTEX
8
1
10
7.991608
20
1.959991
42
-0.078603
0
VERTEX
8
1
10
8.038971
20
3.322220
42
-0.086870
0
VERTEX
8
1
10
8.358635
20
4.153793
42
-0.075790
0
VERTEX
8
1
10
8.710281
20
4.573318
0
SEQEND
0
POLYLINE
8
1
66
1
70
1
0
VERTEX
8
1
10
8.520103
20
3.779846
0
VERTEX
8
1
10
8.410828
20
3.840683
42
-0.167321
0
VERTEX
8
1
10
9.566208
20
4.788071
42
-0.173090
0
VERTEX
8
1
10
11.072876
20
4.771469
42
-0.193379
0
VERTEX
8
1
10
12.172188
20
3.819489
42
-0.079835
0
VERTEX
8
1
10
12.470734
20
2.901978
42
-0.026038
0
VERTEX
8
1
10
12.527481
20
2.418900
0
VERTEX
8
1
10
12.403030
20
2.410294
0
VERTEX
8
1
10
12.395874
20
2.501862
42
0.070561
0
VERTEX
8
1
10
12.182304
20
3.495361
42
0.116657
0
VERTEX
8
1
10
11.670601
20
4.273438
0
VERTEX
8
1
10
11.626442
20
4.312561
0
VERTEX
8
1
10
11.581009
20
4.350204
0
VERTEX
8
1
10
11.534340
20
4.386307
0
VERTEX
8
1
10
11.486496
20
4.420837
0
VERTEX
8
1
10
11.437531
20
4.453751
42
0.198351
0
VERTEX
8
1
10
9.805756
20
4.731750
0
VERTEX
8
1
10
9.740509
20
4.714813
42
0.152821
0
VERTEX
8
1
10
8.685379
20
4.010559
42
0.040081
0
SEQEND
0
POLYLINE
8
1
66
1
70
1
0
VERTEX
8
1
10
10.162094
20
3.820938
42
0.273386
0
VERTEX
8
1
10
9.225044
20
3.081345
42
0.335763
0
VERTEX
8
1
10
9.616867
20
1.642929
42
0.135244
0
VERTEX
8
1
10
10.180885
20
1.419235
0
VERTEX
8
1
10
10.167503
20
1.295685
42
-0.277864
0
VERTEX
8
1
10
9.111320
20
2.106750
42
-0.349800
0
VERTEX
8
1
10
9.590782
20
3.733215
42
-0.120146
0
VERTEX
8
1
10
10.146492
20
3.944504
0
SEQEND
0
POLYLINE
8
1
66
1
70
1
0
VERTEX
8
1
10
10.363991
20
3.952469
0
VERTEX
8
1
10
10.375298
20
3.952408
42
-0.275346
0
VERTEX
8
1
10
11.464218
20
3.208740
42
-0.331092
0
VERTEX
8
1
10
11.148903
20
1.613037
42
-0.164284
0
VERTEX
8
1
10
10.409477
20
1.292526
0
VERTEX
8
1
10
10.399162
20
1.416962
0
VERTEX
8
1
10
10.444443
20
1.421692
42
0.300166
0
VERTEX
8
1
10
11.421768
20
2.275024
42
0.321035
0
VERTEX
8
1
10
10.947845
20
3.629913
42
0.139706
0
VERTEX
8
1
10
10.358162
20
3.828278
0
SEQEND
0
POLYLINE
8
1
66
1
70
1
0
VERTEX
8
1
10
11.167236
20
2.511963
42
-0.380070
0
VERTEX
8
1
10
10.303902
20
1.723679
42
-0.364567
0
VERTEX
8
1
10
9.446297
20
2.468475
0
VERTEX
8
1
10
9.443497
20
2.488876
0
VERTEX
8
1
10
9.566467
20
2.506348
42
0.348949
0
VERTEX
8
1
10
10.252724
20
1.850571
42
0.355912
0
VERTEX
8
1
10
11.019135
20
2.403549
42
0.037019
0
VERTEX
8
1
10
11.043922
20
2.526672
0
SEQEND
0
POLYLINE
8
1
66
1
70
1
0
VERTEX
8
1
10
11.047020
20
2.680756
42
0.341635
0
VERTEX
8
1
10
10.425674
20
3.383408
42
0.323806
0
VERTEX
8
1
10
9.651772
20
2.994019
42
0.103562
0
VERTEX
8
1
10
9.560432
20
2.681458
0
VERTEX
8
1
10
9.436249
20
2.690704
42
-0.352010
0
VERTEX
8
1
10
10.191681
20
3.511368
42
-0.322011
0
VERTEX
8
1
10
11.079674
20
3.026947
42
-0.097415
0
VERTEX
8
1
10
11.171463
20
2.690018
0
SEQEND
0
POLYLINE
8
1
66
1
70
1
0
VERTEX
8
1
10
10.569008
20
3.534164
42
-0.624059
0
VERTEX
8
1
10
10.620308
20
3.709152
0
VERTEX
8
1
10
10.632935
20
3.709167
0
VERTEX
8
1
10
10.645424
20
3.707275
42
-0.761039
0
VERTEX
8
1
10
10.639473
20
3.511978
42
-0.231150
0
SEQEND
0
POLYLINE
8
1
66
1
70
1
0
VERTEX
8
1
10
11.068924
20
3.131516
42
-0.623977
0
VERTEX
8
1
10
11.120529
20
3.306412
0
VERTEX
8
1
10
11.133163
20
3.306412
0
VERTEX
8
1
10
11.145645
20
3.304504
42
-0.761081
0
VERTEX
8
1
10
11.139359
20
3.109222
42
-0.231058
0
SEQEND
0
POLYLINE
8
1
66
1
70
1
0
VERTEX
8
1
10
11.235634
20
2.520264
42
-0.624059
0
VERTEX
8
1
10
11.286934
20
2.695251
0
VERTEX
8
1
10
11.299561
20
2.695267
0
VERTEX
8
1
10
11.312050
20
2.693375
42
-0.761039
0
VERTEX
8
1
10
11.306099
20
2.498077
42
-0.231150
0
SEQEND
0
POLYLINE
8
1
66
1
70
1
0
VERTEX
8
1
10
9.256073
20
2.492279
42
-0.683850
0
VERTEX
8
1
10
9.280815
20
2.680069
42
-0.542541
0
VERTEX
8
1
10
9.379906
20
2.554489
42
-0.484455
0
SEQEND
0
POLYLINE
8
1
66
1
70
1
0
VERTEX
8
1
10
9.922699
20
3.492401
42
-0.683850
0
VERTEX
8
1
10
9.947441
20
3.680191
42
-0.542541
0
VERTEX
8
1
10
10.046532
20
3.554611
42
-0.484455
0
SEQEND
0
POLYLINE
8
1
66
1
70
1
0
VERTEX
8
1
10
9.436592
20
3.103439
42
-0.683850
0
VERTEX
8
1
10
9.461334
20
3.291229
42
-0.542541
0
VERTEX
8
1
10
9.560425
20
3.165649
42
-0.484455
0
SEQEND
0
POLYLINE
8
1
66
1
70
1
0
VERTEX
8
1
10
10.194153
20
2.216446
42
-0.666946
0
VERTEX
8
1
10
10.233131
20
2.994934
42
-0.467993
0
VERTEX
8
1
10
10.754150
20
2.662552
42
-0.479965
0
VERTEX
8
1
10
10.328453
20
2.182175
42
-0.089293
0
SEQEND
0
POLYLINE
8
1
66
1
70
1
0
VERTEX
8
1
10
17.532913
20
3.942841
0
VERTEX
8
1
10
17.532913
20
3.818604
0
VERTEX
8
1
10
17.532585
20
3.817947
0
VERTEX
8
1
10
17.422050
20
3.817932
0
VERTEX
8
1
10
17.418709
20
3.798691
0
VERTEX
8
1
10
17.418709
20
3.350449
0
VERTEX
8
1
10
17.554962
20
3.350281
0
VERTEX
8
1
10
17.554955
20
3.226044
0
VERTEX
8
1
10
17.553581
20
3.225388
0
VERTEX
8
1
10
17.294006
20
3.225403
0
VERTEX
8
1
10
17.293655
20
3.233780
0
VERTEX
8
1
10
17.293655
20
3.943008
0
SEQEND
0
POLYLINE
8
1
66
1
70
1
0
VERTEX
8
1
10
17.849045
20
3.943008
0
VERTEX
8
1
10
17.849350
20
3.933868
0
VERTEX
8
1
10
17.849342
20
3.229507
0
VERTEX
8
1
10
17.848167
20
3.225388
0
VERTEX
8
1
10
17.643333
20
3.225571
0
VERTEX
8
1
10
17.643333
20
3.350449
0
VERTEX
8
1
10
17.721634
20
3.350449
0
VERTEX
8
1
10
17.724289
20
3.370667
0
VERTEX
8
1
10
17.724289
20
3.805023
0
VERTEX
8
1
10
17.718979
20
3.817947
0
VERTEX
8
1
10
17.643158
20
3.818130
0
VERTEX
8
1
10
17.643158
20
3.943008
0
SEQEND
0
POLYLINE
8
1
66
1
70
1
0
VERTEX
8
1
10
20.921852
20
4.067551
0
VERTEX
8
1
10
20.921852
20
3.943680
0
VERTEX
8
1
10
20.921524
20
3.943008
0
VERTEX
8
1
10
20.810989
20
3.942993
0
VERTEX
8
1
10
20.807648
20
3.923737
0
VERTEX
8
1
10
20.807648
20
3.475159
0
VERTEX
8
1
10
20.943901
20
3.474991
0
VERTEX
8
1
10
20.943901
20
3.351105
0
VERTEX
8
1
10
20.942520
20
3.350449
0
VERTEX
8
1
10
20.682938
20
3.350464
0
VERTEX
8
1
10
20.682594
20
3.358841
0
VERTEX
8
1
10
20.682594
20
4.067719
0
SEQEND
0
POLYLINE
8
1
66
1
70
1
0
VERTEX
8
1
10
21.237816
20
4.067719
0
VERTEX
8
1
10
21.238113
20
4.058578
0
VERTEX
8
1
10
21.238106
20
3.354568
0
VERTEX
8
1
10
21.236931
20
3.350449
0
VERTEX
8
1
10
21.032097
20
3.350632
0
VERTEX
8
1
10
21.032097
20
3.475159
0
VERTEX
8
1
10
21.110565
20
3.475159
0
VERTEX
8
1
10
21.113228
20
3.495392
0
VERTEX
8
1
10
21.113228
20
3.930069
0
VERTEX
8
1
10
21.107895
20
3.943008
0
VERTEX
8
1
10
21.032097
20
3.943192
0
VERTEX
8
1
10
21.032097
20
4.067719
0
SEQEND
0
POLYLINE
8
1
66
1
70
1
0
VERTEX
8
1
10
24.940216
20
4.229813
0
VERTEX
8
1
10
24.940216
20
4.105560
0
VERTEX
8
1
10
24.939888
20
4.104919
0
VERTEX
8
1
10
24.829514
20
4.104904
0
VERTEX
8
1
10
24.826180
20
4.085663
0
VERTEX
8
1
10
24.826180
20
3.637421
0
VERTEX
8
1
10
24.962265
20
3.637253
0
VERTEX
8
1
10
24.962265
20
3.513000
0
VERTEX
8
1
10
24.960884
20
3.512360
0
VERTEX
8
1
10
24.701469
20
3.512375
0
VERTEX
8
1
10
24.701126
20
3.520752
0
VERTEX
8
1
10
24.701126
20
4.229980
0
SEQEND
0
POLYLINE
8
1
66
1
70
1
0
VERTEX
8
1
10
25.256523
20
4.229980
0
VERTEX
8
1
10
25.256821
20
4.220840
0
VERTEX
8
1
10
25.256821
20
3.516495
0
VERTEX
8
1
10
25.255638
20
3.512360
0
VERTEX
8
1
10
25.050804
20
3.512543
0
VERTEX
8
1
10
25.050804
20
3.637421
0
VERTEX
8
1
10
25.129097
20
3.637436
0
VERTEX
8
1
10
25.131760
20
3.657639
0
VERTEX
8
1
10
25.131760
20
4.091995
0
VERTEX
8
1
10
25.126427
20
4.104919
0
VERTEX
8
1
10
25.050804
20
4.105103
0
VERTEX
8
1
10
25.050804
20
4.229980
0
SEQEND
0
POLYLINE
8
1
66
1
70
1
0
VERTEX
8
1
10
26.810555
20
4.317657
0
VERTEX
8
1
10
26.810547
20
4.193436
0
VERTEX
8
1
10
26.810226
20
4.192780
0
VERTEX
8
1
10
26.699852
20
4.192780
0
VERTEX
8
1
10
26.696526
20
4.173523
0
VERTEX
8
1
10
26.696526
20
3.725281
0
VERTEX
8
1
10
26.832603
20
3.725113
0
VERTEX
8
1
10
26.832596
20
3.600876
0
VERTEX
8
1
10
26.831223
20
3.600220
0
VERTEX
8
1
10
26.571808
20
3.600235
0
VERTEX
8
1
10
26.571465
20
3.608612
0
VERTEX
8
1
10
26.571465
20
4.317825
0
SEQEND
0
POLYLINE
8
1
66
1
70
1
0
VERTEX
8
1
10
27.126854
20
4.317810
0
VERTEX
8
1
10
27.127159
20
4.308685
0
VERTEX
8
1
10
27.127151
20
3.604340
0
VERTEX
8
1
10
27.125977
20
3.600220
0
VERTEX
8
1
10
26.921143
20
3.600403
0
VERTEX
8
1
10
26.921143
20
3.725281
0
VERTEX
8
1
10
26.999435
20
3.725281
0
VERTEX
8
1
10
27.002106
20
3.745499
0
VERTEX
8
1
10
27.002098
20
4.179855
0
VERTEX
8
1
10
26.996773
20
4.192780
0
VERTEX
8
1
10
26.921143
20
4.192963
0
VERTEX
8
1
10
26.921143
20
4.317825
0
SEQEND
0
POLYLINE
8
1
66
1
70
1
0
VERTEX
8
1
10
28.255089
20
4.364166
0
VERTEX
8
1
10
28.255089
20
4.239944
0
VERTEX
8
1
10
28.254761
20
4.239288
0
VERTEX
8
1
10
28.144386
20
4.239288
0
VERTEX
8
1
10
28.141052
20
4.220032
0
VERTEX
8
1
10
28.141052
20
3.771439
0
VERTEX
8
1
10
28.277138
20
3.771271
0
VERTEX
8
1
10
28.277130
20
3.647385
0
VERTEX
8
1
10
28.275757
20
3.646729
0
VERTEX
8
1
10
28.016350
20
3.646729
0
VERTEX
8
1
10
28.015999
20
3.655121
0
VERTEX
8
1
10
28.015999
20
4.364334
0
SEQEND
0
POLYLINE
8
1
66
1
70
1
0
VERTEX
8
1
10
28.571053
20
4.364349
0
VERTEX
8
1
10
28.571342
20
4.355194
0
VERTEX
8
1
10
28.571342
20
3.650848
0
VERTEX
8
1
10
28.570160
20
3.646729
0
VERTEX
8
1
10
28.365326
20
3.646912
0
VERTEX
8
1
10
28.365326
20
3.771439
0
VERTEX
8
1
10
28.443962
20
3.771439
0
VERTEX
8
1
10
28.446632
20
3.791733
0
VERTEX
8
1
10
28.446632
20
4.226349
0
VERTEX
8
1
10
28.441299
20
4.239288
0
VERTEX
8
1
10
28.365326
20
4.239471
0
VERTEX
8
1
10
28.365326
20
4.364334
0
SEQEND
0
POLYLINE
8
1
66
1
70
1
0
VERTEX
8
1
10
30.996002
20
4.549179
0
VERTEX
8
1
10
30.996002
20
4.424942
0
VERTEX
8
1
10
30.995674
20
4.424286
0
VERTEX
8
1
10
30.884979
20
4.424286
0
VERTEX
8
1
10
30.881630
20
4.405029
0
VERTEX
8
1
10
30.881630
20
3.956787
0
VERTEX
8
1
10
31.018051
20
3.956619
0
VERTEX
8
1
10
31.018044
20
3.832382
0
VERTEX
8
1
10
31.016670
20
3.831726
0
VERTEX
8
1
10
30.756920
20
3.831726
0
VERTEX
8
1
10
30.756569
20
3.840118
0
VERTEX
8
1
10
30.756569
20
4.549347
0
SEQEND
0
POLYLINE
8
1
66
1
70
1
0
VERTEX
8
1
10
31.311966
20
4.549347
0
VERTEX
8
1
10
31.312263
20
4.540207
0
VERTEX
8
1
10
31.312256
20
3.835861
0
VERTEX
8
1
10
31.311081
20
3.831726
0
VERTEX
8
1
10
31.106247
20
3.831909
0
VERTEX
8
1
10
31.106247
20
3.956787
0
VERTEX
8
1
10
31.184540
20
3.956787
0
VERTEX
8
1
10
31.187210
20
3.977005
0
VERTEX
8
1
10
31.187210
20
4.411362
0
VERTEX
8
1
10
31.181877
20
4.424286
0
VERTEX
8
1
10
31.106247
20
4.424469
0
VERTEX
8
1
10
31.106247
20
4.549347
0
SEQEND
0
POLYLINE
8
1
66
1
70
1
0
VERTEX
8
1
10
38.920677
20
3.712296
42
0.046598
0
VERTEX
8
1
10
38.850922
20
4.528412
42
0.072946
0
VERTEX
8
1
10
38.643593
20
5.144791
42
0.108888
0
VERTEX
8
1
10
38.302170
20
5.555023
0
VERTEX
8
1
10
38.218109
20
5.611755
42
0.343608
0
VERTEX
8
1
10
36.846825
20
5.432693
42
0.107755
0
VERTEX
8
1
10
36.469818
20
4.857330
0
VERTEX
8
1
10
35.874268
20
4.825287
42
0.064397
0
VERTEX
8
1
10
35.737877
20
5.034729
42
0.038965
0
VERTEX
8
1
10
35.423523
20
5.374481
42
0.202883
0
VERTEX
8
1
10
34.645180
20
5.615509
42
0.236284
0
VERTEX
8
1
10
33.547897
20
4.911255
42
0.078155
0
VERTEX
8
1
10
33.278267
20
4.202469
42
0.066044
0
VERTEX
8
1
10
33.185707
20
3.149948
0
VERTEX
8
1
10
32.359726
20
3.105148
0
VERTEX
8
1
10
32.352699
20
3.229782
0
VERTEX
8
1
10
33.047707
20
3.267670
0
VERTEX
8
1
10
33.055801
20
3.269318
42
-0.067675
0
VERTEX
8
1
10
33.189323
20
4.371094
42
-0.082836
0
VERTEX
8
1
10
33.503029
20
5.073029
42
-0.223506
0
VERTEX
8
1
10
34.654877
20
5.741791
42
-0.187786
0
VERTEX
8
1
10
35.477936
20
5.494751
42
-0.064447
0
VERTEX
8
1
10
35.942299
20
4.961807
0
VERTEX
8
1
10
35.950005
20
4.954285
0
VERTEX
8
1
10
36.374329
20
4.977142
0
VERTEX
8
1
10
36.383606
20
4.979523
42
-0.128995
0
VERTEX
8
1
10
36.918327
20
5.655106
42
-0.319335
0
VERTEX
8
1
10
38.365158
20
5.664780
42
-0.105495
0
VERTEX
8
1
10
38.721962
20
5.263519
42
-0.068750
0
VERTEX
8
1
10
38.930794
20
4.744736
42
-0.050696
0
VERTEX
8
1
10
39.038010
20
4.013351
42
-0.020140
0
VERTEX
8
1
10
39.044479
20
3.628189
0
VERTEX
8
1
10
39.056175
20
3.627350
0
VERTEX
8
1
10
40.894463
20
3.830597
0
VERTEX
8
1
10
40.908173
20
3.707230
0
VERTEX
8
1
10
40.907883
20
3.706619
0
VERTEX
8
1
10
38.916962
20
3.486191
42
0.004624
0
SEQEND
0
POLYLINE
8
1
66
1
70
1
0
VERTEX
8
1
10
33.252197
20
3.154083
0
VERTEX
8
1
10
33.365242
20
3.163361
42
0.120418
0
VERTEX
8
1
10
33.574478
20
2.688583
42
0.059854
0
VERTEX
8
1
10
33.808922
20
2.440948
0
VERTEX
8
1
10
33.735397
20
2.356079
42
-0.142936
0
VERTEX
8
1
10
33.286293
20
3.000076
42
-0.051325
0
SEQEND
0
POLYLINE
8
1
66
1
70
1
0
VERTEX
8
1
10
32.894447
20
3.006271
42
0.093184
0
VERTEX
8
1
10
33.002762
20
2.717178
42
0.066725
0
VERTEX
8
1
10
33.056824
20
2.655441
0
VERTEX
8
1
10
32.980186
20
2.559479
0
VERTEX
8
1
10
32.969925
20
2.566269
0
VERTEX
8
1
10
32.934822
20
2.601303
0
VERTEX
8
1
10
32.903725
20
2.641159
42
-0.099098
0
VERTEX
8
1
10
32.771263
20
2.985962
0
SEQEND
0
POLYLINE
8
1
66
1
70
1
0
VERTEX
8
1
10
34.765411
20
5.522232
42
-0.183892
0
VERTEX
8
1
10
35.578819
20
5.044434
0
VERTEX
8
1
10
35.626350
20
4.983658
42
-0.109358
0
VERTEX
8
1
10
35.943237
20
4.250336
42
-0.060893
0
VERTEX
8
1
10
35.960045
20
3.702560
0
VERTEX
8
1
10
35.840294
20
3.715240
0
VERTEX
8
1
10
35.839905
20
3.716354
42
0.076889
0
VERTEX
8
1
10
35.801666
20
4.336121
42
0.111255
0
VERTEX
8
1
10
35.456490
20
5.003204
42
0.192128
0
VERTEX
8
1
10
34.678810
20
5.409576
0
VERTEX
8
1
10
34.681572
20
5.530838
42
-0.030580
0
SEQEND
0
POLYLINE
8
1
66
1
0
VERTEX
8
1
10
35.885628
20
4.473892
0
VERTEX
8
1
10
35.884941
20
4.475967
0
VERTEX
8
1
10
35.885628
20
4.473892
0
SEQEND
0
POLYLINE
8
1
66
1
70
1
0
VERTEX
8
1
10
34.516541
20
4.658295
42
0.189928
0
VERTEX
8
1
10
34.114700
20
4.410233
0
VERTEX
8
1
10
34.082787
20
4.367462
0
VERTEX
8
1
10
34.053108
20
4.322067
42
0.273253
0
VERTEX
8
1
10
34.061111
20
3.184021
42
0.183035
0
VERTEX
8
1
10
34.450035
20
2.872864
0
VERTEX
8
1
10
34.415634
20
2.752808
42
-0.167673
0
VERTEX
8
1
10
33.993034
20
3.058304
0
VERTEX
8
1
10
33.960236
20
3.105774
0
VERTEX
8
1
10
33.929825
20
3.155716
42
-0.251529
0
VERTEX
8
1
10
33.922043
20
4.343536
42
-0.173828
0
VERTEX
8
1
10
34.350822
20
4.741592
42
-0.056312
0
VERTEX
8
1
10
34.497612
20
4.781448
0
SEQEND
0
POLYLINE
8
1
66
1
70
1
0
VERTEX
8
1
10
34.662590
20
4.786041
42
-0.192352
0
VERTEX
8
1
10
35.147438
20
4.528488
42
-0.188018
0
VERTEX
8
1
10
35.421906
20
3.727783
42
-0.162746
0
VERTEX
8
1
10
35.178383
20
3.025970
42
-0.163130
0
VERTEX
8
1
10
34.758438
20
2.746185
42
-0.081842
0
VERTEX
8
1
10
34.551346
20
2.729004
0
VERTEX
8
1
10
34.560448
20
2.853317
42
0.207592
0
VERTEX
8
1
10
34.996834
20
3.013428
42
0.150583
0
VERTEX
8
1
10
35.266716
20
3.491623
42
0.198951
0
VERTEX
8
1
10
35.136482
20
4.335434
42
0.147098
0
VERTEX
8
1
10
34.819695
20
4.618088
42
0.078821
0
VERTEX
8
1
10
34.650909
20
4.662003
0
SEQEND
0
POLYLINE
8
1
66
1
70
1
0
VERTEX
8
1
10
34.715370
20
4.575760
42
-0.260881
0
VERTEX
8
1
10
34.985832
20
3.623703
42
-0.130637
0
VERTEX
8
1
10
34.742851
20
3.123657
42
-0.115387
0
VERTEX
8
1
10
34.504013
20
2.956665
0
VERTEX
8
1
10
34.458527
20
3.072266
42
0.150070
0
VERTEX
8
1
10
34.714943
20
3.288208
42
0.140999
0
VERTEX
8
1
10
34.887535
20
3.866241
42
0.212511
0
VERTEX
8
1
10
34.599571
20
4.512131
0
VERTEX
8
1
10
34.677414
20
4.609955
42
-0.026963
0
SEQEND
0
POLYLINE
8
1
66
1
70
1
0
VERTEX
8
1
10
34.305794
20
3.467789
42
-0.235344
0
VERTEX
8
1
10
34.143211
20
3.638535
42
-0.291209
0
VERTEX
8
1
10
34.222153
20
4.026108
42
-0.430547
0
VERTEX
8
1
10
34.515015
20
4.015274
42
-0.377648
0
VERTEX
8
1
10
34.511749
20
3.524185
42
-0.281362
0
SEQEND
0
POLYLINE
8
1
66
1
70
1
0
VERTEX
8
1
10
34.434067
20
4.262756
42
-0.553269
0
VERTEX
8
1
10
34.536339
20
4.387924
42
-0.774692
0
VERTEX
8
1
10
34.533134
20
4.192749
42
-0.391556
0
SEQEND
0
POLYLINE
8
1
66
1
70
1
0
VERTEX
8
1
10
34.682022
20
3.765488
42
-0.687346
0
VERTEX
8
1
10
34.706299
20
3.953339
0
VERTEX
8
1
10
34.719116
20
3.954376
0
VERTEX
8
1
10
34.728798
20
3.953812
42
-0.803859
0
VERTEX
8
1
10
34.732285
20
3.757660
42
-0.157045
0
SEQEND
0
POLYLINE
8
1
66
1
70
1
0
VERTEX
8
1
10
34.466446
20
3.373917
42
-0.553269
0
VERTEX
8
1
10
34.568718
20
3.499084
42
-0.774692
0
VERTEX
8
1
10
34.565514
20
3.303909
42
-0.391557
0
SEQEND
0
POLYLINE
8
1
66
1
70
1
0
VERTEX
8
1
10
34.217094
20
3.038696
42
-0.573038
0
VERTEX
8
1
10
34.255974
20
3.211823
42
-0.557541
0
VERTEX
8
1
10
34.361969
20
3.089767
42
-0.595781
0
SEQEND
0
POLYLINE
8
1
66
1
70
1
0
VERTEX
8
1
10
37.481728
20
4.741669
42
0.189905
0
VERTEX
8
1
10
37.079605
20
4.493607
0
VERTEX
8
1
10
37.047684
20
4.450836
0
VERTEX
8
1
10
37.017982
20
4.405441
42
0.273375
0
VERTEX
8
1
10
37.026085
20
3.267380
42
0.182801
0
VERTEX
8
1
10
37.414886
20
2.956238
0
VERTEX
8
1
10
37.380829
20
2.836182
42
-0.167753
0
VERTEX
8
1
10
36.958084
20
3.141556
0
VERTEX
8
1
10
36.925293
20
3.189026
0
VERTEX
8
1
10
36.894897
20
3.238953
42
-0.251301
0
VERTEX
8
1
10
36.887115
20
4.426926
42
-0.173918
0
VERTEX
8
1
10
37.315689
20
4.824951
42
-0.056688
0
VERTEX
8
1
10
37.462463
20
4.864822
0
SEQEND
0
POLYLINE
8
1
66
1
70
1
0
VERTEX
8
1
10
37.627792
20
4.869415
42
-0.196287
0
VERTEX
8
1
10
38.120842
20
4.602112
42
-0.184663
0
VERTEX
8
1
10
38.387100
20
3.811157
42
-0.162839
0
VERTEX
8
1
10
38.143402
20
3.109344
42
-0.163069
0
VERTEX
8
1
10
37.723312
20
2.829544
42
-0.078986
0
VERTEX
8
1
10
37.516197
20
2.812042
0
VERTEX
8
1
10
37.525635
20
2.936691
42
0.207486
0
VERTEX
8
1
10
37.961685
20
3.096802
42
0.150586
0
VERTEX
8
1
10
38.231567
20
3.574997
42
0.198843
0
VERTEX
8
1
10
38.101440
20
4.418808
42
0.147173
0
VERTEX
8
1
10
37.784653
20
4.701447
42
0.078800
0
VERTEX
8
1
10
37.615753
20
4.745361
0
SEQEND
0
POLYLINE
8
1
66
1
70
1
0
VERTEX
8
1
10
37.680237
20
4.659134
42
-0.261085
0
VERTEX
8
1
10
37.950684
20
3.706833
42
-0.130661
0
VERTEX
8
1
10
37.707855
20
3.207031
42
-0.115516
0
VERTEX
8
1
10
37.468864
20
3.040039
0
VERTEX
8
1
10
37.423378
20
3.155640
42
0.150268
0
VERTEX
8
1
10
37.679924
20
3.371582
42
0.140883
0
VERTEX
8
1
10
37.852386
20
3.949600
42
0.211809
0
VERTEX
8
1
10
37.564423
20
4.595505
0
VERTEX
8
1
10
37.642273
20
4.693344
42
-0.025589
0
SEQEND
0
POLYLINE
8
1
66
1
70
1
0
VERTEX
8
1
10
37.270599
20
3.551193
42
-0.230249
0
VERTEX
8
1
10
37.109634
20
3.717316
42
-0.278081
0
VERTEX
8
1
10
37.175903
20
4.098557
42
-0.452632
0
VERTEX
8
1
10
37.480881
20
4.097931
42
-0.377194
0
VERTEX
8
1
10
37.476730
20
3.607468
42
-0.281085
0
SEQEND
0
POLYLINE
8
1
66
1
70
1
0
VERTEX
8
1
10
37.398911
20
4.346115
42
-0.553269
0
VERTEX
8
1
10
37.501183
20
4.471283
42
-0.774692
0
VERTEX
8
1
10
37.497978
20
4.276108
42
-0.391556
0
SEQEND
0
POLYLINE
8
1
66
1
70
1
0
VERTEX
8
1
10
37.647736
20
3.848236
42
-0.712965
0
VERTEX
8
1
10
37.677910
20
4.037811
0
VERTEX
8
1
10
37.690529
20
4.037827
0
VERTEX
8
1
10
37.703003
20
4.035919
42
-0.760960
0
VERTEX
8
1
10
37.696823
20
3.840622
42
-0.154486
0
SEQEND
0
POLYLINE
8
1
66
1
70
1
0
VERTEX
8
1
10
37.480995
20
3.394516
42
-0.712965
0
VERTEX
8
1
10
37.511169
20
3.584091
0
VERTEX
8
1
10
37.523788
20
3.584106
0
VERTEX
8
1
10
37.536263
20
3.582199
42
-0.760960
0
VERTEX
8
1
10
37.530083
20
3.386902
42
-0.154486
0
SEQEND
0
POLYLINE
8
1
66
1
70
1
0
VERTEX
8
1
10
37.203323
20
3.107544
42
-0.712965
0
VERTEX
8
1
10
37.233498
20
3.297119
0
VERTEX
8
1
10
37.246117
20
3.297134
0
VERTEX
8
1
10
37.258591
20
3.295227
42
-0.760960
0
VERTEX
8
1
10
37.252411
20
3.099930
42
-0.154486
0
SEQEND
0
POLYLINE
8
1
66
1
70
1
0
VERTEX
8
1
10
37.569588
20
5.539597
0
VERTEX
8
1
10
37.566490
20
5.664352
42
-0.257546
0
VERTEX
8
1
10
38.553505
20
5.079941
42
-0.075236
0
VERTEX
8
1
10
38.732872
20
4.637848
0
VERTEX
8
1
10
38.611732
20
4.607559
42
0.129871
0
VERTEX
8
1
10
38.297531
20
5.213287
42
0.193567
0
SEQEND
0
POLYLINE
8
1
66
1
70
1
0
VERTEX
8
1
10
36.235008
20
4.614075
0
VERTEX
8
1
10
36.238953
20
4.624268
0
VERTEX
8
1
10
36.239952
20
4.625259
0
VERTEX
8
1
10
36.354965
20
4.578735
42
0.154738
0
VERTEX
8
1
10
36.336189
20
3.370071
0
VERTEX
8
1
10
36.216705
20
3.333908
42
-0.156365
0
SEQEND
0
POLYLINE
8
1
66
1
70
1
0
VERTEX
8
1
10
27.411896
20
12.750153
0
VERTEX
8
1
10
28.106255
20
12.735352
0
VERTEX
8
1
10
28.103844
20
12.610428
0
VERTEX
8
1
10
27.405067
20
12.625183
42
0.401661
0
VERTEX
8
1
10
27.351097
20
12.572556
0
VERTEX
8
1
10
27.324921
20
11.324005
42
0.400531
0
VERTEX
8
1
10
27.378365
20
11.271408
0
VERTEX
8
1
10
28.095047
20
11.256271
0
VERTEX
8
1
10
28.095909
20
11.255661
0
VERTEX
8
1
10
28.093185
20
11.131943
0
VERTEX
8
1
10
28.092674
20
11.131210
0
VERTEX
8
1
10
27.375778
20
11.146347
42
-0.417105
0
VERTEX
8
1
10
27.199898
20
11.331833
0
VERTEX
8
1
10
27.226036
20
12.574692
42
-0.417503
0
SEQEND
0
POLYLINE
8
1
66
1
70
1
0
VERTEX
8
1
10
28.273003
20
12.731964
0
VERTEX
8
1
10
29.016373
20
12.715927
42
-0.414431
0
VERTEX
8
1
10
29.183716
20
12.525238
0
VERTEX
8
1
10
29.157730
20
11.290024
42
-0.421359
0
VERTEX
8
1
10
28.971680
20
11.112656
0
VERTEX
8
1
10
28.324715
20
11.126312
0
VERTEX
8
1
10
28.322617
20
11.126770
0
VERTEX
8
1
10
28.325012
20
11.250916
0
VERTEX
8
1
10
28.326569
20
11.251404
0
VERTEX
8
1
10
28.978981
20
11.237640
42
0.410786
0
VERTEX
8
1
10
29.032677
20
11.292038
0
VERTEX
8
1
10
29.058807
20
12.539413
42
0.396991
0
VERTEX
8
1
10
29.005730
20
12.591400
0
VERTEX
8
1
10
28.270241
20
12.606903
0
SEQEND
0
POLYLINE
8
1
66
1
70
1
0
VERTEX
8
1
10
27.510948
20
12.254990
0
VERTEX
8
1
10
27.513702
20
12.379868
0
VERTEX
8
1
10
28.888298
20
12.350937
0
VERTEX
8
1
10
28.885887
20
12.225876
0
SEQEND
0
POLYLINE
8
1
66
1
70
1
0
VERTEX
8
1
10
27.503021
20
11.866028
0
VERTEX
8
1
10
27.505432
20
11.991089
0
VERTEX
8
1
10
28.880028
20
11.961975
0
VERTEX
8
1
10
28.877617
20
11.836929
0
SEQEND
0
POLYLINE
8
1
66
1
70
1
0
VERTEX
8
1
10
27.495445
20
11.511871
0
VERTEX
8
1
10
27.498199
20
11.636932
0
VERTEX
8
1
10
28.872795
20
11.607819
0
VERTEX
8
1
10
28.870033
20
11.482773
0
SEQEND
0
POLYLINE
8
1
66
1
70
1
0
VERTEX
8
1
10
27.477768
20
8.270172
0
VERTEX
8
1
10
27.497116
20
8.271103
0
VERTEX
8
1
10
28.195786
20
8.256470
0
VERTEX
8
1
10
28.196503
20
8.255630
0
VERTEX
8
1
10
28.194115
20
8.131668
0
VERTEX
8
1
10
28.191208
20
8.131439
0
VERTEX
8
1
10
27.494629
20
8.146179
42
0.404417
0
VERTEX
8
1
10
27.441315
20
8.091660
0
VERTEX
8
1
10
27.415184
20
6.844467
42
0.391317
0
VERTEX
8
1
10
27.468163
20
6.792282
0
VERTEX
8
1
10
28.185432
20
6.777130
0
VERTEX
8
1
10
28.186172
20
6.776306
0
VERTEX
8
1
10
28.183434
20
6.652496
0
VERTEX
8
1
10
28.180435
20
6.652283
0
VERTEX
8
1
10
27.461754
20
6.667526
42
-0.407209
0
VERTEX
8
1
10
27.290123
20
6.850662
0
VERTEX
8
1
10
27.316643
20
8.095718
42
-0.378249
0
SEQEND
0
POLYLINE
8
1
66
1
70
1
0
VERTEX
8
1
10
28.363258
20
8.252823
0
VERTEX
8
1
10
29.106636
20
8.236969
42
-0.414396
0
VERTEX
8
1
10
29.273979
20
8.046097
0
VERTEX
8
1
10
29.248001
20
6.811050
42
-0.421345
0
VERTEX
8
1
10
29.061943
20
6.633514
0
VERTEX
8
1
10
28.414978
20
6.647354
0
VERTEX
8
1
10
28.412880
20
6.647797
0
VERTEX
8
1
10
28.415276
20
6.771774
0
VERTEX
8
1
10
28.416832
20
6.772263
0
VERTEX
8
1
10
29.069557
20
6.758499
42
0.409032
0
VERTEX
8
1
10
29.122932
20
6.812897
0
VERTEX
8
1
10
29.149399
20
8.060440
42
0.395340
0
VERTEX
8
1
10
29.095985
20
8.112259
0
VERTEX
8
1
10
28.360504
20
8.127930
0
SEQEND
0
POLYLINE
8
1
66
1
70
1
0
VERTEX
8
1
10
27.601555
20
7.775848
0
VERTEX
8
1
10
27.603966
20
7.900894
0
VERTEX
8
1
10
28.978554
20
7.871796
0
VERTEX
8
1
10
28.976143
20
7.746902
0
SEQEND
0
POLYLINE
8
1
66
1
70
1
0
VERTEX
8
1
10
27.593285
20
7.387070
0
VERTEX
8
1
10
27.595695
20
7.511948
0
VERTEX
8
1
10
28.970634
20
7.482834
0
VERTEX
8
1
10
28.967873
20
7.357956
0
SEQEND
0
POLYLINE
8
1
66
1
70
1
0
VERTEX
8
1
10
27.585701
20
7.032745
0
VERTEX
8
1
10
27.588463
20
7.157791
0
VERTEX
8
1
10
28.963051
20
7.128677
0
VERTEX
8
1
10
28.960297
20
7.003799
0
SEQEND
0
POLYLINE
8
1
66
1
70
1
0
VERTEX
8
1
10
35.306160
20
12.889923
0
VERTEX
8
1
10
35.322701
20
13.139343
0
VERTEX
8
1
10
41.183838
20
12.750397
0
VERTEX
8
1
10
41.167305
20
12.500961
0
SEQEND
0
POLYLINE
8
1
66
1
70
1
0
VERTEX
8
1
10
34.990250
20
12.674591
0
VERTEX
8
1
10
34.999893
20
12.799133
0
VERTEX
8
1
10
35.708206
20
12.743668
0
VERTEX
8
1
10
35.698563
20
12.618958
0
SEQEND
0
POLYLINE
8
1
66
1
70
1
0
VERTEX
8
1
10
35.255867
20
12.434814
0
VERTEX
8
1
10
35.255867
20
6.872711
0
VERTEX
8
1
10
40.796959
20
6.872711
0
VERTEX
8
1
10
40.797134
20
12.101501
0
VERTEX
8
1
10
40.922012
20
12.101501
0
VERTEX
8
1
10
40.922012
20
6.747650
0
VERTEX
8
1
10
35.130806
20
6.747650
0
VERTEX
8
1
10
35.130981
20
12.434814
0
SEQEND
0
POLYLINE
8
1
66
1
70
1
0
VERTEX
8
1
10
41.376419
20
12.643417
0
VERTEX
8
1
10
41.384346
20
12.768127
0
VERTEX
8
1
10
42.717598
20
12.684753
0
VERTEX
8
1
10
42.709679
20
12.560043
0
SEQEND
0
POLYLINE
8
1
66
1
70
1
0
VERTEX
8
1
10
42.526054
20
6.727158
0
VERTEX
8
1
10
42.547066
20
12.351791
0
VERTEX
8
1
10
42.672127
20
12.351273
0
VERTEX
8
1
10
42.651100
20
6.726639
0
SEQEND
0
POLYLINE
8
1
66
1
70
1
0
VERTEX
8
1
10
39.259064
20
6.476868
0
VERTEX
8
1
10
42.696236
20
6.539398
0
VERTEX
8
1
10
42.698647
20
6.414337
0
VERTEX
8
1
10
39.261131
20
6.351822
0
SEQEND
0
POLYLINE
8
1
66
1
70
1
0
VERTEX
8
1
10
39.259064
20
6.197479
0
VERTEX
8
1
10
42.696236
20
6.260010
0
VERTEX
8
1
10
42.698647
20
6.135117
0
VERTEX
8
1
10
39.261131
20
6.072586
0
SEQEND
0
POLYLINE
8
1
66
1
70
1
0
VERTEX
8
1
10
39.259064
20
5.918243
0
VERTEX
8
1
10
42.696236
20
5.980774
0
VERTEX
8
1
10
42.698647
20
5.855728
0
VERTEX
8
1
10
39.261131
20
5.793198
0
SEQEND
0
POLYLINE
8
1
66
1
70
1
0
VERTEX
8
1
10
39.259064
20
5.638855
0
VERTEX
8
1
10
42.696236
20
5.701385
0
VERTEX
8
1
10
42.698647
20
5.576492
0
VERTEX
8
1
10
39.261131
20
5.513962
0
SEQEND
0
POLYLINE
8
1
66
1
70
1
0
VERTEX
8
1
10
39.259064
20
5.359634
0
VERTEX
8
1
10
42.696236
20
5.421982
0
VERTEX
8
1
10
42.698647
20
5.297272
0
VERTEX
8
1
10
39.261131
20
5.234573
0
SEQEND
0
POLYLINE
8
1
66
1
70
1
0
VERTEX
8
1
10
39.259064
20
5.080231
0
VERTEX
8
1
10
42.696236
20
5.142593
0
VERTEX
8
1
10
42.698647
20
5.017868
0
VERTEX
8
1
10
39.261131
20
4.955170
0
SEQEND
0
POLYLINE
8
1
66
1
70
1
0
VERTEX
8
1
10
39.259064
20
3.962982
0
VERTEX
8
1
10
40.980232
20
3.994339
0
VERTEX
8
1
10
40.982300
20
3.869278
0
VERTEX
8
1
10
39.261131
20
3.837921
0
SEQEND
0
POLYLINE
8
1
66
1
70
1
0
VERTEX
8
1
10
39.259064
20
4.242386
0
VERTEX
8
1
10
42.248375
20
4.296814
0
VERTEX
8
1
10
42.250435
20
4.171753
0
VERTEX
8
1
10
39.261131
20
4.117325
0
SEQEND
0
POLYLINE
8
1
66
1
70
1
0
VERTEX
8
1
10
39.259064
20
4.521439
0
VERTEX
8
1
10
42.696236
20
4.584137
0
VERTEX
8
1
10
42.698647
20
4.459076
0
VERTEX
8
1
10
39.261131
20
4.396729
0
SEQEND
0
POLYLINE
8
1
66
1
70
1
0
VERTEX
8
1
10
39.259064
20
4.800827
0
VERTEX
8
1
10
42.696236
20
4.863525
0
VERTEX
8
1
10
42.698647
20
4.738480
0
VERTEX
8
1
10
39.261131
20
4.676117
0
SEQEND
0
POLYLINE
8
1
66
1
70
1
0
VERTEX
8
1
10
14.336380
20
14.934921
0
VERTEX
8
1
10
14.343964
20
15.059631
0
VERTEX
8
1
10
17.447990
20
14.872223
0
VERTEX
8
1
10
17.440414
20
14.747345
0
SEQEND
0
POLYLINE
8
1
66
1
70
1
0
VERTEX
8
1
10
24.690102
20
14.330658
0
VERTEX
8
1
10
24.697678
20
14.455536
0
VERTEX
8
1
10
27.488899
20
14.288803
0
VERTEX
8
1
10
27.481659
20
14.164078
0
SEQEND
0
POLYLINE
8
1
66
1
70
1
0
VERTEX
8
1
10
29.254166
20
14.039032
0
VERTEX
8
1
10
29.257607
20
14.163910
0
VERTEX
8
1
10
30.028618
20
14.143066
0
VERTEX
8
1
10
30.025177
20
14.018188
0
SEQEND
0
POLYLINE
8
1
66
1
70
1
0
VERTEX
8
1
10
32.271378
20
13.872635
0
VERTEX
8
1
10
32.282059
20
13.996994
0
VERTEX
8
1
10
34.657104
20
13.788742
0
VERTEX
8
1
10
34.646080
20
13.664200
0
SEQEND
0
POLYLINE
8
1
66
1
70
1
0
VERTEX
8
1
10
10.020714
20
15.066177
0
VERTEX
8
1
10
10.027260
20
15.190903
0
VERTEX
8
1
10
11.582893
20
15.107697
0
VERTEX
8
1
10
11.576172
20
14.982819
0
SEQEND
0
POLYLINE
8
1
66
1
70
1
0
VERTEX
8
1
10
1.867981
20
11.144012
0
VERTEX
8
1
10
1.870079
20
11.143875
42
-0.034651
0
VERTEX
8
1
10
1.807144
20
10.760971
42
0.253896
0
VERTEX
8
1
10
1.663910
20
10.912949
42
0.085437
0
VERTEX
8
1
10
1.472054
20
10.949814
0
VERTEX
8
1
10
1.472054
20
10.977539
0
VERTEX
8
1
10
1.475151
20
10.999695
42
-0.189164
0
VERTEX
8
1
10
1.563683
20
11.071091
42
-0.068003
0
SEQEND
0
POLYLINE
8
1
66
1
70
1
0
VERTEX
8
1
10
40.457169
20
12.338120
0
VERTEX
8
1
10
40.466812
20
12.462662
0
VERTEX
8
1
10
41.175125
20
12.407196
0
VERTEX
8
1
10
41.165482
20
12.282486
0
SEQEND
0
POLYLINE
8
1
66
1
70
1
0
VERTEX
8
1
10
11.696579
20
10.745560
0
VERTEX
8
1
10
11.696579
20
9.891479
42
0.310729
0
VERTEX
8
1
10
12.041496
20
9.669189
0
VERTEX
8
1
10
12.396606
20
9.658890
0
VERTEX
8
1
10
12.393791
20
9.779800
0
VERTEX
8
1
10
12.375336
20
9.783981
42
-0.018802
0
VERTEX
8
1
10
11.986595
20
9.799408
42
-0.230205
0
VERTEX
8
1
10
11.821465
20
9.917831
0
VERTEX
8
1
10
11.821465
20
10.613007
0
VERTEX
8
1
10
11.841454
20
10.616013
0
VERTEX
8
1
10
12.367226
20
10.598938
0
VERTEX
8
1
10
12.371025
20
10.723862
0
SEQEND
0
POLYLINE
8
1
66
1
70
1
0
VERTEX
8
1
10
12.480164
20
9.657043
0
VERTEX
8
1
10
13.099411
20
9.650345
0
VERTEX
8
1
10
13.099251
20
10.698090
0
VERTEX
8
1
10
12.497200
20
10.719666
0
VERTEX
8
1
10
12.494804
20
10.594788
0
VERTEX
8
1
10
12.956551
20
10.579697
0
VERTEX
8
1
10
12.974358
20
10.574875
0
VERTEX
8
1
10
12.974365
20
9.791397
0
VERTEX
8
1
10
12.965698
20
9.776672
0
VERTEX
8
1
10
12.482231
20
9.782150
0
SEQEND
0
POLYLINE
8
1
66
1
70
1
0
VERTEX
8
1
10
13.729713
20
9.771927
0
VERTEX
8
1
10
13.731071
20
9.647583
0
VERTEX
8
1
10
13.113205
20
9.650314
0
VERTEX
8
1
10
13.114349
20
10.699661
0
VERTEX
8
1
10
13.719978
20
10.679886
0
VERTEX
8
1
10
13.715927
20
10.554825
0
VERTEX
8
1
10
13.252998
20
10.570023
0
VERTEX
8
1
10
13.238091
20
10.566345
0
VERTEX
8
1
10
13.238098
20
9.780930
0
VERTEX
8
1
10
13.250450
20
9.774628
0
SEQEND
0
POLYLINE
8
1
66
1
70
1
0
VERTEX
8
1
10
14.264336
20
9.779068
0
VERTEX
8
1
10
14.262825
20
9.774826
42
-0.228372
0
VERTEX
8
1
10
14.210541
20
9.771378
0
VERTEX
8
1
10
13.828606
20
9.772110
0
VERTEX
8
1
10
13.828514
20
9.647202
0
VERTEX
8
1
10
14.191643
20
9.646545
42
0.328027
0
VERTEX
8
1
10
14.374413
20
9.718704
42
0.114055
0
VERTEX
8
1
10
14.390839
20
9.784500
0
VERTEX
8
1
10
14.375832
20
10.658447
0
VERTEX
8
1
10
13.830666
20
10.676270
0
VERTEX
8
1
10
13.830299
20
10.551208
0
VERTEX
8
1
10
14.226799
20
10.538284
0
VERTEX
8
1
10
14.253296
20
10.531799
0
SEQEND
0
POLYLINE
8
1
66
1
70
1
0
VERTEX
8
1
10
14.748146
20
10.670563
0
VERTEX
8
1
10
14.748146
20
9.816483
42
0.310729
0
VERTEX
8
1
10
15.093063
20
9.594193
0
VERTEX
8
1
10
15.448174
20
9.583893
0
VERTEX
8
1
10
15.445358
20
9.704803
0
VERTEX
8
1
10
15.426903
20
9.708984
42
-0.018802
0
VERTEX
8
1
10
15.038162
20
9.724411
42
-0.230205
0
VERTEX
8
1
10
14.873032
20
9.842834
0
VERTEX
8
1
10
14.873032
20
10.538010
0
VERTEX
8
1
10
14.893021
20
10.541016
0
VERTEX
8
1
10
15.418793
20
10.523941
0
VERTEX
8
1
10
15.422592
20
10.648865
0
SEQEND
0
POLYLINE
8
1
66
1
70
1
0
VERTEX
8
1
10
15.531731
20
9.582047
0
VERTEX
8
1
10
16.150978
20
9.575348
0
VERTEX
8
1
10
16.150818
20
10.623093
0
VERTEX
8
1
10
15.548767
20
10.644669
0
VERTEX
8
1
10
15.546371
20
10.519791
0
VERTEX
8
1
10
16.008118
20
10.504700
0
VERTEX
8
1
10
16.025925
20
10.499878
0
VERTEX
8
1
10
16.025932
20
9.716400
0
VERTEX
8
1
10
16.017265
20
9.701675
0
VERTEX
8
1
10
15.533798
20
9.707153
0
SEQEND
0
POLYLINE
8
1
66
1
70
1
0
VERTEX
8
1
10
16.781281
20
9.696930
0
VERTEX
8
1
10
16.782639
20
9.572586
0
VERTEX
8
1
10
16.164772
20
9.575317
0
VERTEX
8
1
10
16.165916
20
10.624664
0
VERTEX
8
1
10
16.771545
20
10.604889
0
VERTEX
8
1
10
16.767494
20
10.479828
0
VERTEX
8
1
10
16.304565
20
10.495026
0
VERTEX
8
1
10
16.289658
20
10.491348
0
VERTEX
8
1
10
16.289665
20
9.705933
0
VERTEX
8
1
10
16.302017
20
9.699631
0
SEQEND
0
POLYLINE
8
1
66
1
70
1
0
VERTEX
8
1
10
17.315903
20
9.704071
0
VERTEX
8
1
10
17.314392
20
9.699829
42
-0.228372
0
VERTEX
8
1
10
17.262108
20
9.696381
0
VERTEX
8
1
10
16.880173
20
9.697113
0
VERTEX
8
1
10
16.880081
20
9.572205
0
VERTEX
8
1
10
17.243210
20
9.571548
42
0.328024
0
VERTEX
8
1
10
17.425980
20
9.643707
42
0.114055
0
VERTEX
8
1
10
17.442406
20
9.709503
0
VERTEX
8
1
10
17.427399
20
10.583450
0
VERTEX
8
1
10
16.882233
20
10.601273
0
VERTEX
8
1
10
16.881866
20
10.476212
0
VERTEX
8
1
10
17.278366
20
10.463287
0
VERTEX
8
1
10
17.304863
20
10.456802
0
SEQEND
0
POLYLINE
8
1
66
1
70
1
0
VERTEX
8
1
10
3.708183
20
12.553177
0
VERTEX
8
1
10
3.703552
20
12.530563
42
0.365425
0
VERTEX
8
1
10
3.599045
20
12.301453
42
0.047508
0
VERTEX
8
1
10
3.639183
20
12.195206
42
-0.039694
0
VERTEX
8
1
10
3.462364
20
12.041107
42
0.242366
0
VERTEX
8
1
10
3.377922
20
11.853683
0
VERTEX
8
1
10
3.377213
20
11.826935
42
0.008234
0
VERTEX
8
1
10
3.516708
20
10.791641
42
0.011996
0
VERTEX
8
1
10
3.422012
20
9.917603
42
0.001844
0
VERTEX
8
1
10
3.265388
20
8.176025
0
VERTEX
8
1
10
3.141693
20
8.186646
0
VERTEX
8
1
10
3.142151
20
8.197723
42
-0.006070
0
VERTEX
8
1
10
3.368652
20
10.625931
0
VERTEX
8
1
10
3.382423
20
10.737961
0
VERTEX
8
1
10
3.389427
20
10.798691
42
-0.007458
0
VERTEX
8
1
10
3.252464
20
11.813507
42
-0.136875
0
VERTEX
8
1
10
3.303192
20
12.048553
42
-0.089226
0
VERTEX
8
1
10
3.444580
20
12.186951
42
0.009985
0
VERTEX
8
1
10
3.490387
20
12.225967
0
VERTEX
8
1
10
3.488319
20
12.234039
42
-0.303869
0
VERTEX
8
1
10
3.569527
20
12.589020
0
VERTEX
8
1
10
3.588127
20
12.604843
0
VERTEX
8
1
10
3.598068
20
12.643311
42
-0.000152
0
VERTEX
8
1
10
3.955246
20
14.542206
42
0.220889
0
VERTEX
8
1
10
3.925316
20
14.648972
42
0.197205
0
VERTEX
8
1
10
3.814407
20
14.674118
42
0.172539
0
VERTEX
8
1
10
2.496483
20
14.189056
0
VERTEX
8
1
10
2.475525
20
14.170273
0
VERTEX
8
1
10
2.469742
20
14.164795
0
VERTEX
8
1
10
2.381561
20
14.253311
0
VERTEX
8
1
10
2.391632
20
14.263046
42
-0.100733
0
VERTEX
8
1
10
3.100006
20
14.674683
42
-0.090200
0
VERTEX
8
1
10
3.877365
20
14.797546
42
-0.379551
0
VERTEX
8
1
10
4.079239
20
14.594818
42
-0.051864
0
VERTEX
8
1
10
4.078735
20
14.521347
42
0.000174
0
SEQEND
0
POLYLINE
8
1
66
1
70
1
0
VERTEX
8
1
10
8.788033
20
11.514999
42
0.000093
0
VERTEX
8
1
10
8.777382
20
13.911911
42
0.295728
0
VERTEX
8
1
10
8.668526
20
14.088318
42
0.086821
0
VERTEX
8
1
10
8.612617
20
14.101379
42
-0.001291
0
VERTEX
8
1
10
5.016731
20
14.227417
42
0.166142
0
VERTEX
8
1
10
4.701759
20
14.131195
42
0.208826
0
VERTEX
8
1
10
4.570129
20
13.880280
0
VERTEX
8
1
10
4.278946
20
12.090820
0
VERTEX
8
1
10
4.402145
20
12.070694
0
VERTEX
8
1
10
4.694771
20
13.866776
42
-0.319603
0
VERTEX
8
1
10
4.862785
20
14.078186
42
-0.090751
0
VERTEX
8
1
10
5.059189
20
14.101883
42
0.001971
0
VERTEX
8
1
10
8.609276
20
13.976517
42
-0.340341
0
VERTEX
8
1
10
8.650307
20
13.926636
0
VERTEX
8
1
10
8.652252
20
13.913910
0
VERTEX
8
1
10
8.652878
20
13.901031
42
0.000109
0
VERTEX
8
1
10
8.673355
20
9.273560
0
VERTEX
8
1
10
8.664787
20
9.239502
0
VERTEX
8
1
10
7.882385
20
9.146744
0
VERTEX
8
1
10
7.882172
20
9.172668
0
VERTEX
8
1
10
7.882172
20
10.059937
0
VERTEX
8
1
10
6.465546
20
10.018433
0
VERTEX
8
1
10
6.455627
20
9.001297
0
VERTEX
8
1
10
6.454590
20
8.977982
0
VERTEX
8
1
10
5.916573
20
8.913757
0
VERTEX
8
1
10
5.931198
20
8.789871
0
VERTEX
8
1
10
8.799080
20
9.129593
0
SEQEND
0
ENDSEC
0
EOF
