  0
SECTION
  2
HEADER
  9
$ACADVER
  1
AC1009
  9
$DWGCODEPAGE
  3
ansi_1252
  9
$INSBASE
 10
0.0
 20
0.0
 30
0.0
  9
$EXTMIN
 10
0.3706914337707677
 20
0.0426645267223238
 30
0.0
  9
$EXTMAX
 10
142.3513575990891
 20
123.6056488041837
 30
0.0
  9
$LIMMIN
 10
0.0
 20
0.0
  9
$LIMMAX
 10
12.0
 20
9.0
  9
$ORTHOMODE
 70
     0
  9
$REGENMODE
 70
     1
  9
$FILLMODE
 70
     1
  9
$QTEXTMODE
 70
     0
  9
$MIRRTEXT
 70
     1
  9
$DRAGMODE
 70
     2
  9
$LTSCALE
 40
1.0
  9
$OSMODE
 70
    37
  9
$ATTMODE
 70
     1
  9
$TEXTSIZE
 40
0.2
  9
$TRACEWID
 40
0.05
  9
$TEXTSTYLE
  7
STANDARD
  9
$CLAYER
  8
0
  9
$CELTYPE
  6
BYBLOCK
  9
$CECOLOR
 62
   256
  9
$DIMSCALE
 40
1.0
  9
$DIMASZ
 40
0.18
  9
$DIMEXO
 40
0.0625
  9
$DIMDLI
 40
0.38
  9
$DIMRND
 40
0.0
  9
$DIMDLE
 40
0.0
  9
$DIMEXE
 40
0.18
  9
$DIMTP
 40
0.0
  9
$DIMTM
 40
0.0
  9
$DIMTXT
 40
0.18
  9
$DIMCEN
 40
0.09
  9
$DIMTSZ
 40
0.0
  9
$DIMTOL
 70
     0
  9
$DIMLIM
 70
     0
  9
$DIMTIH
 70
     1
  9
$DIMTOH
 70
     1
  9
$DIMSE1
 70
     0
  9
$DIMSE2
 70
     0
  9
$DIMTAD
 70
     0
  9
$DIMZIN
 70
     0
  9
$DIMBLK
  1

  9
$DIMASO
 70
     1
  9
$DIMSHO
 70
     1
  9
$DIMPOST
  1

  9
$DIMAPOST
  1

  9
$DIMALT
 70
     0
  9
$DIMALTD
 70
     2
  9
$DIMALTF
 40
25.4
  9
$DIMLFAC
 40
1.0
  9
$DIMTOFL
 70
     0
  9
$DIMTVP
 40
0.0
  9
$DIMTIX
 70
     0
  9
$DIMSOXD
 70
     0
  9
$DIMSAH
 70
     0
  9
$DIMBLK1
  1

  9
$DIMBLK2
  1

  9
$DIMSTYLE
  2
STANDARD
  9
$DIMCLRD
 70
     0
  9
$DIMCLRE
 70
     0
  9
$DIMCLRT
 70
     0
  9
$DIMTFAC
 40
1.0
  9
$DIMGAP
 40
0.09
  9
$LUNITS
 70
     2
  9
$LUPREC
 70
     4
  9
$SKETCHINC
 40
0.1
  9
$FILLETRAD
 40
0.5
  9
$AUNITS
 70
     0
  9
$AUPREC
 70
     0
  9
$MENU
  1
.
  9
$ELEVATION
 40
0.0
  9
$PELEVATION
 40
0.0
  9
$THICKNESS
 40
0.0
  9
$LIMCHECK
 70
     0
  9
$CHAMFERA
 40
0.5
  9
$CHAMFERB
 40
0.5
  9
$SKPOLY
 70
     0
  9
$TDCREATE
 40
2453353.508792488
  9
$TDUPDATE
 40
2440940.841465185
  9
$TDINDWG
 40
2440852.080755556
  9
$TDUSRTIMER
 40
2440852.080755556
  9
$USRTIMER
 70
     1
  9
$ANGBASE
 50
0.0
  9
$ANGDIR
 70
     0
  9
$PDMODE
 70
     0
  9
$PDSIZE
 40
0.0
  9
$PLINEWID
 40
0.0
  9
$COORDS
 70
     1
  9
$SPLFRAME
 70
     0
  9
$SPLINETYPE
 70
     6
  9
$SPLINESEGS
 70
     8
  9
$ATTDIA
 70
     0
  9
$ATTREQ
 70
     1
  9
$HANDLING
 70
     1
  9
$HANDSEED
  5
6E9
  9
$SURFTAB1
 70
     6
  9
$SURFTAB2
 70
     6
  9
$SURFTYPE
 70
     6
  9
$SURFU
 70
     6
  9
$SURFV
 70
     6
  9
$UCSNAME
  2

  9
$UCSORG
 10
0.0
 20
0.0
 30
0.0
  9
$UCSXDIR
 10
1.0
 20
0.0
 30
0.0
  9
$UCSYDIR
 10
0.0
 20
1.0
 30
0.0
  9
$PUCSNAME
  2

  9
$PUCSORG
 10
0.0
 20
0.0
 30
0.0
  9
$PUCSXDIR
 10
1.0
 20
0.0
 30
0.0
  9
$PUCSYDIR
 10
0.0
 20
1.0
 30
0.0
  9
$USERI1
 70
     0
  9
$USERI2
 70
     0
  9
$USERI3
 70
     0
  9
$USERI4
 70
     0
  9
$USERI5
 70
     0
  9
$USERR1
 40
0.0
  9
$USERR2
 40
0.0
  9
$USERR3
 40
0.0
  9
$USERR4
 40
0.0
  9
$USERR5
 40
0.0
  9
$WORLDVIEW
 70
     1
  9
$SHADEDGE
 70
     3
  9
$SHADEDIF
 70
    70
  9
$TILEMODE
 70
     1
  9
$MAXACTVP
 70
    64
  9
$PLIMCHECK
 70
     0
  9
$PEXTMIN
 10
0.0
 20
0.0
 30
0.0
  9
$PEXTMAX
 10
0.0
 20
0.0
 30
0.0
  9
$PLIMMIN
 10
0.0
 20
0.0
  9
$PLIMMAX
 10
0.0
 20
0.0
  9
$UNITMODE
 70
     0
  9
$VISRETAIN
 70
     1
  9
$PLINEGEN
 70
     0
  9
$PSLTSCALE
 70
     1
  0
ENDSEC
  0
SECTION
  2
TABLES
  0
TABLE
  2
VPORT
 70
     1
  0
VPORT
  2
*ACTIVE
 70
     0
 10
0.0
 20
0.0
 11
1.0
 21
1.0
 12
74.71169662716422
 22
59.01924557684532
 13
0.0
 23
0.0
 14
0.5
 24
0.5
 15
0.5
 25
0.5
 16
0.0
 26
0.0
 36
1.0
 17
0.0
 27
0.0
 37
0.0
 40
144.4126707379811
 41
1.972972972850329
 42
50.0
 43
0.0
 44
0.0
 50
0.0
 51
0.0
 71
    16
 72
   100
 73
     1
 74
     3
 75
     0
 76
     0
 77
     0
 78
     0
  0
ENDTAB
  0
TABLE
  2
LTYPE
 70
     1
  0
LTYPE
  2
CONTINUOUS
 70
     0
  3
Solid line
 72
    65
 73
     0
 40
0.0
  0
ENDTAB
  0
TABLE
  2
LAYER
 70
     2
  0
LAYER
  2
0
 70
     0
 62
     7
  6
CONTINUOUS
  0
LAYER
  2
LAYER_1
 70
     0
 62
     7
  6
CONTINUOUS
  0
ENDTAB
  0
TABLE
  2
STYLE
 70
     1
  0
STYLE
  2
STANDARD
 70
     0
 40
0.0
 41
1.0
 50
0.0
 71
     0
 42
0.2
  3
txt
  4

  0
ENDTAB
  0
TABLE
  2
VIEW
 70
     0
  0
ENDTAB
  0
TABLE
  2
UCS
 70
     0
  0
ENDTAB
  0
TABLE
  2
APPID
 70
     1
  0
APPID
  2
ACAD
 70
     0
  0
ENDTAB
  0
TABLE
  2
DIMSTYLE
 70
     1
  0
DIMSTYLE
  2
STANDARD
 70
     0
  3

  4

  5

  6

  7

 40
1.0
 41
0.18
 42
0.0625
 43
0.38
 44
0.18
 45
0.0
 46
0.0
 47
0.0
 48
0.0
140
0.18
141
0.09
142
0.0
143
25.4
144
1.0
145
0.0
146
1.0
147
0.09
 71
     0
 72
     0
 73
     1
 74
     1
 75
     0
 76
     0
 77
     0
 78
     0
170
     0
171
     2
172
     0
173
     0
174
     0
175
     0
176
     0
177
     0
178
     0
  0
ENDTAB
  0
ENDSEC
  0
SECTION
  2
BLOCKS
  0
BLOCK
  8
0
  2
$MODEL_SPACE
 70
     0
 10
0.0
 20
0.0
 30
0.0
  3
$MODEL_SPACE
  1

  0
ENDBLK
  5
21
  8
0
  0
BLOCK
 67
     1
  8
0
  2
$PAPER_SPACE
 70
     0
 10
0.0
 20
0.0
 30
0.0
  3
$PAPER_SPACE
  1

  0
ENDBLK
  5
76
 67
     1
  8
0
  0
ENDSEC
  0
SECTION
  2
ENTITIES
  0
LINE
  5
636
  8
0
  6
BYBLOCK
 62
    40
 10
16.51368788589295
 20
118.3552261533872
 30
0.0
 11
124.884810561088
 21
118.3552261533872
 31
0.0
  0
LINE
  5
637
  8
0
  6
BYBLOCK
 62
    40
 10
132.1338043327824
 20
106.8602142844033
 30
0.0
 11
78.27807809524016
 21
13.03337687776392
 31
0.0
  0
LINE
  5
638
  8
0
  6
BYBLOCK
 62
    40
 10
65.24621838986494
 20
13.11235784567529
 30
0.0
 11
10.65844883335826
 21
107.4278561325314
 31
0.0
  0
LINE
  5
63A
  8
0
  6
BYBLOCK
 62
    40
 10
8.104060516781585
 20
123.6056488041837
 30
0.0
 11
134.1205508012309
 21
123.6056488041837
 31
0.0
  0
LINE
  5
63B
  8
0
  6
BYBLOCK
 62
    40
 10
142.3513575990891
 20
114.5233792341333
 30
0.0
 11
78.20782876060811
 21
4.117039773208084
 31
0.0
  0
LINE
  5
63C
  8
0
  6
BYBLOCK
 62
    40
 10
65.15206625366068
 20
3.549397925079937
 30
0.0
 11
0.8132778870131023
 21
114.1429210317365
 31
0.0
  0
ARC
  5
63D
  8
0
  6
BYBLOCK
 62
    40
 10
134.2647660783891
 20
115.4656247838036
 30
0.0
 40
8.141301437640667
 50
353.3538942523018
 51
91.01499237927537
  0
ARC
  5
640
  8
0
  6
BYBLOCK
 62
    40
 10
71.52659099442047
 20
7.360418641564247
 30
0.0
 40
7.426873135582127
 50
210.8731662241716
 51
334.1059396198266
  0
ARC
  5
641
  8
0
  6
BYBLOCK
 62
    40
 10
7.387959500915741
 20
116.617343860032
 30
0.0
 40
7.024899049621958
 50
84.14924568367044
 51
200.6241442354043
  0
ARC
  5
64A
  8
0
  6
BYBLOCK
 62
    40
 10
18.35714377034228
 20
110.3350442901851
 30
0.0
 40
8.229316297041059
 50
102.9447175962201
 51
200.6875847791427
  0
ARC
  5
653
  8
0
  6
BYBLOCK
 62
    40
 10
124.4617835874727
 20
110.0552674174157
 30
0.0
 40
8.310732027880313
 50
337.3904583777106
 51
87.08231010925739
  0
ARC
  5
65A
  8
0
  6
BYBLOCK
 62
    40
 10
71.78809867091412
 20
17.35468804137703
 30
0.0
 40
7.797022707478988
 50
212.9629206988463
 51
326.3425935069819
  0
CIRCLE
  5
666
  8
0
  6
BYBLOCK
 62
     1
 10
25.01289696417826
 20
106.1626795849616
 30
0.0
 40
11.59556865490487
  0
CIRCLE
  5
667
  8
0
  6
BYBLOCK
 62
     1
 10
48.21089880468482
 20
106.3542216696385
 30
0.0
 40
11.59556865490487
  0
CIRCLE
  5
668
  8
0
  6
BYBLOCK
 62
     1
 10
60.13283265325639
 20
45.46391807334823
 30
0.0
 40
11.59556865490487
  0
CIRCLE
  5
669
  8
0
  6
BYBLOCK
 62
     1
 10
83.30265457950934
 20
45.65116269269642
 30
0.0
 40
11.59556865490487
  0
CIRCLE
  5
66A
  8
0
  6
BYBLOCK
 62
     1
 10
71.84196085159324
 20
25.38004917686317
 30
0.0
 40
11.59556865490487
  0
CIRCLE
  5
66B
  8
0
  6
BYBLOCK
 62
     1
 10
71.41220261806578
 20
106.3542216696385
 30
0.0
 40
11.59556865490485
  0
CIRCLE
  5
66C
  8
0
  6
BYBLOCK
 62
     1
 10
48.57390778826284
 20
65.84471781699408
 30
0.0
 40
11.59556865490487
  0
CIRCLE
  5
66D
  8
0
  6
BYBLOCK
 62
     1
 10
71.61541555609828
 20
65.82099610245199
 30
0.0
 40
11.59556865490485
  0
CIRCLE
  5
66E
  8
0
  6
BYBLOCK
 62
     1
 10
94.97321344215034
 20
66.03625990167089
 30
0.0
 40
11.59556865490487
  0
CIRCLE
  5
66F
  8
0
  6
BYBLOCK
 62
     1
 10
94.62396641570324
 20
106.3542216696385
 30
0.0
 40
11.59556865490487
  0
CIRCLE
  5
670
  8
0
  6
BYBLOCK
 62
     1
 10
36.77262335858229
 20
86.0071736988143
 30
0.0
 40
11.59556865490487
  0
CIRCLE
  5
671
  8
0
  6
BYBLOCK
 62
     1
 10
59.97062519908885
 20
86.1987157834911
 30
0.0
 40
11.59556865490487
  0
CIRCLE
  5
672
  8
0
  6
BYBLOCK
 62
     1
 10
83.17192901246979
 20
86.1987157834911
 30
0.0
 40
11.59556865490487
  0
CIRCLE
  5
673
  8
0
  6
BYBLOCK
 62
     1
 10
106.3836928101073
 20
86.1987157834911
 30
0.0
 40
11.59556865490487
  0
CIRCLE
  5
674
  8
0
  6
BYBLOCK
 62
     1
 10
117.8835943708589
 20
106.3156124012078
 30
0.0
 40
11.59556865490488
  0
ENDSEC
  0
EOF
