999
DXF created by Inkscape
  0
SECTION
  2
HEADER
  9
$ACADVER
  1
AC1014
  9
$HANDSEED
  5
FFFF
  9
$MEASUREMENT
 70
     1
  0
ENDSEC
  0
SECTION
  2
TABLES
  0
TABLE
  2
VPORT
  5
8
330
0
100
AcDbSymbolTable
 70
     4
  0
VPORT
  5
2E
330
8
100
AcDbSymbolTableRecord
100
AcDbViewportTableRecord
  2
*ACTIVE
 70
     0
 10
0.0
 20
0.0
 11
1.0
 21
1.0
 12
210.0
 22
148.5
 13
0.0
 23
0.0
 14
10.0
 24
10.0
 15
10.0
 25
10.0
 16
0.0
 26
0.0
 36
1.0
 17
0.0
 27
0.0
 37
0.0
 40
341.0
 41
1.24
 42
50.0
 43
0.0
 44
0.0
 50
0.0
 51
0.0
 71
     0
 72
   100
 73
     1
 74
     3
 75
     0
 76
     0
 77
     0
 78
     0
  0
ENDTAB
  0
TABLE
  2
LTYPE
  5
5
330
0
100
AcDbSymbolTable
 70
     1
  0
LTYPE
  5
14
330
5
100
AcDbSymbolTableRecord
100
AcDbLinetypeTableRecord
  2
BYBLOCK
 70
     0
  3

 72
    65
 73
     0
 40
0.0
  0
LTYPE
  5
15
330
5
100
AcDbSymbolTableRecord
100
AcDbLinetypeTableRecord
  2
BYLAYER
 70
     0
  3

 72
    65
 73
     0
 40
0.0
  0
LTYPE
  5
16
330
5
100
AcDbSymbolTableRecord
100
AcDbLinetypeTableRecord
  2
CONTINUOUS
 70
     0
  3
Solid line
 72
    65
 73
     0
 40
0.0
  0
ENDTAB
  0
TABLE
  2
LAYER
  5
2
330
0
100
AcDbSymbolTable
 70
1
  0
LAYER
  5
10
330
2
100
AcDbSymbolTableRecord
100
AcDbLayerTableRecord
  2
0
 70
     0
 62
     7
  6
CONTINUOUS
  0
ENDTAB
  0
TABLE
  2
STYLE
  5
3
330
0
100
AcDbSymbolTable
 70
     1
  0
STYLE
  5
11
330
3
100
AcDbSymbolTableRecord
100
AcDbTextStyleTableRecord
  2
STANDARD
 70
     0
 40
0.0
 41
1.0
 50
0.0
 71
     0
 42
2.5
  3
txt
  4

  0
ENDTAB
  0
TABLE
  2
VIEW
  5
6
330
0
100
AcDbSymbolTable
 70
     0
  0
ENDTAB
  0
TABLE
  2
UCS
  5
7
330
0
100
AcDbSymbolTable
 70
     0
  0
ENDTAB
  0
TABLE
  2
APPID
  5
9
330
0
100
AcDbSymbolTable
 70
     2
  0
APPID
  5
12
330
9
100
AcDbSymbolTableRecord
100
AcDbRegAppTableRecord
  2
ACAD
 70
     0
  0
ENDTAB
  0
TABLE
  2
DIMSTYLE
  5
A
330
0
100
AcDbSymbolTable
 70
     1
  0
DIMSTYLE
105
27
330
A
100
AcDbSymbolTableRecord
100
AcDbDimStyleTableRecord
  2
ISO-25
 70
     0
  3

  4

  5

  6

  7

 40
1.0
 41
2.5
 42
0.625
 43
3.75
 44
1.25
 45
0.0
 46
0.0
 47
0.0
 48
0.0
140
2.5
141
2.5
142
0.0
143
0.03937007874016
144
1.0
145
0.0
146
1.0
147
0.625
 71
     0
 72
     0
 73
     0
 74
     0
 75
     0
 76
     0
 77
     1
 78
     8
170
     0
171
     3
172
     1
173
     0
174
     0
175
     0
176
     0
177
     0
178
     0
270
     2
271
     2
272
     2
273
     2
274
     3
340
11
275
     0
280
     0
281
     0
282
     0
283
     0
284
     8
285
     0
286
     0
287
     3
288
     0
  0
ENDTAB
  0
TABLE
  2
BLOCK_RECORD
  5
1
330
0
100
AcDbSymbolTable
 70
     1
  0
BLOCK_RECORD
  5
1F
330
1
100
AcDbSymbolTableRecord
100
AcDbBlockTableRecord
  2
*MODEL_SPACE
  0
BLOCK_RECORD
  5
1B
330
1
100
AcDbSymbolTableRecord
100
AcDbBlockTableRecord
  2
*PAPER_SPACE
  0
ENDTAB
  0
ENDSEC
  0
SECTION
  2
BLOCKS
  0
BLOCK
  5
20
330
1F
100
AcDbEntity
  8
0
100
AcDbBlockBegin
  2
*MODEL_SPACE
 70
     0
 10
0.0
 20
0.0
 30
0.0
  3
*MODEL_SPACE
  1

  0
ENDBLK
  5
21
330
1F
100
AcDbEntity
  8
0
100
AcDbBlockEnd
  0
BLOCK
  5
1C
330
1B
100
AcDbEntity
 67
     1
  8
0
100
AcDbBlockBegin
  2
*PAPER_SPACE
  1

  0
ENDBLK
  5
1D
330
1B
100
AcDbEntity
 67
     1
  8
0
100
AcDbBlockEnd
  0
ENDSEC
  0
SECTION
  2
ENTITIES
  0
LWPOLYLINE
  5
100
100
AcDbEntity
  8
0
 62
7
100
AcDbPolyline
 90
3
 70
0
 10
33.584444
 20
6.632222
 30
0.0
 10
33.584444
 20
9.877778
 30
0.0
 10
37.394444
 20
9.877778
 30
0.0
  0
LWPOLYLINE
  5
101
100
AcDbEntity
  8
0
 62
7
100
AcDbPolyline
 90
8
 70
0
 10
46.355000
 20
9.897615
 30
0.0
 10
51.364444
 20
9.877778
 30
0.0
 10
51.364444
 20
6.632222
 30
0.0
 10
51.364444
 20
3.386667
 30
0.0
 10
42.474444
 20
3.386667
 30
0.0
 10
33.584444
 20
3.386667
 30
0.0
 10
33.584444
 20
6.632222
 30
0.0
 10
33.584444
 20
6.632222
 30
0.0
  0
SPLINE
  5
102
100
AcDbEntity
  8
0
 62
7
100
AcDbSpline
 70
0
 71
3
 72
19
 73
15
 74
13
 40
0.000000
 40
0.000000
 40
0.000000
 40
0.000000
 40
2.033337
 40
3.348742
 40
3.837657
 40
4.002020
 40
4.248858
 40
4.569993
 40
4.978027
 40
5.051234
 40
5.444070
 40
5.788891
 40
7.328166
 40
9.917998
 40
9.917998
 40
9.917998
 40
9.917998
 10
37.394444
 20
9.877778
 30
0.0
 10
38.085445
 20
9.876135
 30
0.0
 10
39.223467
 20
9.873430
 30
0.0
 10
40.403441
 20
9.992745
 30
0.0
 10
41.176555
 20
10.035401
 30
0.0
 10
41.285112
 20
10.344115
 30
0.0
 10
41.555107
 20
10.412583
 30
0.0
 10
41.841039
 20
10.395250
 30
0.0
 10
42.211486
 20
10.526188
 30
0.0
 10
42.313473
 20
10.205329
 30
0.0
 10
41.670770
 20
10.191023
 30
0.0
 10
42.883986
 20
9.822419
 30
0.0
 10
43.944802
 20
10.020508
 30
0.0
 10
45.425983
 20
9.944984
 30
0.0
 10
46.355000
 20
9.897615
 30
0.0
 11
37.394444
 21
9.877778
 31
0.0
 11
39.427489
 21
9.912233
 31
0.0
 11
40.739300
 21
10.009405
 31
0.0
 11
41.204444
 21
10.160000
 31
0.0
 11
41.291463
 21
10.299438
 31
0.0
 11
41.519593
 21
10.393702
 31
0.0
 11
41.839444
 21
10.422385
 31
0.0
 11
42.246712
 21
10.397373
 31
0.0
 11
42.265723
 21
10.326678
 31
0.0
 11
41.910000
 21
10.160000
 31
0.0
 11
42.228884
 21
10.028795
 31
0.0
 11
43.765484
 21
9.938091
 31
0.0
 11
46.355000
 21
9.897615
 31
0.0
  0
LWPOLYLINE
  5
103
100
AcDbEntity
  8
0
 62
7
100
AcDbPolyline
 90
10
 70
0
 10
50.800000
 20
6.632222
 30
0.0
 10
50.800000
 20
9.313333
 30
0.0
 10
42.474444
 20
9.313333
 30
0.0
 10
34.148889
 20
9.313333
 30
0.0
 10
34.148889
 20
6.632222
 30
0.0
 10
34.148889
 20
3.951111
 30
0.0
 10
42.474444
 20
3.951111
 30
0.0
 10
50.800000
 20
3.951111
 30
0.0
 10
50.800000
 20
6.632222
 30
0.0
 10
50.800000
 20
6.632222
 30
0.0
  0
SPLINE
  5
104
100
AcDbEntity
  8
0
 62
7
100
AcDbSpline
 70
0
 71
3
 72
19
 73
15
 74
13
 40
0.000000
 40
0.000000
 40
0.000000
 40
0.000000
 40
0.955716
 40
1.821171
 40
2.410601
 40
3.372515
 40
4.532967
 40
5.525299
 40
6.262449
 40
7.398711
 40
9.623500
 40
11.430104
 40
13.423324
 40
15.175644
 40
15.175644
 40
15.175644
 40
15.175644
 10
24.412222
 20
9.288458
 30
0.0
 10
24.728147
 20
9.331708
 30
0.0
 10
25.330160
 20
9.414122
 30
0.0
 10
26.116525
 20
9.566433
 30
0.0
 10
26.916627
 20
9.716750
 30
0.0
 10
27.673510
 20
10.243415
 30
0.0
 10
28.443271
 20
10.970458
 30
0.0
 10
28.857659
 20
11.818684
 30
0.0
 10
29.454148
 20
12.681122
 30
0.0
 10
30.993940
 20
12.343303
 30
0.0
 10
32.542921
 20
11.874566
 30
0.0
 10
34.497705
 20
11.303559
 30
0.0
 10
36.293298
 20
10.880277
 30
0.0
 10
37.524154
 20
10.664780
 30
0.0
 10
38.100000
 20
10.563962
 30
0.0
 11
24.412222
 21
9.288458
 31
0.0
 11
25.357814
 21
9.427199
 31
0.0
 11
26.209063
 21
9.583365
 31
0.0
 11
26.781678
 21
9.723148
 31
0.0
 11
27.604158
 21
10.221951
 31
0.0
 11
28.419921
 21
11.047288
 31
0.0
 11
28.931119
 21
11.897817
 31
0.0
 11
29.419682
 21
12.449810
 31
0.0
 11
30.555769
 21
12.429852
 31
0.0
 11
32.698622
 21
11.831633
 31
0.0
 11
34.436243
 21
11.337172
 31
0.0
 11
36.376737
 21
10.881750
 31
0.0
 11
38.100000
 21
10.563962
 31
0.0
  0
LWPOLYLINE
  5
105
100
AcDbEntity
  8
0
 62
7
100
AcDbPolyline
 90
3
 70
0
 10
38.100000
 20
10.563962
 30
0.0
 10
40.781111
 20
10.171046
 30
0.0
 10
38.241729
 20
10.313656
 30
0.0
  0
SPLINE
  5
106
100
AcDbEntity
  8
0
 62
7
100
AcDbSpline
 70
0
 71
3
 72
16
 73
12
 74
10
 40
0.000000
 40
0.000000
 40
0.000000
 40
0.000000
 40
2.003920
 40
3.666227
 40
6.227316
 40
8.064258
 40
8.864626
 40
9.807444
 40
11.524101
 40
12.976479
 40
14.846379
 40
14.846379
 40
14.846379
 40
14.846379
 10
38.241729
 20
10.313656
 30
0.0
 10
37.572777
 20
10.344035
 30
0.0
 10
36.348909
 20
10.399615
 30
0.0
 10
34.320727
 20
10.854514
 30
0.0
 10
32.373137
 20
11.461693
 30
0.0
 10
30.817267
 20
12.126304
 30
0.0
 10
29.492711
 20
12.174182
 30
0.0
 10
28.905034
 20
11.034760
 30
0.0
 10
28.054781
 20
9.991022
 30
0.0
 10
26.502174
 20
9.191086
 30
0.0
 10
25.384849
 20
9.152699
 30
0.0
 10
24.755978
 20
9.131094
 30
0.0
 11
38.241729
 21
10.313656
 31
0.0
 11
36.243777
 21
10.468201
 31
0.0
 11
34.616282
 21
10.806616
 31
0.0
 11
32.173333
 21
11.575497
 31
0.0
 11
30.416594
 21
12.112361
 31
0.0
 11
29.618953
 21
12.046341
 31
0.0
 11
29.024134
 21
11.314839
 31
0.0
 11
27.905895
 21
10.012359
 31
0.0
 11
26.612922
 21
9.350827
 31
0.0
 11
24.755978
 21
9.131094
 31
0.0
  0
LWPOLYLINE
  5
107
100
AcDbEntity
  8
0
 62
7
100
AcDbPolyline
 90
4
 70
0
 10
24.755978
 20
9.131094
 30
0.0
 10
22.718889
 20
9.072536
 30
0.0
 10
24.412222
 20
9.288458
 30
0.0
 10
24.412222
 20
9.288458
 30
0.0
  0
SPLINE
  5
108
100
AcDbEntity
  8
0
 62
7
100
AcDbSpline
 70
0
 71
3
 72
28
 73
24
 74
22
 40
0.000000
 40
0.000000
 40
0.000000
 40
0.000000
 40
0.475710
 40
1.195858
 40
2.016284
 40
2.918734
 40
3.848774
 40
4.605718
 40
5.140472
 40
5.492526
 40
5.620312
 40
6.578476
 40
8.220613
 40
9.285341
 40
9.990893
 40
11.125288
 40
12.047551
 40
12.253208
 40
12.324320
 40
12.605695
 40
12.959659
 40
13.353715
 40
13.711707
 40
13.711707
 40
13.711707
 40
13.711707
 10
21.092828
 20
9.619999
 30
0.0
 10
20.973906
 20
9.725562
 30
0.0
 10
20.674955
 20
9.990930
 30
0.0
 10
20.294510
 20
10.551994
 30
0.0
 10
19.886168
 20
11.254868
 30
0.0
 10
19.472942
 20
12.037995
 30
0.0
 10
19.047540
 20
12.786596
 30
0.0
 10
18.636235
 20
13.411272
 30
0.0
 10
18.386747
 20
13.882209
 30
0.0
 10
18.169500
 20
14.180976
 30
0.0
 10
18.344633
 20
14.699136
 30
0.0
 10
19.161788
 20
13.166086
 30
0.0
 10
19.778435
 20
12.613779
 30
0.0
 10
20.250234
 20
11.479612
 30
0.0
 10
20.743033
 20
10.660698
 30
0.0
 10
21.541964
 20
10.067169
 30
0.0
 10
21.910495
 20
9.566621
 30
0.0
 10
22.532457
 20
9.466480
 30
0.0
 10
22.377696
 20
9.299216
 30
0.0
 10
22.124225
 20
9.361573
 30
0.0
 10
21.789366
 20
9.361827
 30
0.0
 10
21.426896
 20
9.462149
 30
0.0
 10
21.200566
 20
9.569092
 30
0.0
 10
21.092828
 20
9.619999
 30
0.0
 11
21.092828
 21
9.619999
 31
0.0
 11
20.747663
 21
9.947353
 31
0.0
 11
20.320682
 21
10.527268
 31
0.0
 11
19.904325
 21
11.234194
 31
0.0
 11
19.473452
 21
12.027141
 31
0.0
 11
19.008416
 21
12.832571
 31
0.0
 11
18.609894
 21
13.476111
 31
0.0
 11
18.338914
 21
13.937122
 31
0.0
 11
18.208244
 21
14.264028
 31
0.0
 11
18.246174
 21
14.386055
 31
0.0
 11
18.910563
 21
13.695645
 31
0.0
 11
19.845707
 21
12.345785
 31
0.0
 11
20.320000
 21
11.392532
 31
0.0
 11
20.702630
 21
10.799743
 31
0.0
 11
21.524272
 21
10.017595
 31
0.0
 11
22.295556
 21
9.511936
 31
0.0
 11
22.480607
 21
9.422210
 31
0.0
 11
22.434828
 21
9.367793
 31
0.0
 11
22.154444
 21
9.344197
 31
0.0
 11
21.802001
 21
9.376968
 31
0.0
 11
21.420605
 21
9.476053
 31
0.0
 11
21.092828
 21
9.619999
 31
0.0
  0
LWPOLYLINE
  5
109
100
AcDbEntity
  8
0
 62
7
100
AcDbPolyline
 90
2
 70
0
 10
21.092828
 20
9.619999
 30
0.0
 10
21.092828
 20
9.619999
 30
0.0
  0
SPLINE
  5
10a
100
AcDbEntity
  8
0
 62
7
100
AcDbSpline
 70
0
 71
3
 72
37
 73
33
 74
31
 40
0.000000
 40
0.000000
 40
0.000000
 40
0.000000
 40
0.605830
 40
1.539762
 40
2.966390
 40
4.676003
 40
6.001043
 40
7.816484
 40
9.205172
 40
10.354882
 40
11.060805
 40
12.180880
 40
13.387130
 40
14.667227
 40
15.263215
 40
15.750016
 40
16.030590
 40
16.299911
 40
16.749578
 40
17.289013
 40
18.318710
 40
19.271287
 40
20.005728
 40
20.146152
 40
20.335769
 40
20.722153
 40
21.531107
 40
22.388710
 40
23.758642
 40
24.571706
 40
25.416778
 40
26.122264
 40
26.122264
 40
26.122264
 40
26.122264
 10
22.018090
 20
10.411401
 30
0.0
 10
21.837775
 20
10.507820
 30
0.0
 10
21.379489
 20
10.752876
 30
0.0
 10
20.829473
 20
11.612052
 30
0.0
 10
20.182882
 20
12.787737
 30
0.0
 10
19.486763
 20
14.114937
 30
0.0
 10
19.096637
 20
15.699467
 30
0.0
 10
19.104915
 20
17.216935
 30
0.0
 10
19.017955
 20
18.661909
 30
0.0
 10
18.915753
 20
19.746732
 30
0.0
 10
18.619952
 20
20.690518
 30
0.0
 10
18.290894
 20
21.676909
 30
0.0
 10
18.660711
 20
22.887244
 30
0.0
 10
19.309121
 20
23.709769
 30
0.0
 10
19.945646
 20
24.173776
 30
0.0
 10
20.319036
 20
24.439458
 30
0.0
 10
20.646023
 20
24.556442
 30
0.0
 10
20.970318
 20
24.638664
 30
0.0
 10
21.331538
 20
24.860527
 30
0.0
 10
21.911490
 20
25.199673
 30
0.0
 10
22.465268
 20
25.890949
 30
0.0
 10
22.681044
 20
26.758721
 30
0.0
 10
22.533760
 20
27.472082
 30
0.0
 10
22.099835
 20
27.576317
 30
0.0
 10
22.104471
 20
27.253375
 30
0.0
 10
22.212622
 20
26.865735
 30
0.0
 10
22.291146
 20
26.097072
 30
0.0
 10
21.512862
 20
25.331043
 30
0.0
 10
20.586043
 20
24.943159
 30
0.0
 10
19.690196
 20
24.472686
 30
0.0
 10
19.033769
 20
24.030719
 30
0.0
 10
18.659250
 20
23.673487
 30
0.0
 10
18.488848
 20
23.510951
 30
0.0
 11
22.018090
 21
10.411401
 31
0.0
 11
21.503893
 21
10.731761
 31
0.0
 11
20.930639
 21
11.469060
 31
0.0
 11
20.229670
 21
12.711602
 31
0.0
 11
19.499568
 21
14.257476
 31
0.0
 11
19.182075
 21
15.543916
 31
0.0
 11
19.083270
 21
17.356667
 31
0.0
 11
19.004424
 21
18.743115
 31
0.0
 11
18.853403
 21
19.882863
 31
0.0
 11
18.658634
 21
20.561385
 31
0.0
 11
18.414070
 21
21.654434
 31
0.0
 11
18.716236
 21
22.822225
 31
0.0
 11
19.504584
 21
23.830765
 31
0.0
 11
19.976532
 21
24.194725
 31
0.0
 11
20.388344
 21
24.454315
 31
0.0
 11
20.650865
 21
24.553333
 31
0.0
 11
20.908035
 21
24.633316
 31
0.0
 11
21.305819
 21
24.843002
 31
0.0
 11
21.758100
 21
25.136994
 31
0.0
 11
22.407225
 21
25.936314
 31
0.0
 11
22.612298
 21
26.866555
 31
0.0
 11
22.284244
 21
27.523657
 31
0.0
 11
22.144630
 21
27.538718
 31
0.0
 11
22.107668
 21
27.352738
 31
0.0
 11
22.174648
 21
26.972204
 31
0.0
 11
22.173620
 21
26.163250
 31
0.0
 11
21.628162
 21
25.501466
 31
0.0
 11
20.424010
 21
24.848219
 31
0.0
 11
19.706892
 21
24.465054
 31
0.0
 11
19.011668
 21
23.984628
 31
0.0
 11
18.488848
 21
23.510951
 31
0.0
  0
LWPOLYLINE
  5
10b
100
AcDbEntity
  8
0
 62
7
100
AcDbPolyline
 90
3
 70
0
 10
18.488848
 20
23.510951
 30
0.0
 10
17.786220
 20
22.718889
 30
0.0
 10
17.232496
 20
23.424444
 30
0.0
  0
SPLINE
  5
10c
100
AcDbEntity
  8
0
 62
7
100
AcDbSpline
 70
0
 71
3
 72
52
 73
48
 74
46
 40
0.000000
 40
0.000000
 40
0.000000
 40
0.000000
 40
2.411587
 40
5.439218
 40
8.155122
 40
12.170788
 40
15.818477
 40
20.225681
 40
23.442155
 40
25.583064
 40
27.772606
 40
31.893608
 40
36.351036
 40
40.464604
 40
42.851890
 40
43.755641
 40
44.706744
 40
46.093324
 40
47.642350
 40
49.161931
 40
49.791928
 40
50.381026
 40
50.829657
 40
51.165308
 40
51.237706
 40
51.476636
 40
51.818731
 40
52.241609
 40
52.906475
 40
53.467492
 40
53.878137
 40
54.069951
 40
55.870934
 40
57.668233
 40
58.636587
 40
58.846106
 40
59.046214
 40
59.260130
 40
59.350013
 40
59.517265
 40
59.898409
 40
60.533556
 40
61.231355
 40
62.332858
 40
66.313240
 40
70.964033
 40
75.144711
 40
75.144711
 40
75.144711
 40
75.144711
 10
17.232496
 20
23.424444
 30
0.0
 10
16.777742
 20
24.087796
 30
0.0
 10
15.752067
 20
25.583955
 30
0.0
 10
14.452281
 20
27.976673
 30
0.0
 10
13.058325
 20
30.916736
 30
0.0
 10
11.903746
 20
34.192610
 30
0.0
 10
11.192837
 20
38.172268
 30
0.0
 10
11.164467
 20
41.937755
 30
0.0
 10
11.170026
 20
45.191374
 30
0.0
 10
11.395518
 20
47.704209
 30
0.0
 10
12.067549
 20
50.445648
 30
0.0
 10
13.288571
 20
53.840594
 30
0.0
 10
15.076914
 20
57.624212
 30
0.0
 10
17.246562
 20
60.799753
 30
0.0
 10
18.392747
 20
62.580417
 30
0.0
 10
19.981052
 20
63.771331
 30
0.0
 10
20.028445
 20
62.215981
 30
0.0
 10
20.242965
 20
61.114775
 30
0.0
 10
20.937689
 20
59.707032
 30
0.0
 10
21.780072
 20
58.817754
 30
0.0
 10
22.450422
 20
58.187236
 30
0.0
 10
22.744474
 20
57.718257
 30
0.0
 10
22.942627
 20
57.283198
 30
0.0
 10
22.845274
 20
56.983001
 30
0.0
 10
23.027135
 20
56.788774
 30
0.0
 10
23.040227
 20
57.176750
 30
0.0
 10
23.227739
 20
57.404489
 30
0.0
 10
23.711735
 20
57.573456
 30
0.0
 10
24.257610
 20
57.582277
 30
0.0
 10
24.798584
 20
57.547922
 30
0.0
 10
25.196763
 20
57.521924
 30
0.0
 10
25.881567
 20
57.049613
 30
0.0
 10
25.318152
 20
55.448498
 30
0.0
 10
25.379562
 20
54.098893
 30
0.0
 10
25.467317
 20
52.992795
 30
0.0
 10
25.140538
 20
52.644709
 30
0.0
 10
24.913449
 20
52.602383
 30
0.0
 10
24.783465
 20
52.662841
 30
0.0
 10
24.584013
 20
52.761805
 30
0.0
 10
24.859553
 20
52.499018
 30
0.0
 10
25.065118
 20
52.320586
 30
0.0
 10
25.517455
 20
51.855224
 30
0.0
 10
25.682431
 20
51.052221
 30
0.0
 10
25.649499
 20
49.119995
 30
0.0
 10
26.413224
 20
45.923356
 30
0.0
 10
28.153309
 20
41.974076
 30
0.0
 10
30.058443
 20
39.712607
 30
0.0
 10
30.960303
 20
38.642064
 30
0.0
 11
17.232496
 21
23.424444
 31
0.0
 11
15.899443
 21
25.434101
 31
0.0
 11
14.429007
 21
28.080678
 31
0.0
 11
13.278598
 21
30.540901
 31
0.0
 11
11.972955
 21
34.338382
 31
0.0
 11
11.330700
 21
37.929085
 31
0.0
 11
11.169333
 21
42.333333
 31
0.0
 11
11.227238
 21
45.549287
 31
0.0
 11
11.446604
 21
47.678928
 31
0.0
 11
11.939702
 21
49.812222
 31
0.0
 11
13.304882
 21
53.700531
 31
0.0
 11
15.257703
 21
57.707419
 31
0.0
 11
17.475908
 21
61.171667
 31
0.0
 11
19.002704
 21
63.006886
 31
0.0
 11
19.804893
 21
63.423129
 31
0.0
 11
20.037778
 21
62.500979
 31
0.0
 11
20.299978
 21
61.139415
 31
0.0
 11
20.998441
 21
59.756798
 31
0.0
 11
22.000958
 21
58.614832
 31
0.0
 11
22.438147
 21
58.161222
 31
0.0
 11
22.758527
 21
57.666861
 31
0.0
 11
22.892738
 21
57.238776
 31
0.0
 11
22.924343
 21
56.904616
 31
0.0
 11
22.975929
 21
56.853818
 31
0.0
 11
23.054543
 21
57.079444
 31
0.0
 11
23.235860
 21
57.369537
 31
0.0
 11
23.628604
 21
57.526312
 31
0.0
 11
24.291805
 21
57.573333
 31
0.0
 11
24.852072
 21
57.544327
 31
0.0
 11
25.255614
 21
57.468284
 31
0.0
 11
25.415067
 21
57.361667
 31
0.0
 11
25.463725
 21
55.561341
 31
0.0
 11
25.409454
 21
53.764861
 31
0.0
 11
25.277427
 21
52.805550
 31
0.0
 11
25.124691
 21
52.662128
 31
0.0
 11
24.928753
 21
52.621489
 31
0.0
 11
24.726547
 21
52.691295
 31
0.0
 11
24.643640
 21
52.726014
 31
0.0
 11
24.754057
 21
52.600390
 31
0.0
 11
25.033895
 21
52.341622
 31
0.0
 11
25.441564
 21
51.854571
 31
0.0
 11
25.635192
 21
51.184175
 31
0.0
 11
25.685998
 21
50.083844
 31
0.0
 11
26.465886
 21
46.180613
 31
0.0
 11
28.412855
 21
41.956967
 31
0.0
 11
30.960303
 21
38.642064
 31
0.0
  0
LWPOLYLINE
  5
10d
100
AcDbEntity
  8
0
 62
7
100
AcDbPolyline
 90
3
 70
0
 10
30.960303
 20
38.642064
 30
0.0
 10
32.239142
 20
37.463270
 30
0.0
 10
32.056143
 20
35.594411
 30
0.0
  0
SPLINE
  5
10e
100
AcDbEntity
  8
0
 62
7
100
AcDbSpline
 70
0
 71
3
 72
52
 73
48
 74
46
 40
0.000000
 40
0.000000
 40
0.000000
 40
0.000000
 40
1.217800
 40
2.284204
 40
3.310076
 40
4.090100
 40
4.717689
 40
5.058338
 40
5.477106
 40
6.402655
 40
7.646672
 40
8.992738
 40
10.189032
 40
10.989251
 40
11.955687
 40
12.661239
 40
13.631731
 40
14.826853
 40
15.986624
 40
17.716103
 40
18.989472
 40
19.777548
 40
20.403054
 40
21.382406
 40
22.252025
 40
23.328786
 40
25.429292
 40
27.419506
 40
29.545901
 40
30.220836
 40
30.720880
 40
30.943544
 40
31.096865
 40
31.526962
 40
32.150402
 40
33.381233
 40
34.361068
 40
35.518831
 40
36.818339
 40
37.955783
 40
38.908032
 40
40.033819
 40
41.337789
 40
43.656516
 40
45.337679
 40
46.919821
 40
49.161321
 40
49.161321
 40
49.161321
 40
49.161321
 10
32.056143
 20
35.594411
 30
0.0
 10
32.025195
 20
35.189428
 30
0.0
 10
31.967144
 20
34.429809
 30
0.0
 10
32.044259
 20
33.322352
 30
0.0
 10
32.267392
 20
32.392800
 30
0.0
 10
32.522901
 20
31.610301
 30
0.0
 10
32.624451
 20
31.063115
 30
0.0
 10
32.813208
 20
30.572178
 30
0.0
 10
32.260727
 20
30.210457
 30
0.0
 10
31.598842
 20
29.754108
 30
0.0
 10
30.536591
 20
29.196980
 30
0.0
 10
29.448379
 20
28.576972
 30
0.0
 10
28.517275
 20
27.947893
 30
0.0
 10
27.789071
 20
27.296342
 30
0.0
 10
27.284962
 20
26.562462
 30
0.0
 10
26.282402
 20
26.562310
 30
0.0
 10
25.631057
 20
27.339144
 30
0.0
 10
24.987983
 20
28.253694
 30
0.0
 10
24.886782
 20
29.664718
 30
0.0
 10
25.212854
 20
31.015039
 30
0.0
 10
25.489614
 20
32.242250
 30
0.0
 10
25.575322
 20
33.151982
 30
0.0
 10
25.317565
 20
33.916632
 30
0.0
 10
24.807929
 20
34.624752
 30
0.0
 10
23.791530
 20
34.884277
 30
0.0
 10
22.490077
 20
34.395361
 30
0.0
 10
21.126479
 20
33.234617
 30
0.0
 10
20.472181
 20
31.134955
 30
0.0
 10
20.869713
 20
29.564406
 30
0.0
 10
21.453794
 20
28.541643
 30
0.0
 10
21.625400
 20
28.242086
 30
0.0
 10
21.912295
 20
27.848612
 30
0.0
 10
21.862626
 20
28.235632
 30
0.0
 10
21.697092
 20
28.528107
 30
0.0
 10
21.369172
 20
29.256534
 30
0.0
 10
20.938843
 20
30.089926
 30
0.0
 10
20.874844
 20
31.249540
 30
0.0
 10
21.265431
 20
32.342474
 30
0.0
 10
21.854183
 20
33.394185
 30
0.0
 10
22.701314
 20
34.185948
 30
0.0
 10
23.736827
 20
34.549345
 30
0.0
 10
25.000333
 20
34.167203
 30
0.0
 10
25.218873
 20
32.384043
 30
0.0
 10
24.836764
 20
30.734183
 30
0.0
 10
24.525677
 20
28.834952
 30
0.0
 10
25.280415
 20
27.082242
 30
0.0
 10
26.159891
 20
26.154924
 30
0.0
 10
26.675459
 20
25.611311
 30
0.0
 11
32.056143
 21
35.594411
 31
0.0
 11
31.994923
 21
34.378152
 31
0.0
 11
32.074765
 21
33.314740
 31
0.0
 11
32.302408
 21
32.314444
 31
0.0
 11
32.518629
 21
31.564988
 31
0.0
 11
32.672849
 21
30.956642
 31
0.0
 11
32.731679
 21
30.621111
 31
0.0
 11
32.436309
 21
30.324255
 31
0.0
 11
31.661947
 21
29.817300
 31
0.0
 11
30.576238
 21
29.210000
 31
0.0
 11
29.411637
 21
28.535019
 31
0.0
 11
28.430448
 21
27.850630
 31
0.0
 11
27.845095
 21
27.305000
 31
0.0
 11
27.133733
 21
26.650812
 31
0.0
 11
26.428228
 21
26.642702
 31
0.0
 11
25.696574
 21
27.280306
 31
0.0
 11
25.083411
 21
28.306145
 31
0.0
 11
24.948900
 21
29.458090
 31
0.0
 11
25.243276
 21
31.162331
 31
0.0
 11
25.492709
 21
32.411032
 31
0.0
 11
25.519167
 21
33.198663
 31
0.0
 11
25.331729
 21
33.795425
 31
0.0
 11
24.711957
 21
34.553721
 31
0.0
 11
23.873518
 21
34.784498
 31
0.0
 11
22.840367
 21
34.481160
 31
0.0
 11
21.268478
 21
33.087858
 31
0.0
 11
20.667603
 21
31.190518
 31
0.0
 11
21.141785
 21
29.117668
 31
0.0
 11
21.463746
 21
28.524475
 31
0.0
 11
21.730284
 21
28.101389
 31
0.0
 11
21.883694
 21
27.940006
 31
0.0
 11
21.876636
 21
28.093164
 31
0.0
 11
21.722489
 21
28.494689
 31
0.0
 11
21.454625
 21
29.057651
 31
0.0
 11
20.991766
 21
30.198136
 31
0.0
 11
20.937798
 21
31.176484
 31
0.0
 11
21.276677
 21
32.283541
 31
0.0
 11
21.940437
 21
33.400744
 31
0.0
 11
22.792236
 21
34.154547
 31
0.0
 11
23.703438
 21
34.431111
 31
0.0
 11
24.762897
 21
34.050398
 31
0.0
 11
25.116755
 21
32.795358
 31
0.0
 11
24.812760
 21
30.496645
 31
0.0
 11
24.687171
 21
28.820180
 31
0.0
 11
25.250834
 21
27.341851
 31
0.0
 11
26.675459
 21
25.611311
 31
0.0
  0
LWPOLYLINE
  5
10f
100
AcDbEntity
  8
0
 62
7
100
AcDbPolyline
 90
3
 70
0
 10
26.675459
 20
25.611311
 30
0.0
 10
28.222222
 20
23.988178
 30
0.0
 10
28.222222
 20
24.872360
 30
0.0
  0
SPLINE
  5
110
100
AcDbEntity
  8
0
 62
7
100
AcDbSpline
 70
0
 71
3
 72
10
 73
6
 74
4
 40
0.000000
 40
0.000000
 40
0.000000
 40
0.000000
 40
0.614475
 40
0.981131
 40
1.823754
 40
1.823754
 40
1.823754
 40
1.823754
 10
28.222222
 20
24.872360
 30
0.0
 10
28.187847
 20
25.102045
 30
0.0
 10
28.132960
 20
25.468782
 30
0.0
 10
28.741286
 20
25.788609
 30
0.0
 10
29.142265
 20
25.678308
 30
0.0
 10
29.421667
 20
25.601450
 30
0.0
 11
28.222222
 21
24.872360
 31
0.0
 11
28.268992
 21
25.485053
 31
0.0
 11
28.582304
 21
25.675504
 31
0.0
 11
29.421667
 21
25.601450
 31
0.0
  0
LWPOLYLINE
  5
111
100
AcDbEntity
  8
0
 62
7
100
AcDbPolyline
 90
3
 70
0
 10
29.421667
 20
25.601450
 30
0.0
 10
30.621111
 20
25.446361
 30
0.0
 10
29.638947
 20
25.917068
 30
0.0
  0
SPLINE
  5
112
100
AcDbEntity
  8
0
 62
7
100
AcDbSpline
 70
0
 71
3
 72
34
 73
30
 74
28
 40
0.000000
 40
0.000000
 40
0.000000
 40
0.000000
 40
0.553923
 40
0.964633
 40
1.163789
 40
1.325612
 40
1.538907
 40
1.758736
 40
2.686148
 40
4.396510
 40
6.095553
 40
6.726939
 40
7.288582
 40
8.217388
 40
9.510395
 40
9.863236
 40
10.808101
 40
12.943300
 40
15.116161
 40
17.242117
 40
18.888778
 40
19.692759
 40
21.224376
 40
22.160069
 40
23.264289
 40
24.298947
 40
25.329121
 40
25.990935
 40
26.484142
 40
26.484142
 40
26.484142
 40
26.484142
 10
29.638947
 20
25.917068
 30
0.0
 10
29.474326
 20
26.003708
 30
0.0
 10
29.187646
 20
26.154589
 30
0.0
 10
28.871212
 20
26.359242
 30
0.0
 10
28.689060
 20
26.583886
 30
0.0
 10
28.770286
 20
26.775579
 30
0.0
 10
28.781401
 20
26.970166
 30
0.0
 10
28.761335
 20
27.439940
 30
0.0
 10
29.729729
 20
28.017536
 30
0.0
 10
30.871921
 20
28.744433
 30
0.0
 10
32.125116
 20
29.266928
 30
0.0
 10
33.092201
 20
29.535686
 30
0.0
 10
33.763963
 20
29.215414
 30
0.0
 10
34.434550
 20
28.570434
 30
0.0
 10
34.890532
 20
27.824746
 30
0.0
 10
35.995138
 20
27.701933
 30
0.0
 10
34.580068
 20
29.128883
 30
0.0
 10
34.040166
 20
30.241324
 30
0.0
 10
33.052266
 20
32.380214
 30
0.0
 10
32.884613
 20
34.261625
 30
0.0
 10
32.485995
 20
35.924816
 30
0.0
 10
33.621336
 20
36.958099
 30
0.0
 10
34.751615
 20
36.327947
 30
0.0
 10
35.875594
 20
36.053511
 30
0.0
 10
36.872648
 20
35.784455
 30
0.0
 10
37.907743
 20
35.563961
 30
0.0
 10
38.782522
 20
35.368418
 30
0.0
 10
39.497495
 20
35.096807
 30
0.0
 10
39.704794
 20
34.762018
 30
0.0
 10
39.793314
 20
34.619060
 30
0.0
 11
29.638947
 21
25.917068
 31
0.0
 11
29.153128
 21
26.183173
 31
0.0
 11
28.823608
 21
26.428323
 31
0.0
 11
28.721725
 21
26.599444
 31
0.0
 11
28.754436
 21
26.757927
 31
0.0
 11
28.777767
 21
26.969943
 31
0.0
 11
28.786667
 21
27.189591
 31
0.0
 11
29.439779
 21
27.848027
 31
0.0
 11
30.915027
 21
28.713463
 31
0.0
 11
32.486281
 21
29.359922
 31
0.0
 11
33.109576
 21
29.460678
 31
0.0
 11
33.631705
 21
29.253738
 31
0.0
 11
34.322029
 21
28.632342
 31
0.0
 11
35.310247
 21
27.798500
 31
0.0
 11
35.662266
 21
27.774424
 31
0.0
 11
35.160421
 21
28.575000
 31
0.0
 11
33.990318
 21
30.361037
 31
0.0
 11
33.182728
 21
32.378245
 31
0.0
 11
32.800533
 21
34.469564
 31
0.0
 11
32.824414
 21
36.116052
 31
0.0
 11
33.430607
 21
36.644177
 31
0.0
 11
34.928223
 21
36.323245
 31
0.0
 11
35.826672
 21
36.061881
 31
0.0
 11
36.896538
 21
35.788590
 31
0.0
 11
37.906201
 21
35.562540
 31
0.0
 11
38.904692
 21
35.309021
 31
0.0
 11
39.496647
 21
35.013067
 31
0.0
 11
39.793314
 21
34.619060
 31
0.0
  0
LWPOLYLINE
  5
113
100
AcDbEntity
  8
0
 62
7
100
AcDbPolyline
 90
3
 70
0
 10
39.793314
 20
34.619060
 30
0.0
 10
40.039778
 20
34.007778
 30
0.0
 10
40.057671
 20
34.642778
 30
0.0
  0
SPLINE
  5
114
100
AcDbEntity
  8
0
 62
7
100
AcDbSpline
 70
0
 71
3
 72
61
 73
57
 74
55
 40
0.000000
 40
0.000000
 40
0.000000
 40
0.000000
 40
0.675838
 40
1.434572
 40
2.878339
 40
5.245762
 40
7.676283
 40
10.371782
 40
11.626769
 40
12.788688
 40
13.609574
 40
15.515496
 40
18.076623
 40
20.912436
 40
22.615587
 40
23.823834
 40
25.536744
 40
27.730550
 40
29.535287
 40
30.965861
 40
31.307443
 40
31.667442
 40
31.990618
 40
32.617223
 40
33.591668
 40
35.145757
 40
36.457145
 40
36.914598
 40
37.293424
 40
37.572114
 40
37.954499
 40
38.397839
 40
38.969179
 40
39.498207
 40
40.203240
 40
41.319927
 40
42.434817
 40
44.041981
 40
45.924289
 40
48.383336
 40
52.250223
 40
55.116296
 40
57.138407
 40
60.028808
 40
61.255881
 40
62.549742
 40
63.633561
 40
64.775542
 40
65.317062
 40
66.061239
 40
68.339210
 40
70.495406
 40
72.606633
 40
73.822965
 40
75.043278
 40
76.014835
 40
76.014835
 40
76.014835
 40
76.014835
 10
40.057671
 20
34.642778
 30
0.0
 10
40.124164
 20
34.910389
 30
0.0
 10
40.265306
 20
35.478435
 30
0.0
 10
41.393621
 20
34.866233
 30
0.0
 10
42.166926
 20
33.710177
 30
0.0
 10
43.691176
 20
32.151718
 30
0.0
 10
45.990739
 20
31.100428
 30
0.0
 10
48.118942
 20
30.791307
 30
0.0
 10
49.823897
 20
30.769004
 30
0.0
 10
50.899433
 20
30.801874
 30
0.0
 10
52.207339
 20
30.871152
 30
0.0
 10
53.769023
 20
31.847775
 30
0.0
 10
55.459124
 20
33.600488
 30
0.0
 10
56.705434
 20
35.626301
 30
0.0
 10
57.602963
 20
37.330623
 30
0.0
 10
57.924088
 20
38.858036
 30
0.0
 10
57.794510
 20
40.570291
 30
0.0
 10
57.596974
 20
42.456812
 30
0.0
 10
57.061285
 20
44.226386
 30
0.0
 10
56.299611
 20
45.160743
 30
0.0
 10
55.797629
 20
45.672376
 30
0.0
 10
55.655908
 20
45.985488
 30
0.0
 10
55.528673
 20
46.419264
 30
0.0
 10
56.035300
 20
47.060494
 30
0.0
 10
57.160178
 20
46.580872
 30
0.0
 10
58.257212
 20
45.909235
 30
0.0
 10
58.943075
 20
45.305658
 30
0.0
 10
59.825352
 20
44.774591
 30
0.0
 10
59.800097
 20
45.294872
 30
0.0
 10
59.935144
 20
45.599323
 30
0.0
 10
60.227044
 20
45.850139
 30
0.0
 10
60.638613
 20
46.061931
 30
0.0
 10
61.143773
 20
46.212287
 30
0.0
 10
61.754810
 20
46.122961
 30
0.0
 10
62.456037
 20
45.774091
 30
0.0
 10
63.303522
 20
45.210577
 30
0.0
 10
63.763335
 20
43.955336
 30
0.0
 10
63.839858
 20
42.422691
 30
0.0
 10
63.512341
 20
40.418895
 30
0.0
 10
61.866465
 20
38.156564
 30
0.0
 10
59.812541
 20
35.914820
 30
0.0
 10
57.681389
 20
33.881658
 30
0.0
 10
56.488175
 20
31.522766
 30
0.0
 10
56.264656
 20
29.466831
 30
0.0
 10
55.898299
 20
27.702602
 30
0.0
 10
55.614159
 20
26.532906
 30
0.0
 10
55.225049
 20
25.426381
 30
0.0
 10
55.002249
 20
24.525856
 30
0.0
 10
54.371350
 20
23.897013
 30
0.0
 10
53.110772
 20
24.245103
 30
0.0
 10
51.485883
 20
24.549633
 30
0.0
 10
49.499592
 20
25.599755
 30
0.0
 10
48.177778
 20
26.868516
 30
0.0
 10
47.148437
 20
27.981069
 30
0.0
 10
46.287997
 20
28.730263
 30
0.0
 10
45.672993
 20
29.125804
 30
0.0
 10
45.400389
 20
29.301130
 30
0.0
 11
40.057671
 21
34.642778
 31
0.0
 11
40.350635
 21
35.251817
 31
0.0
 11
41.066857
 21
35.001407
 31
0.0
 11
42.051642
 21
33.945632
 31
0.0
 11
43.748978
 21
32.295256
 31
0.0
 11
45.940130
 21
31.243455
 31
0.0
 11
48.599333
 21
30.802597
 31
0.0
 11
49.854080
 21
30.778056
 31
0.0
 11
51.015544
 21
30.810554
 31
0.0
 11
51.832273
 21
30.893060
 31
0.0
 11
53.523559
 21
31.771747
 31
0.0
 11
55.327619
 21
33.589642
 31
0.0
 11
56.869942
 21
35.969363
 31
0.0
 11
57.593844
 21
37.511015
 31
0.0
 11
57.841678
 21
38.693571
 31
0.0
 11
57.799743
 21
40.405967
 31
0.0
 11
57.506384
 21
42.580071
 31
0.0
 11
56.909324
 21
44.283185
 31
0.0
 11
56.041744
 21
45.420658
 31
0.0
 11
55.818120
 21
45.678864
 31
0.0
 11
55.658622
 21
46.001602
 31
0.0
 11
55.597783
 21
46.319000
 31
0.0
 11
55.966582
 21
46.825579
 31
0.0
 11
56.926922
 21
46.660387
 31
0.0
 11
58.259720
 21
45.861111
 31
0.0
 11
59.318059
 21
45.086735
 31
0.0
 11
59.749188
 21
44.933791
 31
0.0
 11
59.831117
 21
45.303652
 31
0.0
 11
59.937473
 21
45.561249
 31
0.0
 11
60.216298
 21
45.822925
 31
0.0
 11
60.607228
 21
46.032028
 31
0.0
 11
61.160945
 21
46.172837
 31
0.0
 11
61.686135
 21
46.109233
 31
0.0
 11
62.330592
 21
45.823319
 31
0.0
 11
63.209711
 21
45.134739
 31
0.0
 11
63.657262
 21
44.113624
 31
0.0
 11
63.782228
 21
42.511325
 31
0.0
 11
63.425385
 21
40.663152
 31
0.0
 11
62.126838
 21
38.574926
 31
0.0
 11
59.544557
 21
35.696621
 31
0.0
 11
57.627230
 21
33.566309
 31
0.0
 11
56.718746
 21
31.759768
 31
0.0
 11
56.140601
 21
28.927778
 31
0.0
 11
55.896178
 21
27.725295
 31
0.0
 11
55.575263
 21
26.471863
 31
0.0
 11
55.247334
 21
25.438845
 31
0.0
 11
54.814959
 21
24.381882
 31
0.0
 11
54.402610
 21
24.030866
 31
0.0
 11
53.660641
 21
24.088163
 31
0.0
 11
51.459750
 21
24.675727
 31
0.0
 11
49.553952
 21
25.684246
 31
0.0
 11
47.981771
 21
27.093333
 31
0.0
 11
47.133475
 21
27.965031
 31
0.0
 11
46.206089
 21
28.758202
 31
0.0
 11
45.400389
 21
29.301130
 31
0.0
  0
LWPOLYLINE
  5
115
100
AcDbEntity
  8
0
 62
7
100
AcDbPolyline
 90
3
 70
0
 10
45.400389
 20
29.301130
 30
0.0
 10
44.167783
 20
29.956704
 30
0.0
 10
45.014450
 20
29.310883
 30
0.0
  0
LWPOLYLINE
  5
116
100
AcDbEntity
  8
0
 62
7
100
AcDbPolyline
 90
2
 70
0
 10
22.018090
 20
10.411401
 30
0.0
 10
22.018090
 20
10.411401
 30
0.0
  0
SPLINE
  5
117
100
AcDbEntity
  8
0
 62
7
100
AcDbSpline
 70
0
 71
3
 72
97
 73
93
 74
91
 40
0.000000
 40
0.000000
 40
0.000000
 40
0.000000
 40
1.776867
 40
3.193851
 40
3.994623
 40
4.611690
 40
5.631739
 40
7.727213
 40
9.894640
 40
10.633990
 40
11.780995
 40
14.232327
 40
17.102892
 40
21.420038
 40
23.910831
 40
25.298987
 40
26.289724
 40
26.833116
 40
27.189513
 40
28.073997
 40
29.889719
 40
32.012715
 40
33.399477
 40
33.580730
 40
33.676833
 40
33.983607
 40
35.618559
 40
37.827501
 40
39.519306
 40
40.545753
 40
41.139969
 40
42.110685
 40
43.093509
 40
43.289800
 40
44.217844
 40
45.699867
 40
46.724530
 40
47.617948
 40
48.124562
 40
48.473730
 40
48.911181
 40
49.319888
 40
49.733364
 40
50.070920
 40
50.513241
 40
51.212003
 40
52.024517
 40
53.393009
 40
54.126327
 40
54.871728
 40
55.304164
 40
55.568162
 40
55.740648
 40
55.915493
 40
56.143754
 40
56.425593
 40
56.821839
 40
57.367539
 40
57.967352
 40
58.459898
 40
58.714172
 40
58.782984
 40
59.041553
 40
59.373668
 40
59.731995
 40
60.577338
 40
61.505878
 40
62.735860
 40
63.318430
 40
63.695627
 40
63.808245
 40
63.998612
 40
64.306577
 40
64.672891
 40
65.473659
 40
66.049817
 40
66.912311
 40
67.443542
 40
67.950103
 40
68.324702
 40
68.606967
 40
68.840280
 40
69.179224
 40
69.817076
 40
70.484597
 40
71.592865
 40
72.457242
 40
73.280594
 40
74.716346
 40
75.854685
 40
76.852566
 40
77.497076
 40
77.497076
 40
77.497076
 40
77.497076
 10
45.014450
 20
29.310883
 30
0.0
 10
45.482327
 20
28.937058
 30
0.0
 10
46.323317
 20
28.265122
 30
0.0
 10
47.176251
 20
27.308845
 30
0.0
 10
47.851321
 20
26.499742
 30
0.0
 10
47.356442
 20
25.587419
 30
0.0
 10
45.964034
 20
26.244011
 30
0.0
 10
44.431499
 20
26.878502
 30
0.0
 10
43.238135
 20
27.850995
 30
0.0
 10
41.363487
 20
27.941684
 30
0.0
 10
43.023772
 20
26.346067
 30
0.0
 10
43.712135
 20
24.548047
 30
0.0
 10
42.201165
 20
21.297708
 30
0.0
 10
39.751537
 20
19.230076
 30
0.0
 10
37.626800
 20
17.559676
 30
0.0
 10
36.273002
 20
16.557487
 30
0.0
 10
35.389884
 20
16.338208
 30
0.0
 10
34.678306
 20
16.052560
 30
0.0
 10
34.336241
 20
16.655200
 30
0.0
 10
34.529803
 20
17.671628
 30
0.0
 10
34.174079
 20
19.246100
 30
0.0
 10
33.589281
 20
21.052881
 30
0.0
 10
33.373129
 20
21.996349
 30
0.0
 10
32.805792
 20
22.601058
 30
0.0
 10
32.754198
 20
22.355100
 30
0.0
 10
33.112644
 20
21.789272
 30
0.0
 10
33.145080
 20
20.327448
 30
0.0
 10
33.280606
 20
18.491453
 30
0.0
 10
33.210905
 20
16.924022
 30
0.0
 10
32.851640
 20
15.677585
 30
0.0
 10
31.801944
 20
15.636701
 30
0.0
 10
31.488856
 20
16.552853
 30
0.0
 10
31.635967
 20
17.532627
 30
0.0
 10
30.815468
 20
17.591159
 30
0.0
 10
31.200310
 20
16.254811
 30
0.0
 10
30.955646
 20
15.346671
 30
0.0
 10
30.488849
 20
14.176852
 30
0.0
 10
29.640147
 20
13.945006
 30
0.0
 10
29.050163
 20
13.967909
 30
0.0
 10
28.663900
 20
14.231397
 30
0.0
 10
28.605128
 20
14.650435
 30
0.0
 10
28.508649
 20
15.052443
 30
0.0
 10
28.374375
 20
15.420552
 30
0.0
 10
28.146258
 20
15.747921
 30
0.0
 10
27.928299
 20
16.192580
 30
0.0
 10
27.749695
 20
16.821254
 30
0.0
 10
27.551704
 20
17.760704
 30
0.0
 10
27.380241
 20
18.714342
 30
0.0
 10
27.302149
 20
19.670944
 30
0.0
 10
27.497923
 20
20.292636
 30
0.0
 10
27.590154
 20
20.749780
 30
0.0
 10
27.608603
 20
21.066647
 30
0.0
 10
27.404451
 20
21.203564
 30
0.0
 10
27.218361
 20
21.088089
 30
0.0
 10
27.113905
 20
20.879113
 30
0.0
 10
27.101020
 20
20.573696
 30
0.0
 10
26.986327
 20
20.175888
 30
0.0
 10
26.718294
 20
19.743790
 30
0.0
 10
26.310338
 20
19.309227
 30
0.0
 10
26.112337
 20
19.063032
 30
0.0
 10
25.732625
 20
18.751590
 30
0.0
 10
25.965752
 20
18.738329
 30
0.0
 10
26.155253
 20
18.835588
 30
0.0
 10
26.485319
 20
18.759159
 30
0.0
 10
26.964489
 20
18.599237
 30
0.0
 10
27.484634
 20
17.974194
 30
0.0
 10
27.265461
 20
16.898026
 30
0.0
 10
26.649548
 20
16.220053
 30
0.0
 10
26.144312
 20
15.675462
 30
0.0
 10
25.868571
 20
15.475400
 30
0.0
 10
25.812953
 20
15.175606
 30
0.0
 10
26.091522
 20
15.346022
 30
0.0
 10
26.291505
 20
15.462165
 30
0.0
 10
26.674378
 20
15.794104
 30
0.0
 10
27.204223
 20
16.204972
 30
0.0
 10
27.957730
 20
15.714303
 30
0.0
 10
27.897623
 20
14.979491
 30
0.0
 10
27.785958
 20
14.371890
 30
0.0
 10
27.680683
 20
13.905714
 30
0.0
 10
27.559103
 20
13.547420
 30
0.0
 10
27.442148
 20
13.249178
 30
0.0
 10
27.624414
 20
12.982324
 30
0.0
 10
28.019217
 20
12.898650
 30
0.0
 10
28.588410
 20
12.579493
 30
0.0
 10
28.338302
 20
11.658404
 30
0.0
 10
27.745117
 20
11.051068
 30
0.0
 10
27.068273
 20
10.362954
 30
0.0
 10
26.013734
 20
10.144793
 30
0.0
 10
24.886721
 20
10.186791
 30
0.0
 10
23.695779
 20
10.220528
 30
0.0
 10
22.769367
 20
10.279729
 30
0.0
 10
22.229820
 20
10.374292
 30
0.0
 10
22.018090
 20
10.411401
 30
0.0
 11
45.014450
 21
29.310883
 31
0.0
 11
46.368855
 21
28.160734
 31
0.0
 11
47.330110
 21
27.119661
 31
0.0
 11
47.695561
 21
26.407144
 31
0.0
 11
47.398695
 21
25.866180
 31
0.0
 11
46.392914
 21
26.036197
 31
0.0
 11
44.505445
 21
26.946403
 31
0.0
 11
42.535627
 21
27.850590
 31
0.0
 11
41.796932
 21
27.819484
 31
0.0
 11
42.423492
 21
26.858733
 31
0.0
 11
43.370379
 21
24.597664
 31
0.0
 11
42.317472
 21
21.927171
 31
0.0
 11
39.272484
 21
18.866812
 31
0.0
 11
37.310938
 21
17.331760
 31
0.0
 11
36.142918
 21
16.581621
 31
0.0
 11
35.207228
 21
16.255977
 31
0.0
 11
34.668528
 21
16.184725
 31
0.0
 11
34.463588
 21
16.476304
 31
0.0
 11
34.431117
 21
17.360192
 31
0.0
 11
34.166559
 21
19.156537
 31
0.0
 11
33.574247
 21
21.195233
 31
0.0
 11
32.956226
 21
22.436667
 31
0.0
 11
32.806682
 21
22.539083
 31
0.0
 11
32.778863
 21
22.447094
 31
0.0
 11
32.870877
 21
22.154444
 31
0.0
 11
33.152185
 21
20.543875
 31
0.0
 11
33.244946
 21
18.336882
 31
0.0
 11
33.102186
 21
16.651111
 31
0.0
 11
32.611932
 21
15.749310
 31
0.0
 11
32.018123
 21
15.727335
 31
0.0
 11
31.582625
 21
16.594878
 31
0.0
 11
31.314741
 21
17.540490
 31
0.0
 11
31.118807
 21
17.552310
 31
0.0
 11
31.040290
 21
16.627594
 31
0.0
 11
30.865187
 21
15.155950
 31
0.0
 11
30.354382
 21
14.267687
 31
0.0
 11
29.512017
 21
13.970000
 31
0.0
 11
29.008637
 21
14.027149
 31
0.0
 11
28.728941
 21
14.236165
 31
0.0
 11
28.597513
 21
14.653407
 31
0.0
 11
28.501053
 21
15.050568
 31
0.0
 11
28.348427
 21
15.434843
 31
0.0
 11
28.172677
 21
15.723037
 31
0.0
 11
27.975699
 21
16.119077
 31
0.0
 11
27.767419
 21
16.786076
 31
0.0
 11
27.592931
 21
17.579634
 31
0.0
 11
27.370855
 21
18.929986
 31
0.0
 11
27.349708
 21
19.663000
 31
0.0
 11
27.511835
 21
20.390556
 31
0.0
 11
27.589453
 21
20.815968
 31
0.0
 11
27.553833
 21
21.077552
 31
0.0
 11
27.406151
 21
21.166667
 31
0.0
 11
27.248583
 21
21.090882
 31
0.0
 11
27.136201
 21
20.892203
 31
0.0
 11
27.093333
 21
20.613644
 31
0.0
 11
26.986977
 21
20.231938
 31
0.0
 11
26.708152
 21
19.762848
 31
0.0
 11
26.317222
 21
19.307931
 31
0.0
 11
25.973837
 21
18.954820
 31
0.0
 11
25.819655
 21
18.752624
 31
0.0
 11
25.888056
 21
18.745118
 31
0.0
 11
26.140963
 21
18.798934
 31
0.0
 11
26.470484
 21
18.757501
 31
0.0
 11
26.805278
 21
18.629788
 31
0.0
 11
27.336672
 21
17.972350
 31
0.0
 11
27.226848
 21
17.050328
 31
0.0
 11
26.499042
 21
16.058786
 31
0.0
 11
26.087590
 21
15.646360
 31
0.0
 11
25.851477
 21
15.352204
 31
0.0
 11
25.841820
 21
15.240000
 31
0.0
 11
26.021564
 21
15.302703
 31
0.0
 11
26.281987
 21
15.467086
 31
0.0
 11
26.566711
 21
15.697561
 31
0.0
 11
27.287641
 21
16.046113
 31
0.0
 11
27.776706
 21
15.741526
 31
0.0
 11
27.872437
 21
14.884360
 31
0.0
 11
27.780219
 21
14.361196
 31
0.0
 11
27.662121
 21
13.868594
 31
0.0
 11
27.543711
 21
13.513201
 31
0.0
 11
27.488980
 21
13.236293
 31
0.0
 11
27.612628
 21
13.038439
 31
0.0
 11
27.924038
 21
12.904622
 31
0.0
 11
28.437954
 21
12.526805
 31
0.0
 11
28.353598
 21
11.864636
 31
0.0
 11
27.679487
 21
10.984958
 31
0.0
 11
27.016047
 21
10.430887
 31
0.0
 11
26.222258
 21
10.212235
 31
0.0
 11
24.786709
 21
10.188132
 31
0.0
 11
23.649105
 21
10.229040
 31
0.0
 11
22.654453
 21
10.309252
 31
0.0
 11
22.018090
 21
10.411401
 31
0.0
  0
LWPOLYLINE
  5
118
100
AcDbEntity
  8
0
 62
7
100
AcDbPolyline
 90
3
 70
0
 10
27.211085
 20
11.587683
 30
0.0
 10
27.798889
 20
12.199739
 30
0.0
 10
27.093333
 20
11.834794
 30
0.0
  0
SPLINE
  5
119
100
AcDbEntity
  8
0
 62
7
100
AcDbSpline
 70
0
 71
3
 72
85
 73
81
 74
79
 40
0.000000
 40
0.000000
 40
0.000000
 40
0.000000
 40
1.578136
 40
3.466463
 40
4.624260
 40
5.229092
 40
5.858466
 40
7.230823
 40
8.414254
 40
9.195522
 40
9.927368
 40
10.851301
 40
11.267037
 40
11.740546
 40
12.912595
 40
14.576164
 40
15.914599
 40
16.666524
 40
17.148428
 40
17.634705
 40
18.175592
 40
18.779607
 40
19.659251
 40
20.852643
 40
22.280505
 40
23.295542
 40
23.597875
 40
24.293643
 40
25.902481
 40
27.494957
 40
28.352395
 40
28.857782
 40
29.644508
 40
30.340341
 40
31.801582
 40
33.542090
 40
34.817255
 40
35.942867
 40
36.877432
 40
37.667236
 40
39.026308
 40
40.060658
 40
40.481304
 40
40.944440
 40
41.796133
 40
42.796914
 40
44.115374
 40
45.998678
 40
47.739278
 40
49.481002
 40
50.046276
 40
50.533351
 40
50.934578
 40
51.308210
 40
51.740226
 40
52.144930
 40
52.558978
 40
53.021772
 40
53.446444
 40
53.883418
 40
54.373304
 40
54.817171
 40
55.251378
 40
55.438621
 40
56.190442
 40
56.896761
 40
57.651140
 40
58.300270
 40
58.941561
 40
59.288948
 40
59.719423
 40
60.118430
 40
60.526456
 40
60.948647
 40
61.244552
 40
61.741218
 40
63.113258
 40
65.636890
 40
67.552092
 40
69.158036
 40
69.158036
 40
69.158036
 40
69.158036
 10
27.093333
 20
11.834794
 30
0.0
 10
26.578345
 20
11.696126
 30
0.0
 10
25.447145
 20
11.391533
 30
0.0
 10
23.955975
 20
11.507218
 30
0.0
 10
22.599238
 20
11.565718
 30
0.0
 10
22.236924
 20
12.536284
 30
0.0
 10
23.209274
 20
12.947716
 30
0.0
 10
24.197132
 20
12.994735
 30
0.0
 10
25.321511
 20
13.121460
 30
0.0
 10
26.192766
 20
13.391258
 30
0.0
 10
26.789390
 20
14.016453
 30
0.0
 10
27.168113
 20
14.422457
 30
0.0
 10
27.472781
 20
15.298085
 30
0.0
 10
26.656400
 20
14.573136
 30
0.0
 10
25.806644
 20
14.331883
 30
0.0
 10
24.368188
 20
13.964128
 30
0.0
 10
23.119718
 20
13.877913
 30
0.0
 10
22.278758
 20
14.083556
 30
0.0
 10
21.779786
 20
14.435292
 30
0.0
 10
21.688248
 20
14.964261
 30
0.0
 10
21.869540
 20
15.529801
 30
0.0
 10
22.582008
 20
15.769270
 30
0.0
 10
23.450947
 20
15.574058
 30
0.0
 10
24.661092
 20
15.803244
 30
0.0
 10
25.618843
 20
16.372550
 30
0.0
 10
26.591747
 20
16.987587
 30
0.0
 10
26.341563
 20
17.726524
 30
0.0
 10
25.281762
 20
17.555729
 30
0.0
 10
24.098083
 20
17.594763
 30
0.0
 10
22.733854
 20
17.504059
 30
0.0
 10
21.707996
 20
17.512641
 30
0.0
 10
21.110233
 20
17.890307
 30
0.0
 10
20.664401
 20
18.653349
 30
0.0
 10
21.751391
 20
19.205109
 30
0.0
 10
22.990535
 20
19.069494
 30
0.0
 10
24.502847
 20
19.137918
 30
0.0
 10
25.856291
 20
19.687361
 30
0.0
 10
26.413406
 20
20.676397
 30
0.0
 10
26.554615
 20
21.763113
 30
0.0
 10
25.528589
 20
22.338766
 30
0.0
 10
24.442028
 20
22.188191
 30
0.0
 10
23.573627
 20
22.007154
 30
0.0
 10
22.831822
 20
22.128395
 30
0.0
 10
22.844270
 20
22.818286
 30
0.0
 10
23.123714
 20
23.555172
 30
0.0
 10
24.198057
 20
23.979946
 30
0.0
 10
25.599193
 20
23.979227
 30
0.0
 10
27.204196
 20
23.356100
 30
0.0
 10
28.360437
 20
21.835990
 30
0.0
 10
28.331680
 20
20.408357
 30
0.0
 10
28.095355
 20
19.511367
 30
0.0
 10
28.085639
 20
19.016701
 30
0.0
 10
28.222698
 20
18.614944
 30
0.0
 10
28.387988
 20
18.248219
 30
0.0
 10
28.477156
 20
17.850947
 30
0.0
 10
28.501371
 20
17.434848
 30
0.0
 10
28.547037
 20
17.008900
 30
0.0
 10
28.682246
 20
16.592492
 30
0.0
 10
28.899555
 20
16.206037
 30
0.0
 10
29.136885
 20
15.827286
 30
0.0
 10
29.298214
 20
15.376041
 30
0.0
 10
29.445249
 20
15.019720
 30
0.0
 10
29.415231
 20
14.422211
 30
0.0
 10
29.886595
 20
14.760141
 30
0.0
 10
29.972935
 20
15.292686
 30
0.0
 10
30.276245
 20
15.974989
 30
0.0
 10
30.418159
 20
16.665456
 30
0.0
 10
30.505760
 20
17.343720
 30
0.0
 10
30.445042
 20
17.893411
 30
0.0
 10
30.702610
 20
18.353526
 30
0.0
 10
31.142257
 20
18.356166
 30
0.0
 10
31.540397
 20
18.293620
 30
0.0
 10
31.911105
 20
18.052554
 30
0.0
 10
32.083355
 20
17.774599
 30
0.0
 10
32.417761
 20
17.308454
 30
0.0
 10
32.385370
 20
18.505920
 30
0.0
 10
32.384362
 20
19.573190
 30
0.0
 10
32.169488
 20
21.694273
 30
0.0
 10
31.467814
 20
23.637401
 30
0.0
 10
30.485995
 20
24.330363
 30
0.0
 10
30.038202
 20
24.646413
 30
0.0
 11
27.093333
 21
11.834794
 31
0.0
 11
25.551142
 21
11.499893
 31
0.0
 11
23.662875
 21
11.514966
 31
0.0
 11
22.561170
 21
11.870972
 31
0.0
 11
22.396107
 21
12.452845
 31
0.0
 11
22.919666
 21
12.802126
 31
0.0
 11
24.275470
 21
13.014630
 31
0.0
 11
25.447151
 21
13.180984
 31
0.0
 11
26.177154
 21
13.459328
 31
0.0
 11
26.722312
 21
13.947592
 31
0.0
 11
27.251596
 21
14.704896
 31
0.0
 11
27.353436
 21
15.107965
 31
0.0
 11
26.952033
 21
14.856796
 31
0.0
 11
25.890315
 21
14.360354
 31
0.0
 11
24.267242
 21
13.995531
 31
0.0
 11
22.929495
 21
13.952638
 31
0.0
 11
22.207366
 21
14.162212
 31
0.0
 11
21.836085
 21
14.469428
 31
0.0
 11
21.731111
 21
14.944240
 31
0.0
 11
21.924049
 21
15.449544
 31
0.0
 11
22.478290
 21
15.689651
 31
0.0
 11
23.356976
 21
15.648590
 31
0.0
 11
24.535339
 21
15.837390
 31
0.0
 11
25.803531
 21
16.493497
 31
0.0
 11
26.469963
 21
17.259114
 31
0.0
 11
26.364609
 21
17.542496
 31
0.0
 11
25.674545
 21
17.631415
 31
0.0
 11
24.066928
 21
17.568759
 31
0.0
 11
22.475402
 21
17.513771
 31
0.0
 11
21.623034
 21
17.606879
 31
0.0
 11
21.199108
 21
17.882021
 31
0.0
 11
20.891797
 21
18.606243
 31
0.0
 11
21.457246
 21
19.011766
 31
0.0
 11
22.915004
 21
19.112608
 31
0.0
 11
24.649006
 21
19.262954
 31
0.0
 11
25.796946
 21
19.818183
 31
0.0
 11
26.373063
 21
20.785184
 31
0.0
 11
26.368148
 21
21.719737
 31
0.0
 11
25.715522
 21
22.164563
 31
0.0
 11
24.356460
 21
22.159688
 31
0.0
 11
23.326784
 21
22.061455
 31
0.0
 11
22.927119
 21
22.192643
 31
0.0
 11
22.860000
 21
22.650890
 31
0.0
 11
23.191136
 21
23.435574
 31
0.0
 11
24.088089
 21
23.879466
 31
0.0
 11
25.406172
 21
23.910965
 31
0.0
 11
27.143609
 21
23.184225
 31
0.0
 11
28.166533
 21
21.775924
 31
0.0
 11
28.221444
 21
20.035066
 31
0.0
 11
28.112394
 21
19.480410
 31
0.0
 11
28.115857
 21
18.993347
 31
0.0
 11
28.231584
 21
18.609172
 31
0.0
 11
28.369026
 21
18.261738
 31
0.0
 11
28.467053
 21
17.840990
 31
0.0
 11
28.504445
 21
17.438017
 31
0.0
 11
28.558644
 21
17.027532
 31
0.0
 11
28.700733
 21
16.587090
 31
0.0
 11
28.899949
 21
16.212044
 31
0.0
 11
29.115665
 21
15.832027
 31
0.0
 11
29.301006
 21
15.378555
 31
0.0
 11
29.415848
 21
14.949802
 31
0.0
 11
29.520953
 21
14.528508
 31
0.0
 11
29.681953
 21
14.624108
 31
0.0
 11
30.008122
 21
15.301491
 31
0.0
 11
30.245809
 21
15.966616
 31
0.0
 11
30.415336
 21
16.701701
 31
0.0
 11
30.480001
 21
17.347602
 31
0.0
 11
30.525062
 21
17.987307
 31
0.0
 11
30.717329
 21
18.276636
 31
0.0
 11
31.142430
 21
18.344444
 31
0.0
 11
31.533521
 21
18.265359
 31
0.0
 11
31.877030
 21
18.045162
 31
0.0
 11
32.133036
 21
17.709444
 31
0.0
 11
32.330429
 21
17.489001
 31
0.0
 11
32.400414
 21
17.980711
 31
0.0
 11
32.366868
 21
19.352342
 31
0.0
 11
32.033497
 21
21.853857
 31
0.0
 11
31.262372
 21
23.606959
 31
0.0
 11
30.038202
 21
24.646413
 31
0.0
  0
LWPOLYLINE
  5
11a
100
AcDbEntity
  8
0
 62
7
100
AcDbPolyline
 90
3
 70
0
 10
30.038202
 20
24.646413
 30
0.0
 10
29.031625
 20
25.126417
 30
0.0
 10
29.120813
 20
24.204874
 30
0.0
  0
SPLINE
  5
11b
100
AcDbEntity
  8
0
 62
7
100
AcDbSpline
 70
0
 71
3
 72
13
 73
9
 74
7
 40
0.000000
 40
0.000000
 40
0.000000
 40
0.000000
 40
0.578082
 40
0.913937
 40
1.285220
 40
1.855424
 40
2.947115
 40
4.684952
 40
4.684952
 40
4.684952
 40
4.684952
 10
29.120813
 20
24.204874
 30
0.0
 10
29.145078
 20
24.012956
 30
0.0
 10
29.183440
 20
23.709538
 30
0.0
 10
29.016432
 20
23.274969
 30
0.0
 10
28.555961
 20
23.144973
 30
0.0
 10
27.913760
 20
23.433653
 30
0.0
 10
27.059722
 20
24.178273
 30
0.0
 10
26.393619
 20
24.846744
 30
0.0
 10
25.984512
 20
25.257306
 30
0.0
 11
29.120813
 21
24.204874
 31
0.0
 11
29.130746
 21
23.626877
 31
0.0
 11
28.984260
 21
23.324651
 31
0.0
 11
28.634205
 21
23.200908
 31
0.0
 11
28.091126
 21
23.374682
 31
0.0
 11
27.228692
 21
24.044007
 31
0.0
 11
25.984512
 21
25.257306
 31
0.0
  0
LWPOLYLINE
  5
11c
100
AcDbEntity
  8
0
 62
7
100
AcDbPolyline
 90
3
 70
0
 10
25.984512
 20
25.257306
 30
0.0
 10
23.910611
 20
27.396127
 30
0.0
 10
24.093184
 20
29.714176
 30
0.0
  0
SPLINE
  5
11d
100
AcDbEntity
  8
0
 62
7
100
AcDbSpline
 70
0
 71
3
 72
46
 73
42
 74
40
 40
0.000000
 40
0.000000
 40
0.000000
 40
0.000000
 40
1.267145
 40
2.353980
 40
3.025224
 40
3.729790
 40
4.326098
 40
5.362240
 40
6.800828
 40
8.091002
 40
9.824416
 40
10.823176
 40
11.714153
 40
12.316578
 40
13.382222
 40
14.460212
 40
15.619854
 40
16.772753
 40
17.631434
 40
18.092560
 40
18.220637
 40
18.323273
 40
18.457365
 40
18.880575
 40
19.574780
 40
20.246170
 40
20.803680
 40
21.901744
 40
23.438070
 40
25.241069
 40
26.345843
 40
27.136856
 40
27.738497
 40
28.395952
 40
28.971222
 40
30.085903
 40
31.437960
 40
33.243339
 40
34.191301
 40
34.917093
 40
35.530298
 40
35.530298
 40
35.530298
 40
35.530298
 10
24.093184
 20
29.714176
 30
0.0
 10
24.128015
 20
30.133156
 30
0.0
 10
24.192719
 20
30.911498
 30
0.0
 10
24.261779
 20
31.939049
 30
0.0
 10
24.366875
 20
32.702752
 30
0.0
 10
24.321791
 20
33.534439
 30
0.0
 10
23.351137
 20
33.488101
 30
0.0
 10
22.647179
 20
32.740301
 30
0.0
 10
21.832330
 20
31.725818
 30
0.0
 10
21.807503
 20
30.144400
 30
0.0
 10
22.449999
 20
28.946073
 30
0.0
 10
22.993993
 20
27.869374
 30
0.0
 10
23.291037
 20
27.093918
 30
0.0
 10
23.500332
 20
26.255076
 30
0.0
 10
23.245288
 20
25.327129
 30
0.0
 10
22.549784
 20
24.430548
 30
0.0
 10
21.498387
 20
23.956804
 30
0.0
 10
20.515183
 20
23.576982
 30
0.0
 10
19.804092
 20
23.155719
 30
0.0
 10
19.564027
 20
22.642879
 30
0.0
 10
19.696521
 20
22.426864
 30
0.0
 10
19.620269
 20
22.302602
 30
0.0
 10
19.378296
 20
22.311314
 30
0.0
 10
19.140006
 20
21.864620
 30
0.0
 10
19.187493
 20
21.261066
 30
0.0
 10
19.530935
 20
20.705224
 30
0.0
 10
19.787290
 20
19.968972
 30
0.0
 10
19.862472
 20
18.898750
 30
0.0
 10
19.931939
 20
17.423360
 30
0.0
 10
19.967936
 20
15.948284
 30
0.0
 10
20.099800
 20
14.703273
 30
0.0
 10
20.493752
 20
13.957658
 30
0.0
 10
20.868589
 20
13.388362
 30
0.0
 10
21.150551
 20
12.841409
 30
0.0
 10
21.397547
 20
12.102002
 30
0.0
 10
22.005053
 20
11.217680
 30
0.0
 10
23.444898
 20
10.800797
 30
0.0
 10
24.812090
 20
10.799179
 30
0.0
 10
25.961287
 20
10.945929
 30
0.0
 10
26.708512
 20
11.164730
 30
0.0
 10
27.053223
 20
11.454830
 30
0.0
 10
27.211086
 20
11.587683
 30
0.0
 11
24.093184
 21
29.714176
 31
0.0
 11
24.194497
 21
30.977265
 31
0.0
 11
24.284602
 21
32.060358
 31
0.0
 11
24.343990
 21
32.728970
 31
0.0
 11
24.169547
 21
33.411598
 31
0.0
 11
23.574357
 21
33.448101
 31
0.0
 11
22.744979
 21
32.827036
 31
0.0
 11
21.960135
 21
31.621401
 31
0.0
 11
21.900968
 21
30.332584
 31
0.0
 11
22.556802
 21
28.728027
 31
0.0
 11
22.993838
 21
27.829961
 31
0.0
 11
23.305547
 21
26.995289
 31
0.0
 11
23.424446
 21
26.404714
 31
0.0
 11
23.184097
 21
25.366529
 31
0.0
 11
22.515277
 21
24.521103
 31
0.0
 11
21.496330
 21
23.967465
 31
0.0
 11
20.438807
 21
23.508313
 31
0.0
 11
19.757795
 21
22.985287
 31
0.0
 11
19.637757
 21
22.540059
 31
0.0
 11
19.672916
 21
22.416902
 31
0.0
 11
19.619829
 21
22.329062
 31
0.0
 11
19.489991
 21
22.295556
 31
0.0
 11
19.226378
 21
21.964473
 31
0.0
 11
19.241754
 21
21.270439
 31
0.0
 11
19.526176
 21
20.662271
 31
0.0
 11
19.711478
 21
20.136456
 31
0.0
 11
19.848534
 21
19.046979
 31
0.0
 11
19.922425
 21
17.512431
 31
0.0
 11
20.004393
 21
15.711296
 31
0.0
 11
20.189590
 21
14.622156
 31
0.0
 11
20.534899
 21
13.910493
 31
0.0
 11
20.850010
 21
13.397974
 31
0.0
 11
21.146181
 21
12.811006
 31
0.0
 11
21.359292
 21
12.276667
 31
0.0
 11
22.026820
 21
11.383963
 31
0.0
 11
23.289792
 21
10.901302
 31
0.0
 11
25.094420
 21
10.849240
 31
0.0
 11
26.032751
 21
10.984021
 31
0.0
 11
26.718038
 21
11.223097
 31
0.0
 11
27.211086
 21
11.587683
 31
0.0
  0
LWPOLYLINE
  5
11e
100
AcDbEntity
  8
0
 62
7
100
AcDbPolyline
 90
2
 70
0
 10
27.211086
 20
11.587683
 30
0.0
 10
27.211085
 20
11.587683
 30
0.0
  0
SPLINE
  5
11f
100
AcDbEntity
  8
0
 62
7
100
AcDbSpline
 70
0
 71
3
 72
16
 73
12
 74
10
 40
0.000000
 40
0.000000
 40
0.000000
 40
0.000000
 40
0.391247
 40
0.796816
 40
1.134809
 40
1.247173
 40
1.480686
 40
1.982297
 40
2.463856
 40
2.646048
 40
2.824218
 40
2.824218
 40
2.824218
 40
2.824218
 10
25.185043
 20
12.335160
 30
0.0
 10
25.056353
 20
12.354516
 30
0.0
 10
24.794264
 20
12.393935
 30
0.0
 10
24.405222
 20
12.368296
 30
0.0
 10
24.145390
 20
12.389840
 30
0.0
 10
23.881869
 20
12.228958
 30
0.0
 10
24.372178
 20
12.217384
 30
0.0
 10
24.682055
 20
12.207445
 30
0.0
 10
25.012022
 20
12.195373
 30
0.0
 10
25.440333
 20
12.268916
 30
0.0
 10
25.269504
 20
12.313240
 30
0.0
 10
25.185043
 20
12.335154
 30
0.0
 11
25.185043
 21
12.335160
 31
0.0
 11
24.796303
 21
12.379383
 31
0.0
 11
24.390740
 21
12.377335
 31
0.0
 11
24.056154
 21
12.329459
 31
0.0
 11
23.963737
 21
12.265548
 31
0.0
 11
24.193049
 21
12.221452
 31
0.0
 11
24.694444
 21
12.206721
 31
0.0
 11
25.175601
 21
12.226410
 31
0.0
 11
25.351853
 21
12.272551
 31
0.0
 11
25.185043
 21
12.335154
 31
0.0
  0
LWPOLYLINE
  5
120
100
AcDbEntity
  8
0
 62
7
100
AcDbPolyline
 90
2
 70
0
 10
25.185043
 20
12.335154
 30
0.0
 10
25.185043
 20
12.335160
 30
0.0
  0
SPLINE
  5
121
100
AcDbEntity
  8
0
 62
7
100
AcDbSpline
 70
0
 71
3
 72
16
 73
12
 74
10
 40
0.000000
 40
0.000000
 40
0.000000
 40
0.000000
 40
0.391247
 40
0.796816
 40
1.134809
 40
1.247173
 40
1.480686
 40
1.982297
 40
2.463856
 40
2.646048
 40
2.824218
 40
2.824218
 40
2.824218
 40
2.824218
 10
24.056154
 20
14.875160
 30
0.0
 10
23.927465
 20
14.894516
 30
0.0
 10
23.665375
 20
14.933935
 30
0.0
 10
23.276333
 20
14.908296
 30
0.0
 10
23.016501
 20
14.929840
 30
0.0
 10
22.752980
 20
14.768958
 30
0.0
 10
23.243289
 20
14.757384
 30
0.0
 10
23.553166
 20
14.747445
 30
0.0
 10
23.883133
 20
14.735373
 30
0.0
 10
24.311444
 20
14.808916
 30
0.0
 10
24.140615
 20
14.853240
 30
0.0
 10
24.056154
 20
14.875154
 30
0.0
 11
24.056154
 21
14.875160
 31
0.0
 11
23.667414
 21
14.919383
 31
0.0
 11
23.261851
 21
14.917335
 31
0.0
 11
22.927265
 21
14.869459
 31
0.0
 11
22.834848
 21
14.805548
 31
0.0
 11
23.064160
 21
14.761452
 31
0.0
 11
23.565556
 21
14.746721
 31
0.0
 11
24.046712
 21
14.766410
 31
0.0
 11
24.222964
 21
14.812551
 31
0.0
 11
24.056154
 21
14.875154
 31
0.0
  0
LWPOLYLINE
  5
122
100
AcDbEntity
  8
0
 62
7
100
AcDbPolyline
 90
2
 70
0
 10
24.056154
 20
14.875154
 30
0.0
 10
24.056154
 20
14.875160
 30
0.0
  0
SPLINE
  5
123
100
AcDbEntity
  8
0
 62
7
100
AcDbSpline
 70
0
 71
3
 72
49
 73
45
 74
43
 40
0.000000
 40
0.000000
 40
0.000000
 40
0.000000
 40
3.008328
 40
5.317518
 40
6.888806
 40
7.418453
 40
8.133142
 40
8.899877
 40
9.964804
 40
10.529101
 40
11.111355
 40
11.848745
 40
13.130150
 40
15.237865
 40
17.016588
 40
17.944295
 40
21.158362
 40
23.356598
 40
24.741516
 40
26.206342
 40
27.288105
 40
28.047059
 40
28.461221
 40
29.226089
 40
30.683341
 40
32.769209
 40
33.200740
 40
33.552692
 40
34.418351
 40
36.050137
 40
37.846653
 40
39.880912
 40
40.772344
 40
41.538994
 40
42.028630
 40
42.871460
 40
43.935634
 40
45.547212
 40
46.196321
 40
46.614705
 40
47.248127
 40
47.861463
 40
48.586431
 40
49.269182
 40
49.269182
 40
49.269182
 40
49.269182
 10
38.477611
 20
19.238635
 30
0.0
 10
39.246033
 20
19.893578
 30
0.0
 10
40.604295
 20
21.051257
 30
0.0
 10
42.020088
 20
22.814109
 30
0.0
 10
42.728775
 20
24.239684
 30
0.0
 10
42.496070
 20
25.170653
 30
0.0
 10
42.200510
 20
25.773102
 30
0.0
 10
41.726293
 20
26.481154
 30
0.0
 10
41.183504
 20
27.069305
 30
0.0
 10
40.885664
 20
27.772872
 30
0.0
 10
41.049011
 20
28.432711
 30
0.0
 10
41.861444
 20
28.957714
 30
0.0
 10
43.323589
 20
28.376050
 30
0.0
 10
44.420052
 20
27.914258
 30
0.0
 10
47.049932
 20
26.393478
 30
0.0
 10
45.101180
 20
28.402874
 30
0.0
 10
43.585304
 20
29.176288
 30
0.0
 10
41.626075
 20
30.496134
 30
0.0
 10
40.381845
 20
31.644078
 30
0.0
 10
39.807774
 20
32.846177
 30
0.0
 10
39.281064
 20
33.802516
 30
0.0
 10
38.876174
 20
34.454896
 30
0.0
 10
38.306643
 20
34.802300
 30
0.0
 10
37.406256
 20
34.801950
 30
0.0
 10
36.005613
 20
35.279383
 30
0.0
 10
34.851234
 20
35.485934
 30
0.0
 10
33.766665
 20
35.892581
 30
0.0
 10
33.523667
 20
35.279360
 30
0.0
 10
33.608187
 20
34.374010
 30
0.0
 10
33.720993
 20
32.915447
 30
0.0
 10
34.404629
 20
31.208368
 30
0.0
 10
35.247859
 20
29.878806
 30
0.0
 10
35.935401
 20
28.852493
 30
0.0
 10
36.243734
 20
28.211914
 30
0.0
 10
36.517320
 20
27.546420
 30
0.0
 10
35.968928
 20
26.651696
 30
0.0
 10
34.659916
 20
27.183310
 30
0.0
 10
33.864461
 20
27.861660
 30
0.0
 10
33.329260
 20
28.627640
 30
0.0
 10
32.739118
 20
28.777653
 30
0.0
 10
32.219151
 20
28.520469
 30
0.0
 10
31.629190
 20
28.247786
 30
0.0
 10
31.045037
 20
27.905170
 30
0.0
 10
30.658740
 20
27.639271
 30
0.0
 10
30.471384
 20
27.510308
 30
0.0
 11
38.477611
 21
19.238635
 31
0.0
 11
40.697932
 21
21.268464
 31
0.0
 11
42.110146
 21
23.095487
 31
0.0
 11
42.610193
 21
24.585083
 31
0.0
 11
42.496863
 21
25.102463
 31
0.0
 11
42.194620
 21
25.750098
 31
0.0
 11
41.768889
 21
26.387778
 31
0.0
 11
41.134035
 21
27.242780
 31
0.0
 11
40.949568
 21
27.776075
 31
0.0
 11
41.093528
 21
28.340250
 31
0.0
 11
41.702829
 21
28.755578
 31
0.0
 11
42.961928
 21
28.517524
 31
0.0
 11
44.871767
 21
27.625909
 31
0.0
 11
46.491430
 21
26.890692
 31
0.0
 11
45.872457
 21
27.581715
 31
0.0
 11
43.248625
 21
29.437985
 31
0.0
 11
41.447960
 21
30.698876
 31
0.0
 11
40.469156
 21
31.678641
 31
0.0
 11
39.740614
 21
32.949444
 31
0.0
 11
39.216773
 21
33.895913
 31
0.0
 11
38.758132
 21
34.500611
 31
0.0
 11
38.402774
 21
34.713333
 31
0.0
 11
37.647051
 21
34.831254
 31
0.0
 11
36.230785
 21
35.174440
 31
0.0
 11
34.219444
 21
35.727028
 31
0.0
 11
33.791404
 21
35.781795
 31
0.0
 11
33.617368
 21
35.475882
 31
0.0
 11
33.584444
 21
34.610850
 31
0.0
 11
33.793463
 21
32.992506
 31
0.0
 11
34.419880
 21
31.308740
 31
0.0
 11
35.462738
 21
29.562126
 31
0.0
 11
35.938199
 21
28.808079
 31
0.0
 11
36.277314
 21
28.120508
 31
0.0
 11
36.406667
 21
27.648267
 31
0.0
 11
35.966229
 21
26.929673
 31
0.0
 11
34.919764
 21
27.123008
 31
0.0
 11
33.679545
 21
28.152104
 31
0.0
 11
33.225074
 21
28.615568
 31
0.0
 11
32.819500
 21
28.718305
 31
0.0
 11
32.217081
 21
28.522566
 31
0.0
 11
31.665452
 21
28.254447
 31
0.0
 11
31.038294
 21
27.890784
 31
0.0
 11
30.471384
 21
27.510308
 31
0.0
  0
LWPOLYLINE
  5
124
100
AcDbEntity
  8
0
 62
7
100
AcDbPolyline
 90
3
 70
0
 10
30.471384
 20
27.510308
 30
0.0
 10
29.577696
 20
26.850967
 30
0.0
 10
30.663848
 20
26.294060
 30
0.0
  0
SPLINE
  5
125
100
AcDbEntity
  8
0
 62
7
100
AcDbSpline
 70
0
 71
3
 72
16
 73
12
 74
10
 40
0.000000
 40
0.000000
 40
0.000000
 40
0.000000
 40
1.589264
 40
3.221143
 40
5.476836
 40
6.969804
 40
8.196809
 40
9.195539
 40
10.407763
 40
11.428743
 40
14.236994
 40
14.236994
 40
14.236994
 40
14.236994
 10
30.663848
 20
26.294060
 30
0.0
 10
31.128197
 20
26.028170
 30
0.0
 10
32.069347
 20
25.489259
 30
0.0
 10
33.178328
 20
23.990876
 30
0.0
 10
33.929774
 20
22.358760
 30
0.0
 10
34.552855
 20
20.833647
 30
0.0
 10
34.899928
 20
19.604700
 30
0.0
 10
35.029893
 20
18.568539
 30
0.0
 10
34.939216
 20
17.044484
 30
0.0
 10
37.010697
 20
17.821531
 30
0.0
 10
37.856974
 20
18.639073
 30
0.0
 10
38.477611
 20
19.238635
 30
0.0
 11
30.663848
 21
26.294060
 31
0.0
 11
31.986566
 21
25.413051
 31
0.0
 11
33.008978
 21
24.141163
 31
0.0
 11
34.016704
 21
22.123084
 31
0.0
 11
34.560024
 21
20.732488
 31
0.0
 11
34.883672
 21
19.548937
 31
0.0
 11
34.992110
 21
18.556111
 31
0.0
 11
35.222684
 21
17.366017
 31
0.0
 11
36.224635
 21
17.562218
 31
0.0
 11
38.477611
 21
19.238635
 31
0.0
  0
LWPOLYLINE
  5
126
100
AcDbEntity
  8
0
 62
7
100
AcDbPolyline
 90
2
 70
0
 10
38.477611
 20
19.238635
 30
0.0
 10
38.477611
 20
19.238635
 30
0.0
  0
SPLINE
  5
127
100
AcDbEntity
  8
0
 62
7
100
AcDbSpline
 70
0
 71
3
 72
16
 73
12
 74
10
 40
0.000000
 40
0.000000
 40
0.000000
 40
0.000000
 40
0.262529
 40
0.330643
 40
0.625609
 40
0.887335
 40
1.064844
 40
1.171322
 40
1.302445
 40
1.496986
 40
1.747629
 40
1.747629
 40
1.747629
 40
1.747629
 10
32.490577
 20
23.499705
 30
0.0
 10
32.426153
 20
23.603611
 30
0.0
 10
32.345014
 20
23.734477
 30
0.0
 10
32.174677
 20
23.560885
 30
0.0
 10
32.351522
 20
23.342984
 30
0.0
 10
32.426188
 20
23.135439
 30
0.0
 10
32.539591
 20
22.970082
 30
0.0
 10
32.711660
 20
22.974700
 30
0.0
 10
32.726214
 20
23.153547
 30
0.0
 10
32.644285
 20
23.322417
 30
0.0
 10
32.545944
 20
23.435844
 30
0.0
 10
32.490577
 20
23.499705
 30
0.0
 11
32.490577
 21
23.499705
 31
0.0
 11
32.291703
 21
23.671084
 31
0.0
 11
32.243539
 21
23.622920
 31
0.0
 11
32.332589
 21
23.341717
 31
0.0
 11
32.451300
 21
23.108462
 31
0.0
 11
32.577287
 21
22.983414
 31
0.0
 11
32.683272
 21
22.993644
 31
0.0
 11
32.714795
 21
23.120921
 31
0.0
 11
32.645567
 21
23.302728
 31
0.0
 11
32.490577
 21
23.499705
 31
0.0
  0
LWPOLYLINE
  5
128
100
AcDbEntity
  8
0
 62
7
100
AcDbPolyline
 90
2
 70
0
 10
32.490577
 20
23.499705
 30
0.0
 10
32.490577
 20
23.499705
 30
0.0
  0
SPLINE
  5
129
100
AcDbEntity
  8
0
 62
7
100
AcDbSpline
 70
0
 71
3
 72
28
 73
24
 74
22
 40
0.000000
 40
0.000000
 40
0.000000
 40
0.000000
 40
0.755693
 40
1.340599
 40
1.653006
 40
2.012646
 40
2.645027
 40
3.418920
 40
4.469685
 40
5.406882
 40
6.751884
 40
8.116552
 40
8.993844
 40
10.034215
 40
12.554509
 40
14.572355
 40
16.681096
 40
17.451555
 40
18.386088
 40
19.287246
 40
20.296138
 40
20.975929
 40
21.700322
 40
21.700322
 40
21.700322
 40
21.700322
 10
20.108333
 20
25.634882
 30
0.0
 10
20.338054
 20
25.744171
 30
0.0
 10
20.745579
 20
25.938049
 30
0.0
 10
21.194055
 20
26.221447
 30
0.0
 10
21.525836
 20
26.561983
 30
0.0
 10
21.290988
 20
27.001540
 30
0.0
 10
21.081218
 20
27.520309
 30
0.0
 10
20.666325
 20
28.240118
 30
0.0
 10
20.201329
 20
29.040096
 30
0.0
 10
20.008418
 20
30.154841
 30
0.0
 10
20.100615
 20
31.367653
 30
0.0
 10
20.124774
 20
32.568043
 30
0.0
 10
20.497301
 20
33.626660
 30
0.0
 10
21.543556
 20
34.696106
 30
0.0
 10
23.169030
 20
35.783835
 30
0.0
 10
25.661475
 20
35.347326
 30
0.0
 10
26.363622
 20
33.591746
 30
0.0
 10
26.267005
 20
32.331940
 30
0.0
 10
26.170212
 20
31.466388
 30
0.0
 10
25.988760
 20
30.535204
 30
0.0
 10
25.768790
 20
29.699930
 30
0.0
 10
25.780118
 20
28.874590
 30
0.0
 10
25.991498
 20
28.450628
 30
0.0
 10
26.100545
 20
28.231914
 30
0.0
 11
20.108333
 21
25.634882
 31
0.0
 11
20.783576
 21
25.974175
 31
0.0
 11
21.265183
 21
26.306093
 31
0.0
 11
21.448889
 21
26.558779
 31
0.0
 11
21.348078
 21
26.904000
 31
0.0
 11
21.083789
 21
27.478507
 31
0.0
 11
20.713240
 21
28.157921
 31
0.0
 11
20.243571
 21
29.097878
 31
0.0
 11
20.064027
 21
30.017715
 31
0.0
 11
20.087736
 21
31.362509
 31
0.0
 11
20.216738
 21
32.721066
 31
0.0
 11
20.527859
 21
33.541337
 31
0.0
 11
21.211573
 21
34.325498
 31
0.0
 11
23.432444
 21
35.516972
 31
0.0
 11
25.398873
 21
35.064363
 31
0.0
 11
26.294934
 21
33.155472
 31
0.0
 11
26.267051
 21
32.385518
 31
0.0
 11
26.156294
 21
31.457571
 31
0.0
 11
25.986641
 21
30.572527
 31
0.0
 11
25.794863
 21
29.582030
 31
0.0
 11
25.827905
 21
28.903042
 31
0.0
 11
26.100545
 21
28.231914
 31
0.0
  0
LWPOLYLINE
  5
12a
100
AcDbEntity
  8
0
 62
7
100
AcDbPolyline
 90
3
 70
0
 10
26.100545
 20
28.231914
 30
0.0
 10
26.561918
 20
27.339716
 30
0.0
 10
27.603737
 20
28.278057
 30
0.0
  0
SPLINE
  5
12b
100
AcDbEntity
  8
0
 62
7
100
AcDbSpline
 70
0
 71
3
 72
16
 73
12
 74
10
 40
0.000000
 40
0.000000
 40
0.000000
 40
0.000000
 40
0.950430
 40
2.101349
 40
3.209410
 40
4.306452
 40
4.902650
 40
5.242299
 40
5.843533
 40
6.969539
 40
8.380425
 40
8.380425
 40
8.380425
 40
8.380425
 10
27.603737
 20
28.278057
 30
0.0
 10
27.850502
 20
28.477270
 30
0.0
 10
28.396086
 20
28.917719
 30
0.0
 10
29.291225
 20
29.500636
 30
0.0
 10
30.285501
 20
30.044439
 30
0.0
 10
31.065242
 20
30.470810
 30
0.0
 10
31.725651
 20
30.856298
 30
0.0
 10
31.719519
 20
31.406410
 30
0.0
 10
31.525997
 20
32.057788
 30
0.0
 10
31.473081
 20
33.115860
 30
0.0
 10
31.418053
 20
33.957256
 30
0.0
 10
31.387449
 20
34.425196
 30
0.0
 11
27.603737
 21
28.278057
 31
0.0
 11
28.352318
 21
28.863670
 31
0.0
 11
29.313356
 21
29.496933
 31
0.0
 11
30.278790
 21
30.040749
 31
0.0
 11
31.237712
 21
30.573638
 31
0.0
 11
31.684090
 21
30.968857
 31
0.0
 11
31.709572
 21
31.307549
 31
0.0
 11
31.591197
 21
31.897015
 31
0.0
 11
31.475471
 21
33.017058
 31
0.0
 11
31.387449
 21
34.425196
 31
0.0
  0
LWPOLYLINE
  5
12c
100
AcDbEntity
  8
0
 62
7
100
AcDbPolyline
 90
3
 70
0
 10
31.387449
 20
34.425196
 30
0.0
 10
31.267775
 20
37.100391
 30
0.0
 10
29.797685
 20
38.688264
 30
0.0
  0
SPLINE
  5
12d
100
AcDbEntity
  8
0
 62
7
100
AcDbSpline
 70
0
 71
3
 72
40
 73
36
 74
34
 40
0.000000
 40
0.000000
 40
0.000000
 40
0.000000
 40
4.237070
 40
8.778894
 40
12.575337
 40
13.319763
 40
14.038179
 40
14.909902
 40
16.634772
 40
18.274237
 40
19.657700
 40
20.347401
 40
21.123430
 40
22.185468
 40
23.132773
 40
24.014275
 40
24.655733
 40
25.100504
 40
25.451483
 40
25.669782
 40
27.425046
 40
30.786626
 40
33.680924
 40
39.922717
 40
45.944987
 40
51.491684
 40
55.829150
 40
60.282289
 40
64.436140
 40
65.688314
 40
66.156994
 40
66.624296
 40
67.165414
 40
67.923814
 40
68.746317
 40
68.746317
 40
68.746317
 40
68.746317
 10
29.797685
 20
38.688264
 30
0.0
 10
28.944866
 20
39.818604
 30
0.0
 10
27.177888
 20
42.160583
 30
0.0
 10
25.504535
 20
46.054530
 30
0.0
 10
24.876101
 20
49.031762
 30
0.0
 10
24.802942
 20
50.797132
 30
0.0
 10
24.479001
 20
51.524489
 30
0.0
 10
23.762044
 20
52.368759
 30
0.0
 10
22.921193
 20
53.504412
 30
0.0
 10
22.227191
 20
54.952362
 30
0.0
 10
22.031883
 20
56.178128
 30
0.0
 10
21.956513
 20
57.136420
 30
0.0
 10
21.519226
 20
57.882587
 30
0.0
 10
20.896797
 20
58.567321
 30
0.0
 10
20.281113
 20
59.310436
 30
0.0
 10
19.827674
 20
60.001796
 30
0.0
 10
19.578278
 20
60.614183
 30
0.0
 10
19.465998
 20
61.077039
 30
0.0
 10
19.321219
 20
61.394874
 30
0.0
 10
18.604090
 20
61.824774
 30
0.0
 10
17.643967
 20
59.257745
 30
0.0
 10
16.103874
 20
57.701116
 30
0.0
 10
14.044628
 20
53.849059
 30
0.0
 10
12.560247
 20
49.077320
 30
0.0
 10
11.635027
 20
43.160703
 30
0.0
 10
11.906141
 20
37.822956
 30
0.0
 10
13.176302
 20
33.185255
 30
0.0
 10
14.683174
 20
29.181464
 30
0.0
 10
16.433999
 20
26.223215
 30
0.0
 10
17.335038
 20
24.689094
 30
0.0
 10
17.993916
 20
24.036609
 30
0.0
 10
18.343036
 20
24.562865
 30
0.0
 10
18.777056
 20
24.903337
 30
0.0
 10
19.386347
 20
25.294022
 30
0.0
 10
19.861252
 20
25.518232
 30
0.0
 10
20.108333
 20
25.634882
 30
0.0
 11
29.797685
 21
38.688264
 31
0.0
 11
27.378716
 21
42.166963
 31
0.0
 11
25.563374
 21
46.330219
 31
0.0
 11
24.840392
 21
50.057185
 31
0.0
 11
24.755284
 21
50.796730
 31
0.0
 11
24.475114
 21
51.458263
 31
0.0
 11
23.951762
 21
52.155403
 31
0.0
 11
22.950513
 21
53.559924
 31
0.0
 11
22.272966
 21
55.052832
 31
0.0
 11
22.019531
 21
56.412884
 31
0.0
 11
21.911238
 21
57.094029
 31
0.0
 11
21.552167
 21
57.781990
 31
0.0
 11
20.877044
 21
58.601828
 31
0.0
 11
20.281534
 21
59.338546
 31
0.0
 11
19.812601
 21
60.084969
 31
0.0
 11
19.571767
 21
60.679500
 31
0.0
 11
19.442599
 21
61.105102
 31
0.0
 11
19.266413
 21
61.408656
 31
0.0
 11
19.081353
 21
61.524444
 31
0.0
 11
17.925648
 21
60.203347
 31
0.0
 11
16.063668
 21
57.404553
 31
0.0
 11
14.657487
 21
54.874806
 31
0.0
 11
12.684810
 21
48.952938
 31
0.0
 11
11.826605
 21
42.992131
 31
0.0
 11
12.149452
 21
37.454837
 31
0.0
 11
13.225593
 21
33.252989
 31
0.0
 11
14.858956
 21
29.110216
 31
0.0
 11
16.872026
 21
25.476756
 31
0.0
 11
17.589815
 21
24.450735
 31
0.0
 11
17.979133
 21
24.189791
 31
0.0
 11
18.327602
 21
24.501145
 31
0.0
 11
18.733026
 21
24.859530
 31
0.0
 11
19.372770
 21
25.266836
 31
0.0
 11
20.108333
 21
25.634882
 31
0.0
  0
LWPOLYLINE
  5
12e
100
AcDbEntity
  8
0
 62
7
100
AcDbPolyline
 90
2
 70
0
 10
20.108333
 20
25.634882
 30
0.0
 10
20.108333
 20
25.634882
 30
0.0
  0
SPLINE
  5
12f
100
AcDbEntity
  8
0
 62
7
100
AcDbSpline
 70
0
 71
3
 72
10
 73
6
 74
4
 40
0.000000
 40
0.000000
 40
0.000000
 40
0.000000
 40
0.175862
 40
0.570181
 40
1.099745
 40
1.099745
 40
1.099745
 40
1.099745
 10
32.173333
 20
24.080806
 30
0.0
 10
32.138815
 20
24.128295
 30
0.0
 10
32.026902
 20
24.282266
 30
0.0
 10
31.754230
 20
24.530348
 30
0.0
 10
31.527298
 20
24.737931
 30
0.0
 10
31.397222
 20
24.856917
 30
0.0
 11
32.173333
 21
24.080806
 31
0.0
 11
32.066977
 21
24.220863
 31
0.0
 11
31.788152
 21
24.499688
 31
0.0
 11
31.397222
 21
24.856917
 31
0.0
  0
LWPOLYLINE
  5
130
100
AcDbEntity
  8
0
 62
7
100
AcDbPolyline
 90
3
 70
0
 10
31.397222
 20
24.856917
 30
0.0
 10
30.621111
 20
25.541111
 30
0.0
 10
31.305305
 20
24.765000
 30
0.0
  0
SPLINE
  5
131
100
AcDbEntity
  8
0
 62
7
100
AcDbSpline
 70
0
 71
3
 72
10
 73
6
 74
4
 40
0.000000
 40
0.000000
 40
0.000000
 40
0.000000
 40
0.748806
 40
1.100022
 40
1.216784
 40
1.216784
 40
1.216784
 40
1.216784
 10
31.305305
 20
24.765000
 30
0.0
 10
31.463000
 20
24.616562
 30
0.0
 10
31.694660
 20
24.398502
 30
0.0
 10
32.037262
 20
23.909860
 30
0.0
 10
32.146162
 20
24.046671
 30
0.0
 10
32.173333
 20
24.080806
 30
0.0
 11
31.305305
 21
24.765000
 31
0.0
 11
31.814565
 21
24.216033
 31
0.0
 11
32.090397
 21
23.998617
 31
0.0
 11
32.173333
 21
24.080806
 31
0.0
  0
LWPOLYLINE
  5
132
100
AcDbEntity
  8
0
 62
7
100
AcDbPolyline
 90
2
 70
0
 10
32.173333
 20
24.080806
 30
0.0
 10
32.173333
 20
24.080806
 30
0.0
  0
SPLINE
  5
133
100
AcDbEntity
  8
0
 62
7
100
AcDbSpline
 70
0
 71
3
 72
22
 73
18
 74
16
 40
0.000000
 40
0.000000
 40
0.000000
 40
0.000000
 40
2.692903
 40
5.403397
 40
6.554433
 40
6.790232
 40
7.085150
 40
7.395711
 40
7.864004
 40
8.627954
 40
9.599850
 40
10.913878
 40
12.096302
 40
13.896509
 40
15.311350
 40
16.545351
 40
17.332999
 40
17.332999
 40
17.332999
 40
17.332999
 10
54.699814
 20
26.105556
 30
0.0
 10
54.948865
 20
27.034149
 30
0.0
 10
55.448592
 20
28.897403
 30
0.0
 10
55.565558
 20
30.318752
 30
0.0
 10
56.012963
 20
32.801689
 30
0.0
 10
55.489256
 20
32.396014
 30
0.0
 10
55.331806
 20
32.173667
 30
0.0
 10
55.231899
 20
31.821087
 30
0.0
 10
54.895916
 20
31.415309
 30
0.0
 10
54.277613
 20
31.009365
 30
0.0
 10
53.374780
 20
30.546425
 30
0.0
 10
52.308846
 20
30.072065
 30
0.0
 10
50.871996
 20
29.898631
 30
0.0
 10
49.407538
 20
29.994960
 30
0.0
 10
47.928247
 20
30.090456
 30
0.0
 10
46.786020
 20
30.188674
 30
0.0
 10
46.120430
 20
30.295008
 30
0.0
 10
45.861111
 20
30.336436
 30
0.0
 11
54.699814
 21
26.105556
 31
0.0
 11
55.346795
 21
28.719583
 31
0.0
 11
55.767183
 21
31.397279
 31
0.0
 11
55.711090
 21
32.546948
 31
0.0
 11
55.520683
 21
32.407857
 31
0.0
 11
55.348252
 21
32.168599
 31
0.0
 11
55.231129
 21
31.880971
 31
0.0
 11
54.949136
 21
31.507101
 31
0.0
 11
54.330733
 21
31.058551
 31
0.0
 11
53.471386
 21
30.604564
 31
0.0
 11
52.249671
 21
30.120743
 31
0.0
 11
51.079240
 21
29.952757
 31
0.0
 11
49.279734
 21
30.002957
 31
0.0
 11
47.868205
 21
30.099716
 31
0.0
 11
46.640033
 21
30.219521
 31
0.0
 11
45.861111
 21
30.336436
 31
0.0
  0
LWPOLYLINE
  5
134
100
AcDbEntity
  8
0
 62
7
100
AcDbPolyline
 90
3
 70
0
 10
45.861111
 20
30.336436
 30
0.0
 10
45.014444
 20
30.530659
 30
0.0
 10
46.002222
 20
29.926345
 30
0.0
  0
SPLINE
  5
135
100
AcDbEntity
  8
0
 62
7
100
AcDbSpline
 70
0
 71
3
 72
16
 73
12
 74
10
 40
0.000000
 40
0.000000
 40
0.000000
 40
0.000000
 40
0.862312
 40
2.019165
 40
3.225942
 40
4.601898
 40
5.836556
 40
7.086974
 40
8.901015
 40
9.853032
 40
10.968014
 40
10.968014
 40
10.968014
 40
10.968014
 10
46.002222
 20
29.926345
 30
0.0
 10
46.235530
 20
29.758158
 30
0.0
 10
46.781838
 20
29.364336
 30
0.0
 10
47.575795
 20
28.635337
 30
0.0
 10
48.439759
 20
27.737687
 30
0.0
 10
49.324662
 20
26.820852
 30
0.0
 10
50.369383
 20
26.053096
 30
0.0
 10
51.682195
 20
25.463092
 30
0.0
 10
52.873059
 20
24.878480
 30
0.0
 10
54.341437
 20
24.992429
 30
0.0
 10
54.574237
 20
25.715511
 30
0.0
 10
54.699814
 20
26.105556
 30
0.0
 11
46.002222
 21
29.926345
 31
0.0
 11
46.693144
 21
29.410391
 31
0.0
 11
47.554967
 21
28.638658
 31
0.0
 11
48.401111
 21
27.778222
 31
0.0
 11
49.385534
 21
26.816886
 31
0.0
 11
50.386458
 21
26.094022
 31
0.0
 11
51.505556
 21
25.536200
 31
0.0
 11
53.226023
 21
24.961103
 31
0.0
 11
54.163268
 21
25.128160
 31
0.0
 11
54.699814
 21
26.105556
 31
0.0
  0
LWPOLYLINE
  5
136
100
AcDbEntity
  8
0
 62
7
100
AcDbPolyline
 90
2
 70
0
 10
54.699814
 20
26.105556
 30
0.0
 10
54.699814
 20
26.105556
 30
0.0
  0
SPLINE
  5
137
100
AcDbEntity
  8
0
 62
7
100
AcDbSpline
 70
0
 71
3
 72
13
 73
9
 74
7
 40
0.000000
 40
0.000000
 40
0.000000
 40
0.000000
 40
0.185139
 40
0.597265
 40
1.151149
 40
1.841203
 40
2.609644
 40
3.290489
 40
3.290489
 40
3.290489
 40
3.290489
 10
44.873333
 20
30.593233
 30
0.0
 10
44.832610
 20
30.639821
 30
0.0
 10
44.701234
 20
30.790113
 30
0.0
 10
44.377366
 20
31.002968
 30
0.0
 10
43.919638
 20
31.308477
 30
0.0
 10
43.353935
 20
31.670208
 30
0.0
 10
42.766355
 20
32.074236
 30
0.0
 10
42.375730
 20
32.358529
 30
0.0
 10
42.192222
 20
32.492084
 30
0.0
 11
44.873333
 21
30.593233
 31
0.0
 11
44.747640
 21
30.729166
 31
0.0
 11
44.418119
 21
30.976680
 31
0.0
 11
43.956111
 21
31.282191
 31
0.0
 11
43.378078
 21
31.659090
 31
0.0
 11
42.744385
 21
32.093755
 31
0.0
 11
42.192222
 21
32.492084
 31
0.0
  0
LWPOLYLINE
  5
138
100
AcDbEntity
  8
0
 62
7
100
AcDbPolyline
 90
3
 70
0
 10
42.192222
 20
32.492084
 30
0.0
 10
41.345556
 20
33.126254
 30
0.0
 10
42.051111
 20
32.340615
 30
0.0
  0
SPLINE
  5
139
100
AcDbEntity
  8
0
 62
7
100
AcDbSpline
 70
0
 71
3
 72
10
 73
6
 74
4
 40
0.000000
 40
0.000000
 40
0.000000
 40
0.000000
 40
1.379518
 40
2.788552
 40
3.370836
 40
3.370836
 40
3.370836
 40
3.370836
 10
42.051111
 20
32.340615
 30
0.0
 10
42.397169
 20
32.043341
 30
0.0
 10
43.096688
 20
31.442434
 30
0.0
 10
44.017422
 20
30.721311
 30
0.0
 10
44.679681
 20
30.622211
 30
0.0
 10
44.873333
 20
30.593233
 30
0.0
 11
42.051111
 21
32.340615
 31
0.0
 11
43.104498
 21
31.449860
 31
0.0
 11
44.302496
 21
30.708118
 31
0.0
 11
44.873333
 21
30.593233
 31
0.0
  0
LWPOLYLINE
  5
13a
100
AcDbEntity
  8
0
 62
7
100
AcDbPolyline
 90
2
 70
0
 10
44.873333
 20
30.593233
 30
0.0
 10
44.873333
 20
30.593233
 30
0.0
  0
SPLINE
  5
13b
100
AcDbEntity
  8
0
 62
7
100
AcDbSpline
 70
0
 71
3
 72
22
 73
18
 74
16
 40
0.000000
 40
0.000000
 40
0.000000
 40
0.000000
 40
2.229417
 40
4.048919
 40
5.585359
 40
5.860427
 40
6.159229
 40
6.506273
 40
7.240111
 40
8.084786
 40
9.626485
 40
10.735164
 40
10.991531
 40
11.515115
 40
14.552887
 40
18.067577
 40
21.403754
 40
21.403754
 40
21.403754
 40
21.403754
 10
62.697606
 20
40.815463
 30
0.0
 10
62.915249
 20
41.537345
 30
0.0
 10
63.310519
 20
42.848380
 30
0.0
 10
62.834298
 20
44.758001
 30
0.0
 10
61.621967
 20
45.555402
 30
0.0
 10
60.914516
 20
45.379775
 30
0.0
 10
60.701666
 20
45.128344
 30
0.0
 10
60.610897
 20
44.688665
 30
0.0
 10
60.320164
 20
43.966734
 30
0.0
 10
59.112286
 20
44.296270
 30
0.0
 10
58.141442
 20
44.925939
 30
0.0
 10
57.541525
 20
45.518773
 30
0.0
 10
56.752185
 20
45.832441
 30
0.0
 10
58.236618
 20
44.261718
 30
0.0
 10
58.377984
 20
42.573869
 30
0.0
 10
58.891403
 20
38.977703
 30
0.0
 10
58.125132
 20
36.825048
 30
0.0
 10
57.751980
 20
35.776766
 30
0.0
 11
62.697606
 21
40.815463
 31
0.0
 11
63.126033
 21
43.003327
 31
0.0
 11
62.564903
 21
44.734143
 31
0.0
 11
61.199054
 21
45.437778
 31
0.0
 11
60.936198
 21
45.356726
 31
0.0
 11
60.735673
 21
45.135203
 31
0.0
 11
60.626851
 21
44.805662
 31
0.0
 11
60.256343
 21
44.172226
 31
0.0
 11
59.414803
 21
44.244943
 31
0.0
 11
58.085180
 21
45.025287
 31
0.0
 11
57.175121
 21
45.658503
 31
0.0
 11
56.931851
 21
45.739396
 31
0.0
 11
57.230642
 21
45.309437
 31
0.0
 11
58.413441
 21
42.511395
 31
0.0
 11
58.605371
 21
39.001949
 31
0.0
 11
57.751980
 21
35.776766
 31
0.0
  0
LWPOLYLINE
  5
13c
100
AcDbEntity
  8
0
 62
7
100
AcDbPolyline
 90
3
 70
0
 10
57.751980
 20
35.776766
 30
0.0
 10
56.998534
 20
34.290000
 30
0.0
 10
59.560708
 20
36.903104
 30
0.0
  0
SPLINE
  5
13d
100
AcDbEntity
  8
0
 62
7
100
AcDbSpline
 70
0
 71
3
 72
10
 73
6
 74
4
 40
0.000000
 40
0.000000
 40
0.000000
 40
0.000000
 40
2.103002
 40
3.840561
 40
5.029023
 40
5.029023
 40
5.029023
 40
5.029023
 10
59.560708
 20
36.903104
 30
0.0
 10
60.041240
 20
37.412852
 30
0.0
 10
60.918800
 20
38.343768
 30
0.0
 10
62.005923
 20
39.628916
 30
0.0
 10
62.497814
 20
40.472731
 30
0.0
 10
62.697606
 20
40.815463
 30
0.0
 11
59.560708
 21
36.903104
 31
0.0
 11
60.988107
 21
38.447497
 31
0.0
 11
62.075032
 21
39.803117
 31
0.0
 11
62.697606
 21
40.815463
 31
0.0
  0
LWPOLYLINE
  5
13e
100
AcDbEntity
  8
0
 62
7
100
AcDbPolyline
 90
2
 70
0
 10
62.697606
 20
40.815463
 30
0.0
 10
62.697606
 20
40.815463
 30
0.0
  0
SPLINE
  5
13f
100
AcDbEntity
  8
0
 62
7
100
AcDbSpline
 70
0
 71
3
 72
19
 73
15
 74
13
 40
0.000000
 40
0.000000
 40
0.000000
 40
0.000000
 40
0.910161
 40
1.349218
 40
1.724939
 40
2.014850
 40
2.266279
 40
2.488581
 40
3.325585
 40
4.490603
 40
5.127967
 40
5.326451
 40
5.834410
 40
6.545296
 40
6.545296
 40
6.545296
 40
6.545296
 10
24.835556
 20
55.315556
 30
0.0
 10
24.840202
 20
55.608549
 30
0.0
 10
24.847090
 20
56.042882
 30
0.0
 10
24.711015
 20
56.683575
 30
0.0
 10
24.291638
 20
56.746003
 30
0.0
 10
23.995593
 20
56.693244
 30
0.0
 10
23.766921
 20
56.545710
 30
0.0
 10
23.628008
 20
56.108183
 30
0.0
 10
24.036497
 20
55.343602
 30
0.0
 10
24.228205
 20
54.828462
 30
0.0
 10
24.726251
 20
53.676188
 30
0.0
 10
24.815273
 20
54.232259
 30
0.0
 10
24.825115
 20
54.656635
 30
0.0
 10
24.831709
 20
55.072818
 30
0.0
 10
24.835556
 20
55.315556
 30
0.0
 11
24.835556
 21
55.315556
 31
0.0
 11
24.797926
 21
56.224938
 31
0.0
 11
24.634864
 21
56.632593
 31
0.0
 11
24.271111
 21
56.726667
 31
0.0
 11
23.986798
 21
56.669966
 31
0.0
 11
23.784016
 21
56.521320
 31
0.0
 11
23.706667
 21
56.312909
 31
0.0
 11
23.937411
 21
55.508339
 31
0.0
 11
24.399278
 21
54.438785
 31
0.0
 11
24.746715
 21
53.904444
 31
0.0
 11
24.791465
 21
54.097819
 31
0.0
 11
24.823381
 21
54.604774
 31
0.0
 11
24.835556
 21
55.315556
 31
0.0
  0
LWPOLYLINE
  5
140
100
AcDbEntity
  8
0
 62
7
100
AcDbPolyline
 90
2
 70
0
 10
24.835556
 20
55.315556
 30
0.0
 10
24.835556
 20
55.315556
 30
0.0
  0
SPLINE
  5
141
100
AcDbEntity
  8
0
 62
7
100
AcDbSpline
 70
0
 71
3
 72
16
 73
12
 74
10
 40
0.000000
 40
0.000000
 40
0.000000
 40
0.000000
 40
0.589182
 40
1.248223
 40
1.837404
 40
2.055690
 40
2.387739
 40
3.186214
 40
3.984690
 40
4.316738
 40
4.535024
 40
4.535024
 40
4.535024
 40
4.535024
 10
44.238333
 20
10.364160
 30
0.0
 10
44.432034
 20
10.381784
 30
0.0
 10
44.842402
 20
10.419122
 30
0.0
 10
45.490078
 20
10.400497
 30
0.0
 10
45.882151
 20
10.411365
 30
0.0
 10
46.429247
 20
10.287401
 30
0.0
 10
45.655618
 20
10.250450
 30
0.0
 10
45.157125
 20
10.251042
 30
0.0
 10
44.651048
 20
10.248199
 30
0.0
 10
43.887134
 20
10.290262
 30
0.0
 10
44.138594
 20
10.343173
 30
0.0
 10
44.238333
 20
10.364160
 30
0.0
 11
44.238333
 21
10.364160
 31
0.0
 11
44.826035
 21
10.405895
 31
0.0
 11
45.485076
 21
10.405895
 31
0.0
 11
46.072778
 21
10.364160
 31
0.0
 11
46.283399
 21
10.306824
 31
0.0
 11
45.953879
 21
10.265930
 31
0.0
 11
45.155556
 21
10.250331
 31
0.0
 11
44.357233
 21
10.265930
 31
0.0
 11
44.027712
 21
10.306824
 31
0.0
 11
44.238333
 21
10.364160
 31
0.0
  0
LWPOLYLINE
  5
142
100
AcDbEntity
  8
0
 62
7
100
AcDbPolyline
 90
2
 70
0
 10
44.238333
 20
10.364160
 30
0.0
 10
44.238333
 20
10.364160
 30
0.0
  0
SPLINE
  5
143
100
AcDbEntity
  8
0
 62
7
100
AcDbSpline
 70
0
 71
3
 72
67
 73
63
 74
61
 40
0.000000
 40
0.000000
 40
0.000000
 40
0.000000
 40
2.782526
 40
4.862219
 40
6.002301
 40
6.222500
 40
6.463397
 40
6.682982
 40
9.348754
 40
14.001020
 40
18.048961
 40
24.663755
 40
31.446334
 40
38.237968
 40
39.797775
 40
41.645647
 40
43.496725
 40
53.282779
 40
62.685276
 40
72.479825
 40
76.986993
 40
82.012975
 40
86.315697
 40
87.156470
 40
88.153183
 40
89.097681
 40
89.958705
 40
90.735155
 40
91.268292
 40
91.630253
 40
91.950822
 40
92.183181
 40
92.680130
 40
94.042012
 40
95.442348
 40
96.322612
 40
97.701608
 40
99.286895
 40
106.714211
 40
113.877541
 40
120.984343
 40
128.010884
 40
134.745295
 40
141.891349
 40
144.678911
 40
146.748490
 40
148.887611
 40
153.081825
 40
156.674979
 40
160.043645
 40
160.970412
 40
161.666718
 40
161.983594
 40
163.564299
 40
166.543776
 40
169.036794
 40
174.806656
 40
180.564143
 40
185.751671
 40
187.804361
 40
187.956650
 40
190.107624
 40
190.107624
 40
190.107624
 40
190.107624
 10
49.812222
 20
11.269097
 30
0.0
 10
50.702987
 20
11.528539
 30
0.0
 10
52.259521
 20
11.981891
 30
0.0
 10
54.151921
 20
12.629121
 30
0.0
 10
55.195977
 20
13.122950
 30
0.0
 10
55.627298
 20
13.439745
 30
0.0
 10
55.842722
 20
13.522725
 30
0.0
 10
56.886138
 20
13.618176
 30
0.0
 10
58.976067
 20
15.281789
 30
0.0
 10
62.051194
 20
17.343337
 30
0.0
 10
65.966856
 20
20.696171
 30
0.0
 10
69.376878
 20
25.475431
 30
0.0
 10
72.243486
 20
31.588998
 30
0.0
 10
73.543187
 20
36.515656
 30
0.0
 10
73.854106
 20
39.903239
 30
0.0
 10
73.894583
 20
41.657171
 30
0.0
 10
73.774948
 20
46.149513
 30
0.0
 10
72.438929
 20
53.162764
 30
0.0
 10
67.724062
 20
61.740492
 30
0.0
 10
61.995982
 20
67.406327
 30
0.0
 10
56.395917
 20
70.624886
 30
0.0
 10
52.141224
 20
72.451299
 30
0.0
 10
48.845051
 20
73.278306
 30
0.0
 10
46.837869
 20
73.684689
 30
0.0
 10
45.957029
 20
73.983526
 30
0.0
 10
45.103187
 20
74.363295
 30
0.0
 10
44.324263
 20
74.727725
 30
0.0
 10
43.638592
 20
74.972511
 30
0.0
 10
43.093210
 20
75.074217
 30
0.0
 10
42.677424
 20
75.096420
 30
0.0
 10
42.408848
 20
75.177577
 30
0.0
 10
42.023322
 20
75.434971
 30
0.0
 10
43.165677
 20
75.661995
 30
0.0
 10
43.933848
 20
75.287222
 30
0.0
 10
45.151704
 20
74.861201
 30
0.0
 10
46.252183
 20
74.363986
 30
0.0
 10
47.494318
 20
74.014407
 30
0.0
 10
50.856583
 20
73.209914
 30
0.0
 10
56.043812
 20
71.591964
 30
0.0
 10
62.273762
 20
67.766232
 30
0.0
 10
67.312477
 20
62.685815
 30
0.0
 10
71.123216
 20
56.805838
 30
0.0
 10
73.537762
 20
50.195326
 30
0.0
 10
74.127034
 20
44.631436
 30
0.0
 10
74.217454
 20
40.632763
 30
0.0
 10
74.094855
 20
38.298646
 30
0.0
 10
73.583965
 20
35.540679
 30
0.0
 10
72.822189
 20
32.318910
 30
0.0
 10
71.564851
 20
28.803652
 30
0.0
 10
70.267846
 20
26.505160
 30
0.0
 10
69.386300
 20
25.095984
 30
0.0
 10
69.040020
 20
24.547576
 30
0.0
 10
68.702350
 20
23.749149
 30
0.0
 10
67.638698
 20
22.487607
 30
0.0
 10
66.151961
 20
20.689001
 30
0.0
 10
63.586569
 20
17.916959
 30
0.0
 10
59.891870
 20
15.258535
 30
0.0
 10
54.574084
 20
12.079124
 30
0.0
 10
51.637818
 20
11.900999
 30
0.0
 10
47.627645
 20
9.810868
 30
0.0
 10
47.857143
 20
11.347310
 30
0.0
 10
48.868104
 20
11.306866
 30
0.0
 10
49.812222
 20
11.269097
 30
0.0
 11
49.812222
 21
11.269097
 31
0.0
 11
52.476796
 21
12.070657
 31
0.0
 11
54.432347
 21
12.778430
 31
0.0
 11
55.442556
 21
13.306885
 31
0.0
 11
55.626676
 21
13.427664
 31
0.0
 11
55.851644
 21
13.513808
 31
0.0
 11
56.068756
 21
13.546667
 31
0.0
 11
58.418762
 21
14.805162
 31
0.0
 11
62.177680
 21
17.546352
 31
0.0
 11
65.218056
 21
20.218792
 31
0.0
 11
69.169414
 21
25.523720
 31
0.0
 11
72.052045
 21
31.663251
 31
0.0
 11
73.686537
 21
38.255270
 31
0.0
 11
73.829055
 21
39.808552
 31
0.0
 11
73.879263
 21
41.655743
 31
0.0
 11
73.829260
 21
43.506144
 31
0.0
 11
71.919601
 21
53.104064
 31
0.0
 11
67.424156
 21
61.362267
 31
0.0
 11
60.395685
 21
68.183836
 31
0.0
 11
56.508376
 21
70.464930
 31
0.0
 11
51.873830
 21
72.409532
 31
0.0
 11
47.712988
 21
73.505351
 31
0.0
 11
46.892795
 21
73.690232
 31
0.0
 11
45.946598
 21
74.003518
 31
0.0
 11
45.079245
 21
74.377385
 31
0.0
 11
44.292315
 21
74.726817
 31
0.0
 11
43.556952
 21
74.976045
 31
0.0
 11
43.032358
 21
75.071111
 31
0.0
 11
42.672569
 21
75.110698
 31
0.0
 11
42.369265
 21
75.214481
 31
0.0
 11
42.188107
 21
75.359990
 31
0.0
 11
42.651928
 21
75.538395
 31
0.0
 11
43.991026
 21
75.290322
 31
0.0
 11
45.296667
 21
74.784117
 31
0.0
 11
46.109885
 21
74.447159
 31
0.0
 11
47.427967
 21
74.041832
 31
0.0
 11
48.965556
 21
73.655887
 31
0.0
 11
56.001628
 21
71.277082
 31
0.0
 11
62.108287
 21
67.532485
 31
0.0
 11
67.138556
 21
62.512222
 31
0.0
 11
70.935732
 21
56.600054
 31
0.0
 11
73.228388
 21
50.267912
 31
0.0
 11
74.138104
 21
43.180000
 31
0.0
 11
74.182777
 21
40.392795
 31
0.0
 11
74.052032
 21
38.327351
 31
0.0
 11
73.697394
 21
36.217832
 31
0.0
 11
72.694823
 21
32.145206
 31
0.0
 11
71.443652
 21
28.776924
 31
0.0
 11
69.834167
 21
25.817621
 31
0.0
 11
69.344596
 21
25.030718
 31
0.0
 11
68.995415
 21
24.428294
 31
0.0
 11
68.862222
 21
24.140770
 31
0.0
 11
67.947762
 21
22.851433
 31
0.0
 11
66.021194
 21
20.578633
 31
0.0
 11
64.307734
 21
18.767778
 31
0.0
 11
59.730856
 21
15.254447
 31
0.0
 11
54.672118
 21
12.505297
 31
0.0
 11
49.753054
 21
10.858099
 31
0.0
 11
47.734029
 21
10.487865
 31
0.0
 11
47.755729
 21
10.638601
 31
0.0
 11
49.812222
 21
11.269097
 31
0.0
  0
LWPOLYLINE
  5
144
100
AcDbEntity
  8
0
 62
7
100
AcDbPolyline
 90
2
 70
0
 10
49.812222
 20
11.269097
 30
0.0
 10
49.812222
 20
11.269097
 30
0.0
  0
LWPOLYLINE
  5
145
100
AcDbEntity
  8
0
 62
7
100
AcDbPolyline
 90
2
 70
0
 10
37.958889
 20
11.208261
 30
0.0
 10
37.958889
 20
11.208247
 30
0.0
  0
SPLINE
  5
146
100
AcDbEntity
  8
0
 62
7
100
AcDbSpline
 70
0
 71
3
 72
28
 73
24
 74
22
 40
0.000000
 40
0.000000
 40
0.000000
 40
0.000000
 40
1.858672
 40
4.281792
 40
6.039482
 40
6.775660
 40
7.291645
 40
7.954320
 40
8.437911
 40
9.262787
 40
10.715555
 40
12.313138
 40
13.343613
 40
14.408345
 40
15.782546
 40
16.341469
 40
16.974198
 40
18.270416
 40
19.442414
 40
20.049192
 40
20.338648
 40
20.768620
 40
21.246024
 40
21.246024
 40
21.246024
 40
21.246024
 10
37.958889
 20
11.208247
 30
0.0
 10
37.350976
 20
11.324683
 30
0.0
 10
35.950536
 20
11.592917
 30
0.0
 10
33.990051
 20
12.115623
 30
0.0
 10
32.436092
 20
12.506927
 30
0.0
 10
31.459408
 20
12.943570
 30
0.0
 10
31.270437
 20
13.642907
 30
0.0
 10
31.678574
 20
14.121725
 30
0.0
 10
32.298776
 20
14.365306
 30
0.0
 10
33.238558
 20
14.270441
 30
0.0
 10
34.505379
 20
14.091502
 30
0.0
 10
35.850226
 20
13.849983
 30
0.0
 10
37.089504
 20
13.852867
 30
0.0
 10
38.219616
 20
14.213060
 30
0.0
 10
39.055877
 20
14.625075
 30
0.0
 10
40.102029
 20
14.631286
 30
0.0
 10
40.071248
 20
13.603432
 30
0.0
 10
39.951065
 20
12.649627
 30
0.0
 10
39.693423
 20
11.710735
 30
0.0
 10
39.269489
 20
10.973362
 30
0.0
 10
38.805964
 20
11.109837
 30
0.0
 10
38.418019
 20
11.139712
 30
0.0
 10
38.117174
 20
11.184628
 30
0.0
 10
37.958889
 20
11.208261
 30
0.0
 11
37.958889
 21
11.208247
 31
0.0
 11
36.137132
 21
11.576843
 31
0.0
 11
33.786084
 21
12.163431
 31
0.0
 11
32.102778
 21
12.669351
 31
0.0
 11
31.485690
 21
13.070798
 31
0.0
 11
31.362667
 21
13.571902
 31
0.0
 11
31.749021
 21
14.110298
 31
0.0
 11
32.195988
 21
14.294906
 31
0.0
 11
33.020840
 21
14.288482
 31
0.0
 11
34.459872
 21
14.089188
 31
0.0
 11
36.042985
 21
13.874655
 31
0.0
 11
37.073012
 21
13.905062
 31
0.0
 11
38.097065
 21
14.196557
 31
0.0
 11
39.409092
 21
14.605229
 31
0.0
 11
39.961808
 21
14.522165
 31
0.0
 11
40.073981
 21
13.899459
 31
0.0
 11
39.915598
 21
12.612953
 31
0.0
 11
39.552483
 21
11.498625
 31
0.0
 11
39.145069
 21
11.048966
 31
0.0
 11
38.858030
 21
11.086299
 31
0.0
 11
38.431884
 21
11.143528
 31
0.0
 11
37.958889
 21
11.208261
 31
0.0
  0
LWPOLYLINE
  5
147
100
AcDbEntity
  8
0
 62
7
100
AcDbPolyline
 90
3
 70
0
 10
39.150623
 20
12.826458
 30
0.0
 10
39.449285
 20
13.799580
 30
0.0
 10
38.333745
 20
13.353232
 30
0.0
  0
SPLINE
  5
148
100
AcDbEntity
  8
0
 62
7
100
AcDbSpline
 70
0
 71
3
 72
16
 73
12
 74
10
 40
0.000000
 40
0.000000
 40
0.000000
 40
0.000000
 40
1.204723
 40
2.771358
 40
5.087230
 40
5.738064
 40
6.926315
 40
9.216010
 40
11.333569
 40
12.126767
 40
12.939760
 40
12.939760
 40
12.939760
 40
12.939760
 10
38.333745
 20
13.353232
 30
0.0
 10
37.949602
 20
13.238503
 30
0.0
 10
37.065916
 20
12.974579
 30
0.0
 10
35.268276
 20
13.063816
 30
0.0
 10
34.122745
 20
13.362885
 30
0.0
 10
32.153995
 20
13.459662
 30
0.0
 10
34.549878
 20
12.760272
 30
0.0
 10
35.826391
 20
12.484898
 30
0.0
 10
37.527211
 20
11.972544
 30
0.0
 10
38.970858
 20
11.923283
 30
0.0
 10
39.090211
 20
12.522937
 30
0.0
 10
39.150623
 20
12.826458
 30
0.0
 11
38.333745
 21
13.353232
 31
0.0
 11
37.163249
 21
13.068105
 31
0.0
 11
35.596670
 21
13.081288
 31
0.0
 11
33.302222
 21
13.395573
 31
0.0
 11
32.651429
 21
13.402764
 31
0.0
 11
33.767758
 21
12.995639
 31
0.0
 11
35.983333
 21
12.417772
 31
0.0
 11
38.053754
 21
11.973460
 31
0.0
 11
38.840430
 21
12.074968
 31
0.0
 11
39.150623
 21
12.826458
 31
0.0
  0
LWPOLYLINE
  5
149
100
AcDbEntity
  8
0
 62
7
100
AcDbPolyline
 90
2
 70
0
 10
39.150623
 20
12.826458
 30
0.0
 10
39.150623
 20
12.826458
 30
0.0
  0
SPLINE
  5
14a
100
AcDbEntity
  8
0
 62
7
100
AcDbSpline
 70
0
 71
3
 72
19
 73
15
 74
13
 40
0.000000
 40
0.000000
 40
0.000000
 40
0.000000
 40
1.993430
 40
4.275638
 40
9.183206
 40
11.058951
 40
12.494637
 40
13.739972
 40
14.856025
 40
15.644535
 40
16.551679
 40
18.416979
 40
20.738227
 40
22.903742
 40
22.903742
 40
22.903742
 40
22.903742
 10
41.918983
 20
12.584729
 30
0.0
 10
41.828131
 20
13.277227
 30
0.0
 10
41.633264
 20
14.762543
 30
0.0
 10
43.956744
 20
17.122009
 30
0.0
 10
46.285240
 20
18.887361
 30
0.0
 10
48.502503
 20
20.516221
 30
0.0
 10
49.929226
 20
21.127611
 30
0.0
 10
51.213455
 20
21.120145
 30
0.0
 10
52.259606
 20
20.900480
 30
0.0
 10
53.011411
 20
20.232806
 30
0.0
 10
53.116079
 20
18.982858
 30
0.0
 10
52.748599
 20
17.335764
 30
0.0
 10
52.071597
 20
15.312208
 30
0.0
 10
51.330300
 20
14.010543
 30
0.0
 10
50.972517
 20
13.382300
 30
0.0
 11
41.918983
 21
12.584729
 31
0.0
 11
41.923934
 21
14.578153
 31
0.0
 11
43.295271
 21
16.402409
 31
0.0
 11
47.109846
 21
19.490004
 31
0.0
 11
48.667254
 21
20.535421
 31
0.0
 11
50.008134
 21
21.048486
 31
0.0
 11
51.253178
 21
21.075382
 31
0.0
 11
52.326052
 21
20.767947
 31
0.0
 11
52.892426
 21
20.219341
 31
0.0
 11
53.057778
 21
19.327393
 31
0.0
 11
52.752874
 21
17.487182
 31
0.0
 11
51.984579
 21
15.296768
 31
0.0
 11
50.972517
 21
13.382300
 31
0.0
  0
LWPOLYLINE
  5
14b
100
AcDbEntity
  8
0
 62
7
100
AcDbPolyline
 90
3
 70
0
 10
50.972517
 20
13.382300
 30
0.0
 10
50.002045
 20
11.947931
 30
0.0
 10
47.168221
 20
11.477300
 30
0.0
  0
SPLINE
  5
14c
100
AcDbEntity
  8
0
 62
7
100
AcDbSpline
 70
0
 71
3
 72
10
 73
6
 74
4
 40
0.000000
 40
0.000000
 40
0.000000
 40
0.000000
 40
1.597091
 40
3.023687
 40
3.972890
 40
3.972890
 40
3.972890
 40
3.972890
 10
47.168221
 20
11.477300
 30
0.0
 10
46.642149
 20
11.396052
 30
0.0
 10
45.646165
 20
11.242228
 30
0.0
 10
44.331946
 20
11.071604
 30
0.0
 10
43.541198
 20
11.025205
 30
0.0
 10
43.225271
 20
11.006667
 30
0.0
 11
47.168221
 21
11.477300
 31
0.0
 11
45.588821
 21
11.240240
 31
0.0
 11
44.172280
 21
11.071161
 31
0.0
 11
43.225271
 21
11.006667
 31
0.0
  0
LWPOLYLINE
  5
14d
100
AcDbEntity
  8
0
 62
7
100
AcDbPolyline
 90
4
 70
0
 10
43.225271
 20
11.006667
 30
0.0
 10
42.116149
 20
11.006667
 30
0.0
 10
41.918983
 20
12.584729
 30
0.0
 10
41.918983
 20
12.584729
 30
0.0
  0
SPLINE
  5
14e
100
AcDbEntity
  8
0
 62
7
100
AcDbSpline
 70
0
 71
3
 72
25
 73
21
 74
19
 40
0.000000
 40
0.000000
 40
0.000000
 40
0.000000
 40
1.409923
 40
2.287840
 40
3.217402
 40
5.612056
 40
8.089597
 40
9.570453
 40
9.887769
 40
10.391895
 40
10.992855
 40
11.866959
 40
12.935063
 40
14.973911
 40
16.702453
 40
18.368968
 40
19.614141
 40
20.786673
 40
21.581388
 40
22.630585
 40
22.630585
 40
22.630585
 40
22.630585
 10
47.595392
 20
12.306323
 30
0.0
 10
48.056768
 20
12.394517
 30
0.0
 10
48.805430
 20
12.537627
 30
0.0
 10
49.801164
 20
13.012302
 30
0.0
 10
50.640096
 20
14.163638
 30
0.0
 10
51.528125
 20
15.949146
 30
0.0
 10
51.993973
 20
17.804700
 30
0.0
 10
52.577213
 20
19.529970
 30
0.0
 10
51.908608
 20
19.985352
 30
0.0
 10
51.457116
 20
20.125930
 30
0.0
 10
50.812937
 20
20.259649
 30
0.0
 10
49.937861
 20
20.313687
 30
0.0
 10
48.755916
 20
19.616388
 30
0.0
 10
47.485886
 20
18.653291
 30
0.0
 10
46.049605
 20
17.542410
 30
0.0
 10
44.848498
 20
16.566575
 30
0.0
 10
43.837843
 20
15.659518
 30
0.0
 10
43.034340
 20
14.934911
 30
0.0
 10
42.588302
 20
13.998525
 30
0.0
 10
42.605672
 20
13.375426
 30
0.0
 10
42.615556
 20
13.020878
 30
0.0
 11
47.595392
 21
12.306323
 31
0.0
 11
48.964097
 21
12.644745
 31
0.0
 11
49.738343
 21
13.058605
 31
0.0
 11
50.335490
 21
13.770997
 31
0.0
 11
51.421593
 21
15.905183
 31
0.0
 11
52.164875
 21
18.268600
 31
0.0
 11
52.215412
 21
19.748593
 31
0.0
 11
51.959549
 21
19.936272
 31
0.0
 11
51.485998
 21
20.109169
 31
0.0
 11
50.897282
 21
20.229855
 31
0.0
 11
50.023181
 21
20.232301
 31
0.0
 11
49.056697
 21
19.777599
 31
0.0
 11
47.402541
 21
18.585680
 31
0.0
 11
46.038026
 21
17.524569
 31
0.0
 11
44.750302
 21
16.466722
 31
0.0
 11
43.818155
 21
15.641156
 31
0.0
 11
43.011301
 21
14.790382
 31
0.0
 11
42.679806
 21
14.068106
 31
0.0
 11
42.615556
 21
13.020878
 31
0.0
  0
LWPOLYLINE
  5
14f
100
AcDbEntity
  8
0
 62
7
100
AcDbPolyline
 90
3
 70
0
 10
42.615556
 20
13.020878
 30
0.0
 10
42.615556
 20
11.551669
 30
0.0
 10
44.097222
 20
11.719495
 30
0.0
  0
SPLINE
  5
150
100
AcDbEntity
  8
0
 62
7
100
AcDbSpline
 70
0
 71
3
 72
10
 73
6
 74
4
 40
0.000000
 40
0.000000
 40
0.000000
 40
0.000000
 40
1.032462
 40
2.306772
 40
3.547805
 40
3.547805
 40
3.547805
 40
3.547805
 10
44.097222
 20
11.719495
 30
0.0
 10
44.438375
 20
11.764984
 30
0.0
 10
45.200594
 20
11.866616
 30
0.0
 10
46.366726
 20
12.065054
 30
0.0
 10
47.189465
 20
12.226612
 30
0.0
 10
47.595392
 20
12.306323
 30
0.0
 11
44.097222
 21
11.719495
 31
0.0
 11
45.119879
 21
11.861448
 31
0.0
 11
46.376629
 21
12.072271
 31
0.0
 11
47.595392
 21
12.306323
 31
0.0
  0
LWPOLYLINE
  5
151
100
AcDbEntity
  8
0
 62
7
100
AcDbPolyline
 90
2
 70
0
 10
47.595392
 20
12.306323
 30
0.0
 10
47.595392
 20
12.306323
 30
0.0
  0
SPLINE
  5
152
100
AcDbEntity
  8
0
 62
7
100
AcDbSpline
 70
0
 71
3
 72
13
 73
9
 74
7
 40
0.000000
 40
0.000000
 40
0.000000
 40
0.000000
 40
0.399026
 40
1.130497
 40
2.038969
 40
6.363417
 40
11.549790
 40
16.299978
 40
16.299978
 40
16.299978
 40
16.299978
 10
52.211111
 20
13.277286
 30
0.0
 10
52.238874
 20
13.407483
 30
0.0
 10
52.317531
 20
13.776351
 30
0.0
 10
52.555389
 20
14.415146
 30
0.0
 10
53.288196
 20
16.261797
 30
0.0
 10
54.488012
 20
19.523450
 30
0.0
 10
55.932292
 20
24.054323
 30
0.0
 10
56.782021
 20
27.256068
 30
0.0
 10
57.188235
 20
28.786667
 30
0.0
 11
52.211111
 21
13.277286
 31
0.0
 11
52.301031
 21
13.666047
 31
0.0
 11
52.536766
 21
14.358492
 31
0.0
 11
52.867281
 21
15.204708
 31
0.0
 11
54.361469
 21
19.262817
 31
0.0
 11
55.933806
 21
24.205107
 31
0.0
 11
57.188235
 21
28.786667
 31
0.0
  0
LWPOLYLINE
  5
153
100
AcDbEntity
  8
0
 62
7
100
AcDbPolyline
 90
3
 70
0
 10
57.188235
 20
28.786667
 30
0.0
 10
58.177311
 20
32.878889
 30
0.0
 10
60.524861
 20
35.983333
 30
0.0
  0
SPLINE
  5
154
100
AcDbEntity
  8
0
 62
7
100
AcDbSpline
 70
0
 71
3
 72
10
 73
6
 74
4
 40
0.000000
 40
0.000000
 40
0.000000
 40
0.000000
 40
4.120136
 40
6.401329
 40
8.388972
 40
8.388972
 40
8.388972
 40
8.388972
 10
60.524861
 20
35.983333
 30
0.0
 10
61.355344
 20
37.069460
 30
0.0
 10
62.645639
 20
38.756943
 30
0.0
 10
64.126313
 20
41.197849
 30
0.0
 10
64.266641
 20
42.630796
 30
0.0
 10
64.331980
 20
43.298000
 30
0.0
 11
60.524861
 21
35.983333
 31
0.0
 11
62.949841
 21
39.314248
 31
0.0
 11
64.003036
 21
41.337766
 31
0.0
 11
64.331980
 21
43.298000
 31
0.0
  0
LWPOLYLINE
  5
155
100
AcDbEntity
  8
0
 62
7
100
AcDbPolyline
 90
3
 70
0
 10
64.331980
 20
43.298000
 30
0.0
 10
64.487778
 20
45.296667
 30
0.0
 10
65.475556
 20
45.217783
 30
0.0
  0
SPLINE
  5
156
100
AcDbEntity
  8
0
 62
7
100
AcDbSpline
 70
0
 71
3
 72
19
 73
15
 74
13
 40
0.000000
 40
0.000000
 40
0.000000
 40
0.000000
 40
2.596791
 40
6.072103
 40
8.016559
 40
9.233220
 40
11.580031
 40
14.123093
 40
21.735277
 40
29.243648
 40
36.367032
 40
41.517691
 40
45.691919
 40
47.292907
 40
47.292907
 40
47.292907
 40
47.292907
 10
65.475556
 20
45.217783
 30
0.0
 10
66.342290
 20
45.061676
 30
0.0
 10
68.368984
 20
44.696651
 30
0.0
 10
70.620181
 20
43.744195
 30
0.0
 10
73.411505
 20
43.485584
 30
0.0
 10
73.239119
 20
41.367952
 30
0.0
 10
73.167680
 20
39.452995
 30
0.0
 10
72.574097
 20
35.260998
 30
0.0
 10
70.783878
 20
29.627131
 30
0.0
 10
67.064143
 20
23.159205
 30
0.0
 10
62.470850
 20
18.240414
 30
0.0
 10
57.831577
 20
15.464390
 30
0.0
 10
54.704247
 20
13.193767
 30
0.0
 10
52.752240
 20
13.259158
 30
0.0
 10
52.211111
 20
13.277286
 30
0.0
 11
65.475556
 21
45.217783
 31
0.0
 11
68.016952
 21
44.684279
 31
0.0
 11
71.361587
 21
43.740239
 31
0.0
 11
73.177112
 21
43.043980
 31
0.0
 11
73.282631
 21
41.831903
 31
0.0
 11
73.129676
 21
39.490082
 31
0.0
 11
72.780466
 21
36.971111
 31
0.0
 11
70.520912
 21
29.702015
 31
0.0
 11
66.749451
 21
23.209579
 31
0.0
 11
61.806667
 21
18.080107
 31
0.0
 11
57.544283
 21
15.188504
 31
0.0
 11
53.811524
 21
13.320163
 31
0.0
 11
52.211111
 21
13.277286
 31
0.0
  0
LWPOLYLINE
  5
157
100
AcDbEntity
  8
0
 62
7
100
AcDbPolyline
 90
2
 70
0
 10
52.211111
 20
13.277286
 30
0.0
 10
52.211111
 20
13.277286
 30
0.0
  0
SPLINE
  5
158
100
AcDbEntity
  8
0
 62
7
100
AcDbSpline
 70
0
 71
3
 72
13
 73
9
 74
7
 40
0.000000
 40
0.000000
 40
0.000000
 40
0.000000
 40
4.457799
 40
8.648561
 40
12.688062
 40
19.234816
 40
25.735718
 40
32.142805
 40
32.142805
 40
32.142805
 40
32.142805
 10
55.111938
 20
14.713718
 30
0.0
 10
56.419211
 20
15.424022
 30
0.0
 10
58.955447
 20
16.802081
 30
0.0
 10
62.321628
 20
19.393286
 30
0.0
 10
65.776042
 20
22.927150
 30
0.0
 10
68.954201
 20
27.696705
 30
0.0
 10
71.539075
 20
33.717827
 30
0.0
 10
72.136136
 20
37.995623
 30
0.0
 10
72.432497
 20
40.118975
 30
0.0
 11
55.111938
 21
14.713718
 31
0.0
 11
58.969531
 21
16.947762
 31
0.0
 11
62.294468
 21
19.498697
 31
0.0
 11
65.116287
 21
22.389183
 31
0.0
 11
68.788201
 21
27.809242
 31
0.0
 11
71.267969
 21
33.818607
 31
0.0
 11
72.432497
 21
40.118975
 31
0.0
  0
LWPOLYLINE
  5
159
100
AcDbEntity
  8
0
 62
7
100
AcDbPolyline
 90
3
 70
0
 10
72.432497
 20
40.118975
 30
0.0
 10
72.611782
 20
42.561284
 30
0.0
 10
71.089780
 20
43.002175
 30
0.0
  0
SPLINE
  5
15a
100
AcDbEntity
  8
0
 62
7
100
AcDbSpline
 70
0
 71
3
 72
34
 73
30
 74
28
 40
0.000000
 40
0.000000
 40
0.000000
 40
0.000000
 40
1.077046
 40
2.377466
 40
3.619727
 40
4.685756
 40
5.524577
 40
5.955866
 40
6.226757
 40
6.843926
 40
7.795856
 40
9.045427
 40
10.065162
 40
11.375930
 40
12.708776
 40
14.400279
 40
16.086643
 40
18.718267
 40
20.818492
 40
23.930365
 40
28.973153
 40
34.998626
 40
38.691733
 40
39.127853
 40
39.422322
 40
39.531445
 40
39.877189
 40
40.637003
 40
41.647638
 40
41.647638
 40
41.647638
 40
41.647638
 10
71.089780
 20
43.002175
 30
0.0
 10
70.745109
 20
43.102187
 30
0.0
 10
69.984284
 20
43.322953
 30
0.0
 10
68.824477
 20
43.664289
 30
0.0
 10
67.676194
 20
43.992422
 30
0.0
 10
66.651872
 20
44.319262
 30
0.0
 10
65.935597
 20
44.418433
 30
0.0
 10
65.367034
 20
44.697249
 30
0.0
 10
65.100364
 20
44.262806
 30
0.0
 10
65.078483
 20
43.661193
 30
0.0
 10
65.032545
 20
42.718070
 30
0.0
 10
65.053646
 20
41.638949
 30
0.0
 10
64.708585
 20
40.478808
 30
0.0
 10
64.084902
 20
39.423148
 30
0.0
 10
63.282327
 20
38.222508
 30
0.0
 10
62.350086
 20
36.957260
 30
0.0
 10
61.115187
 20
35.382851
 30
0.0
 10
59.698589
 20
33.760106
 30
0.0
 10
58.604108
 20
31.352844
 30
0.0
 10
57.911365
 20
27.997289
 30
0.0
 10
56.546625
 20
23.468671
 30
0.0
 10
55.025933
 20
18.794520
 30
0.0
 10
53.926650
 20
15.582882
 30
0.0
 10
53.287754
 20
14.253717
 30
0.0
 10
53.147031
 20
14.010812
 30
0.0
 10
53.197907
 20
13.717490
 30
0.0
 10
53.704434
 20
14.113182
 30
0.0
 10
54.254185
 20
14.251563
 30
0.0
 10
54.800234
 20
14.545772
 30
0.0
 10
55.111938
 20
14.713718
 30
0.0
 11
71.089780
 21
43.002175
 31
0.0
 11
70.055573
 21
43.302914
 31
0.0
 11
68.807316
 21
43.667531
 31
0.0
 11
67.615249
 21
44.017088
 31
0.0
 11
66.589180
 21
44.306226
 31
0.0
 11
65.776104
 21
44.512449
 31
0.0
 11
65.352049
 21
44.591111
 31
0.0
 11
65.186074
 21
44.377022
 31
0.0
 11
65.081395
 21
43.768795
 31
0.0
 11
65.046801
 21
42.817494
 31
0.0
 11
64.984326
 21
41.569486
 31
0.0
 11
64.703677
 21
40.589131
 31
0.0
 11
64.078987
 21
39.436796
 31
0.0
 11
63.341229
 21
38.326755
 31
0.0
 11
62.342638
 21
36.961472
 31
0.0
 11
61.299403
 21
35.636525
 31
0.0
 11
59.700114
 21
33.546616
 31
0.0
 11
58.806188
 21
31.646131
 31
0.0
 11
58.007733
 21
28.638438
 31
0.0
 11
56.625635
 21
23.788745
 31
0.0
 11
54.766099
 21
18.057388
 31
0.0
 11
53.454591
 21
14.605000
 31
0.0
 11
53.261267
 21
14.214070
 31
0.0
 11
53.166563
 21
13.935245
 31
0.0
 11
53.190981
 21
13.828889
 31
0.0
 11
53.514765
 21
13.950143
 31
0.0
 11
54.204887
 21
14.268026
 31
0.0
 11
55.111938
 21
14.713718
 31
0.0
  0
LWPOLYLINE
  5
15b
100
AcDbEntity
  8
0
 62
7
100
AcDbPolyline
 90
2
 70
0
 10
55.111938
 20
14.713718
 30
0.0
 10
55.111938
 20
14.713718
 30
0.0
  0
SPLINE
  5
15c
100
AcDbEntity
  8
0
 62
7
100
AcDbSpline
 70
0
 71
3
 72
34
 73
30
 74
28
 40
0.000000
 40
0.000000
 40
0.000000
 40
0.000000
 40
0.609459
 40
1.736948
 40
3.143385
 40
5.070191
 40
6.299055
 40
7.909067
 40
11.697914
 40
16.085027
 40
19.955820
 40
24.177150
 40
28.048186
 40
31.986128
 40
41.015117
 40
49.607244
 40
58.889477
 40
59.749982
 40
60.406259
 40
60.720098
 40
60.963000
 40
61.426687
 40
62.015139
 40
62.953100
 40
64.340600
 40
65.881517
 40
67.688462
 40
69.116314
 40
70.481448
 40
70.481448
 40
70.481448
 40
70.481448
 10
18.148647
 20
15.017149
 30
0.0
 10
18.170567
 20
15.219309
 30
0.0
 10
18.233037
 20
15.795462
 30
0.0
 10
18.183203
 20
16.845791
 30
0.0
 10
18.077888
 20
18.326388
 30
0.0
 10
18.000500
 20
19.851240
 30
0.0
 10
17.491162
 20
21.386281
 30
0.0
 10
16.037964
 20
23.083855
 30
0.0
 10
14.363573
 20
25.886703
 30
0.0
 10
12.565447
 20
29.482697
 30
0.0
 10
11.094234
 20
33.385784
 30
0.0
 10
10.251481
 20
37.295931
 30
0.0
 10
9.858621
 20
41.299736
 30
0.0
 10
10.171693
 20
46.913954
 30
0.0
 10
11.697007
 20
54.030197
 30
0.0
 10
16.150417
 20
61.960199
 30
0.0
 10
20.663282
 20
66.395976
 30
0.0
 10
23.515189
 20
68.587463
 30
0.0
 10
24.005728
 20
68.953159
 30
0.0
 10
24.365180
 20
69.141111
 30
0.0
 10
24.686960
 20
69.255050
 30
0.0
 10
25.045708
 20
69.502152
 30
0.0
 10
25.578623
 20
69.894755
 30
0.0
 10
26.414860
 20
70.393707
 30
0.0
 10
27.566669
 20
70.972464
 30
0.0
 10
29.008267
 20
71.616101
 30
0.0
 10
30.465505
 20
72.256830
 30
0.0
 10
31.782213
 20
73.064103
 30
0.0
 10
32.450520
 20
73.715797
 30
0.0
 10
32.777170
 20
74.034327
 30
0.0
 11
18.148647
 21
15.017149
 31
0.0
 11
18.203324
 21
15.624150
 31
0.0
 11
18.183734
 21
16.751469
 31
0.0
 11
18.094118
 21
18.155048
 31
0.0
 11
17.882880
 21
20.070240
 31
0.0
 11
17.472116
 21
21.228420
 31
0.0
 11
16.538819
 21
22.540324
 31
0.0
 11
14.504282
 21
25.736575
 31
0.0
 11
12.561493
 21
29.670064
 31
0.0
 11
11.223411
 21
33.302222
 31
0.0
 11
10.310018
 21
37.423550
 31
0.0
 11
9.959149
 21
41.278652
 31
0.0
 11
10.139410
 21
45.212466
 31
0.0
 11
12.166422
 21
54.010981
 31
0.0
 11
16.347379
 21
61.517262
 31
0.0
 11
22.889067
 21
68.102561
 31
0.0
 11
23.571015
 21
68.627362
 31
0.0
 11
24.110082
 21
69.001668
 31
0.0
 11
24.389564
 21
69.144444
 31
0.0
 11
24.614138
 21
69.237006
 31
0.0
 11
25.009259
 21
69.479669
 31
0.0
 11
25.489386
 21
69.819896
 31
0.0
 11
26.289983
 21
70.308582
 31
0.0
 11
27.525257
 21
70.940447
 31
0.0
 11
28.927778
 21
71.578696
 31
0.0
 11
30.562113
 21
72.349410
 31
0.0
 11
31.765884
 21
73.117327
 31
0.0
 11
32.777170
 21
74.034327
 31
0.0
  0
LWPOLYLINE
  5
15d
100
AcDbEntity
  8
0
 62
7
100
AcDbPolyline
 90
3
 70
0
 10
32.777170
 20
74.034327
 30
0.0
 10
34.086560
 20
75.406610
 30
0.0
 10
35.740504
 20
75.262358
 30
0.0
  0
SPLINE
  5
15e
100
AcDbEntity
  8
0
 62
7
100
AcDbSpline
 70
0
 71
3
 72
46
 73
42
 74
40
 40
0.000000
 40
0.000000
 40
0.000000
 40
0.000000
 40
0.962387
 40
1.890087
 40
2.583178
 40
3.226075
 40
3.979852
 40
4.804540
 40
5.954799
 40
6.191172
 40
7.460240
 40
8.434733
 40
9.153616
 40
10.000044
 40
12.421644
 40
14.103603
 40
15.903507
 40
16.517808
 40
17.011467
 40
17.297340
 40
19.073063
 40
22.131726
 40
25.270441
 40
33.574994
 40
41.942990
 40
50.440569
 40
55.041568
 40
60.026496
 40
64.539433
 40
68.849648
 40
72.994004
 40
77.044558
 40
78.613768
 40
79.921168
 40
82.196607
 40
84.092691
 40
85.173042
 40
85.676318
 40
85.908679
 40
85.984324
 40
86.251827
 40
86.251827
 40
86.251827
 40
86.251827
 10
35.740504
 20
75.262358
 30
0.0
 10
36.059689
 20
75.230348
 30
0.0
 10
36.686554
 20
75.167481
 30
0.0
 10
37.541642
 20
75.063905
 30
0.0
 10
38.282883
 20
74.916039
 30
0.0
 10
38.973343
 20
74.839758
 30
0.0
 10
39.740661
 20
74.962206
 30
0.0
 10
40.487721
 20
75.077591
 30
0.0
 10
41.664733
 20
75.818964
 30
0.0
 10
41.563377
 20
74.773797
 30
0.0
 10
40.457829
 20
74.741321
 30
0.0
 10
39.626182
 20
74.309382
 30
0.0
 10
38.747891
 20
74.255176
 30
0.0
 10
37.471550
 20
74.637262
 30
0.0
 10
35.881077
 20
75.109004
 30
0.0
 10
33.803371
 20
74.741505
 30
0.0
 10
32.958142
 20
73.563554
 30
0.0
 10
32.419892
 20
72.772625
 30
0.0
 10
32.119434
 20
72.402641
 30
0.0
 10
31.349839
 20
72.018560
 30
0.0
 10
29.676428
 20
71.629146
 30
0.0
 10
27.353690
 20
70.285494
 30
0.0
 10
23.140543
 20
67.931930
 30
0.0
 10
18.129880
 20
63.456204
 30
0.0
 10
13.448821
 20
56.416689
 30
0.0
 10
11.001745
 20
49.579856
 30
0.0
 10
10.382025
 20
43.561852
 30
0.0
 10
10.512838
 20
38.852385
 30
0.0
 10
11.254296
 20
34.288862
 30
0.0
 10
12.687536
 20
30.194873
 30
0.0
 10
14.508858
 20
26.431368
 30
0.0
 10
16.283055
 20
23.707257
 30
0.0
 10
17.798880
 20
21.922134
 30
0.0
 10
18.274479
 20
20.239005
 30
0.0
 10
18.365487
 20
18.403248
 30
0.0
 10
18.513086
 20
16.694612
 30
0.0
 10
18.551033
 20
15.468339
 30
0.0
 10
18.413902
 20
14.955068
 30
0.0
 10
18.172963
 20
14.646985
 30
0.0
 10
18.020070
 20
14.813750
 30
0.0
 10
18.092322
 20
14.928047
 30
0.0
 10
18.148647
 20
15.017149
 30
0.0
 11
35.740504
 21
75.262358
 31
0.0
 11
36.697746
 21
75.162978
 31
0.0
 11
37.617405
 21
75.041104
 31
0.0
 11
38.300381
 21
74.923122
 31
0.0
 11
38.941155
 21
74.870920
 31
0.0
 11
39.690375
 21
74.953677
 31
0.0
 11
40.487603
 21
75.164717
 31
0.0
 11
41.606869
 21
75.429932
 31
0.0
 11
41.587661
 21
75.194340
 31
0.0
 11
40.445001
 21
74.642198
 31
0.0
 11
39.517928
 21
74.341911
 31
0.0
 11
38.800475
 21
74.296585
 31
0.0
 11
37.975557
 21
74.486189
 31
0.0
 11
35.599641
 21
74.954343
 31
0.0
 11
33.963181
 21
74.565775
 31
0.0
 11
32.742005
 21
73.243509
 31
0.0
 11
32.387186
 21
72.742043
 31
0.0
 11
32.047877
 21
72.383479
 31
0.0
 11
31.797538
 21
72.245443
 31
0.0
 11
30.118875
 21
71.666406
 31
0.0
 11
27.378216
 21
70.308389
 31
0.0
 11
24.673712
 21
68.715535
 31
0.0
 11
18.422835
 21
63.248164
 31
0.0
 11
13.771779
 21
56.291797
 31
0.0
 11
10.997056
 21
48.260000
 31
0.0
 11
10.491352
 21
43.686877
 31
0.0
 11
10.633432
 21
38.703974
 31
0.0
 11
11.396359
 21
34.255992
 31
0.0
 11
12.783041
 21
30.174931
 31
0.0
 11
14.598098
 21
26.449174
 31
0.0
 11
16.842295
 21
23.077147
 31
0.0
 11
17.747875
 21
21.795608
 31
0.0
 11
18.149001
 21
20.551264
 31
0.0
 11
18.386054
 21
18.288206
 31
0.0
 11
18.515238
 21
16.396529
 31
0.0
 11
18.493635
 21
15.316393
 31
0.0
 11
18.317189
 21
14.845061
 31
0.0
 11
18.131911
 21
14.704835
 31
0.0
 11
18.078981
 21
14.758877
 31
0.0
 11
18.148647
 21
15.017149
 31
0.0
  0
LWPOLYLINE
  5
15f
100
AcDbEntity
  8
0
 62
7
100
AcDbPolyline
 90
2
 70
0
 10
18.148647
 20
15.017149
 30
0.0
 10
18.148647
 20
15.017149
 30
0.0
  0
SPLINE
  5
160
100
AcDbEntity
  8
0
 62
7
100
AcDbSpline
 70
0
 71
3
 72
22
 73
18
 74
16
 40
0.000000
 40
0.000000
 40
0.000000
 40
0.000000
 40
1.897874
 40
4.663991
 40
6.200999
 40
6.881148
 40
8.267883
 40
9.760611
 40
11.017785
 40
11.789695
 40
13.042849
 40
13.909979
 40
15.031275
 40
16.171389
 40
17.938487
 40
18.838500
 40
19.471191
 40
19.471191
 40
19.471191
 40
19.471191
 10
43.269916
 20
19.261667
 30
0.0
 10
43.452601
 20
19.881514
 30
0.0
 10
43.901545
 20
21.404779
 30
0.0
 10
44.818156
 20
22.988316
 30
0.0
 10
44.956386
 20
25.296771
 30
0.0
 10
46.310523
 20
24.962715
 30
0.0
 10
47.350944
 20
24.519194
 30
0.0
 10
48.534160
 20
23.869961
 30
0.0
 10
49.666782
 20
23.189424
 30
0.0
 10
49.546635
 20
21.898616
 30
0.0
 10
48.484538
 20
21.585837
 30
0.0
 10
47.549435
 20
21.097999
 30
0.0
 10
46.665512
 20
20.542288
 30
0.0
 10
45.561056
 20
19.710276
 30
0.0
 10
44.731713
 20
19.032900
 30
0.0
 10
43.325638
 20
18.381476
 30
0.0
 10
43.286197
 20
19.004490
 30
0.0
 10
43.269916
 20
19.261667
 30
0.0
 11
43.269916
 21
19.261667
 31
0.0
 11
43.857789
 21
21.066198
 31
0.0
 11
44.786328
 21
23.671810
 31
0.0
 11
45.350955
 21
25.101352
 31
0.0
 11
46.026349
 21
25.021070
 31
0.0
 11
47.315789
 21
24.510797
 31
0.0
 11
48.630357
 21
23.803587
 31
0.0
 11
49.543830
 21
22.939842
 31
0.0
 11
49.466970
 21
22.171768
 31
0.0
 11
48.401111
 21
21.512725
 31
0.0
 11
47.624999
 21
21.125989
 31
0.0
 11
46.675485
 21
20.529560
 31
0.0
 11
45.758134
 21
19.852561
 31
0.0
 11
44.298986
 21
18.855806
 31
0.0
 11
43.423325
 21
18.647857
 31
0.0
 11
43.269916
 21
19.261667
 31
0.0
  0
LWPOLYLINE
  5
161
100
AcDbEntity
  8
0
 62
7
100
AcDbPolyline
 90
2
 70
0
 10
43.269916
 20
19.261667
 30
0.0
 10
43.269916
 20
19.261667
 30
0.0
  0
SPLINE
  5
162
100
AcDbEntity
  8
0
 62
7
100
AcDbSpline
 70
0
 71
3
 72
25
 73
21
 74
19
 40
0.000000
 40
0.000000
 40
0.000000
 40
0.000000
 40
0.691722
 40
1.202283
 40
1.427733
 40
2.275220
 40
3.815105
 40
4.780007
 40
4.886042
 40
5.087797
 40
5.361103
 40
6.395635
 40
7.992661
 40
9.475366
 40
9.611944
 40
9.974689
 40
10.701275
 40
11.690252
 40
12.742078
 40
13.637358
 40
13.637358
 40
13.637358
 40
13.637358
 10
47.577115
 20
22.023050
 30
0.0
 10
47.790287
 20
22.119665
 30
0.0
 10
48.160801
 20
22.287592
 30
0.0
 10
48.560504
 20
22.485321
 30
0.0
 10
49.062793
 20
22.849010
 30
0.0
 10
47.628188
 20
23.336694
 30
0.0
 10
47.037672
 20
23.612809
 30
0.0
 10
46.091912
 20
24.482958
 30
0.0
 10
45.762201
 20
24.177951
 30
0.0
 10
45.733985
 20
23.976280
 30
0.0
 10
45.716422
 20
23.478445
 30
0.0
 10
45.414169
 20
22.550109
 30
0.0
 10
45.024877
 20
21.181862
 30
0.0
 10
44.314751
 20
20.453025
 30
0.0
 10
44.237365
 20
19.636987
 30
0.0
 10
44.758852
 20
20.116283
 30
0.0
 10
45.157225
 20
20.422798
 30
0.0
 10
45.927364
 20
21.066584
 30
0.0
 10
46.727121
 20
21.594270
 30
0.0
 10
47.309388
 20
21.887995
 30
0.0
 10
47.577115
 20
22.023050
 30
0.0
 11
47.577115
 21
22.023050
 31
0.0
 11
48.205400
 21
22.312425
 31
0.0
 11
48.653514
 21
22.557101
 31
0.0
 11
48.824444
 21
22.704106
 31
0.0
 11
48.120547
 21
23.176084
 31
0.0
 11
46.760216
 21
23.897709
 31
0.0
 11
45.870492
 21
24.271111
 31
0.0
 11
45.794689
 21
24.196968
 31
0.0
 11
45.740623
 21
24.002592
 31
0.0
 11
45.720000
 21
23.730066
 31
0.0
 11
45.476532
 21
22.724591
 31
0.0
 11
44.909573
 21
21.231591
 31
0.0
 11
44.264286
 21
19.896667
 31
0.0
 11
44.263545
 21
19.760091
 31
0.0
 11
44.575848
 21
19.944620
 31
0.0
 11
45.133582
 21
20.410303
 31
0.0
 11
45.907045
 21
21.026606
 31
0.0
 11
46.784907
 21
21.606000
 31
0.0
 11
47.577115
 21
22.023050
 31
0.0
  0
LWPOLYLINE
  5
163
100
AcDbEntity
  8
0
 62
7
100
AcDbPolyline
 90
2
 70
0
 10
47.577115
 20
22.023050
 30
0.0
 10
47.577115
 20
22.023050
 30
0.0
  0
SPLINE
  5
164
100
AcDbEntity
  8
0
 62
7
100
AcDbSpline
 70
0
 71
3
 72
25
 73
21
 74
19
 40
0.000000
 40
0.000000
 40
0.000000
 40
0.000000
 40
2.918193
 40
5.073041
 40
6.476264
 40
6.885874
 40
7.228407
 40
7.710004
 40
7.809970
 40
8.359947
 40
9.412071
 40
13.139289
 40
16.928419
 40
20.373482
 40
23.385918
 40
26.951626
 40
30.850720
 40
32.144988
 40
34.123062
 40
36.360520
 40
36.360520
 40
36.360520
 40
36.360520
 10
47.554444
 20
31.219888
 30
0.0
 10
46.621123
 20
31.501549
 30
0.0
 10
44.998620
 20
31.991195
 30
0.0
 10
43.088626
 20
33.033453
 30
0.0
 10
42.276414
 20
34.235691
 30
0.0
 10
42.351768
 20
34.979964
 30
0.0
 10
42.666513
 20
35.313015
 30
0.0
 10
42.996672
 20
35.256748
 30
0.0
 10
43.334054
 20
35.540656
 30
0.0
 10
42.236631
 20
35.428233
 30
0.0
 10
41.002687
 20
35.609801
 30
0.0
 10
37.719394
 20
35.866701
 30
0.0
 10
34.416821
 20
37.147705
 30
0.0
 10
31.379849
 20
38.876577
 30
0.0
 10
29.253508
 20
41.522633
 30
0.0
 10
27.753495
 20
44.685978
 30
0.0
 10
26.843305
 20
47.490962
 30
0.0
 10
26.598504
 20
49.872476
 30
0.0
 10
26.515026
 20
51.707452
 30
0.0
 10
26.501478
 20
53.112678
 30
0.0
 10
26.494288
 20
53.858524
 30
0.0
 11
47.554444
 21
31.219888
 31
0.0
 11
44.796290
 21
32.173004
 31
0.0
 11
42.984688
 21
33.339824
 31
0.0
 11
42.333333
 21
34.582712
 31
0.0
 11
42.403222
 21
34.986316
 31
0.0
 11
42.645581
 21
35.228373
 31
0.0
 11
43.109444
 21
35.357858
 31
0.0
 11
43.185380
 21
35.422873
 31
0.0
 11
42.638411
 21
35.480303
 31
0.0
 11
41.586952
 21
35.517715
 31
0.0
 11
37.894476
 21
36.025427
 31
0.0
 11
34.322889
 21
37.290842
 31
0.0
 11
31.406462
 21
39.124667
 31
0.0
 11
29.466031
 21
41.428902
 31
0.0
 11
27.868086
 21
44.616510
 31
0.0
 11
26.776895
 21
48.359802
 31
0.0
 11
26.631565
 21
49.645884
 31
0.0
 11
26.530035
 21
51.621351
 31
0.0
 11
26.494288
 21
53.858524
 31
0.0
  0
LWPOLYLINE
  5
165
100
AcDbEntity
  8
0
 62
7
100
AcDbPolyline
 90
3
 70
0
 10
26.494288
 20
53.858524
 30
0.0
 10
26.502416
 20
57.904825
 30
0.0
 10
27.644541
 20
59.143885
 30
0.0
  0
SPLINE
  5
166
100
AcDbEntity
  8
0
 62
7
100
AcDbSpline
 70
0
 71
3
 72
31
 73
27
 74
25
 40
0.000000
 40
0.000000
 40
0.000000
 40
0.000000
 40
0.894177
 40
1.623982
 40
2.045953
 40
3.111394
 40
4.426247
 40
5.323921
 40
5.805674
 40
6.573358
 40
7.461592
 40
8.553531
 40
9.302618
 40
10.113669
 40
11.907019
 40
12.823365
 40
13.973660
 40
16.414033
 40
17.305414
 40
17.491052
 40
17.999599
 40
18.773514
 40
19.645865
 40
21.231805
 40
22.481364
 40
24.138273
 40
24.138273
 40
24.138273
 40
24.138273
 10
27.644541
 20
59.143885
 30
0.0
 10
27.838549
 20
59.369326
 30
0.0
 10
28.190900
 20
59.778766
 30
0.0
 10
28.606845
 20
60.328724
 30
0.0
 10
28.869299
 20
61.022936
 30
0.0
 10
29.049688
 20
61.955600
 30
0.0
 10
29.645686
 20
62.858890
 30
0.0
 10
30.241235
 20
63.626023
 30
0.0
 10
30.978784
 20
63.697162
 30
0.0
 10
31.672349
 20
63.821960
 30
0.0
 10
32.584806
 20
63.929211
 30
0.0
 10
33.491133
 20
64.023035
 30
0.0
 10
34.327417
 20
64.379408
 30
0.0
 10
35.059537
 20
65.251562
 30
0.0
 10
35.690376
 20
66.233644
 30
0.0
 10
36.806711
 20
66.999966
 30
0.0
 10
38.474454
 20
66.642756
 30
0.0
 10
39.202786
 20
66.717730
 30
0.0
 10
41.526296
 20
66.296761
 30
0.0
 10
40.940388
 20
66.552145
 30
0.0
 10
40.505010
 20
66.659356
 30
0.0
 10
39.814650
 20
66.929298
 30
0.0
 10
38.826212
 20
67.314362
 30
0.0
 10
37.622109
 20
67.778486
 30
0.0
 10
36.092131
 20
67.280520
 30
0.0
 10
35.512480
 20
66.477728
 30
0.0
 10
35.182034
 20
66.020075
 30
0.0
 11
27.644541
 21
59.143885
 31
0.0
 11
28.219835
 21
59.828421
 31
0.0
 11
28.630154
 21
60.431955
 31
0.0
 11
28.786667
 21
60.823826
 31
0.0
 11
29.089643
 21
61.845282
 31
0.0
 11
29.752186
 21
62.981009
 31
0.0
 11
30.404712
 21
63.597473
 31
0.0
 11
30.877025
 21
63.692378
 31
0.0
 11
31.635946
 21
63.808035
 31
0.0
 11
32.517170
 21
63.919406
 31
0.0
 11
33.594141
 21
64.099585
 31
0.0
 11
34.272984
 21
64.416292
 31
0.0
 11
34.835200
 21
65.000857
 31
0.0
 11
35.978108
 21
66.382837
 31
0.0
 11
36.771891
 21
66.840654
 31
0.0
 11
37.920605
 21
66.780374
 31
0.0
 11
40.344797
 21
66.499812
 31
0.0
 11
41.232546
 21
66.419417
 31
0.0
 11
41.063333
 21
66.495764
 31
0.0
 11
40.578903
 21
66.650513
 31
0.0
 11
39.851489
 21
66.914732
 31
0.0
 11
39.038572
 21
67.231220
 31
0.0
 11
37.498834
 21
67.611233
 31
0.0
 11
36.306682
 21
67.236838
 31
0.0
 11
35.182034
 21
66.020075
 31
0.0
  0
LWPOLYLINE
  5
167
100
AcDbEntity
  8
0
 62
7
100
AcDbPolyline
 90
3
 70
0
 10
35.182034
 20
66.020075
 30
0.0
 10
34.380737
 20
64.891958
 30
0.0
 10
32.420467
 20
64.941429
 30
0.0
  0
SPLINE
  5
168
100
AcDbEntity
  8
0
 62
7
100
AcDbSpline
 70
0
 71
3
 72
64
 73
60
 74
58
 40
0.000000
 40
0.000000
 40
0.000000
 40
0.000000
 40
1.926506
 40
3.390842
 40
5.560398
 40
6.597899
 40
7.434601
 40
7.891222
 40
8.944600
 40
10.283378
 40
11.419972
 40
13.625963
 40
15.659378
 40
18.027235
 40
19.370313
 40
19.883956
 40
21.086259
 40
22.391938
 40
23.621153
 40
24.775443
 40
25.987678
 40
27.340806
 40
29.254055
 40
31.235090
 40
32.485219
 40
33.547881
 40
34.709743
 40
36.027273
 40
37.760012
 40
38.873610
 40
39.894315
 40
40.801575
 40
42.138629
 40
43.039574
 40
43.670683
 40
44.033868
 40
44.501291
 40
45.577605
 40
46.467421
 40
47.234962
 40
47.718882
 40
48.843661
 40
50.315737
 40
51.478037
 40
52.168788
 40
53.319636
 40
54.684500
 40
56.297448
 40
57.711265
 40
59.013224
 40
60.076720
 40
61.088939
 40
61.843337
 40
64.990591
 40
68.305389
 40
69.845423
 40
70.461086
 40
71.693024
 40
73.278422
 40
73.278422
 40
73.278422
 40
73.278422
 10
32.420467
 20
64.941429
 30
0.0
 10
31.756382
 20
64.969550
 30
0.0
 10
30.587527
 20
65.019046
 30
0.0
 10
29.048453
 20
63.748438
 30
0.0
 10
28.647197
 20
62.196975
 30
0.0
 10
28.230783
 20
60.918772
 30
0.0
 10
27.965114
 20
60.192805
 30
0.0
 10
27.684029
 20
59.448526
 30
0.0
 10
26.841767
 20
58.899190
 30
0.0
 10
25.809345
 20
58.368882
 30
0.0
 10
24.268472
 20
57.987212
 30
0.0
 10
22.420497
 20
58.445181
 30
0.0
 10
20.791215
 20
60.193327
 30
0.0
 10
20.707277
 20
62.039729
 30
0.0
 10
20.393671
 20
63.693616
 30
0.0
 10
21.516435
 20
64.231012
 30
0.0
 10
21.973475
 20
62.924605
 30
0.0
 10
22.826637
 20
62.121388
 30
0.0
 10
24.000147
 20
61.580136
 30
0.0
 10
25.240690
 20
61.696200
 30
0.0
 10
26.328668
 20
62.388250
 30
0.0
 10
27.099381
 20
63.708989
 30
0.0
 10
27.529100
 20
65.418963
 30
0.0
 10
27.931840
 20
67.048154
 30
0.0
 10
28.710672
 20
68.402553
 30
0.0
 10
29.918402
 20
68.583273
 30
0.0
 10
31.104719
 20
68.780663
 30
0.0
 10
32.095502
 20
69.898541
 30
0.0
 10
32.624773
 20
71.171957
 30
0.0
 10
33.110360
 20
72.371119
 30
0.0
 10
33.647279
 20
73.233740
 30
0.0
 10
34.389695
 20
74.055864
 30
0.0
 10
35.229002
 20
74.600470
 30
0.0
 10
36.309596
 20
74.963741
 30
0.0
 10
36.717451
 20
74.356123
 30
0.0
 10
36.717402
 20
73.794843
 30
0.0
 10
37.505924
 20
73.773570
 30
0.0
 10
38.232581
 20
73.846847
 30
0.0
 10
39.157408
 20
73.963839
 30
0.0
 10
39.861339
 20
74.075379
 30
0.0
 10
40.609165
 20
74.341101
 30
0.0
 10
41.627383
 20
74.546815
 30
0.0
 10
42.872579
 20
74.478635
 30
0.0
 10
44.012413
 20
74.327389
 30
0.0
 10
44.801990
 20
73.684022
 30
0.0
 10
45.626487
 20
73.013446
 30
0.0
 10
46.638022
 20
72.076161
 30
0.0
 10
47.737269
 20
71.109827
 30
0.0
 10
48.932539
 20
70.288044
 30
0.0
 10
50.085449
 20
69.773341
 30
0.0
 10
51.121277
 20
69.331564
 30
0.0
 10
51.942617
 20
68.862405
 30
0.0
 10
53.256136
 20
67.871386
 30
0.0
 10
54.271068
 20
65.409143
 30
0.0
 10
55.227017
 20
63.551826
 30
0.0
 10
55.371768
 20
60.680993
 30
0.0
 10
54.136435
 20
61.255961
 30
0.0
 10
53.144704
 20
61.624166
 30
0.0
 10
52.280368
 20
62.032906
 30
0.0
 10
51.793981
 20
62.262916
 30
0.0
 11
32.420467
 21
64.941429
 31
0.0
 11
30.502551
 21
64.759701
 31
0.0
 11
29.356296
 21
63.848451
 31
0.0
 11
28.524889
 21
61.844520
 31
0.0
 11
28.203786
 21
60.857960
 31
0.0
 11
27.918654
 21
60.071340
 31
0.0
 11
27.731222
 21
59.654960
 31
0.0
 11
26.927578
 21
58.973962
 31
0.0
 11
25.723708
 21
58.388279
 31
0.0
 11
24.614824
 21
58.138833
 31
0.0
 11
22.472700
 21
58.665805
 31
0.0
 11
21.091616
 21
60.158248
 31
0.0
 11
20.602222
 21
62.474978
 31
0.0
 11
20.760803
 21
63.808661
 31
0.0
 11
21.230498
 21
64.016546
 31
0.0
 11
22.002238
 21
63.094619
 31
0.0
 11
22.904489
 21
62.150829
 31
0.0
 11
24.041038
 21
61.682611
 31
0.0
 11
25.191136
 21
61.780907
 31
0.0
 11
26.218485
 21
62.424387
 31
0.0
 11
26.952432
 21
63.561170
 31
0.0
 11
27.520161
 21
65.388246
 31
0.0
 11
28.114280
 21
67.278093
 31
0.0
 11
28.856981
 21
68.283686
 31
0.0
 11
29.877495
 21
68.580000
 31
0.0
 11
30.998299
 21
68.886143
 31
0.0
 11
31.936311
 21
69.811355
 31
0.0
 11
32.701848
 21
71.365812
 31
0.0
 11
33.151632
 21
72.384535
 31
0.0
 11
33.694788
 21
73.248723
 31
0.0
 11
34.306439
 21
73.918799
 31
0.0
 11
35.433071
 21
74.638809
 31
0.0
 11
36.325697
 21
74.760965
 31
0.0
 11
36.688889
 21
74.244836
 31
0.0
 11
36.783077
 21
73.894076
 31
0.0
 11
37.237882
 21
73.786203
 31
0.0
 11
38.311667
 21
73.859937
 31
0.0
 11
39.194205
 21
73.973512
 31
0.0
 11
39.947971
 21
74.118272
 31
0.0
 11
40.409780
 21
74.262879
 31
0.0
 11
41.512958
 21
74.482258
 31
0.0
 11
42.984692
 21
74.450520
 31
0.0
 11
44.115776
 21
74.182958
 31
0.0
 11
44.679572
 21
73.783872
 31
0.0
 11
45.565068
 21
73.048787
 31
0.0
 11
46.580558
 21
72.136847
 31
0.0
 11
47.809305
 21
71.091965
 31
0.0
 11
48.984724
 21
70.306299
 31
0.0
 11
50.159347
 21
69.744732
 31
0.0
 11
51.128036
 21
69.305797
 31
0.0
 11
52.004156
 21
68.798842
 31
0.0
 11
52.598029
 21
68.333621
 31
0.0
 11
54.215041
 21
65.633532
 31
0.0
 11
55.228544
 21
62.477475
 31
0.0
 11
54.965916
 21
60.960000
 31
0.0
 11
54.376711
 21
61.138548
 31
0.0
 11
53.237164
 21
61.606633
 31
0.0
 11
51.793981
 21
62.262916
 31
0.0
  0
LWPOLYLINE
  5
169
100
AcDbEntity
  8
0
 62
7
100
AcDbPolyline
 90
3
 70
0
 10
51.793981
 20
62.262916
 30
0.0
 10
49.043497
 20
63.565833
 30
0.0
 10
49.196597
 20
64.509276
 30
0.0
  0
SPLINE
  5
16a
100
AcDbEntity
  8
0
 62
7
100
AcDbSpline
 70
0
 71
3
 72
49
 73
45
 74
43
 40
0.000000
 40
0.000000
 40
0.000000
 40
0.000000
 40
2.147727
 40
3.976510
 40
6.054327
 40
7.082044
 40
7.976604
 40
9.140202
 40
9.975217
 40
10.527001
 40
10.685781
 40
10.977415
 40
11.559676
 40
12.310494
 40
13.880258
 40
15.153205
 40
16.459710
 40
17.218916
 40
17.920824
 40
19.098331
 40
19.962970
 40
20.584406
 40
20.851271
 40
22.929714
 40
26.521511
 40
28.818082
 40
29.189633
 40
29.534830
 40
29.795887
 40
29.999824
 40
30.225502
 40
30.480576
 40
30.794766
 40
30.874706
 40
31.244900
 40
31.598407
 40
32.014057
 40
32.444839
 40
33.198476
 40
33.877594
 40
34.941050
 40
36.229587
 40
37.689077
 40
39.075726
 40
39.075726
 40
39.075726
 40
39.075726
 10
49.196597
 20
64.509276
 30
0.0
 10
49.243577
 20
65.245918
 30
0.0
 10
49.330561
 20
66.609809
 30
0.0
 10
47.926470
 20
68.333078
 30
0.0
 10
46.218814
 20
68.618620
 30
0.0
 10
44.884334
 20
68.564127
 30
0.0
 10
43.898102
 20
68.210917
 30
0.0
 10
43.108686
 20
67.675864
 30
0.0
 10
42.412357
 20
67.118087
 30
0.0
 10
42.031233
 20
66.898513
 30
0.0
 10
41.764137
 20
66.515520
 30
0.0
 10
42.286809
 20
66.824807
 30
0.0
 10
42.618988
 20
67.022698
 30
0.0
 10
43.467262
 20
67.632787
 30
0.0
 10
44.470628
 20
68.246637
 30
0.0
 10
45.941820
 20
68.359241
 30
0.0
 10
46.916619
 20
67.754278
 30
0.0
 10
47.618861
 20
67.119466
 30
0.0
 10
47.845374
 20
66.233520
 30
0.0
 10
47.769294
 20
65.318905
 30
0.0
 10
47.801212
 20
64.438134
 30
0.0
 10
47.804291
 20
63.838053
 30
0.0
 10
48.294997
 20
62.948960
 30
0.0
 10
50.599544
 20
62.760128
 30
0.0
 10
52.630386
 20
61.132290
 30
0.0
 10
54.668511
 20
60.388500
 30
0.0
 10
55.357868
 20
59.643658
 30
0.0
 10
55.524526
 20
59.365955
 30
0.0
 10
55.626465
 20
59.102414
 30
0.0
 10
55.544310
 20
58.868235
 30
0.0
 10
55.344048
 20
58.733897
 30
0.0
 10
55.111662
 20
58.655341
 30
0.0
 10
54.779563
 20
58.775550
 30
0.0
 10
54.787041
 20
58.475076
 30
0.0
 10
55.140577
 20
58.440062
 30
0.0
 10
55.376889
 20
58.138078
 30
0.0
 10
55.557658
 20
57.774269
 30
0.0
 10
55.623219
 20
57.242025
 30
0.0
 10
55.605710
 20
56.601024
 30
0.0
 10
56.122558
 20
55.892614
 30
0.0
 10
57.004528
 20
55.386889
 30
0.0
 10
57.831135
 20
54.384148
 30
0.0
 10
58.324496
 20
53.056044
 30
0.0
 10
58.281153
 20
52.100866
 30
0.0
 10
58.260036
 20
51.635499
 30
0.0
 11
49.196597
 21
64.509276
 31
0.0
 11
49.043143
 21
66.651514
 31
0.0
 11
47.886490
 21
68.068060
 31
0.0
 11
45.872727
 21
68.580000
 31
0.0
 11
44.847613
 21
68.506908
 31
0.0
 11
44.002259
 21
68.214309
 31
0.0
 11
43.018913
 21
67.592222
 31
0.0
 11
42.348320
 21
67.094675
 31
0.0
 11
41.925787
 21
66.739807
 31
0.0
 11
41.842792
 21
66.604444
 31
0.0
 11
42.110352
 21
66.720469
 31
0.0
 11
42.606847
 21
67.024642
 31
0.0
 11
43.224789
 21
67.451111
 31
0.0
 11
44.618825
 21
68.172791
 31
0.0
 11
45.890598
 21
68.227453
 31
0.0
 11
47.044819
 21
67.615302
 31
0.0
 11
47.567169
 21
67.064354
 31
0.0
 11
47.774774
 21
66.393851
 31
0.0
 11
47.787580
 21
65.216413
 31
0.0
 11
47.798981
 21
64.351849
 31
0.0
 11
47.876057
 21
63.735212
 31
0.0
 11
48.002122
 21
63.500000
 31
0.0
 11
49.910605
 21
62.676823
 31
0.0
 11
53.115390
 21
61.054985
 31
0.0
 11
55.103889
 21
59.906026
 31
0.0
 11
55.352663
 21
59.630051
 31
0.0
 11
55.530097
 21
59.333946
 31
0.0
 11
55.597778
 21
59.081814
 31
0.0
 11
55.530097
 21
58.889436
 31
0.0
 11
55.352663
 21
58.749981
 31
0.0
 11
55.103889
 21
58.693640
 31
0.0
 11
54.790308
 21
58.674084
 31
0.0
 11
54.790308
 21
58.594144
 31
0.0
 11
55.103889
 21
58.397394
 31
0.0
 11
55.354778
 21
58.148352
 31
0.0
 11
55.532993
 21
57.772846
 31
0.0
 11
55.602099
 21
57.347643
 31
0.0
 11
55.690814
 21
56.599246
 31
0.0
 11
56.065191
 21
56.032640
 31
0.0
 11
56.903406
 21
55.378167
 31
0.0
 11
57.735121
 21
54.394003
 31
0.0
 11
58.232487
 21
53.021874
 31
0.0
 11
58.260036
 21
51.635499
 31
0.0
  0
LWPOLYLINE
  5
16b
100
AcDbEntity
  8
0
 62
7
100
AcDbPolyline
 90
3
 70
0
 10
58.260036
 20
51.635499
 30
0.0
 10
58.121855
 20
50.941111
 30
0.0
 10
58.433137
 20
51.646667
 30
0.0
  0
SPLINE
  5
16c
100
AcDbEntity
  8
0
 62
7
100
AcDbSpline
 70
0
 71
3
 72
46
 73
42
 74
40
 40
0.000000
 40
0.000000
 40
0.000000
 40
0.000000
 40
1.108740
 40
2.458298
 40
3.667846
 40
4.224520
 40
4.950680
 40
6.121541
 40
7.454283
 40
8.664467
 40
10.378775
 40
13.486423
 40
16.319072
 40
18.593104
 40
19.622405
 40
20.942673
 40
22.273235
 40
24.224558
 40
25.415783
 40
26.105249
 40
28.440454
 40
33.979329
 40
40.099249
 40
47.843313
 40
55.711917
 40
63.760508
 40
64.729869
 40
65.479474
 40
65.855126
 40
66.236708
 40
67.108010
 40
68.700009
 40
69.737881
 40
71.348275
 40
73.187506
 40
76.168942
 40
78.594827
 40
80.710093
 40
81.300156
 40
81.720703
 40
82.271585
 40
82.271585
 40
82.271585
 40
82.271585
 10
58.433137
 20
51.646667
 30
0.0
 10
58.510881
 20
52.009802
 30
0.0
 10
58.683255
 20
52.814946
 30
0.0
 10
58.509112
 20
54.056783
 30
0.0
 10
58.109504
 20
55.011635
 30
0.0
 10
57.715693
 20
55.759748
 30
0.0
 10
57.756681
 20
56.602818
 30
0.0
 10
57.921422
 20
57.654940
 30
0.0
 10
58.126994
 20
58.886298
 30
0.0
 10
57.989535
 20
60.309491
 30
0.0
 10
57.503555
 20
62.261547
 30
0.0
 10
56.675655
 20
64.688632
 30
0.0
 10
55.325098
 20
67.079376
 30
0.0
 10
53.932602
 20
68.642225
 30
0.0
 10
52.569808
 20
69.377862
 30
0.0
 10
51.469202
 20
69.918528
 30
0.0
 10
50.042190
 20
70.481606
 30
0.0
 10
48.662512
 20
71.061144
 30
0.0
 10
47.508597
 20
71.578589
 30
0.0
 10
46.694902
 20
73.100757
 30
0.0
 10
51.502850
 20
72.225098
 30
0.0
 10
54.496780
 20
70.703381
 30
0.0
 10
60.773184
 20
67.607918
 30
0.0
 10
65.992079
 20
62.659331
 30
0.0
 10
70.384279
 20
55.952870
 30
0.0
 10
72.197383
 20
50.627626
 30
0.0
 10
72.847571
 20
47.375560
 30
0.0
 10
72.897783
 20
46.727535
 30
0.0
 10
72.984129
 20
46.136443
 30
0.0
 10
72.340915
 20
45.993861
 30
0.0
 10
71.463238
 20
46.214848
 30
0.0
 10
70.315471
 20
46.528624
 30
0.0
 10
68.918403
 20
46.725683
 30
0.0
 10
67.422394
 20
46.813050
 30
0.0
 10
65.279463
 20
46.846155
 30
0.0
 10
62.865206
 20
46.902872
 30
0.0
 10
60.367796
 20
47.313202
 30
0.0
 10
58.785458
 20
47.940551
 30
0.0
 10
57.831981
 20
48.415949
 30
0.0
 10
57.556797
 20
48.899175
 30
0.0
 10
57.608193
 20
49.228224
 30
0.0
 10
57.637339
 20
49.414822
 30
0.0
 11
58.433137
 21
51.646667
 31
0.0
 11
58.607563
 21
52.741601
 31
0.0
 11
58.444978
 21
54.081329
 31
0.0
 11
58.001126
 21
55.206496
 31
0.0
 11
57.784676
 21
55.719367
 31
0.0
 11
57.758787
 21
56.445065
 31
0.0
 11
57.915545
 21
57.605385
 31
0.0
 11
58.072561
 21
58.928845
 31
0.0
 11
57.981636
 21
60.135608
 31
0.0
 11
57.598993
 21
61.806667
 31
0.0
 11
56.554450
 21
64.733510
 31
0.0
 11
55.135011
 21
67.184855
 31
0.0
 11
53.543973
 21
68.809607
 31
0.0
 11
52.653622
 21
69.326071
 31
0.0
 11
51.465042
 21
69.900863
 31
0.0
 11
50.235556
 21
70.409545
 31
0.0
 11
48.436930
 21
71.166252
 31
0.0
 11
47.439082
 21
71.816880
 31
0.0
 11
47.131111
 21
72.433741
 31
0.0
 11
49.463510
 21
72.548195
 31
0.0
 11
54.660700
 21
70.632900
 31
0.0
 11
60.022675
 21
67.682876
 31
0.0
 11
65.752779
 21
62.473612
 31
0.0
 11
70.046457
 21
55.879731
 31
0.0
 11
72.664368
 21
48.268794
 31
0.0
 11
72.838916
 21
47.315277
 31
0.0
 11
72.923392
 21
46.570447
 31
0.0
 11
72.899507
 21
46.195556
 31
0.0
 11
72.544384
 21
46.055939
 31
0.0
 11
71.679629
 21
46.162545
 31
0.0
 11
70.132222
 21
46.536703
 31
0.0
 11
69.105450
 21
46.688092
 31
0.0
 11
67.498800
 21
46.797828
 31
0.0
 11
65.660103
 21
46.842155
 31
0.0
 11
62.682044
 21
46.984021
 31
0.0
 11
60.295275
 21
47.417897
 31
0.0
 11
58.320661
 21
48.176349
 31
0.0
 11
57.824647
 21
48.495950
 31
0.0
 11
57.621484
 21
48.864168
 31
0.0
 11
57.637339
 21
49.414822
 31
0.0
  0
LWPOLYLINE
  5
16d
100
AcDbEntity
  8
0
 62
7
100
AcDbPolyline
 90
3
 70
0
 10
57.637339
 20
49.414822
 30
0.0
 10
57.758914
 20
50.243156
 30
0.0
 10
57.111742
 20
49.635170
 30
0.0
  0
SPLINE
  5
16e
100
AcDbEntity
  8
0
 62
7
100
AcDbSpline
 70
0
 71
3
 72
34
 73
30
 74
28
 40
0.000000
 40
0.000000
 40
0.000000
 40
0.000000
 40
0.629768
 40
1.230858
 40
2.136316
 40
2.975386
 40
3.230535
 40
3.553612
 40
4.592590
 40
6.321235
 40
9.358914
 40
11.188311
 40
12.481311
 40
12.959535
 40
13.722312
 40
15.234058
 40
16.947678
 40
17.904381
 40
18.642869
 40
19.025461
 40
20.461592
 40
22.910424
 40
25.440064
 40
28.530241
 40
31.708162
 40
34.588308
 40
36.161392
 40
38.012601
 40
39.516668
 40
39.516668
 40
39.516668
 40
39.516668
 10
57.111742
 20
49.635170
 30
0.0
 10
56.951575
 20
49.492374
 30
0.0
 10
56.638534
 20
49.213284
 30
0.0
 10
55.916909
 20
49.095848
 30
0.0
 10
55.097341
 20
49.182530
 30
0.0
 10
54.568031
 20
49.326821
 30
0.0
 10
53.897463
 20
49.250915
 30
0.0
 10
54.590036
 20
48.800563
 30
0.0
 10
54.855863
 20
47.881988
 30
0.0
 10
54.247759
 20
45.894295
 30
0.0
 10
53.313985
 20
44.016480
 30
0.0
 10
52.331689
 20
42.064088
 30
0.0
 10
51.925144
 20
41.186385
 30
0.0
 10
51.397724
 20
40.074357
 30
0.0
 10
52.518313
 20
41.234619
 30
0.0
 10
53.028836
 20
42.039320
 30
0.0
 10
53.827463
 20
43.323744
 30
0.0
 10
54.396273
 20
44.298035
 30
0.0
 10
54.781276
 20
44.852540
 30
0.0
 10
55.511177
 20
45.459589
 30
0.0
 10
56.559144
 20
43.612710
 30
0.0
 10
57.062637
 20
41.900962
 30
0.0
 10
57.395043
 20
39.067937
 30
0.0
 10
56.447131
 20
36.240505
 30
0.0
 10
54.805116
 20
33.663018
 30
0.0
 10
52.855313
 20
31.875738
 30
0.0
 10
50.806386
 20
31.312158
 30
0.0
 10
49.172326
 20
31.062769
 30
0.0
 10
48.055212
 20
31.171256
 30
0.0
 10
47.554444
 20
31.219888
 30
0.0
 11
57.111742
 21
49.635170
 31
0.0
 11
56.604347
 21
49.262130
 31
0.0
 11
56.016937
 21
49.134626
 31
0.0
 11
55.113953
 21
49.201527
 31
0.0
 11
54.279358
 21
49.288069
 31
0.0
 11
54.031087
 21
49.229230
 31
0.0
 11
54.257222
 21
48.998488
 31
0.0
 11
54.722143
 21
48.069337
 31
0.0
 11
54.361795
 21
46.378668
 31
0.0
 11
53.109010
 21
43.611354
 31
0.0
 11
52.296050
 21
41.972516
 31
0.0
 11
51.743263
 21
40.803638
 31
0.0
 11
51.570326
 21
40.357778
 31
0.0
 11
52.142035
 21
40.862729
 31
0.0
 11
53.047601
 21
42.073236
 31
0.0
 11
53.945505
 21
43.532778
 31
0.0
 11
54.442636
 21
44.350177
 31
0.0
 11
54.895933
 21
44.933175
 31
0.0
 11
55.207258
 21
45.155556
 31
0.0
 11
56.221761
 21
44.139063
 31
0.0
 11
57.011371
 21
41.821027
 31
0.0
 11
57.202355
 21
39.298606
 31
0.0
 11
56.347285
 21
36.329087
 31
0.0
 11
54.624945
 21
33.658370
 31
0.0
 11
52.391905
 21
31.839366
 31
0.0
 11
50.892032
 21
31.365054
 31
0.0
 11
49.055818
 21
31.129911
 31
0.0
 11
47.554444
 21
31.219888
 31
0.0
  0
LWPOLYLINE
  5
16f
100
AcDbEntity
  8
0
 62
7
100
AcDbPolyline
 90
2
 70
0
 10
47.554444
 20
31.219888
 30
0.0
 10
47.554444
 20
31.219888
 30
0.0
  0
SPLINE
  5
170
100
AcDbEntity
  8
0
 62
7
100
AcDbSpline
 70
0
 71
3
 72
121
 73
117
 74
115
 40
0.000000
 40
0.000000
 40
0.000000
 40
0.000000
 40
2.882716
 40
6.107454
 40
9.065070
 40
10.626654
 40
12.465261
 40
13.396833
 40
13.659821
 40
14.292356
 40
15.159882
 40
17.456910
 40
19.525469
 40
20.715212
 40
21.361017
 40
22.081217
 40
23.179175
 40
24.228138
 40
25.849789
 40
27.696290
 40
29.947878
 40
30.960666
 40
31.500197
 40
31.899735
 40
32.327037
 40
32.707826
 40
33.123224
 40
33.592038
 40
34.622442
 40
35.701412
 40
36.338328
 40
37.113490
 40
38.511380
 40
39.848234
 40
40.994508
 40
41.522460
 40
42.185254
 40
42.840979
 40
43.785736
 40
44.051460
 40
44.614138
 40
45.358933
 40
46.109404
 40
47.494725
 40
48.460356
 40
49.538160
 40
50.495311
 40
51.780523
 40
52.568545
 40
53.284773
 40
53.592119
 40
53.710914
 40
54.042008
 40
54.648487
 40
55.240014
 40
55.651179
 40
55.800310
 40
55.939603
 40
56.230913
 40
56.564649
 40
56.818980
 40
57.117780
 40
57.403681
 40
57.735183
 40
58.382072
 40
59.172155
 40
59.797334
 40
61.050010
 40
62.278630
 40
62.892759
 40
63.569698
 40
64.262348
 40
64.967859
 40
66.288727
 40
68.305908
 40
69.570819
 40
71.133681
 40
72.701398
 40
73.668936
 40
74.840397
 40
75.943170
 40
77.148537
 40
78.952624
 40
79.858253
 40
80.468948
 40
80.668949
 40
80.833218
 40
81.131156
 40
81.527870
 40
82.058364
 40
82.709821
 40
83.350381
 40
84.052993
 40
84.393484
 40
84.756112
 40
85.428935
 40
86.406205
 40
87.920218
 40
89.106020
 40
89.759669
 40
90.343296
 40
90.522510
 40
91.208578
 40
92.335979
 40
97.413666
 40
102.570492
 40
106.786867
 40
109.868275
 40
113.400978
 40
117.504120
 40
119.467265
 40
120.338371
 40
120.761711
 40
121.096378
 40
121.482960
 40
121.878460
 40
121.878460
 40
121.878460
 40
121.878460
 10
51.798703
 20
32.421257
 30
0.0
 10
52.597847
 20
32.973270
 30
0.0
 10
54.290952
 20
34.142790
 30
0.0
 10
55.836101
 20
36.833760
 30
0.0
 10
56.613794
 20
39.315524
 30
0.0
 10
56.235538
 20
41.576808
 30
0.0
 10
55.921719
 20
42.521118
 30
0.0
 10
55.616613
 20
44.301930
 30
0.0
 10
55.201427
 20
43.695137
 30
0.0
 10
54.910579
 20
43.241026
 30
0.0
 10
54.272392
 20
42.117344
 30
0.0
 10
53.251834
 20
40.670357
 30
0.0
 10
51.996153
 20
39.454170
 30
0.0
 10
50.817656
 20
38.485142
 30
0.0
 10
49.948534
 20
39.047770
 30
0.0
 10
50.070602
 20
39.970811
 30
0.0
 10
50.621801
 20
40.737946
 30
0.0
 10
51.294060
 20
41.805384
 30
0.0
 10
51.995006
 20
43.132619
 30
0.0
 10
52.870917
 20
44.849270
 30
0.0
 10
53.501236
 20
46.354530
 30
0.0
 10
54.141561
 20
47.596612
 30
0.0
 10
53.819816
 20
48.210530
 30
0.0
 10
53.538107
 20
48.563414
 30
0.0
 10
53.392396
 20
48.950336
 30
0.0
 10
53.320912
 20
49.339199
 30
0.0
 10
53.365543
 20
49.827080
 30
0.0
 10
54.087505
 20
49.972206
 30
0.0
 10
54.898600
 20
49.958666
 30
0.0
 10
55.833782
 20
49.913757
 30
0.0
 10
56.645196
 20
50.220848
 30
0.0
 10
57.161007
 20
51.048639
 30
0.0
 10
57.566202
 20
52.150743
 30
0.0
 10
57.490567
 20
53.502308
 30
0.0
 10
56.891691
 20
54.372037
 30
0.0
 10
56.240131
 20
54.803642
 30
0.0
 10
55.788778
 20
55.221484
 30
0.0
 10
55.202384
 20
55.708560
 30
0.0
 10
54.906149
 20
56.262838
 30
0.0
 10
54.168149
 20
56.411917
 30
0.0
 10
54.491090
 20
55.667518
 30
0.0
 10
54.390735
 20
54.906976
 30
0.0
 10
53.220660
 20
54.906381
 30
0.0
 10
52.376158
 20
55.442853
 30
0.0
 10
51.371122
 20
56.004337
 30
0.0
 10
50.494604
 20
56.479249
 30
0.0
 10
49.496251
 20
56.971032
 30
0.0
 10
48.627008
 20
57.438600
 30
0.0
 10
48.035569
 20
58.364064
 30
0.0
 10
48.530148
 20
58.909902
 30
0.0
 10
49.007166
 20
58.937582
 30
0.0
 10
49.004473
 20
59.237634
 30
0.0
 10
48.573741
 20
59.316036
 30
0.0
 10
48.319009
 20
59.784480
 30
0.0
 10
48.186711
 20
60.344662
 30
0.0
 10
48.457880
 20
60.689328
 30
0.0
 10
48.755225
 20
60.690087
 30
0.0
 10
48.698095
 20
60.934583
 30
0.0
 10
48.531618
 20
61.102459
 30
0.0
 10
48.348917
 20
61.347223
 30
0.0
 10
48.324384
 20
61.666806
 30
0.0
 10
48.501314
 20
61.883582
 30
0.0
 10
48.678365
 20
62.189940
 30
0.0
 10
48.301912
 20
62.521517
 30
0.0
 10
47.814124
 20
62.762670
 30
0.0
 10
47.099879
 20
63.016777
 30
0.0
 10
46.814469
 20
63.928600
 30
0.0
 10
46.928741
 20
64.959516
 30
0.0
 10
47.006158
 20
65.973101
 30
0.0
 10
46.791753
 20
66.856544
 30
0.0
 10
46.139008
 20
67.127630
 30
0.0
 10
45.508211
 20
67.451847
 30
0.0
 10
44.584136
 20
67.194276
 30
0.0
 10
43.413698
 20
66.566432
 30
0.0
 10
42.057683
 20
65.819692
 30
0.0
 10
40.445464
 20
65.469232
 30
0.0
 10
38.993305
 20
65.794341
 30
0.0
 10
37.661346
 20
66.110948
 30
0.0
 10
36.369994
 20
65.765949
 30
0.0
 10
35.864887
 20
64.742630
 30
0.0
 10
35.181223
 20
63.782819
 30
0.0
 10
33.848741
 20
63.257600
 30
0.0
 10
32.572085
 20
63.127852
 30
0.0
 10
31.443377
 20
62.972033
 30
0.0
 10
30.929407
 20
62.897982
 30
0.0
 10
30.556626
 20
62.750147
 30
0.0
 10
30.656411
 20
62.500522
 30
0.0
 10
30.461036
 20
62.254697
 30
0.0
 10
30.225610
 20
61.936082
 30
0.0
 10
29.912623
 20
61.505456
 30
0.0
 10
29.645631
 20
60.959879
 30
0.0
 10
29.425930
 20
60.324139
 30
0.0
 10
29.251908
 20
59.815946
 30
0.0
 10
29.281241
 20
59.268817
 30
0.0
 10
29.799273
 20
59.182694
 30
0.0
 10
30.313784
 20
58.643753
 30
0.0
 10
30.055092
 20
57.514228
 30
0.0
 10
29.524549
 20
56.394278
 30
0.0
 10
29.004762
 20
55.548921
 30
0.0
 10
28.218389
 20
54.777885
 30
0.0
 10
27.861196
 20
55.526280
 30
0.0
 10
27.449664
 20
55.143625
 30
0.0
 10
27.496803
 20
54.438789
 30
0.0
 10
27.101424
 20
52.202381
 30
0.0
 10
27.596044
 20
48.333775
 30
0.0
 10
28.947473
 20
43.735701
 30
0.0
 10
31.122408
 20
40.041196
 30
0.0
 10
34.228387
 20
38.063672
 30
0.0
 10
37.586579
 20
36.827328
 30
0.0
 10
40.822925
 20
36.389883
 30
0.0
 10
43.017496
 20
36.066986
 30
0.0
 10
44.222314
 20
36.007939
 30
0.0
 10
44.503017
 20
35.454711
 30
0.0
 10
44.369609
 20
35.078725
 30
0.0
 10
44.151464
 20
34.770632
 30
0.0
 10
43.930158
 20
34.628185
 30
0.0
 10
43.818243
 20
34.556150
 30
0.0
 11
51.798703
 21
32.421257
 31
0.0
 11
54.050863
 21
34.220653
 31
0.0
 11
55.763847
 21
36.952798
 31
0.0
 11
56.444444
 21
39.831041
 31
0.0
 11
56.242731
 21
41.379542
 31
0.0
 11
55.821664
 21
43.169285
 31
0.0
 11
55.457352
 21
44.026667
 31
0.0
 11
55.290212
 21
43.823623
 31
0.0
 11
54.948517
 21
43.291321
 31
0.0
 11
54.506244
 21
42.545000
 31
0.0
 11
53.169796
 21
40.676780
 31
0.0
 11
51.697931
 21
39.223320
 31
0.0
 11
50.624001
 21
38.711302
 31
0.0
 11
50.092787
 21
39.078556
 31
0.0
 11
50.092599
 21
39.798756
 31
0.0
 11
50.623436
 21
40.759863
 31
0.0
 11
51.182338
 21
41.647529
 31
0.0
 11
51.958570
 21
43.071332
 31
0.0
 11
52.784081
 21
44.723027
 31
0.0
 11
53.723909
 21
46.769090
 31
0.0
 11
54.001071
 21
47.743216
 31
0.0
 11
53.783927
 21
48.237120
 31
0.0
 11
53.560341
 21
48.568239
 31
0.0
 11
53.400845
 21
48.964659
 31
0.0
 11
53.340000
 21
49.340556
 31
0.0
 11
53.430360
 21
49.746006
 31
0.0
 11
53.866581
 21
49.917756
 31
0.0
 11
54.896371
 21
49.953333
 31
0.0
 11
55.974276
 21
50.001263
 31
0.0
 11
56.559323
 21
50.253020
 31
0.0
 11
57.027860
 21
50.870556
 31
0.0
 11
57.476834
 21
52.194383
 31
0.0
 11
57.357732
 21
53.525920
 31
0.0
 11
56.706000
 21
54.468889
 31
0.0
 11
56.285768
 21
54.788479
 31
0.0
 11
55.782169
 21
55.219391
 31
0.0
 11
55.304230
 21
55.668333
 31
0.0
 11
54.608513
 21
56.307507
 31
0.0
 11
54.344716
 21
56.339453
 31
0.0
 11
54.392189
 21
55.778781
 31
0.0
 11
54.258412
 21
55.046099
 31
0.0
 11
53.513841
 21
54.952180
 31
0.0
 11
52.244879
 21
55.507924
 31
0.0
 11
51.404460
 21
55.983465
 31
0.0
 11
50.454463
 21
56.492549
 31
0.0
 11
49.600556
 21
56.924962
 31
0.0
 11
48.543999
 21
57.656712
 31
0.0
 11
48.220576
 21
58.375305
 31
0.0
 11
48.714225
 21
58.894240
 31
0.0
 11
48.992549
 21
59.024615
 31
0.0
 11
48.992549
 21
59.143409
 31
0.0
 11
48.714225
 21
59.322739
 31
0.0
 11
48.342423
 21
59.801884
 31
0.0
 11
48.282728
 21
60.390391
 31
0.0
 11
48.576778
 21
60.677778
 31
0.0
 11
48.719035
 21
60.722534
 31
0.0
 11
48.707702
 21
60.861365
 31
0.0
 11
48.542222
 21
61.101111
 31
0.0
 11
48.366531
 21
61.384858
 31
0.0
 11
48.353509
 21
61.638855
 31
0.0
 11
48.501342
 21
61.898522
 31
0.0
 11
48.604548
 21
62.165145
 31
0.0
 11
48.398285
 21
62.424662
 31
0.0
 11
47.833080
 21
62.739318
 31
0.0
 11
47.148347
 21
63.133492
 31
0.0
 11
46.911520
 21
63.712077
 31
0.0
 11
46.922179
 21
64.964708
 31
0.0
 11
46.931335
 21
66.193294
 31
0.0
 11
46.725831
 21
66.772019
 31
0.0
 11
46.152565
 21
67.132036
 31
0.0
 11
45.499812
 21
67.363720
 31
0.0
 11
44.805647
 21
67.237697
 31
0.0
 11
43.612565
 21
66.670911
 31
0.0
 11
41.788750
 21
65.809100
 31
0.0
 11
40.545962
 21
65.573563
 31
0.0
 11
38.999089
 21
65.796551
 31
0.0
 11
37.443627
 21
65.992193
 31
0.0
 11
36.525315
 21
65.687512
 31
0.0
 11
35.829646
 21
64.744980
 31
0.0
 11
35.134177
 21
63.889159
 31
0.0
 11
34.041751
 21
63.379731
 31
0.0
 11
32.262482
 21
63.081517
 31
0.0
 11
31.365011
 21
62.960238
 31
0.0
 11
30.768287
 21
62.830355
 31
0.0
 11
30.601497
 21
62.719986
 31
0.0
 11
30.614192
 21
62.556208
 31
0.0
 11
30.488016
 21
62.286307
 31
0.0
 11
30.250282
 21
61.968715
 31
0.0
 11
29.948930
 21
61.532124
 31
0.0
 11
29.655975
 21
60.950254
 31
0.0
 11
29.434838
 21
60.349076
 31
0.0
 11
29.273271
 21
59.665292
 31
0.0
 11
29.339416
 21
59.331289
 31
0.0
 11
29.667138
 21
59.176053
 31
0.0
 11
30.143398
 21
58.700799
 31
0.0
 11
30.075005
 21
57.725925
 31
0.0
 11
29.468095
 21
56.338879
 31
0.0
 11
28.792682
 21
55.364229
 31
0.0
 11
28.220655
 21
55.047935
 31
0.0
 11
27.744989
 21
55.386111
 31
0.0
 11
27.605046
 21
55.274159
 31
0.0
 11
27.465331
 21
54.602467
 31
0.0
 11
27.348741
 21
53.481111
 31
0.0
 11
27.718524
 21
48.416906
 31
0.0
 11
29.265542
 21
43.497599
 31
0.0
 11
31.593815
 21
39.982352
 31
0.0
 11
34.137098
 21
38.242585
 31
0.0
 11
37.446751
 21
37.007195
 31
0.0
 11
41.486667
 21
36.289660
 31
0.0
 11
43.435712
 21
36.054800
 31
0.0
 11
44.272115
 21
35.811376
 31
0.0
 11
44.450000
 21
35.427223
 31
0.0
 11
44.363426
 21
35.103948
 31
0.0
 11
44.136461
 21
34.791006
 31
0.0
 11
43.818243
 21
34.556150
 31
0.0
  0
LWPOLYLINE
  5
171
100
AcDbEntity
  8
0
 62
7
100
AcDbPolyline
 90
3
 70
0
 10
43.818243
 20
34.556150
 30
0.0
 10
43.186488
 20
34.241184
 30
0.0
 10
43.818243
 20
33.653160
 30
0.0
  0
SPLINE
  5
172
100
AcDbEntity
  8
0
 62
7
100
AcDbSpline
 70
0
 71
3
 72
10
 73
6
 74
4
 40
0.000000
 40
0.000000
 40
0.000000
 40
0.000000
 40
2.658811
 40
5.667168
 40
8.371546
 40
8.371546
 40
8.371546
 40
8.371546
 10
43.818243
 20
33.653160
 30
0.0
 10
44.576185
 20
33.184143
 30
0.0
 10
46.191714
 20
32.184449
 30
0.0
 10
49.060362
 20
31.749393
 30
0.0
 10
50.918887
 20
32.205390
 30
0.0
 10
51.798703
 20
32.421257
 30
0.0
 11
43.818243
 21
33.653160
 31
0.0
 11
46.163918
 21
32.401327
 31
0.0
 11
49.137060
 21
31.942379
 31
0.0
 11
51.798703
 21
32.421257
 31
0.0
  0
LWPOLYLINE
  5
173
100
AcDbEntity
  8
0
 62
7
100
AcDbPolyline
 90
2
 70
0
 10
51.798703
 20
32.421257
 30
0.0
 10
51.798703
 20
32.421257
 30
0.0
  0
SPLINE
  5
174
100
AcDbEntity
  8
0
 62
7
100
AcDbSpline
 70
0
 71
3
 72
22
 73
18
 74
16
 40
0.000000
 40
0.000000
 40
0.000000
 40
0.000000
 40
0.881047
 40
1.511973
 40
2.280992
 40
2.825730
 40
3.492406
 40
4.136834
 40
5.259797
 40
5.947647
 40
6.721845
 40
7.285704
 40
7.824611
 40
8.845973
 40
10.146955
 40
10.748734
 40
11.423005
 40
11.423005
 40
11.423005
 40
11.423005
 10
38.727242
 20
39.103780
 30
0.0
 10
38.486651
 20
39.296998
 30
0.0
 10
38.073772
 20
39.628580
 30
0.0
 10
38.117264
 20
40.531557
 30
0.0
 10
38.813342
 20
40.793034
 30
0.0
 10
39.445183
 20
40.906982
 30
0.0
 10
40.050492
 20
41.060020
 30
0.0
 10
40.835093
 20
41.254468
 30
0.0
 10
41.628334
 20
41.487338
 30
0.0
 10
42.554871
 20
41.153497
 30
0.0
 10
42.627235
 20
40.408738
 30
0.0
 10
42.613859
 20
39.748491
 30
0.0
 10
41.978250
 20
39.307452
 30
0.0
 10
41.057406
 20
39.099800
 30
0.0
 10
40.154245
 20
38.748394
 30
0.0
 10
39.250486
 20
38.674058
 30
0.0
 10
38.908139
 20
38.955223
 30
0.0
 10
38.727242
 20
39.103791
 30
0.0
 11
38.727242
 21
39.103780
 31
0.0
 11
38.155455
 21
39.774081
 31
0.0
 11
38.210988
 21
40.402559
 31
0.0
 11
38.876111
 21
40.788565
 31
0.0
 11
39.408024
 21
40.906072
 31
0.0
 11
40.056453
 21
41.060981
 31
0.0
 11
40.681015
 21
41.219755
 31
0.0
 11
41.793525
 21
41.372620
 31
0.0
 11
42.419489
 21
41.087475
 31
0.0
 11
42.615556
 21
40.338516
 31
0.0
 11
42.529464
 21
39.781268
 31
0.0
 11
42.118410
 21
39.432765
 31
0.0
 11
41.153221
 21
39.098711
 31
0.0
 11
39.901075
 21
38.745607
 31
0.0
 11
39.299296
 21
38.746867
 31
0.0
 11
38.727242
 21
39.103791
 31
0.0
  0
LWPOLYLINE
  5
175
100
AcDbEntity
  8
0
 62
7
100
AcDbPolyline
 90
2
 70
0
 10
38.727242
 20
39.103791
 30
0.0
 10
38.727242
 20
39.103780
 30
0.0
  0
SPLINE
  5
176
100
AcDbEntity
  8
0
 62
7
100
AcDbSpline
 70
0
 71
3
 72
16
 73
12
 74
10
 40
0.000000
 40
0.000000
 40
0.000000
 40
0.000000
 40
0.777880
 40
0.915909
 40
1.409471
 40
2.991520
 40
3.664805
 40
3.873216
 40
4.271606
 40
4.892246
 40
5.996297
 40
5.996297
 40
5.996297
 40
5.996297
 10
41.063333
 20
40.084502
 30
0.0
 10
41.307869
 20
40.151914
 30
0.0
 10
41.595795
 20
40.231287
 30
0.0
 10
41.947711
 20
40.684636
 30
0.0
 10
40.665497
 20
40.249780
 30
0.0
 10
40.234283
 20
40.171803
 30
0.0
 10
39.188034
 20
40.158459
 30
0.0
 10
39.050562
 20
39.675874
 30
0.0
 10
39.542040
 20
39.457145
 30
0.0
 10
40.204228
 20
39.688065
 30
0.0
 10
40.728027
 20
39.929774
 30
0.0
 10
41.063333
 20
40.084502
 30
0.0
 11
41.063333
 21
40.084502
 31
0.0
 11
41.754207
 21
40.441980
 31
0.0
 11
41.833938
 21
40.554652
 31
0.0
 11
41.345556
 21
40.483333
 31
0.0
 11
39.794545
 21
40.171494
 31
0.0
 11
39.153739
 21
39.964899
 31
0.0
 11
39.107313
 21
39.761724
 31
0.0
 11
39.439264
 21
39.541445
 31
0.0
 11
40.051622
 21
39.642495
 31
0.0
 11
41.063333
 21
40.084502
 31
0.0
  0
LWPOLYLINE
  5
177
100
AcDbEntity
  8
0
 62
7
100
AcDbPolyline
 90
2
 70
0
 10
41.063333
 20
40.084502
 30
0.0
 10
41.063333
 20
40.084502
 30
0.0
  0
SPLINE
  5
178
100
AcDbEntity
  8
0
 62
7
100
AcDbSpline
 70
0
 71
3
 72
43
 73
39
 74
37
 40
0.000000
 40
0.000000
 40
0.000000
 40
0.000000
 40
0.320527
 40
0.829661
 40
1.426520
 40
2.125680
 40
2.641004
 40
3.139839
 40
4.156535
 40
4.917552
 40
5.890627
 40
7.961960
 40
10.681801
 40
14.217842
 40
15.681563
 40
16.538006
 40
17.087235
 40
18.019867
 40
19.193756
 40
20.720705
 40
21.586555
 40
22.364397
 40
23.451982
 40
24.047067
 40
24.501476
 40
24.970026
 40
25.567299
 40
26.459542
 40
27.459854
 40
29.945319
 40
32.724309
 40
35.701485
 40
36.945871
 40
38.166793
 40
39.099929
 40
39.787488
 40
40.366737
 40
40.717389
 40
40.717389
 40
40.717389
 40
40.717389
 10
32.819018
 20
40.823365
 30
0.0
 10
32.732469
 20
40.886662
 30
0.0
 10
32.508444
 20
41.050501
 30
0.0
 10
32.214368
 20
41.430332
 30
0.0
 10
31.870826
 20
41.922950
 30
0.0
 10
31.572619
 20
42.449348
 30
0.0
 10
31.430319
 20
43.022351
 30
0.0
 10
31.613361
 20
43.685261
 30
0.0
 10
31.934445
 20
44.402019
 30
0.0
 10
32.821335
 20
44.873220
 30
0.0
 10
34.078090
 20
44.438078
 30
0.0
 10
36.018791
 20
44.337639
 30
0.0
 10
38.677657
 20
45.298846
 30
0.0
 10
40.938820
 20
46.572557
 30
0.0
 10
42.508201
 20
47.665489
 30
0.0
 10
43.321882
 20
48.279456
 30
0.0
 10
43.468012
 20
49.056546
 30
0.0
 10
43.871037
 20
49.946157
 30
0.0
 10
45.249019
 20
50.037913
 30
0.0
 10
46.355352
 20
49.684033
 30
0.0
 10
47.293500
 20
49.115642
 30
0.0
 10
47.691790
 20
48.250975
 30
0.0
 10
47.704511
 20
47.422750
 30
0.0
 10
47.680593
 20
46.709778
 30
0.0
 10
47.465957
 20
46.222315
 30
0.0
 10
47.016920
 20
45.958118
 30
0.0
 10
46.491926
 20
45.576919
 30
0.0
 10
45.882266
 20
45.007276
 30
0.0
 10
44.908778
 20
43.922324
 30
0.0
 10
43.273719
 20
42.580223
 30
0.0
 10
40.705395
 20
41.513468
 30
0.0
 10
38.394880
 20
41.104550
 30
0.0
 10
36.585124
 20
40.979451
 30
0.0
 10
35.456395
 20
40.884751
 30
0.0
 10
34.512869
 20
40.795582
 30
0.0
 10
33.781513
 20
40.755971
 30
0.0
 10
33.239560
 20
40.745984
 30
0.0
 10
32.934175
 20
40.802176
 30
0.0
 10
32.819018
 20
40.823365
 30
0.0
 11
32.819018
 21
40.823365
 31
0.0
 11
32.567281
 21
41.021773
 31
0.0
 11
32.236164
 21
41.408529
 31
0.0
 11
31.897354
 21
41.899902
 31
0.0
 11
31.575188
 21
42.520413
 31
0.0
 11
31.474298
 21
43.025765
 31
0.0
 11
31.575045
 21
43.514320
 31
0.0
 11
32.075967
 21
44.399050
 31
0.0
 11
32.755583
 21
44.741496
 31
0.0
 11
33.717385
 21
44.593806
 31
0.0
 11
35.784888
 21
44.467907
 31
0.0
 11
38.385844
 21
45.263246
 31
0.0
 11
41.483492
 21
46.968579
 31
0.0
 11
42.685336
 21
47.804073
 31
0.0
 11
43.293638
 21
48.406952
 31
0.0
 11
43.462222
 21
48.929668
 31
0.0
 11
43.928358
 21
49.737455
 31
0.0
 11
45.079885
 21
49.965490
 31
0.0
 11
46.546482
 21
49.540439
 31
0.0
 11
47.251097
 21
49.037236
 31
0.0
 11
47.601001
 21
48.342538
 31
0.0
 11
47.695556
 21
47.259071
 31
0.0
 11
47.635087
 21
46.667066
 31
0.0
 11
47.433507
 21
46.259816
 31
0.0
 11
47.060556
 21
45.976184
 31
0.0
 11
46.576584
 21
45.626176
 31
0.0
 11
45.918194
 21
45.023996
 31
0.0
 11
45.227923
 21
44.300013
 31
0.0
 11
43.290910
 21
42.742607
 31
0.0
 11
40.742443
 21
41.634408
 31
0.0
 11
37.817778
 21
41.077715
 31
0.0
 11
36.577568
 21
40.975846
 31
0.0
 11
35.360877
 21
40.874300
 31
0.0
 11
34.431111
 21
40.795061
 31
0.0
 11
33.744528
 21
40.758435
 31
0.0
 11
33.165368
 21
40.768604
 31
0.0
 11
32.819018
 21
40.823365
 31
0.0
  0
LWPOLYLINE
  5
179
100
AcDbEntity
  8
0
 62
7
100
AcDbPolyline
 90
2
 70
0
 10
32.819018
 20
40.823365
 30
0.0
 10
32.819018
 20
40.823365
 30
0.0
  0
SPLINE
  5
17a
100
AcDbEntity
  8
0
 62
7
100
AcDbSpline
 70
0
 71
3
 72
22
 73
18
 74
16
 40
0.000000
 40
0.000000
 40
0.000000
 40
0.000000
 40
0.234643
 40
0.369213
 40
0.695228
 40
1.076245
 40
1.492152
 40
2.061370
 40
2.694764
 40
2.841317
 40
3.311397
 40
3.802691
 40
4.199412
 40
4.760852
 40
5.440169
 40
5.803668
 40
6.301176
 40
6.301176
 40
6.301176
 40
6.301176
 10
33.819967
 20
41.734057
 30
0.0
 10
33.906706
 20
41.777933
 30
0.0
 10
34.043190
 20
41.846972
 30
0.0
 10
33.902828
 20
42.092118
 30
0.0
 10
33.601209
 20
42.097970
 30
0.0
 10
33.255735
 20
42.283288
 30
0.0
 10
33.042414
 20
42.705947
 30
0.0
 10
32.915467
 20
43.224169
 30
0.0
 10
33.055976
 20
43.732358
 30
0.0
 10
32.662735
 20
44.037046
 30
0.0
 10
32.529637
 20
43.457641
 30
0.0
 10
32.281019
 20
43.142798
 30
0.0
 10
32.333172
 20
42.612757
 30
0.0
 10
32.655221
 20
42.172895
 30
0.0
 10
32.899361
 20
41.682210
 30
0.0
 10
33.422249
 20
41.446099
 30
0.0
 10
33.674317
 20
41.628603
 30
0.0
 10
33.819967
 20
41.734057
 30
0.0
 11
33.819967
 21
41.734057
 31
0.0
 11
33.994952
 21
41.890383
 31
0.0
 11
33.935327
 21
42.011021
 31
0.0
 11
33.628547
 21
42.121351
 31
0.0
 11
33.294068
 21
42.303826
 31
0.0
 11
33.079999
 21
42.660412
 31
0.0
 11
32.969691
 21
43.218839
 31
0.0
 11
32.891292
 21
43.847362
 31
0.0
 11
32.771285
 21
43.931483
 31
0.0
 11
32.517721
 21
43.535654
 31
0.0
 11
32.323244
 21
43.084490
 31
0.0
 11
32.353640
 21
42.688935
 31
0.0
 11
32.620735
 21
42.195098
 31
0.0
 11
33.030301
 21
41.653132
 31
0.0
 11
33.369590
 21
41.522693
 31
0.0
 11
33.819967
 21
41.734057
 31
0.0
  0
LWPOLYLINE
  5
17b
100
AcDbEntity
  8
0
 62
7
100
AcDbPolyline
 90
2
 70
0
 10
33.819967
 20
41.734057
 30
0.0
 10
33.819967
 20
41.734057
 30
0.0
  0
SPLINE
  5
17c
100
AcDbEntity
  8
0
 62
7
100
AcDbSpline
 70
0
 71
3
 72
16
 73
12
 74
10
 40
0.000000
 40
0.000000
 40
0.000000
 40
0.000000
 40
0.216123
 40
0.410621
 40
0.562183
 40
0.645846
 40
0.789181
 40
1.038577
 40
1.280826
 40
1.364358
 40
1.516735
 40
1.516735
 40
1.516735
 40
1.516735
 10
37.870694
 20
41.961678
 30
0.0
 10
37.800738
 20
41.983418
 30
0.0
 10
37.667826
 20
42.024722
 30
0.0
 10
37.485466
 20
42.012469
 30
0.0
 10
37.325928
 20
41.977322
 30
0.0
 10
37.297987
 20
41.820925
 30
0.0
 10
37.504113
 20
41.794063
 30
0.0
 10
37.692213
 20
41.798098
 30
0.0
 10
37.889214
 20
41.770101
 30
0.0
 10
38.044936
 20
41.903471
 30
0.0
 10
37.939073
 20
41.938842
 30
0.0
 10
37.870694
 20
41.961689
 30
0.0
 11
37.870694
 21
41.961678
 31
0.0
 11
37.660747
 21
42.012976
 31
0.0
 11
37.466414
 21
42.004975
 31
0.0
 11
37.329768
 21
41.939410
 31
0.0
 11
37.318009
 21
41.856578
 31
0.0
 11
37.451085
 21
41.803325
 31
0.0
 11
37.700184
 21
41.791182
 31
0.0
 11
37.940543
 21
41.821388
 31
0.0
 11
37.999610
 21
41.880453
 31
0.0
 11
37.870694
 21
41.961689
 31
0.0
  0
LWPOLYLINE
  5
17d
100
AcDbEntity
  8
0
 62
7
100
AcDbPolyline
 90
2
 70
0
 10
37.870694
 20
41.961689
 30
0.0
 10
37.870694
 20
41.961678
 30
0.0
  0
SPLINE
  5
17e
100
AcDbEntity
  8
0
 62
7
100
AcDbSpline
 70
0
 71
3
 72
28
 73
24
 74
22
 40
0.000000
 40
0.000000
 40
0.000000
 40
0.000000
 40
1.051981
 40
2.056383
 40
2.799573
 40
4.490930
 40
6.643025
 40
7.884302
 40
8.159538
 40
8.483964
 40
8.896958
 40
9.333382
 40
10.102683
 40
11.047806
 40
14.264282
 40
17.050659
 40
19.651808
 40
20.131872
 40
20.320214
 40
21.178860
 40
22.276013
 40
23.530369
 40
24.676462
 40
24.676462
 40
24.676462
 40
24.676462
 10
39.172326
 20
43.043049
 30
0.0
 10
39.512093
 20
43.130201
 30
0.0
 10
40.176260
 20
43.300564
 30
0.0
 10
41.062490
 20
43.594357
 30
0.0
 10
42.134142
 20
44.004870
 30
0.0
 10
43.352255
 20
45.048781
 30
0.0
 10
44.275753
 20
46.243078
 30
0.0
 10
45.647554
 20
47.103311
 30
0.0
 10
45.301294
 20
47.766103
 30
0.0
 10
44.896751
 20
47.626921
 30
0.0
 10
44.712205
 20
47.284890
 30
0.0
 10
44.357216
 20
46.871437
 30
0.0
 10
43.793227
 20
46.426920
 30
0.0
 10
42.448757
 20
45.472122
 30
0.0
 10
40.536546
 20
44.296926
 30
0.0
 10
37.520444
 20
43.209953
 30
0.0
 10
36.435911
 20
42.851843
 30
0.0
 10
34.480817
 20
42.778211
 30
0.0
 10
35.135385
 20
42.635191
 30
0.0
 10
35.744673
 20
42.679137
 30
0.0
 10
36.863077
 20
42.684638
 30
0.0
 10
38.009043
 20
42.816670
 30
0.0
 10
38.796402
 20
42.969893
 30
0.0
 10
39.172326
 20
43.043049
 30
0.0
 11
39.172326
 21
43.043049
 31
0.0
 11
40.188173
 21
43.316397
 31
0.0
 11
41.142329
 21
43.630098
 31
0.0
 11
41.828226
 21
43.916239
 31
0.0
 11
43.167404
 21
44.949337
 31
0.0
 11
44.703652
 21
46.456472
 31
0.0
 11
45.437778
 21
47.457385
 31
0.0
 11
45.283840
 21
47.685548
 31
0.0
 11
44.966713
 21
47.617123
 31
0.0
 11
44.703421
 21
47.298937
 31
0.0
 11
44.423437
 21
46.964162
 31
0.0
 11
43.835724
 21
46.467757
 31
0.0
 11
43.067520
 21
45.917194
 31
0.0
 11
40.288349
 21
44.297958
 31
0.0
 11
37.694318
 21
43.280658
 31
0.0
 11
35.136667
 21
42.806956
 31
0.0
 11
34.660347
 21
42.747114
 31
0.0
 11
34.843165
 21
42.701838
 31
0.0
 11
35.701111
 21
42.667168
 31
0.0
 11
36.797685
 21
42.702815
 31
0.0
 11
38.044751
 21
42.837852
 31
0.0
 11
39.172326
 21
43.043049
 31
0.0
  0
LWPOLYLINE
  5
17f
100
AcDbEntity
  8
0
 62
7
100
AcDbPolyline
 90
2
 70
0
 10
39.172326
 20
43.043049
 30
0.0
 10
39.172326
 20
43.043049
 30
0.0
  0
SPLINE
  5
180
100
AcDbEntity
  8
0
 62
7
100
AcDbSpline
 70
0
 71
3
 72
19
 73
15
 74
13
 40
0.000000
 40
0.000000
 40
0.000000
 40
0.000000
 40
1.201935
 40
2.444140
 40
3.485584
 40
3.879386
 40
3.989853
 40
4.490143
 40
4.958982
 40
5.289825
 40
5.651093
 40
6.474124
 40
7.329747
 40
8.451984
 40
8.451984
 40
8.451984
 40
8.451984
 10
46.828512
 20
47.756183
 30
0.0
 10
46.685906
 20
48.147882
 30
0.0
 10
46.395916
 20
48.944405
 30
0.0
 10
45.026541
 20
49.326192
 30
0.0
 10
44.364344
 20
48.837896
 30
0.0
 10
44.015096
 20
48.139673
 30
0.0
 10
44.399936
 20
48.075835
 30
0.0
 10
44.600063
 20
48.467913
 30
0.0
 10
44.948581
 20
48.710957
 30
0.0
 10
45.345019
 20
48.817168
 30
0.0
 10
45.819019
 20
48.585370
 30
0.0
 10
46.298114
 20
48.025828
 30
0.0
 10
46.184673
 20
47.011751
 30
0.0
 10
45.768238
 20
46.491942
 30
0.0
 10
45.531953
 20
46.197004
 30
0.0
 11
46.828512
 21
47.756183
 31
0.0
 11
46.238612
 21
48.803400
 31
0.0
 11
45.046014
 21
49.150939
 31
0.0
 11
44.220322
 21
48.516244
 31
0.0
 11
44.138378
 21
48.131061
 31
0.0
 11
44.246647
 21
48.109134
 31
0.0
 11
44.627258
 21
48.433826
 31
0.0
 11
45.005748
 21
48.710513
 31
0.0
 11
45.330101
 21
48.775721
 31
0.0
 11
45.665966
 21
48.642645
 31
0.0
 11
46.179344
 21
47.999355
 31
0.0
 11
46.132530
 21
47.145013
 31
0.0
 11
45.531953
 21
46.197004
 31
0.0
  0
LWPOLYLINE
  5
181
100
AcDbEntity
  8
0
 62
7
100
AcDbPolyline
 90
3
 70
0
 10
45.531953
 20
46.197004
 30
0.0
 10
44.732222
 20
45.323811
 30
0.0
 10
45.770179
 20
46.156905
 30
0.0
  0
SPLINE
  5
182
100
AcDbEntity
  8
0
 62
7
100
AcDbSpline
 70
0
 71
3
 72
10
 73
6
 74
4
 40
0.000000
 40
0.000000
 40
0.000000
 40
0.000000
 40
0.808484
 40
1.437419
 40
1.973308
 40
1.973308
 40
1.973308
 40
1.973308
 10
45.770179
 20
46.156905
 30
0.0
 10
45.974080
 20
46.332123
 30
0.0
 10
46.336599
 20
46.643645
 30
0.0
 10
46.739931
 20
47.189123
 30
0.0
 10
46.800601
 20
47.577504
 30
0.0
 10
46.828512
 20
47.756183
 30
0.0
 11
45.770179
 21
46.156905
 31
0.0
 11
46.360141
 21
46.709708
 31
0.0
 11
46.707227
 21
47.234199
 31
0.0
 11
46.828512
 21
47.756183
 31
0.0
  0
LWPOLYLINE
  5
183
100
AcDbEntity
  8
0
 62
7
100
AcDbPolyline
 90
2
 70
0
 10
46.828512
 20
47.756183
 30
0.0
 10
46.828512
 20
47.756183
 30
0.0
  0
SPLINE
  5
184
100
AcDbEntity
  8
0
 62
7
100
AcDbSpline
 70
0
 71
3
 72
25
 73
21
 74
19
 40
0.000000
 40
0.000000
 40
0.000000
 40
0.000000
 40
1.357392
 40
2.767426
 40
4.658051
 40
6.097365
 40
6.802765
 40
7.343021
 40
7.740578
 40
8.323524
 40
9.238516
 40
10.188664
 40
10.942090
 40
11.609166
 40
12.679044
 40
13.439164
 40
14.106448
 40
14.843503
 40
15.450926
 40
16.425105
 40
16.425105
 40
16.425105
 40
16.425105
 10
34.127180
 20
47.956069
 30
0.0
 10
33.838169
 20
48.321844
 30
0.0
 10
33.248939
 20
49.067578
 30
0.0
 10
33.317160
 20
50.715730
 30
0.0
 10
33.974707
 20
52.185558
 30
0.0
 10
34.562612
 20
53.307346
 30
0.0
 10
35.191119
 20
54.141629
 30
0.0
 10
35.802506
 20
53.893520
 30
0.0
 10
36.066865
 20
53.446255
 30
0.0
 10
36.093797
 20
52.797650
 30
0.0
 10
36.008494
 20
51.991429
 30
0.0
 10
35.928720
 20
51.120844
 30
0.0
 10
35.990358
 20
50.323040
 30
0.0
 10
36.309349
 20
49.548625
 30
0.0
 10
36.672587
 20
48.808282
 30
0.0
 10
36.701443
 20
47.899816
 30
0.0
 10
36.144842
 20
47.375758
 30
0.0
 10
35.501963
 20
47.082896
 30
0.0
 10
34.715550
 20
47.325646
 30
0.0
 10
34.351447
 20
47.715773
 30
0.0
 10
34.127180
 20
47.956069
 30
0.0
 11
34.127180
 21
47.956069
 31
0.0
 11
33.411655
 21
49.109558
 31
0.0
 11
33.384861
 21
50.519338
 31
0.0
 11
34.044791
 21
52.291048
 31
0.0
 11
34.754917
 21
53.542984
 31
0.0
 11
35.284896
 21
54.008507
 31
0.0
 11
35.793903
 21
53.827432
 31
0.0
 11
36.008907
 21
53.493029
 31
0.0
 11
36.077951
 21
52.914187
 31
0.0
 11
36.011685
 21
52.001598
 31
0.0
 11
35.952650
 21
51.053285
 31
0.0
 11
36.033399
 21
50.304199
 31
0.0
 11
36.262206
 21
49.677591
 31
0.0
 11
36.633887
 21
48.674349
 31
0.0
 11
36.593748
 21
47.915290
 31
0.0
 11
36.142998
 21
47.423262
 31
0.0
 11
35.452615
 21
47.165148
 31
0.0
 11
34.865360
 21
47.320368
 31
0.0
 11
34.127180
 21
47.956069
 31
0.0
  0
LWPOLYLINE
  5
185
100
AcDbEntity
  8
0
 62
7
100
AcDbPolyline
 90
2
 70
0
 10
34.127180
 20
47.956069
 30
0.0
 10
34.127180
 20
47.956069
 30
0.0
  0
SPLINE
  5
186
100
AcDbEntity
  8
0
 62
7
100
AcDbSpline
 70
0
 71
3
 72
13
 73
9
 74
7
 40
0.000000
 40
0.000000
 40
0.000000
 40
0.000000
 40
0.197230
 40
0.543095
 40
0.991563
 40
1.622655
 40
2.397682
 40
3.318471
 40
3.318471
 40
3.318471
 40
3.318471
 10
35.937286
 20
48.166915
 30
0.0
 10
35.952320
 20
48.232152
 30
0.0
 10
35.993717
 20
48.411792
 30
0.0
 10
35.850201
 20
48.730521
 30
0.0
 10
35.610214
 20
49.131349
 30
0.0
 10
35.336463
 20
49.694084
 30
0.0
 10
35.200170
 20
50.465115
 30
0.0
 10
35.188456
 20
51.030307
 30
0.0
 10
35.182096
 20
51.337193
 30
0.0
 11
35.937286
 21
48.166915
 31
0.0
 11
35.966561
 21
48.361959
 31
0.0
 11
35.861494
 21
48.691480
 31
0.0
 11
35.644828
 21
49.084137
 31
0.0
 11
35.382928
 21
49.658320
 31
0.0
 11
35.227008
 21
50.417501
 31
0.0
 11
35.182096
 21
51.337193
 31
0.0
  0
LWPOLYLINE
  5
187
100
AcDbEntity
  8
0
 62
7
100
AcDbPolyline
 90
3
 70
0
 10
35.182096
 20
51.337193
 30
0.0
 10
35.200977
 20
52.862164
 30
0.0
 10
34.674937
 20
51.780688
 30
0.0
  0
SPLINE
  5
188
100
AcDbEntity
  8
0
 62
7
100
AcDbSpline
 70
0
 71
3
 72
13
 73
9
 74
7
 40
0.000000
 40
0.000000
 40
0.000000
 40
0.000000
 40
1.490441
 40
2.655507
 40
3.607686
 40
4.254913
 40
4.605450
 40
4.922698
 40
4.922698
 40
4.922698
 40
4.922698
 10
34.674937
 20
51.780688
 30
0.0
 10
34.486269
 20
51.321252
 30
0.0
 10
34.150120
 20
50.502678
 30
0.0
 10
34.098005
 20
49.238118
 30
0.0
 10
34.674043
 20
48.437242
 30
0.0
 10
35.212982
 20
48.106995
 30
0.0
 10
35.669938
 20
47.937815
 30
0.0
 10
35.851189
 20
48.093129
 30
0.0
 10
35.937297
 20
48.166915
 30
0.0
 11
34.674937
 21
51.780688
 31
0.0
 11
34.202741
 21
50.367025
 31
0.0
 11
34.237779
 21
49.202486
 31
0.0
 11
34.776142
 21
48.417113
 31
0.0
 11
35.324836
 21
48.073838
 31
0.0
 11
35.667508
 21
48.000001
 31
0.0
 11
35.937297
 21
48.166915
 31
0.0
  0
LWPOLYLINE
  5
189
100
AcDbEntity
  8
0
 62
7
100
AcDbPolyline
 90
2
 70
0
 10
35.937297
 20
48.166915
 30
0.0
 10
35.937286
 20
48.166915
 30
0.0
  0
SPLINE
  5
18a
100
AcDbEntity
  8
0
 62
7
100
AcDbSpline
 70
0
 71
3
 72
16
 73
12
 74
10
 40
0.000000
 40
0.000000
 40
0.000000
 40
0.000000
 40
1.379283
 40
3.004060
 40
3.979598
 40
5.277726
 40
6.855967
 40
8.527801
 40
9.761986
 40
10.811601
 40
12.066254
 40
12.066254
 40
12.066254
 40
12.066254
 10
29.206043
 20
50.522152
 30
0.0
 10
29.006080
 20
50.944745
 30
0.0
 10
28.570562
 20
51.865146
 30
0.0
 10
28.440250
 20
53.122796
 30
0.0
 10
28.715281
 20
54.683445
 30
0.0
 10
30.385882
 20
54.206217
 30
0.0
 10
31.332055
 20
53.094566
 30
0.0
 10
31.879276
 20
51.620541
 30
0.0
 10
31.494597
 20
50.210272
 30
0.0
 10
30.192353
 20
49.728781
 30
0.0
 10
29.553754
 20
50.242459
 30
0.0
 10
29.206043
 20
50.522152
 30
0.0
 11
29.206043
 21
50.522152
 31
0.0
 11
28.677227
 21
51.796034
 31
0.0
 11
28.523857
 21
53.413556
 31
0.0
 11
28.844528
 21
54.334884
 31
0.0
 11
30.132181
 21
54.170313
 31
0.0
 11
31.246674
 21
53.052837
 31
0.0
 11
31.721778
 21
51.449932
 31
0.0
 11
31.296049
 21
50.291500
 31
0.0
 11
30.311267
 21
49.928322
 31
0.0
 11
29.206043
 21
50.522152
 31
0.0
  0
LWPOLYLINE
  5
18b
100
AcDbEntity
  8
0
 62
7
100
AcDbPolyline
 90
2
 70
0
 10
29.206043
 20
50.522152
 30
0.0
 10
29.206043
 20
50.522152
 30
0.0
  0
SPLINE
  5
18c
100
AcDbEntity
  8
0
 62
7
100
AcDbSpline
 70
0
 71
3
 72
16
 73
12
 74
10
 40
0.000000
 40
0.000000
 40
0.000000
 40
0.000000
 40
0.758507
 40
1.701246
 40
2.502094
 40
3.074828
 40
3.643787
 40
4.740641
 40
5.656792
 40
6.231036
 40
6.743568
 40
6.743568
 40
6.743568
 40
6.743568
 10
30.836639
 20
51.152778
 30
0.0
 10
30.845781
 20
51.408805
 30
0.0
 10
30.866285
 20
51.983046
 30
0.0
 10
30.467213
 20
52.752196
 30
0.0
 10
30.038050
 20
53.373213
 30
0.0
 10
29.203440
 20
53.576817
 30
0.0
 10
29.106950
 20
52.626240
 30
0.0
 10
29.431003
 20
51.874880
 30
0.0
 10
29.784233
 20
51.115171
 30
0.0
 10
30.486314
 20
50.642919
 30
0.0
 10
30.724370
 20
50.989383
 30
0.0
 10
30.836639
 20
51.152778
 30
0.0
 11
30.836639
 21
51.152778
 31
0.0
 11
30.806050
 21
51.910668
 31
0.0
 11
30.431440
 21
52.775783
 31
0.0
 11
29.881683
 21
53.358127
 31
0.0
 11
29.312878
 21
53.425094
 31
0.0
 11
29.162470
 21
52.876375
 31
0.0
 11
29.460269
 21
51.820722
 31
0.0
 11
29.951429
 21
51.047356
 31
0.0
 11
30.468052
 21
50.796642
 31
0.0
 11
30.836639
 21
51.152778
 31
0.0
  0
LWPOLYLINE
  5
18d
100
AcDbEntity
  8
0
 62
7
100
AcDbPolyline
 90
2
 70
0
 10
30.836639
 20
51.152778
 30
0.0
 10
30.836639
 20
51.152778
 30
0.0
  0
SPLINE
  5
18e
100
AcDbEntity
  8
0
 62
7
100
AcDbSpline
 70
0
 71
3
 72
16
 73
12
 74
10
 40
0.000000
 40
0.000000
 40
0.000000
 40
0.000000
 40
0.321163
 40
0.792788
 40
1.634461
 40
3.360685
 40
4.699332
 40
5.911946
 40
6.569163
 40
7.029735
 40
7.635400
 40
7.635400
 40
7.635400
 40
7.635400
 10
38.615911
 20
54.668482
 30
0.0
 10
38.568812
 20
54.772190
 30
0.0
 10
38.452550
 20
55.028191
 30
0.0
 10
38.834931
 20
55.513863
 30
0.0
 10
39.515114
 20
56.205039
 30
0.0
 10
40.549719
 20
57.041701
 30
0.0
 10
41.950095
 20
57.545677
 30
0.0
 10
43.020989
 20
57.254808
 30
0.0
 10
43.718950
 20
56.883059
 30
0.0
 10
44.037108
 20
56.363198
 30
0.0
 10
43.996101
 20
55.999920
 30
0.0
 10
43.972807
 20
55.793564
 30
0.0
 11
38.615911
 21
54.668482
 31
0.0
 11
38.524133
 21
54.976253
 31
0.0
 11
38.746636
 21
55.392092
 31
0.0
 11
39.328496
 21
56.000246
 31
0.0
 11
40.713174
 21
57.031032
 31
0.0
 11
41.995843
 21
57.414094
 31
0.0
 11
43.179416
 21
57.150302
 31
0.0
 11
43.733447
 21
56.796773
 31
0.0
 11
43.965944
 21
56.399191
 31
0.0
 11
43.972807
 21
55.793564
 31
0.0
  0
LWPOLYLINE
  5
18f
100
AcDbEntity
  8
0
 62
7
100
AcDbPolyline
 90
3
 70
0
 10
43.972807
 20
55.793564
 30
0.0
 10
43.885556
 20
54.892222
 30
0.0
 10
41.404294
 20
54.595322
 30
0.0
  0
SPLINE
  5
190
100
AcDbEntity
  8
0
 62
7
100
AcDbSpline
 70
0
 71
3
 72
10
 73
6
 74
4
 40
0.000000
 40
0.000000
 40
0.000000
 40
0.000000
 40
1.557962
 40
2.405126
 40
2.845844
 40
2.845844
 40
2.845844
 40
2.845844
 10
41.404294
 20
54.595322
 30
0.0
 10
40.894860
 20
54.547935
 30
0.0
 10
40.108413
 20
54.474782
 30
0.0
 10
39.115286
 20
54.359419
 30
0.0
 10
38.743230
 20
54.589684
 30
0.0
 10
38.615911
 20
54.668482
 30
0.0
 11
41.404294
 21
54.595322
 31
0.0
 11
39.853802
 21
54.442948
 31
0.0
 11
39.006929
 21
54.465168
 31
0.0
 11
38.615911
 21
54.668482
 31
0.0
  0
LWPOLYLINE
  5
191
100
AcDbEntity
  8
0
 62
7
100
AcDbPolyline
 90
2
 70
0
 10
38.615911
 20
54.668482
 30
0.0
 10
38.615911
 20
54.668482
 30
0.0
  0
SPLINE
  5
192
100
AcDbEntity
  8
0
 62
7
100
AcDbSpline
 70
0
 71
3
 72
13
 73
9
 74
7
 40
0.000000
 40
0.000000
 40
0.000000
 40
0.000000
 40
0.649263
 40
0.971447
 40
1.616616
 40
2.399188
 40
3.289362
 40
4.369460
 40
4.369460
 40
4.369460
 40
4.369460
 10
42.686111
 20
55.594671
 30
0.0
 10
42.939797
 20
55.575556
 30
0.0
 10
43.319369
 20
55.546956
 30
0.0
 10
43.488308
 20
56.183650
 30
0.0
 10
42.832259
 20
56.491484
 30
0.0
 10
42.120665
 20
56.692782
 30
0.0
 10
41.180992
 20
56.437467
 30
0.0
 10
40.649268
 20
56.053452
 30
0.0
 10
40.357778
 20
55.842936
 30
0.0
 11
42.686111
 21
55.594671
 31
0.0
 11
43.322965
 21
55.721004
 31
0.0
 11
43.403113
 21
56.033059
 31
0.0
 11
42.903569
 21
56.441346
 31
0.0
 11
42.141123
 21
56.617686
 31
0.0
 11
41.274567
 21
56.413995
 31
0.0
 11
40.357778
 21
55.842936
 31
0.0
  0
LWPOLYLINE
  5
193
100
AcDbEntity
  8
0
 62
7
100
AcDbPolyline
 90
3
 70
0
 10
40.357778
 20
55.842936
 30
0.0
 10
39.652222
 20
55.269816
 30
0.0
 10
40.781111
 20
55.430691
 30
0.0
  0
SPLINE
  5
194
100
AcDbEntity
  8
0
 62
7
100
AcDbSpline
 70
0
 71
3
 72
10
 73
6
 74
4
 40
0.000000
 40
0.000000
 40
0.000000
 40
0.000000
 40
0.679879
 40
1.366799
 40
1.912939
 40
1.912939
 40
1.912939
 40
1.912939
 10
40.781111
 20
55.430691
 30
0.0
 10
41.005938
 20
55.459190
 30
0.0
 10
41.457920
 20
55.516483
 30
0.0
 10
42.093335
 20
55.573831
 30
0.0
 10
42.504154
 20
55.588274
 30
0.0
 10
42.686111
 20
55.594671
 30
0.0
 11
40.781111
 21
55.430691
 31
0.0
 11
41.456093
 21
55.512150
 31
0.0
 11
42.140481
 21
55.571061
 31
0.0
 11
42.686111
 21
55.594671
 31
0.0
  0
LWPOLYLINE
  5
195
100
AcDbEntity
  8
0
 62
7
100
AcDbPolyline
 90
2
 70
0
 10
42.686111
 20
55.594671
 30
0.0
 10
42.686111
 20
55.594671
 30
0.0
  0
LWPOLYLINE
  5
196
100
AcDbEntity
  8
0
 62
7
100
AcDbPolyline
 90
2
 70
0
 10
38.399974
 20
59.055000
 30
0.0
 10
38.399974
 20
59.055000
 30
0.0
  0
SPLINE
  5
197
100
AcDbEntity
  8
0
 62
7
100
AcDbSpline
 70
0
 71
3
 72
19
 73
15
 74
13
 40
0.000000
 40
0.000000
 40
0.000000
 40
0.000000
 40
1.267442
 40
2.799218
 40
5.067462
 40
6.107404
 40
6.810174
 40
7.309898
 40
8.317968
 40
10.004957
 40
11.464373
 40
11.982404
 40
12.385509
 40
12.818712
 40
12.818712
 40
12.818712
 40
12.818712
 10
38.399974
 20
59.055000
 30
0.0
 10
38.376361
 20
59.525962
 30
0.0
 10
38.324211
 20
60.566109
 30
0.0
 10
40.307168
 20
61.070224
 30
0.0
 10
41.867134
 20
60.835354
 30
0.0
 10
43.079879
 20
60.359322
 30
0.0
 10
43.769867
 20
59.845290
 30
0.0
 10
43.534340
 20
58.993692
 30
0.0
 10
42.297502
 20
58.921923
 30
0.0
 10
41.039518
 20
58.552209
 30
0.0
 10
39.803509
 20
58.395891
 30
0.0
 10
39.005288
 20
58.436381
 30
0.0
 10
38.584040
 20
58.662683
 30
0.0
 10
38.462784
 20
58.921127
 30
0.0
 10
38.399974
 20
59.055000
 30
0.0
 11
38.399974
 21
59.055000
 31
0.0
 11
38.564392
 21
60.311732
 31
0.0
 11
39.976374
 21
60.905572
 31
0.0
 11
42.231999
 21
60.666641
 31
0.0
 11
43.185138
 21
60.250703
 31
0.0
 11
43.662207
 21
59.734669
 31
0.0
 11
43.542029
 21
59.249611
 31
0.0
 11
42.592143
 21
58.912090
 31
0.0
 11
40.939407
 21
58.573866
 31
0.0
 11
39.488124
 21
58.420000
 31
0.0
 11
38.973824
 21
58.482060
 31
0.0
 11
38.625664
 21
58.685232
 31
0.0
 11
38.399974
 21
59.055000
 31
0.0
  0
LWPOLYLINE
  5
198
100
AcDbEntity
  8
0
 62
7
100
AcDbPolyline
 90
3
 70
0
 10
41.345556
 20
59.515505
 30
0.0
 10
42.474444
 20
59.731814
 30
0.0
 10
41.362751
 20
60.055669
 30
0.0
  0
SPLINE
  5
199
100
AcDbEntity
  8
0
 62
7
100
AcDbSpline
 70
0
 71
3
 72
13
 73
9
 74
7
 40
0.000000
 40
0.000000
 40
0.000000
 40
0.000000
 40
1.205599
 40
2.098606
 40
2.658715
 40
3.044859
 40
3.817434
 40
5.222271
 40
5.222271
 40
5.222271
 40
5.222271
 10
41.362751
 20
60.055669
 30
0.0
 10
40.966424
 20
60.134753
 30
0.0
 10
40.276532
 20
60.272416
 30
0.0
 10
39.396575
 20
60.265581
 30
0.0
 10
38.803238
 20
59.712727
 30
0.0
 10
39.283285
 20
59.190729
 30
0.0
 10
40.186691
 20
59.354903
 30
0.0
 10
40.891088
 20
59.452522
 30
0.0
 10
41.345556
 20
59.515505
 30
0.0
 11
41.362751
 21
60.055669
 31
0.0
 11
40.172224
 21
60.245709
 31
0.0
 11
39.290992
 21
60.101177
 31
0.0
 11
38.946667
 21
59.659405
 31
0.0
 11
39.184769
 21
59.355407
 31
0.0
 11
39.955957
 21
59.309146
 31
0.0
 11
41.345556
 21
59.515505
 31
0.0
  0
LWPOLYLINE
  5
19a
100
AcDbEntity
  8
0
 62
7
100
AcDbPolyline
 90
2
 70
0
 10
41.345556
 20
59.515505
 30
0.0
 10
41.345556
 20
59.515505
 30
0.0
  0
SPLINE
  5
19b
100
AcDbEntity
  8
0
 62
7
100
AcDbSpline
 70
0
 71
3
 72
37
 73
33
 74
31
 40
0.000000
 40
0.000000
 40
0.000000
 40
0.000000
 40
9.889621
 40
19.618904
 40
29.302578
 40
31.390472
 40
31.685538
 40
33.265413
 40
38.009123
 40
43.300610
 40
48.299064
 40
49.122158
 40
49.727272
 40
50.280662
 40
51.759508
 40
53.676795
 40
55.469320
 40
56.136373
 40
56.639460
 40
56.885371
 40
57.325285
 40
58.272907
 40
59.525307
 40
61.315284
 40
63.130467
 40
65.606465
 40
67.539632
 40
69.068612
 40
69.867508
 40
70.544577
 40
70.965575
 40
72.277006
 40
72.277006
 40
72.277006
 40
72.277006
 10
71.797534
 20
48.612778
 30
0.0
 10
70.749374
 20
51.756729
 30
0.0
 10
68.670050
 20
57.993658
 30
0.0
 10
62.267288
 20
65.765324
 30
0.0
 10
55.634445
 20
69.003114
 30
0.0
 10
52.295386
 20
70.975476
 30
0.0
 10
50.744661
 20
71.005325
 30
0.0
 10
54.874590
 20
69.552494
 30
0.0
 10
56.091543
 20
67.230117
 30
0.0
 10
58.864746
 20
62.428524
 30
0.0
 10
59.030156
 20
58.654497
 30
0.0
 10
58.639550
 20
56.553712
 30
0.0
 10
58.666330
 20
55.874281
 30
0.0
 10
59.110760
 20
55.100780
 30
0.0
 10
59.427935
 20
53.802236
 30
0.0
 10
59.375907
 20
52.054432
 30
0.0
 10
59.029449
 20
50.631816
 30
0.0
 10
58.626896
 20
49.715131
 30
0.0
 10
58.490438
 20
49.285258
 30
0.0
 10
58.450844
 20
48.833406
 30
0.0
 10
59.131045
 20
48.740505
 30
0.0
 10
59.859487
 20
48.401483
 30
0.0
 10
61.180096
 20
48.041975
 30
0.0
 10
62.730367
 20
47.617812
 30
0.0
 10
64.758268
 20
47.412790
 30
0.0
 10
66.835792
 20
47.392000
 30
0.0
 10
68.802022
 20
47.386300
 30
0.0
 10
70.252847
 20
47.241529
 30
0.0
 10
71.188041
 20
47.256976
 30
0.0
 10
71.932631
 20
46.711828
 30
0.0
 10
72.154349
 20
47.704571
 30
0.0
 10
71.951266
 20
48.221482
 30
0.0
 10
71.797534
 20
48.612778
 30
0.0
 11
71.797534
 21
48.612778
 31
0.0
 11
68.092122
 21
57.781994
 31
0.0
 11
61.818539
 21
65.218466
 31
0.0
 11
53.544320
 21
70.249453
 31
0.0
 11
51.589634
 21
70.983283
 31
0.0
 11
51.294575
 21
70.985104
 31
0.0
 11
52.695469
 21
70.254694
 31
0.0
 11
56.212853
 21
67.071802
 31
0.0
 11
58.457353
 21
62.279928
 31
0.0
 11
58.767576
 21
57.291111
 31
0.0
 11
58.661543
 21
56.474875
 31
0.0
 11
58.716019
 21
55.872218
 31
0.0
 11
58.941516
 21
55.366855
 31
0.0
 11
59.334553
 21
53.941195
 31
0.0
 11
59.306157
 21
52.024118
 31
0.0
 11
58.866264
 21
50.286406
 31
0.0
 11
58.619641
 21
49.666619
 31
0.0
 11
58.486965
 21
49.181342
 31
0.0
 11
58.496959
 21
48.935634
 31
0.0
 11
58.900030
 21
48.759402
 31
0.0
 11
59.797858
 21
48.456263
 31
0.0
 11
60.996068
 21
48.091846
 31
0.0
 11
62.735056
 21
47.667654
 31
0.0
 11
64.538135
 21
47.458391
 31
0.0
 11
67.013283
 21
47.393496
 31
0.0
 11
68.945967
 21
47.350274
 31
0.0
 11
70.472038
 21
47.256006
 31
0.0
 11
71.261111
 21
47.131111
 31
0.0
 11
71.907691
 21
46.930222
 31
0.0
 11
72.051006
 21
47.326076
 31
0.0
 11
71.797534
 21
48.612778
 31
0.0
  0
LWPOLYLINE
  5
19c
100
AcDbEntity
  8
0
 62
7
100
AcDbPolyline
 90
2
 70
0
 10
71.797534
 20
48.612778
 30
0.0
 10
71.797534
 20
48.612778
 30
0.0
  0
SPLINE
  5
19d
100
AcDbEntity
  8
0
 62
7
100
AcDbSpline
 70
0
 71
3
 72
19
 73
15
 74
13
 40
0.000000
 40
0.000000
 40
0.000000
 40
0.000000
 40
0.376822
 40
0.443728
 40
0.857163
 40
1.221356
 40
1.588135
 40
1.881605
 40
2.132559
 40
2.205837
 40
2.513464
 40
2.834162
 40
3.200941
 40
3.544550
 40
3.544550
 40
3.544550
 40
3.544550
 10
27.633620
 20
57.432222
 30
0.0
 10
27.680225
 20
57.607379
 30
0.0
 10
27.735104
 20
57.813635
 30
0.0
 10
27.413307
 20
57.812490
 30
0.0
 10
27.405519
 20
57.409491
 30
0.0
 10
27.241326
 20
57.104081
 30
0.0
 10
27.148312
 20
56.746709
 30
0.0
 10
27.141106
 20
56.490972
 30
0.0
 10
27.045325
 20
56.182524
 30
0.0
 10
27.293645
 20
56.191591
 30
0.0
 10
27.368285
 20
56.468064
 30
0.0
 10
27.531371
 20
56.738170
 30
0.0
 10
27.613603
 20
57.082599
 30
0.0
 10
27.627094
 20
57.318243
 30
0.0
 10
27.633620
 20
57.432222
 30
0.0
 11
27.633620
 21
57.432222
 31
0.0
 11
27.613720
 21
57.808519
 31
0.0
 11
27.546814
 21
57.808519
 31
0.0
 11
27.375556
 21
57.432222
 31
0.0
 11
27.251256
 21
57.089897
 31
0.0
 11
27.158544
 21
56.735029
 31
0.0
 11
27.117491
 21
56.444444
 31
0.0
 11
27.124228
 21
56.193581
 31
0.0
 11
27.197506
 21
56.193581
 31
0.0
 11
27.375556
 21
56.444444
 31
0.0
 11
27.511232
 21
56.735029
 31
0.0
 11
27.603944
 21
57.089897
 31
0.0
 11
27.633620
 21
57.432222
 31
0.0
  0
LWPOLYLINE
  5
19e
100
AcDbEntity
  8
0
 62
7
100
AcDbPolyline
 90
2
 70
0
 10
27.633620
 20
57.432222
 30
0.0
 10
27.633620
 20
57.432222
 30
0.0
  0
SPLINE
  5
19f
100
AcDbEntity
  8
0
 62
7
100
AcDbSpline
 70
0
 71
3
 72
19
 73
15
 74
13
 40
0.000000
 40
0.000000
 40
0.000000
 40
0.000000
 40
0.086046
 40
0.241583
 40
0.450561
 40
0.993779
 40
1.728678
 40
2.566637
 40
2.894808
 40
3.134249
 40
3.900328
 40
4.547884
 40
5.038199
 40
5.266886
 40
5.266886
 40
5.266886
 40
5.266886
 10
29.633333
 20
58.291422
 30
0.0
 10
29.616022
 20
58.315342
 30
0.0
 10
29.567419
 20
58.382501
 30
0.0
 10
29.407410
 20
58.404907
 30
0.0
 10
29.109305
 20
58.451833
 30
0.0
 10
28.642884
 20
58.155919
 30
0.0
 10
28.317078
 20
57.475605
 30
0.0
 10
28.230576
 20
56.985619
 30
0.0
 10
28.201266
 20
56.276963
 30
0.0
 10
28.680312
 20
56.653047
 30
0.0
 10
28.881640
 20
57.082809
 30
0.0
 10
29.258916
 20
57.621486
 30
0.0
 10
29.504100
 20
58.002537
 30
0.0
 10
29.602148
 20
58.221711
 30
0.0
 10
29.633333
 20
58.291422
 30
0.0
 11
29.633333
 21
58.291422
 31
0.0
 11
29.576682
 21
58.356187
 31
0.0
 11
29.428162
 21
58.402380
 31
0.0
 11
29.219929
 21
58.420000
 31
0.0
 11
28.739870
 21
58.165777
 31
0.0
 11
28.370190
 21
57.530629
 31
0.0
 11
28.222222
 21
56.705837
 31
0.0
 11
28.271523
 21
56.381391
 31
0.0
 11
28.477614
 21
56.503287
 31
0.0
 11
28.927778
 21
57.123150
 31
0.0
 11
29.283169
 21
57.664468
 31
0.0
 11
29.536646
 21
58.084180
 31
0.0
 11
29.633333
 21
58.291422
 31
0.0
  0
LWPOLYLINE
  5
1a0
100
AcDbEntity
  8
0
 62
7
100
AcDbPolyline
 90
2
 70
0
 10
29.633333
 20
58.291422
 30
0.0
 10
29.633333
 20
58.291422
 30
0.0
  0
SPLINE
  5
1a1
100
AcDbEntity
  8
0
 62
7
100
AcDbSpline
 70
0
 71
3
 72
16
 73
12
 74
10
 40
0.000000
 40
0.000000
 40
0.000000
 40
0.000000
 40
0.781456
 40
1.895214
 40
3.967472
 40
4.922188
 40
5.807802
 40
6.596446
 40
7.433550
 40
8.165172
 40
9.301474
 40
9.301474
 40
9.301474
 40
9.301474
 10
26.277470
 20
59.430222
 30
0.0
 10
26.500270
 20
59.574852
 30
0.0
 10
27.040611
 20
59.925614
 30
0.0
 10
27.550167
 20
61.207789
 30
0.0
 10
27.941682
 20
62.506521
 30
0.0
 10
28.401094
 20
63.732684
 30
0.0
 10
28.853310
 20
64.492899
 30
0.0
 10
29.429956
 20
65.099764
 30
0.0
 10
30.056256
 20
65.604400
 30
0.0
 10
30.964376
 20
65.787444
 30
0.0
 10
31.585006
 20
65.718245
 30
0.0
 10
31.962550
 20
65.676149
 30
0.0
 11
26.277470
 21
59.430222
 31
0.0
 11
26.895386
 21
59.908609
 31
0.0
 11
27.413872
 21
60.894321
 31
0.0
 11
28.079788
 21
62.856669
 31
0.0
 11
28.436247
 21
63.742344
 31
0.0
 11
28.896974
 21
64.498679
 31
0.0
 11
29.432625
 21
65.077503
 31
0.0
 11
30.115566
 21
65.561584
 31
0.0
 11
30.827528
 21
65.730053
 31
0.0
 11
31.962550
 21
65.676149
 31
0.0
  0
LWPOLYLINE
  5
1a2
100
AcDbEntity
  8
0
 62
7
100
AcDbPolyline
 90
3
 70
0
 10
31.962550
 20
65.676149
 30
0.0
 10
33.604121
 20
65.527296
 30
0.0
 10
34.967686
 20
66.912537
 30
0.0
  0
SPLINE
  5
1a3
100
AcDbEntity
  8
0
 62
7
100
AcDbSpline
 70
0
 71
3
 72
19
 73
15
 74
13
 40
0.000000
 40
0.000000
 40
0.000000
 40
0.000000
 40
1.333667
 40
2.161591
 40
3.061233
 40
3.783601
 40
4.497160
 40
5.060526
 40
6.130897
 40
7.157111
 40
8.594058
 40
12.148979
 40
15.060396
 40
18.231610
 40
18.231610
 40
18.231610
 40
18.231610
 10
34.967686
 20
66.912537
 30
0.0
 10
35.273636
 20
67.235344
 30
0.0
 10
35.769515
 20
67.758546
 30
0.0
 10
36.674508
 20
68.292602
 30
0.0
 10
37.513749
 20
68.301845
 30
0.0
 10
38.285383
 20
68.241680
 30
0.0
 10
38.945664
 20
68.113238
 30
0.0
 10
39.667412
 20
67.817543
 30
0.0
 10
40.479726
 20
67.387065
 30
0.0
 10
41.706176
 20
67.629232
 30
0.0
 10
43.344709
 20
68.770198
 30
0.0
 10
45.891192
 20
69.892032
 30
0.0
 10
49.362704
 20
68.569114
 30
0.0
 10
49.752685
 20
66.442938
 30
0.0
 10
49.956003
 20
65.334444
 30
0.0
 11
34.967686
 21
66.912537
 31
0.0
 11
35.940029
 21
67.825345
 31
0.0
 11
36.671925
 21
68.212366
 31
0.0
 11
37.568401
 21
68.287777
 31
0.0
 11
38.288247
 21
68.227468
 31
0.0
 11
38.986184
 21
68.078975
 31
0.0
 11
39.511111
 21
67.874444
 31
0.0
 11
40.515999
 21
67.505807
 31
0.0
 11
41.531626
 21
67.652840
 31
0.0
 11
42.788707
 21
68.348944
 31
0.0
 11
46.172800
 21
69.437697
 31
0.0
 11
48.856508
 21
68.308953
 31
0.0
 11
49.956003
 21
65.334444
 31
0.0
  0
LWPOLYLINE
  5
1a4
100
AcDbEntity
  8
0
 62
7
100
AcDbPolyline
 90
3
 70
0
 10
49.956003
 20
65.334444
 30
0.0
 10
49.960773
 20
63.923333
 30
0.0
 10
52.261485
 20
62.864620
 30
0.0
  0
SPLINE
  5
1a5
100
AcDbEntity
  8
0
 62
7
100
AcDbSpline
 70
0
 71
3
 72
61
 73
57
 74
55
 40
0.000000
 40
0.000000
 40
0.000000
 40
0.000000
 40
1.282201
 40
2.209946
 40
2.585938
 40
3.486233
 40
5.305500
 40
7.008792
 40
8.373912
 40
9.661895
 40
10.425878
 40
11.835478
 40
14.054177
 40
16.533500
 40
19.034322
 40
20.651930
 40
22.222445
 40
22.959861
 40
23.790248
 40
24.543541
 40
25.308822
 40
26.168788
 40
26.944604
 40
27.759150
 40
28.157651
 40
28.519816
 40
28.830586
 40
29.026498
 40
29.512062
 40
30.129777
 40
31.000756
 40
31.937789
 40
33.016670
 40
33.796066
 40
34.573739
 40
35.221007
 40
35.867395
 40
36.381611
 40
37.121008
 40
38.294774
 40
40.703903
 40
42.698143
 40
44.083766
 40
45.852716
 40
47.219276
 40
48.321338
 40
49.490155
 40
49.933961
 40
50.081784
 40
50.805903
 40
52.155689
 40
53.372880
 40
54.594065
 40
55.518099
 40
56.387738
 40
57.541410
 40
57.541410
 40
57.541410
 40
57.541410
 10
52.261485
 20
62.864620
 30
0.0
 10
52.661030
 20
62.682882
 30
0.0
 10
53.349669
 20
62.369646
 30
0.0
 10
54.062604
 20
62.089954
 30
0.0
 10
54.935431
 20
61.744581
 30
0.0
 10
54.193298
 20
63.337414
 30
0.0
 10
53.947917
 20
64.378616
 30
0.0
 10
53.287339
 20
66.009133
 30
0.0
 10
52.496012
 20
67.198196
 30
0.0
 10
51.778245
 20
68.108067
 30
0.0
 10
50.786029
 20
68.728056
 30
0.0
 10
49.326994
 20
69.029517
 30
0.0
 10
47.656111
 20
70.261705
 30
0.0
 10
45.774033
 20
71.738455
 30
0.0
 10
44.193093
 20
73.255293
 30
0.0
 10
42.350353
 20
74.069081
 30
0.0
 10
41.048502
 20
73.630979
 30
0.0
 10
40.066578
 20
73.291703
 30
0.0
 10
39.301923
 20
73.142766
 30
0.0
 10
38.520703
 20
73.093898
 30
0.0
 10
37.727477
 20
73.053380
 30
0.0
 10
36.940515
 20
72.909528
 30
0.0
 10
36.142019
 20
72.698823
 30
0.0
 10
35.552482
 20
72.447162
 30
0.0
 10
34.967031
 20
72.392847
 30
0.0
 10
34.754490
 20
72.694619
 30
0.0
 10
34.622174
 20
73.041156
 30
0.0
 10
34.259390
 20
72.871917
 30
0.0
 10
34.109019
 20
72.457853
 30
0.0
 10
33.794538
 20
71.881421
 30
0.0
 10
33.491698
 20
71.129329
 30
0.0
 10
33.144397
 20
70.233161
 30
0.0
 10
32.820807
 20
69.356857
 30
0.0
 10
32.297588
 20
68.627389
 30
0.0
 10
31.653969
 20
68.243577
 30
0.0
 10
31.013706
 20
67.992405
 30
0.0
 10
30.433178
 20
67.806284
 30
0.0
 10
29.809934
 20
67.754286
 30
0.0
 10
28.961234
 20
67.531809
 30
0.0
 10
28.519948
 20
65.986255
 30
0.0
 10
28.057525
 20
64.289924
 30
0.0
 10
27.657393
 20
62.330375
 30
0.0
 10
26.327773
 20
61.061257
 30
0.0
 10
24.754745
 20
60.984701
 30
0.0
 10
23.346941
 20
60.949408
 30
0.0
 10
22.177214
 20
61.561495
 30
0.0
 10
21.657348
 20
61.998836
 30
0.0
 10
21.310675
 20
62.954911
 30
0.0
 10
21.106424
 20
62.451677
 30
0.0
 10
21.379016
 20
61.770335
 30
0.0
 10
21.540676
 20
60.659328
 30
0.0
 10
22.344315
 20
59.617583
 30
0.0
 10
23.340676
 20
59.067032
 30
0.0
 10
24.330109
 20
58.812114
 30
0.0
 10
25.325404
 20
58.956470
 30
0.0
 10
25.931742
 20
59.258186
 30
0.0
 10
26.277470
 20
59.430222
 30
0.0
 11
52.261485
 21
62.864620
 31
0.0
 11
53.433405
 21
62.344387
 31
0.0
 11
54.294152
 21
61.998230
 31
0.0
 11
54.657379
 21
61.901092
 31
0.0
 11
54.468531
 21
62.781358
 31
0.0
 11
53.866625
 21
64.498170
 31
0.0
 11
53.197673
 21
66.064601
 31
0.0
 11
52.462049
 21
67.214561
 31
0.0
 11
51.606262
 21
68.177125
 31
0.0
 11
50.958857
 21
68.582757
 31
0.0
 11
49.627857
 21
69.046881
 31
0.0
 11
47.740123
 21
70.212679
 31
0.0
 11
45.806591
 21
71.764612
 31
0.0
 11
43.853447
 21
73.326451
 31
0.0
 11
42.328762
 21
73.866813
 31
0.0
 11
40.792259
 21
73.541739
 31
0.0
 11
40.089925
 21
73.316995
 31
0.0
 11
39.275156
 21
73.156699
 31
0.0
 11
38.524349
 21
73.095556
 31
0.0
 11
37.761121
 21
73.039542
 31
0.0
 11
36.913785
 21
72.892696
 31
0.0
 11
36.165787
 21
72.686809
 31
0.0
 11
35.388002
 21
72.444867
 31
0.0
 11
34.989704
 21
72.457592
 31
0.0
 11
34.753276
 21
72.731937
 31
0.0
 11
34.564020
 21
72.978433
 31
0.0
 11
34.379366
 21
72.912977
 31
0.0
 11
34.115008
 21
72.505684
 31
0.0
 11
33.843710
 21
71.950735
 31
0.0
 11
33.501850
 21
71.149650
 31
0.0
 11
33.163439
 21
70.275860
 31
0.0
 11
32.734317
 21
69.285992
 31
0.0
 11
32.260775
 21
68.666947
 31
0.0
 11
31.608624
 21
68.243304
 31
0.0
 11
31.009546
 21
67.998228
 31
0.0
 11
30.388248
 21
67.819887
 31
0.0
 11
29.879239
 21
67.746889
 31
0.0
 11
29.183843
 21
67.495630
 31
0.0
 11
28.653449
 21
66.448534
 31
0.0
 11
28.041307
 21
64.118473
 31
0.0
 11
27.392795
 21
62.232624
 31
0.0
 11
26.372175
 21
61.295455
 31
0.0
 11
24.630419
 21
60.986474
 31
0.0
 11
23.267118
 21
61.080803
 31
0.0
 11
22.268251
 21
61.546426
 31
0.0
 11
21.513914
 21
62.439235
 31
0.0
 11
21.266268
 21
62.807522
 31
0.0
 11
21.202851
 21
62.673993
 31
0.0
 11
21.283649
 21
61.954396
 31
0.0
 11
21.662896
 21
60.658982
 31
0.0
 11
22.394615
 21
59.686284
 31
0.0
 11
23.450879
 21
59.073423
 31
0.0
 11
24.352487
 21
58.871080
 31
0.0
 11
25.215278
 21
58.979990
 31
0.0
 11
26.277470
 21
59.430222
 31
0.0
  0
LWPOLYLINE
  5
1a6
100
AcDbEntity
  8
0
 62
7
100
AcDbPolyline
 90
2
 70
0
 10
26.277470
 20
59.430222
 30
0.0
 10
26.277470
 20
59.430222
 30
0.0
  0
SPLINE
  5
1a7
100
AcDbEntity
  8
0
 62
7
100
AcDbSpline
 70
0
 71
3
 72
28
 73
24
 74
22
 40
0.000000
 40
0.000000
 40
0.000000
 40
0.000000
 40
1.508236
 40
2.851943
 40
4.335761
 40
6.157375
 40
8.387589
 40
10.989106
 40
13.340353
 40
14.653150
 40
15.109514
 40
15.904345
 40
16.830009
 40
18.090232
 40
19.674676
 40
20.937005
 40
22.648957
 40
24.645238
 40
25.792904
 40
26.604000
 40
27.445592
 40
28.162080
 40
28.920097
 40
28.920097
 40
28.920097
 40
28.920097
 10
23.001111
 20
62.697002
 30
0.0
 10
22.583791
 20
63.008081
 30
0.0
 10
21.794676
 20
63.596304
 30
0.0
 10
21.584338
 20
65.195943
 30
0.0
 10
22.530262
 20
66.528723
 30
0.0
 10
24.036262
 20
67.592876
 30
0.0
 10
25.901697
 20
68.788943
 30
0.0
 10
28.006909
 20
69.966055
 30
0.0
 10
29.924913
 20
70.708546
 30
0.0
 10
31.146487
 20
71.493995
 30
0.0
 10
32.119123
 20
71.127982
 30
0.0
 10
31.642148
 20
70.238451
 30
0.0
 10
30.920771
 20
69.661012
 30
0.0
 10
29.698695
 20
69.230268
 30
0.0
 10
28.357651
 20
68.865850
 30
0.0
 10
27.294033
 20
67.673235
 30
0.0
 10
26.902985
 20
66.032633
 30
0.0
 10
26.490862
 20
64.493776
 30
0.0
 10
26.014420
 20
63.215694
 30
0.0
 10
25.234268
 20
62.643849
 30
0.0
 10
24.477647
 20
62.397329
 30
0.0
 10
23.683120
 20
62.376107
 30
0.0
 10
23.232676
 20
62.588047
 30
0.0
 10
23.001111
 20
62.697002
 30
0.0
 11
23.001111
 21
62.697002
 31
0.0
 11
21.931155
 21
63.760002
 31
0.0
 11
21.752036
 21
65.091717
 31
0.0
 11
22.507222
 21
66.368983
 31
0.0
 11
23.931915
 21
67.504118
 31
0.0
 11
25.810674
 21
68.705832
 31
0.0
 11
28.098072
 21
69.945068
 31
0.0
 11
30.228243
 21
70.940422
 31
0.0
 11
31.481126
 21
71.332493
 31
0.0
 11
31.891111
 21
71.132042
 31
0.0
 11
31.662405
 21
70.370825
 31
0.0
 11
30.969551
 21
69.756979
 31
0.0
 11
29.802447
 21
69.281553
 31
0.0
 11
28.334672
 21
68.684812
 31
0.0
 11
27.481786
 21
67.754188
 31
0.0
 11
26.920455
 21
66.136880
 31
0.0
 11
26.373722
 21
64.216927
 31
0.0
 11
25.867546
 21
63.186915
 31
0.0
 11
25.226534
 21
62.689943
 31
0.0
 11
24.426927
 21
62.427447
 31
0.0
 11
23.710442
 21
62.429720
 31
0.0
 11
23.001111
 21
62.697002
 31
0.0
  0
LWPOLYLINE
  5
1a8
100
AcDbEntity
  8
0
 62
7
100
AcDbPolyline
 90
2
 70
0
 10
23.001111
 20
62.697002
 30
0.0
 10
23.001111
 20
62.697002
 30
0.0
  0
SPLINE
  5
1a9
100
AcDbEntity
  8
0
 62
7
100
AcDbSpline
 70
0
 71
3
 72
22
 73
18
 74
16
 40
0.000000
 40
0.000000
 40
0.000000
 40
0.000000
 40
0.517621
 40
1.264074
 40
2.087897
 40
2.946888
 40
3.782368
 40
4.416855
 40
4.842493
 40
5.393507
 40
7.084108
 40
9.283102
 40
10.463257
 40
11.481026
 40
12.320844
 40
13.097866
 40
13.896603
 40
13.896603
 40
13.896603
 40
13.896603
 10
25.179251
 20
63.711667
 30
0.0
 10
25.271481
 20
63.857943
 30
0.0
 10
25.496714
 20
64.215164
 30
0.0
 10
25.735615
 20
64.873098
 30
0.0
 10
25.952894
 20
65.655281
 30
0.0
 10
26.154917
 20
66.458649
 30
0.0
 10
26.411077
 20
67.233453
 30
0.0
 10
26.621679
 20
67.722266
 30
0.0
 10
26.952759
 20
68.447871
 30
0.0
 10
25.750653
 20
67.705465
 30
0.0
 10
24.864175
 20
67.053408
 30
0.0
 10
23.394606
 20
66.054344
 30
0.0
 10
22.380108
 20
64.763217
 30
0.0
 10
22.935300
 20
63.735085
 30
0.0
 10
23.673598
 20
63.240695
 30
0.0
 10
24.548795
 20
63.193897
 30
0.0
 10
24.967177
 20
63.537498
 30
0.0
 10
25.179251
 20
63.711667
 30
0.0
 11
25.179251
 21
63.711667
 31
0.0
 11
25.442426
 21
64.157391
 31
0.0
 11
25.717899
 21
64.851154
 31
0.0
 11
25.946030
 21
65.642760
 31
0.0
 11
26.169765
 21
66.472102
 31
0.0
 11
26.433712
 21
67.264793
 31
0.0
 11
26.680728
 21
67.849221
 31
0.0
 11
26.805273
 21
68.256231
 31
0.0
 11
26.298259
 21
68.040470
 31
0.0
 11
24.899356
 21
67.091155
 31
0.0
 11
23.183906
 21
65.715362
 31
0.0
 11
22.604661
 21
64.687138
 31
0.0
 11
23.022173
 21
63.758949
 31
0.0
 11
23.727002
 21
63.302317
 31
0.0
 11
24.503836
 21
63.285290
 31
0.0
 11
25.179251
 21
63.711667
 31
0.0
  0
LWPOLYLINE
  5
1aa
100
AcDbEntity
  8
0
 62
7
100
AcDbPolyline
 90
2
 70
0
 10
25.179251
 20
63.711667
 30
0.0
 10
25.179251
 20
63.711667
 30
0.0
  0
ENDSEC
  0
SECTION
  2
OBJECTS
  0
DICTIONARY
  5
C
330
0
100
AcDbDictionary
  3
ACAD_GROUP
350
D
  3
ACAD_MLINESTYLE
350
17
  0
DICTIONARY
  5
D
330
C
100
AcDbDictionary
  0
DICTIONARY
  5
1A
330
C
100
AcDbDictionary
  0
DICTIONARY
  5
17
330
C
100
AcDbDictionary
  3
STANDARD
350
18
  0
DICTIONARY
  5
19
330
C
100
AcDbDictionary
  0
ENDSEC
  0
EOF
