  0
SECTION
  2
HEADER
  9
$ACADVER
  1
AC1009
  9
$DWGCODEPAGE
  3
ansi_1252
  9
$INSBASE
 10
0.0
 20
0.0
 30
0.0
  9
$EXTMIN
 10
0.1451482656912759
 20
0.191632987032065
 30
0.0
  9
$EXTMAX
 10
37.17654737105879
 20
33.61495272374741
 30
0.0
  9
$LIMMIN
 10
0.0
 20
0.0
  9
$LIMMAX
 10
12.0
 20
9.0
  9
$ORTHOMODE
 70
     0
  9
$REGENMODE
 70
     1
  9
$FILLMODE
 70
     1
  9
$QTEXTMODE
 70
     0
  9
$MIRRTEXT
 70
     1
  9
$DRAGMODE
 70
     2
  9
$LTSCALE
 40
1.0
  9
$OSMODE
 70
    37
  9
$ATTMODE
 70
     1
  9
$TEXTSIZE
 40
0.2
  9
$TRACEWID
 40
0.05
  9
$TEXTSTYLE
  7
STANDARD
  9
$CLAYER
  8
0
  9
$CELTYPE
  6
BYBLOCK
  9
$CECOLOR
 62
   256
  9
$DIMSCALE
 40
1.0
  9
$DIMASZ
 40
0.18
  9
$DIMEXO
 40
0.0625
  9
$DIMDLI
 40
0.38
  9
$DIMRND
 40
0.0
  9
$DIMDLE
 40
0.0
  9
$DIMEXE
 40
0.18
  9
$DIMTP
 40
0.0
  9
$DIMTM
 40
0.0
  9
$DIMTXT
 40
0.18
  9
$DIMCEN
 40
0.09
  9
$DIMTSZ
 40
0.0
  9
$DIMTOL
 70
     0
  9
$DIMLIM
 70
     0
  9
$DIMTIH
 70
     1
  9
$DIMTOH
 70
     1
  9
$DIMSE1
 70
     0
  9
$DIMSE2
 70
     0
  9
$DIMTAD
 70
     0
  9
$DIMZIN
 70
     0
  9
$DIMBLK
  1

  9
$DIMASO
 70
     1
  9
$DIMSHO
 70
     1
  9
$DIMPOST
  1

  9
$DIMAPOST
  1

  9
$DIMALT
 70
     0
  9
$DIMALTD
 70
     2
  9
$DIMALTF
 40
25.4
  9
$DIMLFAC
 40
1.0
  9
$DIMTOFL
 70
     0
  9
$DIMTVP
 40
0.0
  9
$DIMTIX
 70
     0
  9
$DIMSOXD
 70
     0
  9
$DIMSAH
 70
     0
  9
$DIMBLK1
  1

  9
$DIMBLK2
  1

  9
$DIMSTYLE
  2
STANDARD
  9
$DIMCLRD
 70
     0
  9
$DIMCLRE
 70
     0
  9
$DIMCLRT
 70
     0
  9
$DIMTFAC
 40
1.0
  9
$DIMGAP
 40
0.09
  9
$LUNITS
 70
     2
  9
$LUPREC
 70
     4
  9
$SKETCHINC
 40
0.1
  9
$FILLETRAD
 40
0.5
  9
$AUNITS
 70
     0
  9
$AUPREC
 70
     0
  9
$MENU
  1
.
  9
$ELEVATION
 40
0.0
  9
$PELEVATION
 40
0.0
  9
$THICKNESS
 40
0.0
  9
$LIMCHECK
 70
     0
  9
$CHAMFERA
 40
0.5
  9
$CHAMFERB
 40
0.5
  9
$SKPOLY
 70
     0
  9
$TDCREATE
 40
2453353.508792488
  9
$TDUPDATE
 40
4910530.226842963
  9
$TDINDWG
 40
4895786.051922963
  9
$TDUSRTIMER
 40
4895786.051922963
  9
$USRTIMER
 70
     1
  9
$ANGBASE
 50
0.0
  9
$ANGDIR
 70
     0
  9
$PDMODE
 70
     0
  9
$PDSIZE
 40
0.0
  9
$PLINEWID
 40
0.0
  9
$COORDS
 70
     1
  9
$SPLFRAME
 70
     0
  9
$SPLINETYPE
 70
     6
  9
$SPLINESEGS
 70
     8
  9
$ATTDIA
 70
     0
  9
$ATTREQ
 70
     1
  9
$HANDLING
 70
     1
  9
$HANDSEED
  5
5F9
  9
$SURFTAB1
 70
     6
  9
$SURFTAB2
 70
     6
  9
$SURFTYPE
 70
     6
  9
$SURFU
 70
     6
  9
$SURFV
 70
     6
  9
$UCSNAME
  2

  9
$UCSORG
 10
0.0
 20
0.0
 30
0.0
  9
$UCSXDIR
 10
1.0
 20
0.0
 30
0.0
  9
$UCSYDIR
 10
0.0
 20
1.0
 30
0.0
  9
$PUCSNAME
  2

  9
$PUCSORG
 10
0.0
 20
0.0
 30
0.0
  9
$PUCSXDIR
 10
1.0
 20
0.0
 30
0.0
  9
$PUCSYDIR
 10
0.0
 20
1.0
 30
0.0
  9
$USERI1
 70
     0
  9
$USERI2
 70
     0
  9
$USERI3
 70
     0
  9
$USERI4
 70
     0
  9
$USERI5
 70
     0
  9
$USERR1
 40
0.0
  9
$USERR2
 40
0.0
  9
$USERR3
 40
0.0
  9
$USERR4
 40
0.0
  9
$USERR5
 40
0.0
  9
$WORLDVIEW
 70
     1
  9
$SHADEDGE
 70
     3
  9
$SHADEDIF
 70
    70
  9
$TILEMODE
 70
     1
  9
$MAXACTVP
 70
    64
  9
$PLIMCHECK
 70
     0
  9
$PEXTMIN
 10
0.0
 20
0.0
 30
0.0
  9
$PEXTMAX
 10
0.0
 20
0.0
 30
0.0
  9
$PLIMMIN
 10
0.0
 20
0.0
  9
$PLIMMAX
 10
0.0
 20
0.0
  9
$UNITMODE
 70
     0
  9
$VISRETAIN
 70
     1
  9
$PLINEGEN
 70
     0
  9
$PSLTSCALE
 70
     1
  0
ENDSEC
  0
SECTION
  2
TABLES
  0
TABLE
  2
VPORT
 70
     1
  0
VPORT
  2
*ACTIVE
 70
     0
 10
0.0
 20
0.0
 11
1.0
 21
1.0
 12
14.68915656301856
 22
17.09764041952601
 13
0.0
 23
0.0
 14
0.5
 24
0.5
 15
0.5
 25
0.5
 16
0.0
 26
0.0
 36
1.0
 17
0.0
 27
0.0
 37
0.0
 40
64.41052411084235
 41
1.972972972850329
 42
50.0
 43
0.0
 44
0.0
 50
0.0
 51
0.0
 71
    16
 72
   100
 73
     1
 74
     3
 75
     0
 76
     0
 77
     0
 78
     0
  0
ENDTAB
  0
TABLE
  2
LTYPE
 70
     1
  0
LTYPE
  2
CONTINUOUS
 70
     0
  3
Solid line
 72
    65
 73
     0
 40
0.0
  0
ENDTAB
  0
TABLE
  2
LAYER
 70
     2
  0
LAYER
  2
0
 70
     0
 62
     7
  6
CONTINUOUS
  0
LAYER
  2
LAYER_1
 70
     0
 62
     7
  6
CONTINUOUS
  0
ENDTAB
  0
TABLE
  2
STYLE
 70
     1
  0
STYLE
  2
STANDARD
 70
     0
 40
0.0
 41
1.0
 50
0.0
 71
     0
 42
0.2
  3
txt
  4

  0
ENDTAB
  0
TABLE
  2
VIEW
 70
     0
  0
ENDTAB
  0
TABLE
  2
UCS
 70
     0
  0
ENDTAB
  0
TABLE
  2
APPID
 70
     1
  0
APPID
  2
ACAD
 70
     0
  0
ENDTAB
  0
TABLE
  2
DIMSTYLE
 70
     1
  0
DIMSTYLE
  2
STANDARD
 70
     0
  3

  4

  5

  6

  7

 40
1.0
 41
0.18
 42
0.0625
 43
0.38
 44
0.18
 45
0.0
 46
0.0
 47
0.0
 48
0.0
140
0.18
141
0.09
142
0.0
143
25.4
144
1.0
145
0.0
146
1.0
147
0.09
 71
     0
 72
     0
 73
     1
 74
     1
 75
     0
 76
     0
 77
     0
 78
     0
170
     0
171
     2
172
     0
173
     0
174
     0
175
     0
176
     0
177
     0
178
     0
  0
ENDTAB
  0
ENDSEC
  0
SECTION
  2
BLOCKS
  0
BLOCK
  8
0
  2
$MODEL_SPACE
 70
     0
 10
0.0
 20
0.0
 30
0.0
  3
$MODEL_SPACE
  1

  0
ENDBLK
  5
21
  8
0
  0
BLOCK
 67
     1
  8
0
  2
$PAPER_SPACE
 70
     0
 10
0.0
 20
0.0
 30
0.0
  3
$PAPER_SPACE
  1

  0
ENDBLK
  5
76
 67
     1
  8
0
  0
ENDSEC
  0
SECTION
  2
ENTITIES
  0
LINE
  5
398
  8
LAYER_1
 10
27.08310905025917
 20
33.01429131060745
 30
0.0
 11
25.33032205040382
 21
33.21890029972576
 31
0.0
  0
LINE
  5
399
  8
LAYER_1
 10
27.83880586840668
 20
32.71994340892778
 30
0.0
 11
27.08310905025917
 21
33.01429131060745
 31
0.0
  0
LINE
  5
39A
  8
LAYER_1
 10
35.82289718212455
 20
27.4358187635411
 30
0.0
 11
35.00514471783156
 21
27.88279544301774
 31
0.0
  0
LINE
  5
39B
  8
LAYER_1
 10
35.00514471783156
 20
27.88279544301774
 30
0.0
 11
33.59036834018777
 21
28.23146617707809
 31
0.0
  0
LINE
  5
39C
  8
LAYER_1
 10
36.614697653298
 20
26.694062517064
 30
0.0
 11
35.82289718212455
 21
27.4358187635411
 31
0.0
  0
LINE
  5
39D
  8
LAYER_1
 10
33.59036834018777
 20
28.23146617707809
 30
0.0
 11
32.53213116339209
 21
28.44311361243722
 31
0.0
  0
LINE
  5
39E
  8
LAYER_1
 10
37.17654737105879
 20
25.8848924915294
 30
0.0
 11
36.614697653298
 21
26.694062517064
 31
0.0
  0
LINE
  5
39F
  8
LAYER_1
 10
35.47693883281201
 20
24.61251078977273
 30
0.0
 11
37.17654737105879
 21
25.8848924915294
 31
0.0
  0
LINE
  5
3A0
  8
LAYER_1
 10
34.59652874922637
 20
25.31580398695618
 30
0.0
 11
35.47693883281201
 21
24.61251078977273
 31
0.0
  0
LINE
  5
3A1
  8
LAYER_1
 10
33.81248317446213
 20
25.64780528972649
 30
0.0
 11
34.59652874922637
 21
25.31580398695618
 31
0.0
  0
LINE
  5
3A2
  8
LAYER_1
 10
33.33639141775679
 20
25.81868541398392
 30
0.0
 11
33.81248317446213
 21
25.64780528972649
 31
0.0
  0
LINE
  5
3A3
  8
LAYER_1
 10
34.56394654283979
 20
22.89795080602783
 30
0.0
 11
33.33639141775679
 21
25.81868541398392
 31
0.0
  0
LINE
  5
3A4
  8
LAYER_1
 10
32.53213116339209
 20
28.44311361243722
 30
0.0
 11
32.30291193248037
 21
29.05084864521357
 31
0.0
  0
LINE
  5
3A5
  8
LAYER_1
 10
32.30291193248037
 20
29.05084864521357
 30
0.0
 11
31.95932945430734
 21
29.71175017568768
 31
0.0
  0
LINE
  5
3A6
  8
LAYER_1
 10
31.95932945430734
 20
29.71175017568768
 30
0.0
 11
31.43377159154504
 21
30.26935984328037
 31
0.0
  0
LINE
  5
3A7
  8
LAYER_1
 10
31.43377159154504
 20
30.26935984328037
 30
0.0
 11
30.38447089681424
 21
30.95644710915203
 31
0.0
  0
LINE
  5
3A8
  8
LAYER_1
 10
34.86025295234258
 20
16.5061982581819
 30
0.0
 11
34.98724141355806
 21
17.81841235740855
 31
0.0
  0
LINE
  5
3A9
  8
LAYER_1
 10
34.98724141355806
 20
17.81841235740855
 30
0.0
 11
35.07190038770172
 21
18.96130850834789
 31
0.0
  0
LINE
  5
3AA
  8
LAYER_1
 10
35.07190038770172
 20
18.96130850834789
 30
0.0
 11
34.98724141355806
 21
19.72323927564078
 31
0.0
  0
LINE
  5
3AB
  8
LAYER_1
 10
34.98724141355806
 20
19.72323927564078
 30
0.0
 11
34.94491192648624
 21
21.16244183608291
 31
0.0
  0
LINE
  5
3AC
  8
LAYER_1
 10
34.94491192648624
 20
21.16244183608291
 30
0.0
 11
34.56394654283979
 21
22.89795080602783
 31
0.0
  0
LINE
  5
3AD
  8
LAYER_1
 10
30.38447089681424
 20
30.95644710915203
 30
0.0
 11
28.57234161789823
 21
31.80419952626469
 31
0.0
  0
LINE
  5
3AE
  8
LAYER_1
 10
28.57234161789823
 20
31.80419952626469
 30
0.0
 11
28.1610685974921
 21
32.19100423053161
 31
0.0
  0
LINE
  5
3AF
  8
LAYER_1
 10
28.1610685974921
 20
32.19100423053161
 30
0.0
 11
27.83880586840668
 21
32.71994340892778
 31
0.0
  0
LINE
  5
3B0
  8
LAYER_1
 10
25.33032205040382
 20
33.21890029972576
 30
0.0
 11
23.5354882965791
 21
32.9720792981164
 31
0.0
  0
LINE
  5
3B1
  8
LAYER_1
 10
23.5354882965791
 20
32.9720792981164
 30
0.0
 11
22.95823849230771
 21
33.06351399313771
 31
0.0
  0
LINE
  5
3B2
  8
LAYER_1
 10
22.95823849230771
 20
33.06351399313771
 30
0.0
 11
22.43655178352428
 21
33.30275300716492
 31
0.0
  0
LINE
  5
3B3
  8
LAYER_1
 10
22.43655178352428
 20
33.30275300716492
 30
0.0
 11
21.9321122572105
 21
33.55630943223108
 31
0.0
  0
LINE
  5
3B4
  8
LAYER_1
 10
21.9321122572105
 20
33.55630943223108
 30
0.0
 11
21.50532978550726
 21
33.61495272374741
 31
0.0
  0
LINE
  5
3B5
  8
LAYER_1
 10
21.50532978550726
 20
33.61495272374741
 30
0.0
 11
20.34680938744128
 21
33.09367891297034
 31
0.0
  0
LINE
  5
3B6
  8
LAYER_1
 10
20.34680938744128
 20
33.09367891297034
 30
0.0
 11
19.18084781487427
 21
32.58948536829323
 31
0.0
  0
LINE
  5
3B7
  8
LAYER_1
 10
19.18084781487427
 20
32.58948536829323
 30
0.0
 11
18.09644951727863
 21
32.45954304069489
 31
0.0
  0
LINE
  5
3B8
  8
LAYER_1
 10
18.09644951727863
 20
32.45954304069489
 30
0.0
 11
17.41491659251878
 21
32.44888876492019
 31
0.0
  0
LINE
  5
3B9
  8
LAYER_1
 10
17.41491659251878
 20
32.44888876492019
 30
0.0
 11
16.88853284429953
 21
32.1596078779545
 31
0.0
  0
LINE
  5
3BA
  8
LAYER_1
 10
16.88853284429953
 20
32.1596078779545
 30
0.0
 11
16.33871516222648
 21
31.42116121217978
 31
0.0
  0
LINE
  5
3BB
  8
LAYER_1
 10
16.33871516222648
 20
31.42116121217978
 30
0.0
 11
15.58688332811143
 21
30.06301253853937
 31
0.0
  0
LINE
  5
3BC
  8
LAYER_1
 10
15.58688332811143
 20
30.06301253853937
 30
0.0
 11
14.74298398712082
 21
28.98414719312984
 31
0.0
  0
LINE
  5
3BD
  8
LAYER_1
 10
14.74298398712082
 20
28.98414719312984
 30
0.0
 11
13.40249121794781
 21
27.69181909732565
 31
0.0
  0
LINE
  5
3BE
  8
LAYER_1
 10
13.40249121794781
 20
27.69181909732565
 30
0.0
 11
11.48170006005702
 21
25.86281057549817
 31
0.0
  0
LINE
  5
3BF
  8
LAYER_1
 10
11.48170006005702
 20
25.86281057549817
 30
0.0
 11
11.40002659890528
 21
25.33099318116951
 31
0.0
  0
LINE
  5
3C0
  8
LAYER_1
 10
14.34645686650112
 20
22.87453408445719
 30
0.0
 11
13.82512024255463
 21
24.19015574425553
 31
0.0
  0
LINE
  5
3C1
  8
LAYER_1
 10
13.82512024255463
 20
24.19015574425553
 30
0.0
 11
15.74905329097236
 21
25.1064750131812
 31
0.0
  0
LINE
  5
3C2
  8
LAYER_1
 10
15.74905329097236
 20
25.1064750131812
 30
0.0
 11
15.98135879144093
 21
24.85900786666666
 31
0.0
  0
LINE
  5
3C3
  8
LAYER_1
 10
15.98135879144093
 20
24.85900786666666
 30
0.0
 11
15.9393386165892
 21
24.53308716911673
 31
0.0
  0
LINE
  5
3C4
  8
LAYER_1
 10
15.9393386165892
 20
24.53308716911673
 30
0.0
 11
16.05329792321216
 21
23.9642571967647
 31
0.0
  0
LINE
  5
3C5
  8
LAYER_1
 10
16.05329792321216
 20
23.9642571967647
 30
0.0
 11
16.65849258413697
 21
23.06978525097875
 31
0.0
  0
LINE
  5
3C6
  8
LAYER_1
 10
16.65849258413697
 20
23.06978525097875
 30
0.0
 11
17.38545911539178
 21
21.93183520284819
 31
0.0
  0
LINE
  5
3C7
  8
LAYER_1
 10
17.38545911539178
 20
21.93183520284819
 30
0.0
 11
17.57390811534998
 21
20.71526598728881
 31
0.0
  0
LINE
  5
3C8
  8
LAYER_1
 10
17.57390811534998
 20
20.71526598728881
 30
0.0
 11
17.59413548122559
 21
20.00127794697039
 31
0.0
  0
LINE
  5
3C9
  8
LAYER_1
 10
17.59413548122559
 20
20.00127794697039
 30
0.0
 11
17.74139661626781
 21
19.5398744324811
 31
0.0
  0
LINE
  5
3CA
  8
LAYER_1
 10
17.74139661626781
 20
19.5398744324811
 30
0.0
 11
18.11807972699905
 21
19.16827245670885
 31
0.0
  0
LINE
  5
3CB
  8
LAYER_1
 10
18.11807972699905
 20
19.16827245670885
 30
0.0
 11
18.82657494317802
 21
18.72368441722339
 31
0.0
  0
LINE
  5
3CC
  8
LAYER_1
 10
18.82657494317802
 20
18.72368441722339
 30
0.0
 11
19.99940347761574
 21
17.82709367514445
 31
0.0
  0
LINE
  5
3CD
  8
LAYER_1
 10
19.99940347761574
 20
17.82709367514445
 30
0.0
 11
20.95897554189577
 21
16.58283815248387
 31
0.0
  0
LINE
  5
3CE
  8
LAYER_1
 10
20.95897554189577
 20
16.58283815248387
 30
0.0
 11
21.82595335786582
 21
15.18762973960614
 31
0.0
  0
LINE
  5
3CF
  8
LAYER_1
 10
21.82595335786582
 20
15.18762973960614
 30
0.0
 11
23.2181626543722
 21
15.45258579010173
 31
0.0
  0
LINE
  5
3D0
  8
LAYER_1
 10
23.2181626543722
 20
15.45258579010173
 30
0.0
 11
24.53623732521224
 21
15.54989675711942
 31
0.0
  0
LINE
  5
3D1
  8
LAYER_1
 10
24.53623732521224
 20
15.54989675711942
 30
0.0
 11
25.00927904674958
 21
15.36018004774201
 31
0.0
  0
LINE
  5
3D2
  8
LAYER_1
 10
25.00927904674958
 20
15.36018004774201
 30
0.0
 11
25.55526671978775
 21
14.97096274980246
 31
0.0
  0
LINE
  5
3D3
  8
LAYER_1
 10
25.55526671978775
 20
14.97096274980246
 30
0.0
 11
26.50016113480348
 21
14.22438502822615
 31
0.0
  0
LINE
  5
3D4
  8
LAYER_1
 10
26.50016113480348
 20
14.22438502822615
 30
0.0
 11
27.68825165767812
 21
15.09441081428622
 31
0.0
  0
LINE
  5
3D5
  8
LAYER_1
 10
27.68825165767812
 20
15.09441081428622
 30
0.0
 11
28.88444029347889
 21
15.75847887989855
 31
0.0
  0
LINE
  5
3D6
  8
LAYER_1
 10
28.88444029347889
 20
15.75847887989855
 30
0.0
 11
30.10391636758016
 21
15.83030202633182
 31
0.0
  0
LINE
  5
3D7
  8
LAYER_1
 10
30.10391636758016
 20
15.83030202633182
 30
0.0
 11
31.23381392304437
 21
15.58838544814006
 31
0.0
  0
LINE
  5
3D8
  8
LAYER_1
 10
31.23381392304437
 20
15.58838544814006
 30
0.0
 11
31.84619647690876
 21
14.77541601218104
 31
0.0
  0
LINE
  5
3D9
  8
LAYER_1
 10
31.84619647690876
 20
14.77541601218104
 30
0.0
 11
32.10201482903534
 21
14.04267501587454
 31
0.0
  0
LINE
  5
3DA
  8
LAYER_1
 10
32.10201482903534
 20
14.04267501587454
 30
0.0
 11
32.18641004563558
 21
13.21629774542539
 31
0.0
  0
LINE
  5
3DB
  8
LAYER_1
 10
32.18641004563558
 20
13.21629774542539
 30
0.0
 11
32.09971988867538
 21
12.52056507417068
 31
0.0
  0
LINE
  5
3DC
  8
LAYER_1
 10
32.09971988867538
 20
12.52056507417068
 30
0.0
 11
31.84228258142791
 21
12.17976456777114
 31
0.0
  0
LINE
  5
3DD
  8
LAYER_1
 10
31.84228258142791
 20
12.17976456777114
 30
0.0
 11
30.69109448739484
 21
13.20258965729598
 31
0.0
  0
LINE
  5
3DE
  8
LAYER_1
 10
30.69109448739484
 20
13.20258965729598
 30
0.0
 11
29.16411877681611
 21
14.59428955351808
 31
0.0
  0
LINE
  5
3DF
  8
LAYER_1
 10
29.16411877681611
 20
14.59428955351808
 30
0.0
 11
28.67408561690439
 21
14.71562407604125
 31
0.0
  0
LINE
  5
3E0
  8
LAYER_1
 10
28.67408561690439
 20
14.71562407604125
 30
0.0
 11
28.35551552193526
 21
14.45509673534096
 31
0.0
  0
LINE
  5
3E1
  8
LAYER_1
 10
28.35551552193526
 20
14.45509673534096
 30
0.0
 11
28.24479131708512
 21
13.88325408027813
 31
0.0
  0
LINE
  5
3E2
  8
LAYER_1
 10
28.24479131708512
 20
13.88325408027813
 30
0.0
 11
28.37829805830489
 21
13.07064250594457
 31
0.0
  0
LINE
  5
3E3
  8
LAYER_1
 10
28.37829805830489
 20
13.07064250594457
 30
0.0
 11
28.64210670548066
 21
11.60502706207558
 31
0.0
  0
LINE
  5
3E4
  8
LAYER_1
 10
28.64210670548066
 20
11.60502706207558
 30
0.0
 11
28.28850106284511
 21
10.92780740345268
 31
0.0
  0
LINE
  5
3E5
  8
LAYER_1
 10
28.28850106284511
 20
10.92780740345268
 30
0.0
 11
27.51773045618553
 21
10.06689687604254
 31
0.0
  0
LINE
  5
3E6
  8
LAYER_1
 10
27.51773045618553
 20
10.06689687604254
 30
0.0
 11
26.71263357704225
 21
9.394735732489332
 31
0.0
  0
LINE
  5
3E7
  8
LAYER_1
 10
26.71263357704225
 20
9.394735732489332
 30
0.0
 11
26.41684933502589
 21
9.245824440322467
 31
0.0
  0
LINE
  5
3E8
  8
LAYER_1
 10
26.41684933502589
 20
9.245824440322467
 30
0.0
 11
26.2560470399502
 21
9.283766609980919
 31
0.0
  0
LINE
  5
3E9
  8
LAYER_1
 10
26.2560470399502
 20
9.283766609980919
 30
0.0
 11
26.30246575752021
 21
11.03818067567469
 31
0.0
  0
LINE
  5
3EA
  8
LAYER_1
 10
26.30246575752021
 20
11.03818067567469
 30
0.0
 11
26.38449915585564
 21
12.29489610951584
 31
0.0
  0
LINE
  5
3EB
  8
LAYER_1
 10
26.38449915585564
 20
12.29489610951584
 30
0.0
 11
26.27214620701034
 21
13.20706826062645
 31
0.0
  0
LINE
  5
3EC
  8
LAYER_1
 10
26.27214620701034
 20
13.20706826062645
 30
0.0
 11
25.96974491680672
 21
13.75938269419866
 31
0.0
  0
LINE
  5
3ED
  8
LAYER_1
 10
25.96974491680672
 20
13.75938269419866
 30
0.0
 11
25.48163384508497
 21
13.93652000621294
 31
0.0
  0
LINE
  5
3EE
  8
LAYER_1
 10
25.48163384508497
 20
13.93652000621294
 30
0.0
 11
24.95206475617866
 21
13.75287947084033
 31
0.0
  0
LINE
  5
3EF
  8
LAYER_1
 10
24.95206475617866
 20
13.75287947084033
 30
0.0
 11
24.46941391746534
 21
13.33257917107201
 31
0.0
  0
LINE
  5
3F0
  8
LAYER_1
 10
24.46941391746534
 20
13.33257917107201
 30
0.0
 11
24.23453554604883
 21
12.91612562833437
 31
0.0
  0
LINE
  5
3F1
  8
LAYER_1
 10
24.23453554604883
 20
12.91612562833437
 30
0.0
 11
24.1931770747651
 21
12.44376532278037
 31
0.0
  0
LINE
  5
3F2
  8
LAYER_1
 10
24.1931770747651
 20
12.44376532278037
 30
0.0
 11
24.74462162539571
 21
10.84730988950176
 31
0.0
  0
LINE
  5
3F3
  8
LAYER_1
 10
24.74462162539571
 20
10.84730988950176
 30
0.0
 11
24.85602171896009
 21
10.37597005959255
 31
0.0
  0
LINE
  5
3F4
  8
LAYER_1
 10
24.85602171896009
 20
10.37597005959255
 30
0.0
 11
24.73066014512041
 21
10.13554851459826
 31
0.0
  0
LINE
  5
3F5
  8
LAYER_1
 10
24.73066014512041
 20
10.13554851459826
 30
0.0
 11
24.4123910130568
 21
10.34116407687766
 31
0.0
  0
LINE
  5
3F6
  8
LAYER_1
 10
24.4123910130568
 20
10.34116407687766
 30
0.0
 11
24.05998807056757
 21
10.94221122978409
 31
0.0
  0
LINE
  5
3F7
  8
LAYER_1
 10
24.05998807056757
 20
10.94221122978409
 30
0.0
 11
23.68328001829332
 21
11.82485446653819
 31
0.0
  0
LINE
  5
3F8
  8
LAYER_1
 10
23.68328001829332
 20
11.82485446653819
 30
0.0
 11
22.11434499244702
 21
11.66387080504214
 31
0.0
  0
LINE
  5
3F9
  8
LAYER_1
 10
22.11434499244702
 20
11.66387080504214
 30
0.0
 11
20.35957239760663
 21
11.60444383324385
 31
0.0
  0
LINE
  5
3FA
  8
LAYER_1
 10
20.35957239760663
 20
11.60444383324385
 30
0.0
 11
20.4573182374841
 21
12.06479591694463
 31
0.0
  0
LINE
  5
3FB
  8
LAYER_1
 10
20.4573182374841
 20
12.06479591694463
 30
0.0
 11
20.95328535424502
 21
13.02898056923373
 31
0.0
  0
LINE
  5
3FC
  8
LAYER_1
 10
20.95328535424502
 20
13.02898056923373
 30
0.0
 11
21.45950959421909
 21
14.04750857579353
 31
0.0
  0
LINE
  5
3FD
  8
LAYER_1
 10
21.45950959421909
 20
14.04750857579353
 30
0.0
 11
21.58191507581353
 21
14.63851174198271
 31
0.0
  0
LINE
  5
3FE
  8
LAYER_1
 10
21.58191507581353
 20
14.63851174198271
 30
0.0
 11
20.27115873610072
 21
15.8074339207725
 31
0.0
  0
LINE
  5
3FF
  8
LAYER_1
 10
20.27115873610072
 20
15.8074339207725
 30
0.0
 11
19.11131913915144
 21
16.6897980806575
 31
0.0
  0
LINE
  5
400
  8
LAYER_1
 10
19.11131913915144
 20
16.6897980806575
 30
0.0
 11
19.0569233092452
 21
15.70573287838845
 31
0.0
  0
LINE
  5
401
  8
LAYER_1
 10
19.0569233092452
 20
15.70573287838845
 30
0.0
 11
18.86795092366476
 21
14.56491347446641
 31
0.0
  0
LINE
  5
402
  8
LAYER_1
 10
18.86795092366476
 20
14.56491347446641
 30
0.0
 11
18.73688114276079
 21
14.71804480949222
 31
0.0
  0
LINE
  5
403
  8
LAYER_1
 10
18.73688114276079
 20
14.71804480949222
 30
0.0
 11
18.597973264423
 21
15.36579415104086
 31
0.0
  0
LINE
  5
404
  8
LAYER_1
 10
18.597973264423
 20
15.36579415104086
 30
0.0
 11
18.44004563697602
 21
16.38849023595024
 31
0.0
  0
LINE
  5
405
  8
LAYER_1
 10
18.44004563697602
 20
16.38849023595024
 30
0.0
 11
17.07525973524539
 21
16.67250276364103
 31
0.0
  0
LINE
  5
406
  8
LAYER_1
 10
17.07525973524539
 20
16.67250276364103
 30
0.0
 11
15.59769967881844
 21
17.0750325043455
 31
0.0
  0
LINE
  5
407
  8
LAYER_1
 10
15.59769967881844
 20
17.0750325043455
 30
0.0
 11
15.18785979390256
 21
17.30200018108855
 31
0.0
  0
LINE
  5
408
  8
LAYER_1
 10
15.18785979390256
 20
17.30200018108855
 30
0.0
 11
14.99034002682713
 21
17.56787888281448
 31
0.0
  0
LINE
  5
409
  8
LAYER_1
 10
14.99034002682713
 20
17.56787888281448
 30
0.0
 11
14.99991239812042
 21
17.88900190590348
 31
0.0
  0
LINE
  5
40A
  8
LAYER_1
 10
14.99991239812042
 20
17.88900190590348
 30
0.0
 11
15.21134482065508
 21
18.28170148505544
 31
0.0
  0
LINE
  5
40B
  8
LAYER_1
 10
15.21134482065508
 20
18.28170148505544
 30
0.0
 11
16.2188794709045
 21
19.34716025096934
 31
0.0
  0
LINE
  5
40C
  8
LAYER_1
 10
16.2188794709045
 20
19.34716025096934
 30
0.0
 11
16.78629245574044
 21
19.99131069358703
 31
0.0
  0
LINE
  5
40D
  8
LAYER_1
 10
16.78629245574044
 20
19.99131069358703
 30
0.0
 11
16.86480988272385
 21
20.51930149787429
 31
0.0
  0
LINE
  5
40E
  8
LAYER_1
 10
16.86480988272385
 20
20.51930149787429
 30
0.0
 11
16.4145920707881
 21
21.04395541107878
 31
0.0
  0
LINE
  5
40F
  8
LAYER_1
 10
16.4145920707881
 20
21.04395541107878
 30
0.0
 11
15.39580176976543
 21
21.67809142668595
 31
0.0
  0
LINE
  5
410
  8
LAYER_1
 10
15.39580176976543
 20
21.67809142668595
 30
0.0
 11
14.34645686650112
 21
22.87453408445719
 31
0.0
  0
LINE
  5
411
  8
LAYER_1
 10
11.40002659890528
 20
25.33099318116951
 30
0.0
 11
11.68524382688653
 21
24.36299215800329
 31
0.0
  0
LINE
  5
412
  8
LAYER_1
 10
11.68524382688653
 20
24.36299215800329
 30
0.0
 11
11.31265187169137
 21
24.4614732595195
 31
0.0
  0
LINE
  5
413
  8
LAYER_1
 10
11.31265187169137
 20
24.4614732595195
 30
0.0
 11
10.71423019100097
 21
24.48295448484919
 31
0.0
  0
LINE
  5
414
  8
LAYER_1
 10
10.71423019100097
 20
24.48295448484919
 30
0.0
 11
9.807259087476595
 21
24.23469234631457
 31
0.0
  0
LINE
  5
415
  8
LAYER_1
 10
9.807259087476595
 20
24.23469234631457
 30
0.0
 11
8.92434789121485
 21
23.83676574631194
 31
0.0
  0
LINE
  5
416
  8
LAYER_1
 10
8.92434789121485
 20
23.83676574631194
 30
0.0
 11
8.398106086081448
 21
23.4092558180121
 31
0.0
  0
LINE
  5
417
  8
LAYER_1
 10
8.398106086081448
 20
23.4092558180121
 30
0.0
 11
8.443522808751638
 21
22.7922949092254
 31
0.0
  0
LINE
  5
418
  8
LAYER_1
 10
8.443522808751638
 20
22.7922949092254
 30
0.0
 11
8.752016709684462
 21
21.64719719340538
 31
0.0
  0
LINE
  5
419
  8
LAYER_1
 10
8.752016709684462
 20
21.64719719340538
 30
0.0
 11
9.247853691797182
 21
20.12600428587183
 31
0.0
  0
LINE
  5
41A
  8
LAYER_1
 10
9.247853691797182
 20
20.12600428587183
 30
0.0
 11
8.464021963439009
 21
20.00631272321163
 31
0.0
  0
LINE
  5
41B
  8
LAYER_1
 10
8.464021963439009
 20
20.00631272321163
 30
0.0
 11
7.438068743257659
 21
19.68436038317894
 31
0.0
  0
LINE
  5
41C
  8
LAYER_1
 10
7.438068743257659
 20
19.68436038317894
 30
0.0
 11
6.073816745731435
 21
19.08288311339587
 31
0.0
  0
LINE
  5
41D
  8
LAYER_1
 10
6.073816745731435
 20
19.08288311339587
 30
0.0
 11
4.837157685623176
 21
18.42709114241639
 31
0.0
  0
LINE
  5
41E
  8
LAYER_1
 10
4.837157685623176
 20
18.42709114241639
 30
0.0
 11
4.193981046921181
 21
17.9421948525636
 31
0.0
  0
LINE
  5
41F
  8
LAYER_1
 10
4.193981046921181
 20
17.9421948525636
 30
0.0
 11
4.280602708404025
 21
17.3951629976347
 31
0.0
  0
LINE
  5
420
  8
LAYER_1
 10
4.280602708404025
 20
17.3951629976347
 30
0.0
 11
4.740852684099721
 21
16.50761107683676
 31
0.0
  0
LINE
  5
421
  8
LAYER_1
 10
4.740852684099721
 20
16.50761107683676
 30
0.0
 11
5.510617349513254
 21
15.24104604516022
 31
0.0
  0
LINE
  5
422
  8
LAYER_1
 10
5.510617349513254
 20
15.24104604516022
 30
0.0
 11
4.413522549238444
 21
14.32604335553249
 31
0.0
  0
LINE
  5
423
  8
LAYER_1
 10
4.413522549238444
 20
14.32604335553249
 30
0.0
 11
3.166040883106568
 21
13.42363622602285
 31
0.0
  0
LINE
  5
424
  8
LAYER_1
 10
3.166040883106568
 20
13.42363622602285
 30
0.0
 11
2.57264900315451
 21
12.7755574400462
 31
0.0
  0
LINE
  5
425
  8
LAYER_1
 10
2.57264900315451
 20
12.7755574400462
 30
0.0
 11
2.527016814387615
 21
12.17384930989559
 31
0.0
  0
LINE
  5
426
  8
LAYER_1
 10
2.527016814387615
 20
12.17384930989559
 30
0.0
 11
2.922815591029774
 21
11.4105545017575
 31
0.0
  0
LINE
  5
427
  8
LAYER_1
 10
2.922815591029774
 20
11.4105545017575
 30
0.0
 11
4.061358806878758
 21
10.06257391379889
 31
0.0
  0
LINE
  5
428
  8
LAYER_1
 10
4.061358806878758
 20
10.06257391379889
 30
0.0
 11
4.452361505320091
 21
9.68330961717634
 31
0.0
  0
LINE
  5
429
  8
LAYER_1
 10
4.452361505320091
 20
9.68330961717634
 30
0.0
 11
4.761197566881847
 21
9.143406805841719
 31
0.0
  0
LINE
  5
42A
  8
LAYER_1
 10
4.761197566881847
 20
9.143406805841719
 30
0.0
 11
4.875022365563602
 21
8.672587044287408
 31
0.0
  0
LINE
  5
42B
  8
LAYER_1
 10
4.875022365563602
 20
8.672587044287408
 30
0.0
 11
4.324814969602265
 21
9.094318996514705
 31
0.0
  0
LINE
  5
42C
  8
LAYER_1
 10
4.324814969602265
 20
9.094318996514705
 30
0.0
 11
3.924880221743287
 21
9.412203030778732
 31
0.0
  0
LINE
  5
42D
  8
LAYER_1
 10
3.924880221743287
 20
9.412203030778732
 30
0.0
 11
3.6210159748425
 21
9.498640244317913
 31
0.0
  0
LINE
  5
42E
  8
LAYER_1
 10
3.6210159748425
 20
9.498640244317913
 30
0.0
 11
2.833894524392235
 21
8.923651598542122
 31
0.0
  0
LINE
  5
42F
  8
LAYER_1
 10
2.833894524392235
 20
8.923651598542122
 30
0.0
 11
1.779047972032252
 21
7.684743260107332
 31
0.0
  0
LINE
  5
430
  8
LAYER_1
 10
1.779047972032252
 20
7.684743260107332
 30
0.0
 11
1.665479300724272
 21
7.267174999208178
 31
0.0
  0
LINE
  5
431
  8
LAYER_1
 10
1.665479300724272
 20
7.267174999208178
 30
0.0
 11
1.798774329981065
 21
6.928219787076204
 31
0.0
  0
LINE
  5
432
  8
LAYER_1
 10
1.798774329981065
 20
6.928219787076204
 30
0.0
 11
1.883379517190676
 21
6.676011124220973
 31
0.0
  0
LINE
  5
433
  8
LAYER_1
 10
1.883379517190676
 20
6.676011124220973
 30
0.0
 11
1.806076928778303
 21
6.287671454280148
 31
0.0
  0
LINE
  5
434
  8
LAYER_1
 10
1.806076928778303
 20
6.287671454280148
 30
0.0
 11
1.096173262516864
 21
4.90194435172439
 31
0.0
  0
LINE
  5
435
  8
LAYER_1
 10
1.096173262516864
 20
4.90194435172439
 30
0.0
 11
0.3275963188617013
 21
3.393280638149469
 31
0.0
  0
LINE
  5
436
  8
LAYER_1
 10
0.3275963188617013
 20
3.393280638149469
 30
0.0
 11
0.3692618441442335
 21
3.034615584581477
 31
0.0
  0
LINE
  5
437
  8
LAYER_1
 10
0.3692618441442335
 20
3.034615584581477
 30
0.0
 11
0.6464578401066348
 21
2.702863465270373
 31
0.0
  0
LINE
  5
438
  8
LAYER_1
 10
0.6464578401066348
 20
2.702863465270373
 30
0.0
 11
0.1451482656912759
 21
0.9760189108267559
 31
0.0
  0
LINE
  5
439
  8
LAYER_1
 10
0.1451482656912759
 20
0.9760189108267559
 30
0.0
 11
1.828308542650348
 21
0.6814982187241315
 31
0.0
  0
LINE
  5
43A
  8
LAYER_1
 10
1.828308542650348
 20
0.6814982187241315
 30
0.0
 11
2.152597860980073
 21
0.191632987032065
 31
0.0
  0
LINE
  5
43B
  8
LAYER_1
 10
2.152597860980073
 20
0.191632987032065
 30
0.0
 11
4.280561395562216
 21
1.088948294175822
 31
0.0
  0
LINE
  5
43C
  8
LAYER_1
 10
4.280561395562216
 20
1.088948294175822
 30
0.0
 11
5.244816060754161
 21
1.108905226294384
 31
0.0
  0
LINE
  5
43D
  8
LAYER_1
 10
5.244816060754161
 20
1.108905226294384
 30
0.0
 11
6.930526066128074
 21
1.455352997745221
 31
0.0
  0
LINE
  5
43E
  8
LAYER_1
 10
6.930526066128074
 20
1.455352997745221
 30
0.0
 11
8.577820101156341
 21
1.939036596396544
 31
0.0
  0
LINE
  5
43F
  8
LAYER_1
 10
8.577820101156341
 20
1.939036596396544
 30
0.0
 11
8.589690799832795
 21
2.963010813334943
 31
0.0
  0
LINE
  5
440
  8
LAYER_1
 10
8.589690799832795
 20
2.963010813334943
 30
0.0
 11
9.548754606096694
 21
2.287875541849531
 31
0.0
  0
LINE
  5
441
  8
LAYER_1
 10
9.548754606096694
 20
2.287875541849531
 30
0.0
 11
11.00060448020206
 21
1.354339945845984
 31
0.0
  0
LINE
  5
442
  8
LAYER_1
 10
11.00060448020206
 20
1.354339945845984
 30
0.0
 11
11.21981980088318
 21
1.231018408863685
 31
0.0
  0
LINE
  5
443
  8
LAYER_1
 10
11.21981980088318
 20
1.231018408863685
 30
0.0
 11
11.73961394974231
 21
1.248990514244121
 31
0.0
  0
LINE
  5
444
  8
LAYER_1
 10
11.73961394974231
 20
1.248990514244121
 30
0.0
 11
13.69734199567952
 21
1.710981126287144
 31
0.0
  0
LINE
  5
445
  8
LAYER_1
 10
13.69734199567952
 20
1.710981126287144
 30
0.0
 11
15.94656001461007
 21
2.238351651371836
 31
0.0
  0
LINE
  5
446
  8
LAYER_1
 10
15.94656001461007
 20
2.238351651371836
 30
0.0
 11
16.49798764119448
 21
2.170325710727929
 31
0.0
  0
LINE
  5
447
  8
LAYER_1
 10
16.49798764119448
 20
2.170325710727929
 30
0.0
 11
16.9435851428407
 21
1.896990991953213
 31
0.0
  0
LINE
  5
448
  8
LAYER_1
 10
16.9435851428407
 20
1.896990991953213
 30
0.0
 11
17.34199535669
 21
1.618179228138356
 31
0.0
  0
LINE
  5
449
  8
LAYER_1
 10
17.34199535669
 20
1.618179228138356
 30
0.0
 11
17.67379147542589
 21
1.543471994641231
 31
0.0
  0
LINE
  5
44A
  8
LAYER_1
 10
17.67379147542589
 20
1.543471994641231
 30
0.0
 11
18.57933850715924
 21
2.04683879183878
 31
0.0
  0
LINE
  5
44B
  8
LAYER_1
 10
18.57933850715924
 20
2.04683879183878
 30
0.0
 11
20.51059416997717
 21
3.809552798104034
 31
0.0
  0
LINE
  5
44C
  8
LAYER_1
 10
20.51059416997717
 20
3.809552798104034
 30
0.0
 11
21.28593302198856
 21
4.585847667847257
 31
0.0
  0
LINE
  5
44D
  8
LAYER_1
 10
21.28593302198856
 20
4.585847667847257
 30
0.0
 11
21.84905513359919
 21
4.929645392866182
 31
0.0
  0
LINE
  5
44E
  8
LAYER_1
 10
21.84905513359919
 20
4.929645392866182
 30
0.0
 11
22.37137196041001
 21
4.888785954565085
 31
0.0
  0
LINE
  5
44F
  8
LAYER_1
 10
22.37137196041001
 20
4.888785954565085
 30
0.0
 11
23.02430129645215
 21
4.511110242259453
 31
0.0
  0
LINE
  5
450
  8
LAYER_1
 10
23.02430129645215
 20
4.511110242259453
 30
0.0
 11
23.87332826792353
 21
3.930614948381772
 31
0.0
  0
LINE
  5
451
  8
LAYER_1
 10
23.87332826792353
 20
3.930614948381772
 30
0.0
 11
24.68814773346523
 21
5.607255443696237
 31
0.0
  0
LINE
  5
452
  8
LAYER_1
 10
24.68814773346523
 20
5.607255443696237
 30
0.0
 11
25.53447091821055
 21
7.066620149965216
 31
0.0
  0
LINE
  5
453
  8
LAYER_1
 10
25.53447091821055
 20
7.066620149965216
 30
0.0
 11
26.46721601119587
 21
7.92993402514665
 31
0.0
  0
LINE
  5
454
  8
LAYER_1
 10
26.46721601119587
 20
7.92993402514665
 30
0.0
 11
28.34798519490387
 21
9.428102364584635
 31
0.0
  0
LINE
  5
455
  8
LAYER_1
 10
28.34798519490387
 20
9.428102364584635
 30
0.0
 11
29.43609681206986
 21
10.1791289746421
 31
0.0
  0
LINE
  5
456
  8
LAYER_1
 10
29.43609681206986
 20
10.1791289746421
 30
0.0
 11
30.88078858632849
 21
10.66545962241115
 31
0.0
  0
LINE
  5
457
  8
LAYER_1
 10
30.88078858632849
 20
10.66545962241115
 30
0.0
 11
32.10070298126522
 21
11.44296932286458
 31
0.0
  0
LINE
  5
458
  8
LAYER_1
 10
32.10070298126522
 20
11.44296932286458
 30
0.0
 11
33.14344854087184
 21
12.85361835117624
 31
0.0
  0
LINE
  5
459
  8
LAYER_1
 10
33.14344854087184
 20
12.85361835117624
 30
0.0
 11
34.51813767584649
 21
14.72693687448071
 31
0.0
  0
LINE
  5
45A
  8
LAYER_1
 10
34.51813767584649
 20
14.72693687448071
 30
0.0
 11
34.76027185347517
 21
15.31694326790715
 31
0.0
  0
LINE
  5
45B
  8
LAYER_1
 10
34.76027185347517
 20
15.31694326790715
 30
0.0
 11
34.86025295234258
 21
16.5061982581819
 31
0.0
  0
LINE
  5
45C
  8
LAYER_1
 10
34.75464152939932
 20
16.45692524336984
 30
0.0
 11
34.75464152939932
 21
16.45692524336984
 31
0.0
  0
LINE
  5
45D
  8
LAYER_1
 10
30.06089249563399
 20
17.78398074163169
 30
0.0
 11
29.07403015468162
 21
18.88879698325516
 31
0.0
  0
LINE
  5
45E
  8
LAYER_1
 10
29.07403015468162
 20
18.88879698325516
 30
0.0
 11
28.45773140669358
 21
19.68466840703188
 31
0.0
  0
LINE
  5
45F
  8
LAYER_1
 10
28.45773140669358
 20
19.68466840703188
 30
0.0
 11
28.39743619352505
 21
19.98173049409443
 31
0.0
  0
LINE
  5
460
  8
LAYER_1
 10
28.39743619352505
 20
19.98173049409443
 30
0.0
 11
28.48497988191292
 21
20.25179924072656
 31
0.0
  0
LINE
  5
461
  8
LAYER_1
 10
28.48497988191292
 20
20.25179924072656
 30
0.0
 11
28.91932911536813
 21
20.53816502612501
 31
0.0
  0
LINE
  5
462
  8
LAYER_1
 10
28.91932911536813
 20
20.53816502612501
 30
0.0
 11
29.45720777213174
 21
20.3440884328656
 31
0.0
  0
LINE
  5
463
  8
LAYER_1
 10
29.45720777213174
 20
20.3440884328656
 30
0.0
 11
29.9473619738685
 21
19.78097479118232
 31
0.0
  0
LINE
  5
464
  8
LAYER_1
 10
29.9473619738685
 20
19.78097479118232
 30
0.0
 11
30.23853870379918
 21
18.96022892364666
 31
0.0
  0
LINE
  5
465
  8
LAYER_1
 10
30.23853870379918
 20
18.96022892364666
 30
0.0
 11
30.29289768187756
 21
17.845412215699
 31
0.0
  0
LINE
  5
466
  8
LAYER_1
 10
30.29289768187756
 20
17.845412215699
 30
0.0
 11
30.20744844248226
 21
17.64831809529008
 31
0.0
  0
LINE
  5
467
  8
LAYER_1
 10
30.20744844248226
 20
17.64831809529008
 30
0.0
 11
30.06089249563399
 21
17.78398074163169
 31
0.0
  0
LINE
  5
468
  8
LAYER_1
 10
30.06089249563399
 20
17.78398074163169
 30
0.0
 11
30.06089249563399
 21
17.78398074163169
 31
0.0
  0
LINE
  5
469
  8
LAYER_1
 10
22.692823762106
 20
5.963211718349815
 30
0.0
 11
22.35282367703849
 21
6.495330714942761
 31
0.0
  0
LINE
  5
46A
  8
LAYER_1
 10
22.35282367703849
 20
6.495330714942761
 30
0.0
 11
22.288375464024
 21
7.511819428237819
 31
0.0
  0
LINE
  5
46B
  8
LAYER_1
 10
22.288375464024
 20
7.511819428237819
 30
0.0
 11
22.21355834111704
 21
8.807234768215665
 31
0.0
  0
LINE
  5
46C
  8
LAYER_1
 10
22.21355834111704
 20
8.807234768215665
 30
0.0
 11
22.01471815613597
 21
8.642418685621475
 31
0.0
  0
LINE
  5
46D
  8
LAYER_1
 10
22.01471815613597
 20
8.642418685621475
 30
0.0
 11
21.71094371552356
 21
7.933958532557374
 31
0.0
  0
LINE
  5
46E
  8
LAYER_1
 10
21.71094371552356
 20
7.933958532557374
 30
0.0
 11
21.42887046614229
 21
7.306382405933285
 31
0.0
  0
LINE
  5
46F
  8
LAYER_1
 10
21.42887046614229
 20
7.306382405933285
 30
0.0
 11
21.26599590345676
 21
7.218878303949437
 31
0.0
  0
LINE
  5
470
  8
LAYER_1
 10
21.26599590345676
 20
7.218878303949437
 30
0.0
 11
20.98706544722946
 21
7.261930117033495
 31
0.0
  0
LINE
  5
471
  8
LAYER_1
 10
20.98706544722946
 20
7.261930117033495
 30
0.0
 11
20.42597120327502
 21
6.948247123605087
 31
0.0
  0
LINE
  5
472
  8
LAYER_1
 10
20.42597120327502
 20
6.948247123605087
 30
0.0
 11
19.74515653574888
 21
6.580006533961213
 31
0.0
  0
LINE
  5
473
  8
LAYER_1
 10
19.74515653574888
 20
6.580006533961213
 30
0.0
 11
19.41251537401374
 21
6.685805184446462
 31
0.0
  0
LINE
  5
474
  8
LAYER_1
 10
19.41251537401374
 20
6.685805184446462
 30
0.0
 11
19.46070989544225
 21
7.195023910726514
 31
0.0
  0
LINE
  5
475
  8
LAYER_1
 10
19.46070989544225
 20
7.195023910726514
 30
0.0
 11
19.92240227740703
 21
8.037043548467038
 31
0.0
  0
LINE
  5
476
  8
LAYER_1
 10
19.92240227740703
 20
8.037043548467038
 30
0.0
 11
20.36760556593234
 21
8.846576493646698
 31
0.0
  0
LINE
  5
477
  8
LAYER_1
 10
20.36760556593234
 20
8.846576493646698
 30
0.0
 11
20.40957407168547
 21
9.424405635716264
 31
0.0
  0
LINE
  5
478
  8
LAYER_1
 10
20.40957407168547
 20
9.424405635716264
 30
0.0
 11
20.03976644885006
 21
9.795244541246445
 31
0.0
  0
LINE
  5
479
  8
LAYER_1
 10
20.03976644885006
 20
9.795244541246445
 30
0.0
 11
19.24964393627771
 21
9.983805253820295
 31
0.0
  0
LINE
  5
47A
  8
LAYER_1
 10
19.24964393627771
 20
9.983805253820295
 30
0.0
 11
18.67780995636142
 21
10.12888195129822
 31
0.0
  0
LINE
  5
47B
  8
LAYER_1
 10
18.67780995636142
 20
10.12888195129822
 30
0.0
 11
18.42716101491838
 21
10.35927101814272
 31
0.0
  0
LINE
  5
47C
  8
LAYER_1
 10
18.42716101491838
 20
10.35927101814272
 30
0.0
 11
17.95012623044309
 21
11.64577091334739
 31
0.0
  0
LINE
  5
47D
  8
LAYER_1
 10
17.95012623044309
 20
11.64577091334739
 30
0.0
 11
17.53972392900143
 21
12.29151174014742
 31
0.0
  0
LINE
  5
47E
  8
LAYER_1
 10
17.53972392900143
 20
12.29151174014742
 30
0.0
 11
17.19179755753545
 21
12.48223084741126
 31
0.0
  0
LINE
  5
47F
  8
LAYER_1
 10
17.19179755753545
 20
12.48223084741126
 30
0.0
 11
17.02701769346113
 21
12.23194829491378
 31
0.0
  0
LINE
  5
480
  8
LAYER_1
 10
17.02701769346113
 20
12.23194829491378
 30
0.0
 11
17.16605440653193
 21
11.55468328087388
 31
0.0
  0
LINE
  5
481
  8
LAYER_1
 10
17.16605440653193
 20
11.55468328087388
 30
0.0
 11
17.27576394602967
 21
10.91808110017372
 31
0.0
  0
LINE
  5
482
  8
LAYER_1
 10
17.27576394602967
 20
10.91808110017372
 30
0.0
 11
17.03539899882551
 21
10.49780810641188
 31
0.0
  0
LINE
  5
483
  8
LAYER_1
 10
17.03539899882551
 20
10.49780810641188
 30
0.0
 11
16.42997607671352
 21
10.2826085667298
 31
0.0
  0
LINE
  5
484
  8
LAYER_1
 10
16.42997607671352
 20
10.2826085667298
 30
0.0
 11
15.44451463004922
 21
10.2612238560627
 31
0.0
  0
LINE
  5
485
  8
LAYER_1
 10
15.44451463004922
 20
10.2612238560627
 30
0.0
 11
14.1998665080757
 21
10.33690000961053
 31
0.0
  0
LINE
  5
486
  8
LAYER_1
 10
14.1998665080757
 20
10.33690000961053
 30
0.0
 11
15.54072156453904
 21
12.31895817987641
 31
0.0
  0
LINE
  5
487
  8
LAYER_1
 10
15.54072156453904
 20
12.31895817987641
 30
0.0
 11
16.62674595148495
 21
14.07494513383357
 31
0.0
  0
LINE
  5
488
  8
LAYER_1
 10
16.62674595148495
 20
14.07494513383357
 30
0.0
 11
16.62230276376859
 21
14.39933570365477
 31
0.0
  0
LINE
  5
489
  8
LAYER_1
 10
16.62230276376859
 20
14.39933570365477
 30
0.0
 11
16.34477812767421
 21
14.61731905770201
 31
0.0
  0
LINE
  5
48A
  8
LAYER_1
 10
16.34477812767421
 20
14.61731905770201
 30
0.0
 11
15.58792685585637
 21
14.80113653470763
 31
0.0
  0
LINE
  5
48B
  8
LAYER_1
 10
15.58792685585637
 20
14.80113653470763
 30
0.0
 11
14.52206293205641
 21
14.79891172420856
 31
0.0
  0
LINE
  5
48C
  8
LAYER_1
 10
14.52206293205641
 20
14.79891172420856
 30
0.0
 11
13.7034557465365
 21
14.75348602213175
 31
0.0
  0
LINE
  5
48D
  8
LAYER_1
 10
13.7034557465365
 20
14.75348602213175
 30
0.0
 11
13.95581229484393
 21
14.9126829068009
 31
0.0
  0
LINE
  5
48E
  8
LAYER_1
 10
13.95581229484393
 20
14.9126829068009
 30
0.0
 11
14.55197740381129
 21
15.1848373575599
 31
0.0
  0
LINE
  5
48F
  8
LAYER_1
 10
14.55197740381129
 20
15.1848373575599
 30
0.0
 11
14.82358884330549
 21
15.47548015344497
 31
0.0
  0
LINE
  5
490
  8
LAYER_1
 10
14.82358884330549
 20
15.47548015344497
 30
0.0
 11
14.76934364446235
 21
15.78103691099333
 31
0.0
  0
LINE
  5
491
  8
LAYER_1
 10
14.76934364446235
 20
15.78103691099333
 30
0.0
 11
14.38794051517449
 21
16.09793806218472
 31
0.0
  0
LINE
  5
492
  8
LAYER_1
 10
14.38794051517449
 20
16.09793806218472
 30
0.0
 11
13.84208077329087
 21
16.27844234903339
 31
0.0
  0
LINE
  5
493
  8
LAYER_1
 10
13.84208077329087
 20
16.27844234903339
 30
0.0
 11
13.5303853320949
 21
15.89340887644998
 31
0.0
  0
LINE
  5
494
  8
LAYER_1
 10
13.5303853320949
 20
15.89340887644998
 30
0.0
 11
13.34699424711807
 21
15.61744861964472
 31
0.0
  0
LINE
  5
495
  8
LAYER_1
 10
13.34699424711807
 20
15.61744861964472
 30
0.0
 11
13.03388882489251
 21
15.45860914465518
 31
0.0
  0
LINE
  5
496
  8
LAYER_1
 10
13.03388882489251
 20
15.45860914465518
 30
0.0
 11
11.76790488024314
 21
15.42580180744177
 31
0.0
  0
LINE
  5
497
  8
LAYER_1
 10
11.76790488024314
 20
15.42580180744177
 30
0.0
 11
10.61428728202465
 21
15.58921713562607
 31
0.0
  0
LINE
  5
498
  8
LAYER_1
 10
10.61428728202465
 20
15.58921713562607
 30
0.0
 11
10.30879074184599
 21
15.73136593897971
 31
0.0
  0
LINE
  5
499
  8
LAYER_1
 10
10.30879074184599
 20
15.73136593897971
 30
0.0
 11
10.18184594994104
 21
15.92758083187575
 31
0.0
  0
LINE
  5
49A
  8
LAYER_1
 10
10.18184594994104
 20
15.92758083187575
 30
0.0
 11
10.45663823025645
 21
16.52352381471896
 31
0.0
  0
LINE
  5
49B
  8
LAYER_1
 10
10.45663823025645
 20
16.52352381471896
 30
0.0
 11
11.42472233079101
 21
17.45967649502126
 31
0.0
  0
LINE
  5
49C
  8
LAYER_1
 10
11.42472233079101
 20
17.45967649502126
 30
0.0
 11
13.02005708507544
 21
19.02283929985933
 31
0.0
  0
LINE
  5
49D
  8
LAYER_1
 10
13.02005708507544
 20
19.02283929985933
 30
0.0
 11
13.07564564926524
 21
19.34327786600161
 31
0.0
  0
LINE
  5
49E
  8
LAYER_1
 10
13.07564564926524
 20
19.34327786600161
 30
0.0
 11
12.84908414238181
 21
19.60429490320552
 31
0.0
  0
LINE
  5
49F
  8
LAYER_1
 10
12.84908414238181
 20
19.60429490320552
 30
0.0
 11
11.63407716819033
 21
19.89486283440937
 31
0.0
  0
LINE
  5
4A0
  8
LAYER_1
 10
11.63407716819033
 20
19.89486283440937
 30
0.0
 11
11.15697950080186
 21
19.96095328056067
 31
0.0
  0
LINE
  5
4A1
  8
LAYER_1
 10
11.15697950080186
 20
19.96095328056067
 30
0.0
 11
10.79831332553491
 21
20.13752727844647
 31
0.0
  0
LINE
  5
4A2
  8
LAYER_1
 10
10.79831332553491
 20
20.13752727844647
 30
0.0
 11
10.02758775535008
 21
21.13850866139436
 31
0.0
  0
LINE
  5
4A3
  8
LAYER_1
 10
10.02758775535008
 20
21.13850866139436
 30
0.0
 11
9.272909723915895
 21
22.32657859866894
 31
0.0
  0
LINE
  5
4A4
  8
LAYER_1
 10
9.272909723915895
 20
22.32657859866894
 30
0.0
 11
10.34038403834132
 21
22.22528078779938
 31
0.0
  0
LINE
  5
4A5
  8
LAYER_1
 10
10.34038403834132
 20
22.22528078779938
 30
0.0
 11
12.33843655496224
 21
22.14309060754164
 31
0.0
  0
LINE
  5
4A6
  8
LAYER_1
 10
12.33843655496224
 20
22.14309060754164
 30
0.0
 11
13.13986052285877
 21
22.07365003919015
 31
0.0
  0
LINE
  5
4A7
  8
LAYER_1
 10
13.13986052285877
 20
22.07365003919015
 30
0.0
 11
13.31310941103205
 21
21.57351194526337
 31
0.0
  0
LINE
  5
4A8
  8
LAYER_1
 10
13.31310941103205
 20
21.57351194526337
 30
0.0
 11
13.48235288140324
 21
19.25147880422732
 31
0.0
  0
LINE
  5
4A9
  8
LAYER_1
 10
13.48235288140324
 20
19.25147880422732
 30
0.0
 11
13.60750575920056
 21
17.51813884852935
 31
0.0
  0
LINE
  5
4AA
  8
LAYER_1
 10
13.60750575920056
 20
17.51813884852935
 30
0.0
 11
15.63408961188753
 21
16.40297774531673
 31
0.0
  0
LINE
  5
4AB
  8
LAYER_1
 10
15.63408961188753
 20
16.40297774531673
 30
0.0
 11
17.66067295691196
 21
15.28781578054811
 31
0.0
  0
LINE
  5
4AC
  8
LAYER_1
 10
17.66067295691196
 20
15.28781578054811
 30
0.0
 11
18.3067609430794
 21
13.01143944622307
 31
0.0
  0
LINE
  5
4AD
  8
LAYER_1
 10
18.3067609430794
 20
13.01143944622307
 30
0.0
 11
18.83006771392316
 21
11.39657951809492
 31
0.0
  0
LINE
  5
4AE
  8
LAYER_1
 10
18.83006771392316
 20
11.39657951809492
 30
0.0
 11
19.18095892614133
 21
10.71065622062131
 31
0.0
  0
LINE
  5
4AF
  8
LAYER_1
 10
19.18095892614133
 20
10.71065622062131
 30
0.0
 11
21.11790333412519
 21
10.60310065300598
 31
0.0
  0
LINE
  5
4B0
  8
LAYER_1
 10
21.11790333412519
 20
10.60310065300598
 30
0.0
 11
22.82673520690179
 21
10.5199476688874
 31
0.0
  0
LINE
  5
4B1
  8
LAYER_1
 10
22.82673520690179
 20
10.5199476688874
 30
0.0
 11
23.12968235116609
 21
9.443533684623398
 31
0.0
  0
LINE
  5
4B2
  8
LAYER_1
 10
23.12968235116609
 20
9.443533684623398
 30
0.0
 11
23.33656279481264
 21
7.412720289739069
 31
0.0
  0
LINE
  5
4B3
  8
LAYER_1
 10
23.33656279481264
 20
7.412720289739069
 30
0.0
 11
23.20980936242741
 21
5.740477234283447
 31
0.0
  0
LINE
  5
4B4
  8
LAYER_1
 10
23.20980936242741
 20
5.740477234283447
 30
0.0
 11
22.692823762106
 21
5.963211718349815
 31
0.0
  0
LINE
  5
4B5
  8
LAYER_1
 10
22.692823762106
 20
5.963211718349815
 30
0.0
 11
22.692823762106
 21
5.963211718349815
 31
0.0
  0
LINE
  5
4B6
  8
LAYER_1
 10
30.55410872171488
 20
21.64054330064139
 30
0.0
 11
30.08811037614925
 21
22.02117080722766
 31
0.0
  0
LINE
  5
4B7
  8
LAYER_1
 10
30.08811037614925
 20
22.02117080722766
 30
0.0
 11
29.8897814888682
 21
22.39298778876544
 31
0.0
  0
LINE
  5
4B8
  8
LAYER_1
 10
29.8897814888682
 20
22.39298778876544
 30
0.0
 11
29.25669956407116
 21
23.59400895623972
 31
0.0
  0
LINE
  5
4B9
  8
LAYER_1
 10
29.25669956407116
 20
23.59400895623972
 30
0.0
 11
28.83878901252456
 21
24.40958744691429
 31
0.0
  0
LINE
  5
4BA
  8
LAYER_1
 10
28.83878901252456
 20
24.40958744691429
 30
0.0
 11
28.71219902635011
 21
25.19721819857039
 31
0.0
  0
LINE
  5
4BB
  8
LAYER_1
 10
28.71219902635011
 20
25.19721819857039
 30
0.0
 11
28.90217889657339
 21
25.83799876006547
 31
0.0
  0
LINE
  5
4BC
  8
LAYER_1
 10
28.90217889657339
 20
25.83799876006547
 30
0.0
 11
29.46712057150876
 21
26.04253597861071
 31
0.0
  0
LINE
  5
4BD
  8
LAYER_1
 10
29.46712057150876
 20
26.04253597861071
 30
0.0
 11
30.02081176583674
 21
26.044937116183
 31
0.0
  0
LINE
  5
4BE
  8
LAYER_1
 10
30.02081176583674
 20
26.044937116183
 30
0.0
 11
30.3230130315806
 21
25.85906032207516
 31
0.0
  0
LINE
  5
4BF
  8
LAYER_1
 10
30.3230130315806
 20
25.85906032207516
 30
0.0
 11
30.40603641664109
 21
25.43362672756468
 31
0.0
  0
LINE
  5
4C0
  8
LAYER_1
 10
30.40603641664109
 20
25.43362672756468
 30
0.0
 11
30.30219721501861
 21
24.71735903327197
 31
0.0
  0
LINE
  5
4C1
  8
LAYER_1
 10
30.30219721501861
 20
24.71735903327197
 30
0.0
 11
30.21967173999612
 21
24.15066701361728
 31
0.0
  0
LINE
  5
4C2
  8
LAYER_1
 10
30.21967173999612
 20
24.15066701361728
 30
0.0
 11
30.30168811290939
 21
23.72513966125183
 31
0.0
  0
LINE
  5
4C3
  8
LAYER_1
 10
30.30168811290939
 20
23.72513966125183
 30
0.0
 11
31.2024596810645
 21
22.77232986188714
 31
0.0
  0
LINE
  5
4C4
  8
LAYER_1
 10
31.2024596810645
 20
22.77232986188714
 30
0.0
 11
32.05211527176775
 21
21.93246068187235
 31
0.0
  0
LINE
  5
4C5
  8
LAYER_1
 10
32.05211527176775
 20
21.93246068187235
 30
0.0
 11
32.03057189820321
 21
21.72321573772923
 31
0.0
  0
LINE
  5
4C6
  8
LAYER_1
 10
32.03057189820321
 20
21.72321573772923
 30
0.0
 11
31.76299316814472
 21
21.54121677348962
 31
0.0
  0
LINE
  5
4C7
  8
LAYER_1
 10
31.76299316814472
 20
21.54121677348962
 30
0.0
 11
31.1810896073959
 21
21.44518546152393
 31
0.0
  0
LINE
  5
4C8
  8
LAYER_1
 10
31.1810896073959
 20
21.44518546152393
 30
0.0
 11
30.55410872171488
 21
21.64054330064139
 31
0.0
  0
LINE
  5
4C9
  8
LAYER_1
 10
30.55410872171488
 20
21.64054330064139
 30
0.0
 11
30.55410872171488
 21
21.64054330064139
 31
0.0
  0
LINE
  5
4CA
  8
LAYER_1
 10
26.91841558936145
 20
15.59351818150066
 30
0.0
 11
26.62182239416238
 21
16.120362938722
 31
0.0
  0
LINE
  5
4CB
  8
LAYER_1
 10
26.62182239416238
 20
16.120362938722
 30
0.0
 11
26.38778462789954
 21
17.10475770277385
 31
0.0
  0
LINE
  5
4CC
  8
LAYER_1
 10
26.38778462789954
 20
17.10475770277385
 30
0.0
 11
26.15342006648976
 21
18.02798279396462
 31
0.0
  0
LINE
  5
4CD
  8
LAYER_1
 10
26.15342006648976
 20
18.02798279396462
 30
0.0
 11
25.85604213503349
 21
18.4077592009198
 31
0.0
  0
LINE
  5
4CE
  8
LAYER_1
 10
25.85604213503349
 20
18.4077592009198
 30
0.0
 11
24.10358005038062
 21
17.25909024672885
 31
0.0
  0
LINE
  5
4CF
  8
LAYER_1
 10
24.10358005038062
 20
17.25909024672885
 30
0.0
 11
23.04825874423761
 21
16.48792169217699
 31
0.0
  0
LINE
  5
4D0
  8
LAYER_1
 10
23.04825874423761
 20
16.48792169217699
 30
0.0
 11
22.49129309645134
 21
16.23671527213957
 31
0.0
  0
LINE
  5
4D1
  8
LAYER_1
 10
22.49129309645134
 20
16.23671527213957
 30
0.0
 11
22.44338283238873
 21
16.59895318696552
 31
0.0
  0
LINE
  5
4D2
  8
LAYER_1
 10
22.44338283238873
 20
16.59895318696552
 30
0.0
 11
22.55721399755711
 21
17.32741330326936
 31
0.0
  0
LINE
  5
4D3
  8
LAYER_1
 10
22.55721399755711
 20
17.32741330326936
 30
0.0
 11
23.03506101975816
 21
18.7825688223664
 31
0.0
  0
LINE
  5
4D4
  8
LAYER_1
 10
23.03506101975816
 20
18.7825688223664
 30
0.0
 11
23.07261353224641
 21
19.11385895024048
 31
0.0
  0
LINE
  5
4D5
  8
LAYER_1
 10
23.07261353224641
 20
19.11385895024048
 30
0.0
 11
22.79804519086952
 21
19.30281714483005
 31
0.0
  0
LINE
  5
4D6
  8
LAYER_1
 10
22.79804519086952
 20
19.30281714483005
 30
0.0
 11
22.3177392468982
 21
19.32034164938265
 31
0.0
  0
LINE
  5
4D7
  8
LAYER_1
 10
22.3177392468982
 20
19.32034164938265
 30
0.0
 11
21.73807753602934
 21
19.13733618402002
 31
0.0
  0
LINE
  5
4D8
  8
LAYER_1
 10
21.73807753602934
 20
19.13733618402002
 30
0.0
 11
20.9427399000145
 21
18.95616877780321
 31
0.0
  0
LINE
  5
4D9
  8
LAYER_1
 10
20.9427399000145
 20
18.95616877780321
 30
0.0
 11
20.03696086156469
 21
19.32076852695689
 31
0.0
  0
LINE
  5
4DA
  8
LAYER_1
 10
20.03696086156469
 20
19.32076852695689
 30
0.0
 11
19.15910092403374
 21
19.99071060973282
 31
0.0
  0
LINE
  5
4DB
  8
LAYER_1
 10
19.15910092403374
 20
19.99071060973282
 30
0.0
 11
20.15003333158111
 21
20.72731360207834
 31
0.0
  0
LINE
  5
4DC
  8
LAYER_1
 10
20.15003333158111
 20
20.72731360207834
 30
0.0
 11
21.0165216562359
 21
21.13132254259937
 31
0.0
  0
LINE
  5
4DD
  8
LAYER_1
 10
21.0165216562359
 20
21.13132254259937
 30
0.0
 11
21.77391006056111
 21
21.1205191457857
 31
0.0
  0
LINE
  5
4DE
  8
LAYER_1
 10
21.77391006056111
 20
21.1205191457857
 30
0.0
 11
22.75455769455247
 21
20.81128784385276
 31
0.0
  0
LINE
  5
4DF
  8
LAYER_1
 10
22.75455769455247
 20
20.81128784385276
 30
0.0
 11
23.05591130306865
 21
20.46848140499218
 31
0.0
  0
LINE
  5
4E0
  8
LAYER_1
 10
23.05591130306865
 20
20.46848140499218
 30
0.0
 11
23.3859477283846
 21
19.75545040264959
 31
0.0
  0
LINE
  5
4E1
  8
LAYER_1
 10
23.3859477283846
 20
19.75545040264959
 30
0.0
 11
23.94325479147676
 21
18.65689043367311
 31
0.0
  0
LINE
  5
4E2
  8
LAYER_1
 10
23.94325479147676
 20
18.65689043367311
 30
0.0
 11
24.95182133976805
 21
18.85352017316787
 31
0.0
  0
LINE
  5
4E3
  8
LAYER_1
 10
24.95182133976805
 20
18.85352017316787
 30
0.0
 11
26.09121394338047
 21
19.40492489259938
 31
0.0
  0
LINE
  5
4E4
  8
LAYER_1
 10
26.09121394338047
 20
19.40492489259938
 30
0.0
 11
26.54378341164036
 21
19.30138946086244
 31
0.0
  0
LINE
  5
4E5
  8
LAYER_1
 10
26.54378341164036
 20
19.30138946086244
 30
0.0
 11
27.19639714473456
 21
18.72378387599951
 31
0.0
  0
LINE
  5
4E6
  8
LAYER_1
 10
27.19639714473456
 20
18.72378387599951
 30
0.0
 11
27.78247871609668
 21
17.96064523943619
 31
0.0
  0
LINE
  5
4E7
  8
LAYER_1
 10
27.78247871609668
 20
17.96064523943619
 30
0.0
 11
28.035451499036
 21
17.30051425259121
 31
0.0
  0
LINE
  5
4E8
  8
LAYER_1
 10
28.035451499036
 20
17.30051425259121
 30
0.0
 11
27.9153615249644
 21
16.6413593970986
 31
0.0
  0
LINE
  5
4E9
  8
LAYER_1
 10
27.9153615249644
 20
16.6413593970986
 30
0.0
 11
27.62516920781113
 21
16.03935531316792
 31
0.0
  0
LINE
  5
4EA
  8
LAYER_1
 10
27.62516920781113
 20
16.03935531316792
 30
0.0
 11
27.26085858963138
 21
15.64118137731389
 31
0.0
  0
LINE
  5
4EB
  8
LAYER_1
 10
27.26085858963138
 20
15.64118137731389
 30
0.0
 11
26.91841558936145
 21
15.59351818150066
 31
0.0
  0
LINE
  5
4EC
  8
LAYER_1
 10
26.91841558936145
 20
15.59351818150066
 30
0.0
 11
26.91841558936145
 21
15.59351818150066
 31
0.0
  0
LINE
  5
4ED
  8
LAYER_1
 10
17.51794570033376
 20
3.905956936863492
 30
0.0
 11
17.16401195583044
 21
4.707968544714563
 31
0.0
  0
LINE
  5
4EE
  8
LAYER_1
 10
17.16401195583044
 20
4.707968544714563
 30
0.0
 11
16.7009109862238
 21
5.182395074496983
 31
0.0
  0
LINE
  5
4EF
  8
LAYER_1
 10
16.7009109862238
 20
5.182395074496983
 30
0.0
 11
15.9726154965438
 21
5.422859245426404
 31
0.0
  0
LINE
  5
4F0
  8
LAYER_1
 10
15.9726154965438
 20
5.422859245426404
 30
0.0
 11
14.82309956103895
 21
5.522984130611907
 31
0.0
  0
LINE
  5
4F1
  8
LAYER_1
 10
14.82309956103895
 20
5.522984130611907
 30
0.0
 11
13.22722504364536
 21
5.644404831214203
 31
0.0
  0
LINE
  5
4F2
  8
LAYER_1
 10
13.22722504364536
 20
5.644404831214203
 30
0.0
 11
14.15236347925817
 21
6.905401059315174
 31
0.0
  0
LINE
  5
4F3
  8
LAYER_1
 10
14.15236347925817
 20
6.905401059315174
 30
0.0
 11
14.91904584733816
 21
7.887259553299034
 31
0.0
  0
LINE
  5
4F4
  8
LAYER_1
 10
14.91904584733816
 20
7.887259553299034
 30
0.0
 11
15.22290292967019
 21
8.529473339946961
 31
0.0
  0
LINE
  5
4F5
  8
LAYER_1
 10
15.22290292967019
 20
8.529473339946961
 30
0.0
 11
15.07849334037964
 21
8.926963860570956
 31
0.0
  0
LINE
  5
4F6
  8
LAYER_1
 10
15.07849334037964
 20
8.926963860570956
 30
0.0
 11
14.50037315527914
 21
9.174648248703049
 31
0.0
  0
LINE
  5
4F7
  8
LAYER_1
 10
14.50037315527914
 20
9.174648248703049
 30
0.0
 11
13.06867504915512
 21
9.414685480883557
 31
0.0
  0
LINE
  5
4F8
  8
LAYER_1
 10
13.06867504915512
 20
9.414685480883557
 30
0.0
 11
9.385652263119432
 21
10.01871790037104
 31
0.0
  0
LINE
  5
4F9
  8
LAYER_1
 10
9.385652263119432
 20
10.01871790037104
 30
0.0
 11
8.7061685651584
 21
10.19883901855879
 31
0.0
  0
LINE
  5
4FA
  8
LAYER_1
 10
8.7061685651584
 20
10.19883901855879
 30
0.0
 11
9.96226028822548
 21
11.94776918439029
 31
0.0
  0
LINE
  5
4FB
  8
LAYER_1
 10
9.96226028822548
 20
11.94776918439029
 30
0.0
 11
10.72817192852658
 21
13.08033206723092
 31
0.0
  0
LINE
  5
4FC
  8
LAYER_1
 10
10.72817192852658
 20
13.08033206723092
 30
0.0
 11
10.89915236719043
 21
13.67124274176584
 31
0.0
  0
LINE
  5
4FD
  8
LAYER_1
 10
10.89915236719043
 20
13.67124274176584
 30
0.0
 11
10.41615179745624
 21
13.86992779951918
 31
0.0
  0
LINE
  5
4FE
  8
LAYER_1
 10
10.41615179745624
 20
13.86992779951918
 30
0.0
 11
9.220122797106903
 21
13.82581590902049
 31
0.0
  0
LINE
  5
4FF
  8
LAYER_1
 10
9.220122797106903
 20
13.82581590902049
 30
0.0
 11
8.655950140065883
 21
13.81275736330196
 31
0.0
  0
LINE
  5
500
  8
LAYER_1
 10
8.655950140065883
 20
13.81275736330196
 30
0.0
 11
8.219688986300703
 21
13.96554308136641
 31
0.0
  0
LINE
  5
501
  8
LAYER_1
 10
8.219688986300703
 20
13.96554308136641
 30
0.0
 11
6.88602146878376
 21
15.30354556130814
 31
0.0
  0
LINE
  5
502
  8
LAYER_1
 10
6.88602146878376
 20
15.30354556130814
 30
0.0
 11
5.568707008869183
 21
16.98912749853129
 31
0.0
  0
LINE
  5
503
  8
LAYER_1
 10
5.568707008869183
 20
16.98912749853129
 30
0.0
 11
5.627508474203836
 21
17.25184483713782
 31
0.0
  0
LINE
  5
504
  8
LAYER_1
 10
5.627508474203836
 20
17.25184483713782
 30
0.0
 11
6.132354354624681
 21
17.20943279546212
 31
0.0
  0
LINE
  5
505
  8
LAYER_1
 10
6.132354354624681
 20
17.20943279546212
 30
0.0
 11
6.846293313781665
 21
17.14648032882383
 31
0.0
  0
LINE
  5
506
  8
LAYER_1
 10
6.846293313781665
 20
17.14648032882383
 30
0.0
 11
7.617749983516127
 21
17.23935918716202
 31
0.0
  0
LINE
  5
507
  8
LAYER_1
 10
7.617749983516127
 20
17.23935918716202
 30
0.0
 11
8.280168729843965
 21
17.45252212601035
 31
0.0
  0
LINE
  5
508
  8
LAYER_1
 10
8.280168729843965
 20
17.45252212601035
 30
0.0
 11
8.666998226561034
 21
17.75041936258971
 31
0.0
  0
LINE
  5
509
  8
LAYER_1
 10
8.666998226561034
 20
17.75041936258971
 30
0.0
 11
8.631246132166325
 21
18.08324392805986
 31
0.0
  0
LINE
  5
50A
  8
LAYER_1
 10
8.631246132166325
 20
18.08324392805986
 30
0.0
 11
7.98111842831095
 21
18.39316747554333
 31
0.0
  0
LINE
  5
50B
  8
LAYER_1
 10
7.98111842831095
 20
18.39316747554333
 30
0.0
 11
7.322689853240483
 21
18.66461533632634
 31
0.0
  0
LINE
  5
50C
  8
LAYER_1
 10
7.322689853240483
 20
18.66461533632634
 30
0.0
 11
7.804514226182917
 21
18.78835634583666
 31
0.0
  0
LINE
  5
50D
  8
LAYER_1
 10
7.804514226182917
 20
18.78835634583666
 30
0.0
 11
8.573935299201402
 21
18.78001879535192
 31
0.0
  0
LINE
  5
50E
  8
LAYER_1
 10
8.573935299201402
 20
18.78001879535192
 30
0.0
 11
9.064597141852488
 21
18.45360049441853
 31
0.0
  0
LINE
  5
50F
  8
LAYER_1
 10
9.064597141852488
 20
18.45360049441853
 30
0.0
 11
9.336620054408826
 21
17.7260147654454
 31
0.0
  0
LINE
  5
510
  8
LAYER_1
 10
9.336620054408826
 20
17.7260147654454
 30
0.0
 11
9.450127429473604
 21
16.51417426940976
 31
0.0
  0
LINE
  5
511
  8
LAYER_1
 10
9.450127429473604
 20
16.51417426940976
 30
0.0
 11
9.507749049265904
 21
15.43467816646889
 31
0.0
  0
LINE
  5
512
  8
LAYER_1
 10
9.507749049265904
 20
15.43467816646889
 30
0.0
 11
9.643279262073875
 21
14.83025475444945
 31
0.0
  0
LINE
  5
513
  8
LAYER_1
 10
9.643279262073875
 20
14.83025475444945
 30
0.0
 11
9.952901806439911
 21
14.49866078578551
 31
0.0
  0
LINE
  5
514
  8
LAYER_1
 10
9.952901806439911
 20
14.49866078578551
 30
0.0
 11
10.53280062103075
 21
14.23764941291808
 31
0.0
  0
LINE
  5
515
  8
LAYER_1
 10
10.53280062103075
 20
14.23764941291808
 30
0.0
 11
11.95113451668519
 21
13.77206271905893
 31
0.0
  0
LINE
  5
516
  8
LAYER_1
 10
11.95113451668519
 20
13.77206271905893
 30
0.0
 11
12.37478615314378
 21
13.18165991909948
 31
0.0
  0
LINE
  5
517
  8
LAYER_1
 10
12.37478615314378
 20
13.18165991909948
 30
0.0
 11
12.82656554932724
 21
11.82354565932856
 31
0.0
  0
LINE
  5
518
  8
LAYER_1
 10
12.82656554932724
 20
11.82354565932856
 30
0.0
 11
13.29749499413246
 21
9.942826060608846
 31
0.0
  0
LINE
  5
519
  8
LAYER_1
 10
13.29749499413246
 20
9.942826060608846
 30
0.0
 11
15.12070251735891
 21
9.494712195561673
 31
0.0
  0
LINE
  5
51A
  8
LAYER_1
 10
15.12070251735891
 20
9.494712195561673
 30
0.0
 11
16.94391004058534
 21
9.046598330514502
 31
0.0
  0
LINE
  5
51B
  8
LAYER_1
 10
16.94391004058534
 20
9.046598330514502
 30
0.0
 11
17.37590189602808
 21
7.472943110312778
 31
0.0
  0
LINE
  5
51C
  8
LAYER_1
 10
17.37590189602808
 20
7.472943110312778
 30
0.0
 11
17.85304939640409
 21
6.191551157465436
 31
0.0
  0
LINE
  5
51D
  8
LAYER_1
 10
17.85304939640409
 20
6.191551157465436
 30
0.0
 11
18.12225520062429
 21
5.876042116062254
 31
0.0
  0
LINE
  5
51E
  8
LAYER_1
 10
18.12225520062429
 20
5.876042116062254
 30
0.0
 11
18.4536222003084
 21
5.70900640615162
 31
0.0
  0
LINE
  5
51F
  8
LAYER_1
 10
18.4536222003084
 20
5.70900640615162
 30
0.0
 11
18.81999413520131
 21
5.516673797458168
 31
0.0
  0
LINE
  5
520
  8
LAYER_1
 10
18.81999413520131
 20
5.516673797458168
 30
0.0
 11
18.90808000249702
 21
5.153452023975681
 31
0.0
  0
LINE
  5
521
  8
LAYER_1
 10
18.90808000249702
 20
5.153452023975681
 30
0.0
 11
18.19380211331999
 21
3.425823323994754
 31
0.0
  0
LINE
  5
522
  8
LAYER_1
 10
18.19380211331999
 20
3.425823323994754
 30
0.0
 11
17.89513089520636
 21
2.835651808783692
 31
0.0
  0
LINE
  5
523
  8
LAYER_1
 10
17.89513089520636
 20
2.835651808783692
 30
0.0
 11
17.51794570033376
 21
3.905956936863492
 31
0.0
  0
LINE
  5
524
  8
LAYER_1
 10
17.51794570033376
 20
3.905956936863492
 30
0.0
 11
17.51794570033376
 21
3.905956936863492
 31
0.0
  0
LINE
  5
525
  8
LAYER_1
 10
26.05398506918071
 20
20.89226374621776
 30
0.0
 11
24.5106608350159
 21
19.96041592259815
 31
0.0
  0
LINE
  5
526
  8
LAYER_1
 10
24.5106608350159
 20
19.96041592259815
 30
0.0
 11
24.03609869633696
 21
20.76092039521556
 31
0.0
  0
LINE
  5
527
  8
LAYER_1
 10
24.03609869633696
 20
20.76092039521556
 30
0.0
 11
23.54444227595357
 21
21.40208540044962
 31
0.0
  0
LINE
  5
528
  8
LAYER_1
 10
23.54444227595357
 20
21.40208540044962
 30
0.0
 11
22.61176859042716
 21
21.72572832844216
 31
0.0
  0
LINE
  5
529
  8
LAYER_1
 10
22.61176859042716
 20
21.72572832844216
 30
0.0
 11
21.88441158877722
 21
21.96230716254996
 31
0.0
  0
LINE
  5
52A
  8
LAYER_1
 10
21.88441158877722
 20
21.96230716254996
 30
0.0
 11
21.55086372872057
 21
22.31417838186838
 31
0.0
  0
LINE
  5
52B
  8
LAYER_1
 10
21.55086372872057
 20
22.31417838186838
 30
0.0
 11
21.58777191610971
 21
22.85133336453599
 31
0.0
  0
LINE
  5
52C
  8
LAYER_1
 10
21.58777191610971
 20
22.85133336453599
 30
0.0
 11
21.97178391835313
 21
23.64376298102884
 31
0.0
  0
LINE
  5
52D
  8
LAYER_1
 10
21.97178391835313
 20
23.64376298102884
 30
0.0
 11
22.2348785397039
 21
24.44721942154587
 31
0.0
  0
LINE
  5
52E
  8
LAYER_1
 10
22.2348785397039
 20
24.44721942154587
 30
0.0
 11
22.07363499228411
 21
25.31524809953726
 31
0.0
  0
LINE
  5
52F
  8
LAYER_1
 10
22.07363499228411
 20
25.31524809953726
 30
0.0
 11
21.89546837020713
 21
26.14178233151297
 31
0.0
  0
LINE
  5
530
  8
LAYER_1
 10
21.89546837020713
 20
26.14178233151297
 30
0.0
 11
22.32736329159539
 21
26.71872001693839
 31
0.0
  0
LINE
  5
531
  8
LAYER_1
 10
22.32736329159539
 20
26.71872001693839
 30
0.0
 11
22.88047864796003
 21
27.07503121175776
 31
0.0
  0
LINE
  5
532
  8
LAYER_1
 10
22.88047864796003
 20
27.07503121175776
 30
0.0
 11
23.27959982788408
 21
27.12283904192227
 31
0.0
  0
LINE
  5
533
  8
LAYER_1
 10
23.27959982788408
 20
27.12283904192227
 30
0.0
 11
23.4769233011586
 21
26.87794057958353
 31
0.0
  0
LINE
  5
534
  8
LAYER_1
 10
23.4769233011586
 20
26.87794057958353
 30
0.0
 11
23.42464502991211
 21
26.35613203533719
 31
0.0
  0
LINE
  5
535
  8
LAYER_1
 10
23.42464502991211
 20
26.35613203533719
 30
0.0
 11
23.29681793343431
 21
25.85688071273199
 31
0.0
  0
LINE
  5
536
  8
LAYER_1
 10
23.29681793343431
 20
25.85688071273199
 30
0.0
 11
23.35892413649712
 21
25.61356745747629
 31
0.0
  0
LINE
  5
537
  8
LAYER_1
 10
23.35892413649712
 20
25.61356745747629
 30
0.0
 11
24.42749486371818
 21
25.61970246915171
 31
0.0
  0
LINE
  5
538
  8
LAYER_1
 10
24.42749486371818
 20
25.61970246915171
 30
0.0
 11
25.3745979804307
 21
25.5187818242398
 31
0.0
  0
LINE
  5
539
  8
LAYER_1
 10
25.3745979804307
 20
25.5187818242398
 30
0.0
 11
26.21788692092038
 21
25.04787776302903
 31
0.0
  0
LINE
  5
53A
  8
LAYER_1
 10
26.21788692092038
 20
25.04787776302903
 30
0.0
 11
26.89187874928632
 21
24.26126213173637
 31
0.0
  0
LINE
  5
53B
  8
LAYER_1
 10
26.89187874928632
 20
24.26126213173637
 30
0.0
 11
27.33109103729019
 21
23.21320763813482
 31
0.0
  0
LINE
  5
53C
  8
LAYER_1
 10
27.33109103729019
 20
23.21320763813482
 30
0.0
 11
27.55034891112209
 21
22.00118193274211
 31
0.0
  0
LINE
  5
53D
  8
LAYER_1
 10
27.55034891112209
 20
22.00118193274211
 30
0.0
 11
26.05398506918071
 21
20.89226374621776
 31
0.0
  0
LINE
  5
53E
  8
LAYER_1
 10
26.05398506918071
 20
20.89226374621776
 30
0.0
 11
26.05398506918071
 21
20.89226374621776
 31
0.0
  0
LINE
  5
53F
  8
LAYER_1
 10
26.30036222623994
 20
23.84161997989375
 30
0.0
 11
25.78091867827575
 21
24.36174756386558
 31
0.0
  0
LINE
  5
540
  8
LAYER_1
 10
25.78091867827575
 20
24.36174756386558
 30
0.0
 11
25.15408593432561
 21
24.5409738850127
 31
0.0
  0
LINE
  5
541
  8
LAYER_1
 10
25.15408593432561
 20
24.5409738850127
 30
0.0
 11
24.55672980923303
 21
24.37753510087811
 31
0.0
  0
LINE
  5
542
  8
LAYER_1
 10
24.55672980923303
 20
24.37753510087811
 30
0.0
 11
24.12571596407248
 21
23.86966513823028
 31
0.0
  0
LINE
  5
543
  8
LAYER_1
 10
24.12571596407248
 20
23.86966513823028
 30
0.0
 11
24.02609238519113
 21
23.24406002035089
 31
0.0
  0
LINE
  5
544
  8
LAYER_1
 10
24.02609238519113
 20
23.24406002035089
 30
0.0
 11
24.28484046993686
 21
22.77787823307643
 31
0.0
  0
LINE
  5
545
  8
LAYER_1
 10
24.28484046993686
 20
22.77787823307643
 30
0.0
 11
24.82792059246037
 21
22.53645986557957
 31
0.0
  0
LINE
  5
546
  8
LAYER_1
 10
24.82792059246037
 20
22.53645986557957
 30
0.0
 11
25.58128901925674
 21
22.58514394535273
 31
0.0
  0
LINE
  5
547
  8
LAYER_1
 10
25.58128901925674
 20
22.58514394535273
 30
0.0
 11
26.18149115942431
 21
22.78912935087792
 31
0.0
  0
LINE
  5
548
  8
LAYER_1
 10
26.18149115942431
 20
22.78912935087792
 30
0.0
 11
26.48523257038008
 21
23.03827956406586
 31
0.0
  0
LINE
  5
549
  8
LAYER_1
 10
26.48523257038008
 20
23.03827956406586
 30
0.0
 11
26.51677012677307
 21
23.3749803303655
 31
0.0
  0
LINE
  5
54A
  8
LAYER_1
 10
26.51677012677307
 20
23.3749803303655
 30
0.0
 11
26.30036222623994
 21
23.84161997989375
 31
0.0
  0
LINE
  5
54B
  8
LAYER_1
 10
26.30036222623994
 20
23.84161997989375
 30
0.0
 11
26.30036222623994
 21
23.84161997989375
 31
0.0
  0
LINE
  5
54C
  8
LAYER_1
 10
12.26534887105999
 20
1.933289702114523
 30
0.0
 11
11.36734598480143
 21
1.730856473332091
 31
0.0
  0
LINE
  5
54D
  8
LAYER_1
 10
11.36734598480143
 20
1.730856473332091
 30
0.0
 11
12.25288344689408
 21
2.894864149107248
 31
0.0
  0
LINE
  5
54E
  8
LAYER_1
 10
12.25288344689408
 20
2.894864149107248
 30
0.0
 11
12.76208001248519
 21
3.6812297197188
 31
0.0
  0
LINE
  5
54F
  8
LAYER_1
 10
12.76208001248519
 20
3.6812297197188
 30
0.0
 11
12.8933277884169
 21
4.166152837374554
 31
0.0
  0
LINE
  5
550
  8
LAYER_1
 10
12.8933277884169
 20
4.166152837374554
 30
0.0
 11
12.654802978919
 21
4.302291538264456
 31
0.0
  0
LINE
  5
551
  8
LAYER_1
 10
12.654802978919
 20
4.302291538264456
 30
0.0
 11
12.05468264977725
 21
4.042303350915892
 31
0.0
  0
LINE
  5
552
  8
LAYER_1
 10
12.05468264977725
 20
4.042303350915892
 30
0.0
 11
11.59707517840322
 21
3.849247039253554
 31
0.0
  0
LINE
  5
553
  8
LAYER_1
 10
11.59707517840322
 20
3.849247039253554
 30
0.0
 11
11.26472581514901
 21
3.852631992062924
 31
0.0
  0
LINE
  5
554
  8
LAYER_1
 10
11.26472581514901
 20
3.852631992062924
 30
0.0
 11
11.23624750055996
 21
4.049728147119707
 31
0.0
  0
LINE
  5
555
  8
LAYER_1
 10
11.23624750055996
 20
4.049728147119707
 30
0.0
 11
11.59179884554859
 21
4.343108841940914
 31
0.0
  0
LINE
  5
556
  8
LAYER_1
 10
11.59179884554859
 20
4.343108841940914
 30
0.0
 11
12.01275186032356
 21
4.678125857026515
 31
0.0
  0
LINE
  5
557
  8
LAYER_1
 10
12.01275186032356
 20
4.678125857026515
 30
0.0
 11
12.07330252969279
 21
4.917562056029375
 31
0.0
  0
LINE
  5
558
  8
LAYER_1
 10
12.07330252969279
 20
4.917562056029375
 30
0.0
 11
11.79621043571702
 21
5.024963409564251
 31
0.0
  0
LINE
  5
559
  8
LAYER_1
 10
11.79621043571702
 20
5.024963409564251
 30
0.0
 11
11.20423429890101
 21
4.96387639590846
 31
0.0
  0
LINE
  5
55A
  8
LAYER_1
 10
11.20423429890101
 20
4.96387639590846
 30
0.0
 11
8.50994139560693
 21
4.834071269260054
 31
0.0
  0
LINE
  5
55B
  8
LAYER_1
 10
8.50994139560693
 20
4.834071269260054
 30
0.0
 11
7.170379031976417
 21
4.909615575634713
 31
0.0
  0
LINE
  5
55C
  8
LAYER_1
 10
7.170379031976417
 20
4.909615575634713
 30
0.0
 11
6.569159654217408
 21
5.063093196730013
 31
0.0
  0
LINE
  5
55D
  8
LAYER_1
 10
6.569159654217408
 20
5.063093196730013
 30
0.0
 11
7.755619680693968
 21
6.217446111264483
 31
0.0
  0
LINE
  5
55E
  8
LAYER_1
 10
7.755619680693968
 20
6.217446111264483
 30
0.0
 11
8.76905586129395
 21
7.072433373174821
 31
0.0
  0
LINE
  5
55F
  8
LAYER_1
 10
8.76905586129395
 20
7.072433373174821
 30
0.0
 11
9.274127241850152
 21
7.689087631987691
 31
0.0
  0
LINE
  5
560
  8
LAYER_1
 10
9.274127241850152
 20
7.689087631987691
 30
0.0
 11
9.309454008560365
 21
8.143984267682882
 31
0.0
  0
LINE
  5
561
  8
LAYER_1
 10
9.309454008560365
 20
8.143984267682882
 30
0.0
 11
8.913655639835483
 21
8.513701398677274
 31
0.0
  0
LINE
  5
562
  8
LAYER_1
 10
8.913655639835483
 20
8.513701398677274
 30
0.0
 11
8.133512173283485
 21
8.773095594389563
 31
0.0
  0
LINE
  5
563
  8
LAYER_1
 10
8.133512173283485
 20
8.773095594389563
 30
0.0
 11
7.156520614641146
 21
8.867211391690587
 31
0.0
  0
LINE
  5
564
  8
LAYER_1
 10
7.156520614641146
 20
8.867211391690587
 30
0.0
 11
6.407616577692359
 21
8.918606235389305
 31
0.0
  0
LINE
  5
565
  8
LAYER_1
 10
6.407616577692359
 20
8.918606235389305
 30
0.0
 11
6.175850704930987
 21
9.075286538947733
 31
0.0
  0
LINE
  5
566
  8
LAYER_1
 10
6.175850704930987
 20
9.075286538947733
 30
0.0
 11
5.942241344568096
 21
9.49732959438265
 31
0.0
  0
LINE
  5
567
  8
LAYER_1
 10
5.942241344568096
 20
9.49732959438265
 30
0.0
 11
5.188901073740212
 21
10.18672488525282
 31
0.0
  0
LINE
  5
568
  8
LAYER_1
 10
5.188901073740212
 20
10.18672488525282
 30
0.0
 11
3.824037039664681
 21
11.39936151849135
 31
0.0
  0
LINE
  5
569
  8
LAYER_1
 10
3.824037039664681
 20
11.39936151849135
 30
0.0
 11
3.625025571290848
 21
11.77018555337809
 31
0.0
  0
LINE
  5
56A
  8
LAYER_1
 10
3.625025571290848
 20
11.77018555337809
 30
0.0
 11
3.680891620945232
 21
12.06810339062859
 31
0.0
  0
LINE
  5
56B
  8
LAYER_1
 10
3.680891620945232
 20
12.06810339062859
 30
0.0
 11
3.927800498726462
 21
12.24404274870635
 31
0.0
  0
LINE
  5
56C
  8
LAYER_1
 10
3.927800498726462
 20
12.24404274870635
 30
0.0
 11
4.411389901138954
 21
12.3121378806787
 31
0.0
  0
LINE
  5
56D
  8
LAYER_1
 10
4.411389901138954
 20
12.3121378806787
 30
0.0
 11
6.172252042643471
 21
12.12676540110011
 31
0.0
  0
LINE
  5
56E
  8
LAYER_1
 10
6.172252042643471
 20
12.12676540110011
 30
0.0
 11
7.065010500428272
 21
11.97409391008853
 31
0.0
  0
LINE
  5
56F
  8
LAYER_1
 10
7.065010500428272
 20
11.97409391008853
 30
0.0
 11
6.534483412019036
 21
12.60252751134566
 31
0.0
  0
LINE
  5
570
  8
LAYER_1
 10
6.534483412019036
 20
12.60252751134566
 30
0.0
 11
6.198377930223138
 21
13.1118329655053
 31
0.0
  0
LINE
  5
571
  8
LAYER_1
 10
6.198377930223138
 20
13.1118329655053
 30
0.0
 11
6.135291164497922
 21
13.45384995618607
 31
0.0
  0
LINE
  5
572
  8
LAYER_1
 10
6.135291164497922
 20
13.45384995618607
 30
0.0
 11
6.399765757486762
 21
13.59081627473333
 31
0.0
  0
LINE
  5
573
  8
LAYER_1
 10
6.399765757486762
 20
13.59081627473333
 30
0.0
 11
6.748034864078598
 21
13.27412625615409
 31
0.0
  0
LINE
  5
574
  8
LAYER_1
 10
6.748034864078598
 20
13.27412625615409
 30
0.0
 11
7.641802197416013
 21
11.35521301431617
 31
0.0
  0
LINE
  5
575
  8
LAYER_1
 10
7.641802197416013
 20
11.35521301431617
 30
0.0
 11
8.141786672027756
 21
10.15430628097997
 31
0.0
  0
LINE
  5
576
  8
LAYER_1
 10
8.141786672027756
 20
10.15430628097997
 30
0.0
 11
8.697589979798671
 21
9.414390906437774
 31
0.0
  0
LINE
  5
577
  8
LAYER_1
 10
8.697589979798671
 20
9.414390906437774
 30
0.0
 11
9.527975129925856
 21
8.944543968815264
 31
0.0
  0
LINE
  5
578
  8
LAYER_1
 10
9.527975129925856
 20
8.944543968815264
 30
0.0
 11
10.85170959315548
 21
8.553842238699872
 31
0.0
  0
LINE
  5
579
  8
LAYER_1
 10
10.85170959315548
 20
8.553842238699872
 30
0.0
 11
11.34671327369627
 21
8.016956841436105
 31
0.0
  0
LINE
  5
57A
  8
LAYER_1
 10
11.34671327369627
 20
8.016956841436105
 30
0.0
 11
11.85391855407395
 21
6.730798849733293
 31
0.0
  0
LINE
  5
57B
  8
LAYER_1
 10
11.85391855407395
 20
6.730798849733293
 30
0.0
 11
12.36786132011176
 21
5.030993490468476
 31
0.0
  0
LINE
  5
57C
  8
LAYER_1
 10
12.36786132011176
 20
5.030993490468476
 30
0.0
 11
14.18250945397777
 21
4.68547456064608
 31
0.0
  0
LINE
  5
57D
  8
LAYER_1
 10
14.18250945397777
 20
4.68547456064608
 30
0.0
 11
16.19375103692977
 21
4.224052389503729
 31
0.0
  0
LINE
  5
57E
  8
LAYER_1
 10
16.19375103692977
 20
4.224052389503729
 30
0.0
 11
15.85049759219334
 21
3.821747627028093
 31
0.0
  0
LINE
  5
57F
  8
LAYER_1
 10
15.85049759219334
 20
3.821747627028093
 30
0.0
 11
14.72120946112895
 21
3.095846225689663
 31
0.0
  0
LINE
  5
580
  8
LAYER_1
 10
14.72120946112895
 20
3.095846225689663
 30
0.0
 11
13.34609264185372
 21
2.361358057524685
 31
0.0
  0
LINE
  5
581
  8
LAYER_1
 10
13.34609264185372
 20
2.361358057524685
 30
0.0
 11
12.26534887105999
 21
1.933289702114523
 31
0.0
  0
LINE
  5
582
  8
LAYER_1
 10
12.26534887105999
 20
1.933289702114523
 30
0.0
 11
12.26534887105999
 21
1.933289702114523
 31
0.0
  0
LINE
  5
583
  8
LAYER_1
 10
25.97848620332483
 20
27.71562401979385
 30
0.0
 11
25.31311898690088
 21
27.18553545585172
 31
0.0
  0
LINE
  5
584
  8
LAYER_1
 10
25.31311898690088
 20
27.18553545585172
 30
0.0
 11
25.18223253162353
 21
28.04644195147708
 31
0.0
  0
LINE
  5
585
  8
LAYER_1
 10
25.18223253162353
 20
28.04644195147708
 30
0.0
 11
25.17044097990569
 21
28.81124903700982
 31
0.0
  0
LINE
  5
586
  8
LAYER_1
 10
25.17044097990569
 20
28.81124903700982
 30
0.0
 11
25.72614402791173
 21
29.11813259809089
 31
0.0
  0
LINE
  5
587
  8
LAYER_1
 10
25.72614402791173
 20
29.11813259809089
 30
0.0
 11
26.55125870375284
 21
29.23399990956669
 31
0.0
  0
LINE
  5
588
  8
LAYER_1
 10
26.55125870375284
 20
29.23399990956669
 30
0.0
 11
26.87954814554396
 21
28.97665127793156
 31
0.0
  0
LINE
  5
589
  8
LAYER_1
 10
26.87954814554396
 20
28.97665127793156
 30
0.0
 11
26.69422188389716
 21
28.43941655413756
 31
0.0
  0
LINE
  5
58A
  8
LAYER_1
 10
26.69422188389716
 20
28.43941655413756
 30
0.0
 11
25.97848620332483
 21
27.71562401979385
 31
0.0
  0
LINE
  5
58B
  8
LAYER_1
 10
25.97848620332483
 20
27.71562401979385
 30
0.0
 11
25.97848620332483
 21
27.71562401979385
 31
0.0
  0
LINE
  5
58C
  8
LAYER_1
 10
19.4867953163266
 20
22.29757382061482
 30
0.0
 11
18.59041561013883
 21
22.56524117124753
 31
0.0
  0
LINE
  5
58D
  8
LAYER_1
 10
18.59041561013883
 20
22.56524117124753
 30
0.0
 11
17.77831996083718
 21
22.95777578662092
 31
0.0
  0
LINE
  5
58E
  8
LAYER_1
 10
17.77831996083718
 20
22.95777578662092
 30
0.0
 11
17.18756498090858
 21
23.39418872312779
 31
0.0
  0
LINE
  5
58F
  8
LAYER_1
 10
17.18756498090858
 20
23.39418872312779
 30
0.0
 11
16.95521052893959
 21
23.79349260650384
 31
0.0
  0
LINE
  5
590
  8
LAYER_1
 10
16.95521052893959
 20
23.79349260650384
 30
0.0
 11
17.52733229472552
 21
24.20209658083349
 31
0.0
  0
LINE
  5
591
  8
LAYER_1
 10
17.52733229472552
 20
24.20209658083349
 30
0.0
 11
18.94356159426673
 21
24.66920773792351
 31
0.0
  0
LINE
  5
592
  8
LAYER_1
 10
18.94356159426673
 20
24.66920773792351
 30
0.0
 11
20.9396889367458
 21
25.17651416845293
 31
0.0
  0
LINE
  5
593
  8
LAYER_1
 10
20.9396889367458
 20
25.17651416845293
 30
0.0
 11
21.07468697618488
 21
24.32363930713703
 31
0.0
  0
LINE
  5
594
  8
LAYER_1
 10
21.07468697618488
 20
24.32363930713703
 30
0.0
 11
21.05254955650634
 21
23.52192048058624
 31
0.0
  0
LINE
  5
595
  8
LAYER_1
 10
21.05254955650634
 20
23.52192048058624
 30
0.0
 11
20.80975251732303
 21
22.79203752572237
 31
0.0
  0
LINE
  5
596
  8
LAYER_1
 10
20.80975251732303
 20
22.79203752572237
 30
0.0
 11
20.3051134839529
 21
22.28605223575312
 31
0.0
  0
LINE
  5
597
  8
LAYER_1
 10
20.3051134839529
 20
22.28605223575312
 30
0.0
 11
19.4867953163266
 21
22.29757382061482
 31
0.0
  0
LINE
  5
598
  8
LAYER_1
 10
19.4867953163266
 20
22.29757382061482
 30
0.0
 11
19.4867953163266
 21
22.29757382061482
 31
0.0
  0
LINE
  5
599
  8
LAYER_1
 10
22.66491897452121
 20
28.82739853750084
 30
0.0
 11
22.57104926450671
 21
29.27337783435979
 31
0.0
  0
LINE
  5
59A
  8
LAYER_1
 10
22.57104926450671
 20
29.27337783435979
 30
0.0
 11
22.61818499150206
 21
29.56994701625437
 31
0.0
  0
LINE
  5
59B
  8
LAYER_1
 10
22.61818499150206
 20
29.56994701625437
 30
0.0
 11
23.37582730106511
 21
30.16816973626503
 31
0.0
  0
LINE
  5
59C
  8
LAYER_1
 10
23.37582730106511
 20
30.16816973626503
 30
0.0
 11
24.28571823108936
 21
30.73907452967686
 31
0.0
  0
LINE
  5
59D
  8
LAYER_1
 10
24.28571823108936
 20
30.73907452967686
 30
0.0
 11
24.07847308597215
 21
29.71468678706698
 31
0.0
  0
LINE
  5
59E
  8
LAYER_1
 10
24.07847308597215
 20
29.71468678706698
 30
0.0
 11
23.79766262623178
 21
28.86601293469176
 31
0.0
  0
LINE
  5
59F
  8
LAYER_1
 10
23.79766262623178
 20
28.86601293469176
 30
0.0
 11
23.36756475942826
 21
28.3739155883028
 31
0.0
  0
LINE
  5
5A0
  8
LAYER_1
 10
23.36756475942826
 20
28.3739155883028
 30
0.0
 11
22.90537665589346
 21
28.20540024153608
 31
0.0
  0
LINE
  5
5A1
  8
LAYER_1
 10
22.90537665589346
 20
28.20540024153608
 30
0.0
 11
22.66491897452121
 21
28.82739853750084
 31
0.0
  0
LINE
  5
5A2
  8
LAYER_1
 10
22.66491897452121
 20
28.82739853750084
 30
0.0
 11
22.66491897452121
 21
28.82739853750084
 31
0.0
  0
LINE
  5
5A3
  8
LAYER_1
 10
20.90982375037072
 20
27.11167850741868
 30
0.0
 11
20.46522657010479
 21
26.8291180450242
 31
0.0
  0
LINE
  5
5A4
  8
LAYER_1
 10
20.46522657010479
 20
26.8291180450242
 30
0.0
 11
20.31713516551843
 21
26.56909485348615
 31
0.0
  0
LINE
  5
5A5
  8
LAYER_1
 10
20.31713516551843
 20
26.56909485348615
 30
0.0
 11
20.14441814123021
 21
26.52480285776431
 31
0.0
  0
LINE
  5
5A6
  8
LAYER_1
 10
20.14441814123021
 20
26.52480285776431
 30
0.0
 11
19.64061124821654
 21
26.76091275082243
 31
0.0
  0
LINE
  5
5A7
  8
LAYER_1
 10
19.64061124821654
 20
26.76091275082243
 30
0.0
 11
19.08597330747967
 21
27.27058468855116
 31
0.0
  0
LINE
  5
5A8
  8
LAYER_1
 10
19.08597330747967
 20
27.27058468855116
 30
0.0
 11
19.19679063235857
 21
28.04609457772065
 31
0.0
  0
LINE
  5
5A9
  8
LAYER_1
 10
19.19679063235857
 20
28.04609457772065
 30
0.0
 11
19.73418819970407
 21
29.24090418405931
 31
0.0
  0
LINE
  5
5AA
  8
LAYER_1
 10
19.73418819970407
 20
29.24090418405931
 30
0.0
 11
19.96557516069255
 21
29.34271359064593
 31
0.0
  0
LINE
  5
5AB
  8
LAYER_1
 10
19.96557516069255
 20
29.34271359064593
 30
0.0
 11
20.2356466208714
 21
29.18372547153993
 31
0.0
  0
LINE
  5
5AC
  8
LAYER_1
 10
20.2356466208714
 20
29.18372547153993
 30
0.0
 11
21.23664045683557
 21
28.2681551642261
 31
0.0
  0
LINE
  5
5AD
  8
LAYER_1
 10
21.23664045683557
 20
28.2681551642261
 30
0.0
 11
21.64103335073324
 21
27.7455818991904
 31
0.0
  0
LINE
  5
5AE
  8
LAYER_1
 10
21.64103335073324
 20
27.7455818991904
 30
0.0
 11
21.51127853129336
 21
27.42406903319259
 31
0.0
  0
LINE
  5
5AF
  8
LAYER_1
 10
21.51127853129336
 20
27.42406903319259
 30
0.0
 11
20.90982375037072
 21
27.11167850741868
 31
0.0
  0
LINE
  5
5B0
  8
LAYER_1
 10
20.90982375037072
 20
27.11167850741868
 30
0.0
 11
20.90982375037072
 21
27.11167850741868
 31
0.0
  0
LINE
  5
5B1
  8
LAYER_1
 10
5.6799684037276
 20
2.475478563150009
 30
0.0
 11
5.266462836960876
 21
2.25088409764177
 31
0.0
  0
LINE
  5
5B2
  8
LAYER_1
 10
5.266462836960876
 20
2.25088409764177
 30
0.0
 11
4.923738831307425
 21
2.398937323009735
 31
0.0
  0
LINE
  5
5B3
  8
LAYER_1
 10
4.923738831307425
 20
2.398937323009735
 30
0.0
 11
4.679740652296552
 21
2.889231327391166
 31
0.0
  0
LINE
  5
5B4
  8
LAYER_1
 10
4.679740652296552
 20
2.889231327391166
 30
0.0
 11
4.562413734551754
 21
3.691363152809845
 31
0.0
  0
LINE
  5
5B5
  8
LAYER_1
 10
4.562413734551754
 20
3.691363152809845
 30
0.0
 11
4.44222181053884
 21
4.543568863928397
 31
0.0
  0
LINE
  5
5B6
  8
LAYER_1
 10
4.44222181053884
 20
4.543568863928397
 30
0.0
 11
4.171941241772835
 21
5.272336729998604
 31
0.0
  0
LINE
  5
5B7
  8
LAYER_1
 10
4.171941241772835
 20
5.272336729998604
 30
0.0
 11
3.758416223354068
 21
5.864444695074869
 31
0.0
  0
LINE
  5
5B8
  8
LAYER_1
 10
3.758416223354068
 20
5.864444695074869
 30
0.0
 11
3.208490596489412
 21
6.30667207243013
 31
0.0
  0
LINE
  5
5B9
  8
LAYER_1
 10
3.208490596489412
 20
6.30667207243013
 30
0.0
 11
2.874538472384856
 21
6.655052200861789
 31
0.0
  0
LINE
  5
5BA
  8
LAYER_1
 10
2.874538472384856
 20
6.655052200861789
 30
0.0
 11
2.82466024683778
 21
7.066512755444219
 31
0.0
  0
LINE
  5
5BB
  8
LAYER_1
 10
2.82466024683778
 20
7.066512755444219
 30
0.0
 11
3.038636968479658
 21
7.443869576302662
 31
0.0
  0
LINE
  5
5BC
  8
LAYER_1
 10
3.038636968479658
 20
7.443869576302662
 30
0.0
 11
3.496250593853176
 21
7.689932165132222
 31
0.0
  0
LINE
  5
5BD
  8
LAYER_1
 10
3.496250593853176
 20
7.689932165132222
 30
0.0
 11
3.840649873065836
 21
7.734864105428618
 31
0.0
  0
LINE
  5
5BE
  8
LAYER_1
 10
3.840649873065836
 20
7.734864105428618
 30
0.0
 11
4.084491967989742
 21
7.592688203556611
 31
0.0
  0
LINE
  5
5BF
  8
LAYER_1
 10
4.084491967989742
 20
7.592688203556611
 30
0.0
 11
4.56699904475704
 21
6.385927666620436
 31
0.0
  0
LINE
  5
5C0
  8
LAYER_1
 10
4.56699904475704
 20
6.385927666620436
 30
0.0
 11
4.998015944901937
 21
5.327721182285981
 31
0.0
  0
LINE
  5
5C1
  8
LAYER_1
 10
4.998015944901937
 20
5.327721182285981
 30
0.0
 11
5.390928307388741
 21
4.837017274625737
 31
0.0
  0
LINE
  5
5C2
  8
LAYER_1
 10
5.390928307388741
 20
4.837017274625737
 30
0.0
 11
6.536410050365525
 21
4.495677665356796
 31
0.0
  0
LINE
  5
5C3
  8
LAYER_1
 10
6.536410050365525
 20
4.495677665356796
 30
0.0
 11
7.124605174090327
 21
4.179832102053527
 31
0.0
  0
LINE
  5
5C4
  8
LAYER_1
 10
7.124605174090327
 20
4.179832102053527
 30
0.0
 11
6.683308744163945
 21
3.535653045745241
 31
0.0
  0
LINE
  5
5C5
  8
LAYER_1
 10
6.683308744163945
 20
3.535653045745241
 30
0.0
 11
5.6799684037276
 21
2.475478563150009
 31
0.0
  0
LINE
  5
5C6
  8
LAYER_1
 10
5.6799684037276
 20
2.475478563150009
 30
0.0
 11
5.6799684037276
 21
2.475478563150009
 31
0.0
  0
LINE
  5
5C7
  8
LAYER_1
 10
3.655959254532881
 20
1.880163400415945
 30
0.0
 11
2.075854130555406
 21
2.534109522868025
 31
0.0
  0
LINE
  5
5C8
  8
LAYER_1
 10
2.075854130555406
 20
2.534109522868025
 30
0.0
 11
1.342589105047715
 21
2.877845968385819
 31
0.0
  0
LINE
  5
5C9
  8
LAYER_1
 10
1.342589105047715
 20
2.877845968385819
 30
0.0
 11
1.112838823966285
 21
3.165289403170831
 31
0.0
  0
LINE
  5
5CA
  8
LAYER_1
 10
1.112838823966285
 20
3.165289403170831
 30
0.0
 11
1.388303271519824
 21
3.416497701329997
 31
0.0
  0
LINE
  5
5CB
  8
LAYER_1
 10
1.388303271519824
 20
3.416497701329997
 30
0.0
 11
2.170685324123255
 21
3.651531675531688
 31
0.0
  0
LINE
  5
5CC
  8
LAYER_1
 10
2.170685324123255
 20
3.651531675531688
 30
0.0
 11
2.866237430681565
 21
3.927321343320921
 31
0.0
  0
LINE
  5
5CD
  8
LAYER_1
 10
2.866237430681565
 20
3.927321343320921
 30
0.0
 11
3.196751423398119
 21
4.287921727342569
 31
0.0
  0
LINE
  5
5CE
  8
LAYER_1
 10
3.196751423398119
 20
4.287921727342569
 30
0.0
 11
3.317314175034305
 21
4.194439475637182
 31
0.0
  0
LINE
  5
5CF
  8
LAYER_1
 10
3.317314175034305
 20
4.194439475637182
 30
0.0
 11
3.554866065306129
 21
3.591338571637457
 31
0.0
  0
LINE
  5
5D0
  8
LAYER_1
 10
3.554866065306129
 20
3.591338571637457
 30
0.0
 11
4.098010638147386
 21
1.676175574599059
 31
0.0
  0
LINE
  5
5D1
  8
LAYER_1
 10
4.098010638147386
 20
1.676175574599059
 30
0.0
 11
3.655959254532881
 21
1.880163400415945
 31
0.0
  0
LINE
  5
5D2
  8
LAYER_1
 10
3.655959254532881
 20
1.880163400415945
 30
0.0
 11
3.655959254532881
 21
1.880163400415945
 31
0.0
  0
LINE
  5
5D3
  8
LAYER_1
 10
16.97350534232746
 20
26.07479343969093
 30
0.0
 11
16.43395534635399
 21
27.58257742216654
 31
0.0
  0
LINE
  5
5D4
  8
LAYER_1
 10
16.43395534635399
 20
27.58257742216654
 30
0.0
 11
16.2569572614233
 21
28.77577009471732
 31
0.0
  0
LINE
  5
5D5
  8
LAYER_1
 10
16.2569572614233
 20
28.77577009471732
 30
0.0
 11
16.34947368409053
 21
29.69144345962582
 31
0.0
  0
LINE
  5
5D6
  8
LAYER_1
 10
16.34947368409053
 20
29.69144345962582
 30
0.0
 11
16.65973220351598
 21
30.15261414416781
 31
0.0
  0
LINE
  5
5D7
  8
LAYER_1
 10
16.65973220351598
 20
30.15261414416781
 30
0.0
 11
16.88033500575345
 21
30.15745331671824
 31
0.0
  0
LINE
  5
5D8
  8
LAYER_1
 10
16.88033500575345
 20
30.15745331671824
 30
0.0
 11
17.13595868574792
 21
29.98229979094418
 31
0.0
  0
LINE
  5
5D9
  8
LAYER_1
 10
17.13595868574792
 20
29.98229979094418
 30
0.0
 11
17.58866586080359
 21
29.75940484081496
 31
0.0
  0
LINE
  5
5DA
  8
LAYER_1
 10
17.58866586080359
 20
29.75940484081496
 30
0.0
 11
18.14248232319596
 21
29.76117155194387
 31
0.0
  0
LINE
  5
5DB
  8
LAYER_1
 10
18.14248232319596
 20
29.76117155194387
 30
0.0
 11
18.63250306221443
 21
29.77987355215217
 31
0.0
  0
LINE
  5
5DC
  8
LAYER_1
 10
18.63250306221443
 20
29.77987355215217
 30
0.0
 11
18.51440912413079
 21
29.15798695023194
 31
0.0
  0
LINE
  5
5DD
  8
LAYER_1
 10
18.51440912413079
 20
29.15798695023194
 30
0.0
 11
18.17713530161901
 21
27.78703634753602
 31
0.0
  0
LINE
  5
5DE
  8
LAYER_1
 10
18.17713530161901
 20
27.78703634753602
 30
0.0
 11
17.6960824858492
 21
26.78339931799349
 31
0.0
  0
LINE
  5
5DF
  8
LAYER_1
 10
17.6960824858492
 20
26.78339931799349
 30
0.0
 11
16.97350534232746
 21
26.07479343969093
 31
0.0
  0
LINE
  5
5E0
  8
LAYER_1
 10
16.97350534232746
 20
26.07479343969093
 30
0.0
 11
16.97350534232746
 21
26.07479343969093
 31
0.0
  0
ENDSEC
  0
EOF
