  0
SECTION
  2
HEADER
  9
$ACADVER
  1
AC1009
  9
$EXTMIN
 10
0.24363229
 20
2.34961881
 30
0.0
  9
$EXTMAX
 10
9.63563890
 20
7.88778530
 30
0.0
  0
ENDSEC
  0
SECTION
  2
TABLES
  0
TABLE
  2
LAYER
 70
1
 0
LAYER
 2
Default_Layer
 70
0
 62
1
 6
CONTINUOUS
 0
ENDTAB
 0
ENDSEC
  0
SECTION
  2
ENTITIES
  0
POLYLINE
  8
Default_Layer
 66
   1
 39
0.000000
 70
    1
  0
VERTEX
  8
0
 10
9.53742130
 20
7.84474203
  0
VERTEX
  8
0
 10
9.52009522
 20
7.76271818
  0
VERTEX
  8
0
 10
9.49185643
 20
7.68172105
  0
VERTEX
  8
0
 10
9.44554328
 20
7.50758873
  0
VERTEX
  8
0
 10
9.41388987
 20
7.31517699
  0
VERTEX
  8
0
 10
9.38148819
 20
7.13899283
  0
VERTEX
  8
0
 10
9.36954388
 20
6.86999741
  0
VERTEX
  8
0
 10
9.37440032
 20
6.59626462
  0
VERTEX
  8
0
 10
9.41388987
 20
6.06062426
  0
VERTEX
  8
0
 10
9.44021624
 20
5.93709284
  0
VERTEX
  8
0
 10
9.52577694
 20
5.50086099
  0
VERTEX
  8
0
 10
9.63563890
 20
5.08756117
  0
VERTEX
  8
0
 10
9.38021071
 20
5.08975068
  0
VERTEX
  8
0
 10
9.11923705
 20
5.08756117
  0
VERTEX
  8
0
 10
8.70814068
 20
5.04807162
  0
VERTEX
  8
0
 10
8.30311962
 20
4.99541888
  0
VERTEX
  8
0
 10
7.88493538
 20
4.93669083
  0
VERTEX
  8
0
 10
7.79279308
 20
4.91137701
  0
VERTEX
  8
0
 10
7.68242485
 20
4.90428914
  0
VERTEX
  8
0
 10
7.59028256
 20
4.87796277
  0
VERTEX
  8
0
 10
6.85310341
 20
4.72728764
  0
VERTEX
  8
0
 10
6.14030716
 20
4.55192082
  0
VERTEX
  8
0
 10
6.04208956
 20
4.53166977
  0
VERTEX
  8
0
 10
5.92977236
 20
4.50002023
  0
VERTEX
  8
0
 10
5.86168198
 20
4.49135409
  0
VERTEX
  8
0
 10
5.79401416
 20
4.49926808
  0
VERTEX
  8
0
 10
5.72710166
 20
4.53886408
  0
VERTEX
  8
0
 10
5.66947018
 20
4.59748569
  0
VERTEX
  8
0
 10
5.61074213
 20
4.72101711
  0
VERTEX
  8
0
 10
5.49704954
 20
4.69749838
  0
VERTEX
  8
0
 10
5.38899310
 20
4.65621374
  0
VERTEX
  8
0
 10
4.74197196
 20
4.45370321
  0
VERTEX
  8
0
 10
4.07571232
 20
4.27043118
  0
VERTEX
  8
0
 10
3.51374560
 20
4.13981189
  0
VERTEX
  8
0
 10
3.39527694
 20
4.12664871
  0
VERTEX
  8
0
 10
3.31731038
 20
4.10032234
  0
VERTEX
  8
0
 10
3.10771199
 20
4.07500852
  0
VERTEX
  8
0
 10
2.80865256
 20
4.03489998
  0
VERTEX
  8
0
 10
2.50726827
 20
4.00919260
  0
VERTEX
  8
0
 10
2.38981216
 20
4.00919260
  0
VERTEX
  8
0
 10
1.88657349
 20
3.97679092
  0
VERTEX
  8
0
 10
1.88929279
 20
3.92186553
  0
VERTEX
  8
0
 10
1.91289986
 20
3.87249799
  0
VERTEX
  8
0
 10
2.03643129
 20
3.57176986
  0
VERTEX
  8
0
 10
2.36348579
 20
2.76780306
  0
VERTEX
  8
0
 10
2.46777871
 20
2.51972766
  0
VERTEX
  8
0
 10
2.48094190
 20
2.46099960
  0
VERTEX
  8
0
 10
2.50715687
 20
2.41812799
  0
VERTEX
  8
0
 10
2.51334358
 20
2.36885731
  0
VERTEX
  8
0
 10
2.31071760
 20
2.36289662
  0
VERTEX
  8
0
 10
2.20684543
 20
2.36242925
  0
VERTEX
  8
0
 10
2.11541039
 20
2.34961881
  0
VERTEX
  8
0
 10
2.05450950
 20
2.46311321
  0
VERTEX
  8
0
 10
2.01010492
 20
2.58453103
  0
VERTEX
  8
0
 10
1.97770323
 20
2.63718377
  0
VERTEX
  8
0
 10
1.95846473
 20
2.70198713
  0
VERTEX
  8
0
 10
1.70937678
 20
3.29736809
  0
VERTEX
  8
0
 10
1.51316542
 20
3.76731758
  0
VERTEX
  8
0
 10
1.31751891
 20
4.25119268
  0
VERTEX
  8
0
 10
0.91958572
 20
5.19792941
  0
VERTEX
  8
0
 10
0.57329271
 20
6.03531045
  0
VERTEX
  8
0
 10
0.52671529
 20
6.15276656
  0
VERTEX
  8
0
 10
0.45637645
 20
6.19212289
  0
VERTEX
  8
0
 10
0.37685750
 20
6.23073311
  0
VERTEX
  8
0
 10
0.30674989
 20
6.30261406
  0
VERTEX
  8
0
 10
0.26313873
 20
6.38862860
  0
VERTEX
  8
0
 10
0.24454505
 20
6.48276012
  0
VERTEX
  8
0
 10
0.24948988
 20
6.57899200
  0
VERTEX
  8
0
 10
0.27649427
 20
6.67130764
  0
VERTEX
  8
0
 10
0.32407924
 20
6.75369044
  0
VERTEX
  8
0
 10
0.39076584
 20
6.82012378
  0
VERTEX
  8
0
 10
0.47507510
 20
6.86459107
  0
VERTEX
  8
0
 10
0.54331751
 20
6.87943225
  0
VERTEX
  8
0
 10
0.61139661
 20
6.87890465
  0
VERTEX
  8
0
 10
0.73870010
 20
6.83816078
  0
VERTEX
  8
0
 10
0.84025597
 20
6.75519480
  0
VERTEX
  8
0
 10
0.89933466
 20
6.64284204
  0
VERTEX
  8
0
 10
0.90473948
 20
6.57231482
  0
VERTEX
  8
0
 10
0.91958572
 20
6.49905956
  0
VERTEX
  8
0
 10
1.19936473
 20
6.52045422
  0
VERTEX
  8
0
 10
1.46130138
 20
6.55778761
  0
VERTEX
  8
0
 10
1.55344367
 20
6.57095080
  0
VERTEX
  8
0
 10
1.63141023
 20
6.59018930
  0
VERTEX
  8
0
 10
1.74886633
 20
6.59626462
  0
VERTEX
  8
0
 10
1.84708394
 20
6.62259098
  0
VERTEX
  8
0
 10
2.16097526
 20
6.67524372
  0
VERTEX
  8
0
 10
2.23894182
 20
6.70157009
  0
VERTEX
  8
0
 10
2.33108411
 20
6.71473327
  0
VERTEX
  8
0
 10
2.69107157
 20
6.81112203
  0
VERTEX
  8
0
 10
3.04290862
 20
6.93040699
  0
VERTEX
  8
0
 10
3.70916826
 20
7.19164557
  0
VERTEX
  8
0
 10
4.06265902
 20
7.30273882
  0
VERTEX
  8
0
 10
4.42808064
 20
7.40023142
  0
VERTEX
  8
0
 10
4.80070001
 20
7.49237371
  0
VERTEX
  8
0
 10
5.09060540
 20
7.55691432
  0
VERTEX
  8
0
 10
5.24808500
 20
7.57311064
  0
VERTEX
  8
0
 10
5.42139479
 20
7.57034026
  0
VERTEX
  8
0
 10
5.66083141
 20
7.52327649
  0
VERTEX
  8
0
 10
5.76584953
 20
7.48070220
  0
VERTEX
  8
0
 10
5.85881753
 20
7.42655779
  0
VERTEX
  8
0
 10
5.98336150
 20
7.30910168
  0
VERTEX
  8
0
 10
6.01145917
 20
7.24607415
  0
VERTEX
  8
0
 10
6.04816487
 20
7.18455770
  0
VERTEX
  8
0
 10
6.66162422
 20
7.39622887
  0
VERTEX
  8
0
 10
7.29056697
 20
7.60274195
  0
VERTEX
  8
0
 10
7.61102170
 20
7.69697880
  0
VERTEX
  8
0
 10
7.94366343
 20
7.77993866
  0
VERTEX
  8
0
 10
8.21097733
 20
7.82550353
  0
VERTEX
  8
0
 10
8.33552130
 20
7.85182990
  0
VERTEX
  8
0
 10
8.84483529
 20
7.88423158
  0
VERTEX
  8
0
 10
9.19752135
 20
7.88243841
  0
VERTEX
  8
0
 10
9.53742130
 20
7.84474203
  0
SEQEND
  0
POLYLINE
  8
Default_Layer
 66
   1
 39
0.000000
 70
    1
  0
VERTEX
  8
0
 10
9.06759687
 20
7.73336124
  0
VERTEX
  8
0
 10
8.92232102
 20
7.73857583
  0
VERTEX
  8
0
 10
8.79319510
 20
7.72728592
  0
VERTEX
  8
0
 10
8.68465870
 20
7.71641831
  0
VERTEX
  8
0
 10
8.57043352
 20
7.71412274
  0
VERTEX
  8
0
 10
8.17857564
 20
7.66147000
  0
VERTEX
  8
0
 10
7.94228035
 20
7.61699421
  0
VERTEX
  8
0
 10
7.72090185
 20
7.56426495
  0
VERTEX
  8
0
 10
7.34893904
 20
7.46393206
  0
VERTEX
  8
0
 10
6.98339277
 20
7.35153610
  0
VERTEX
  8
0
 10
6.27700177
 20
7.11266647
  0
VERTEX
  8
0
 10
5.93779664
 20
7.00229823
  0
VERTEX
  8
0
 10
5.86263126
 20
7.15279850
  0
VERTEX
  8
0
 10
5.81693106
 20
7.21629285
  0
VERTEX
  8
0
 10
5.76059992
 20
7.26961213
  0
VERTEX
  8
0
 10
5.64175540
 20
7.33664608
  0
VERTEX
  8
0
 10
5.50644921
 20
7.38099292
  0
VERTEX
  8
0
 10
5.42139479
 20
7.40731929
  0
VERTEX
  8
0
 10
5.15306833
 20
7.41339460
  0
VERTEX
  8
0
 10
5.02244904
 20
7.38099292
  0
VERTEX
  8
0
 10
4.61135267
 20
7.28986318
  0
VERTEX
  8
0
 10
3.98120927
 20
7.11413740
  0
VERTEX
  8
0
 10
3.39527694
 20
6.91015594
  0
VERTEX
  8
0
 10
3.33654889
 20
6.88382957
  0
VERTEX
  8
0
 10
3.09556136
 20
6.78662451
  0
VERTEX
  8
0
 10
2.71788650
 20
6.65766901
  0
VERTEX
  8
0
 10
2.32399624
 20
6.55778761
  0
VERTEX
  8
0
 10
2.04959447
 20
6.49197169
  0
VERTEX
  8
0
 10
1.48155244
 20
6.40084195
  0
VERTEX
  8
0
 10
1.03704182
 20
6.34211390
  0
VERTEX
  8
0
 10
0.96689710
 20
6.33799571
  0
VERTEX
  8
0
 10
0.93216509
 20
6.32745140
  0
VERTEX
  8
0
 10
0.90642253
 20
6.30262435
  0
VERTEX
  8
0
 10
0.91918121
 20
6.23205826
  0
VERTEX
  8
0
 10
0.94489953
 20
6.16592974
  0
VERTEX
  8
0
 10
1.23246448
 20
5.48549436
  0
VERTEX
  8
0
 10
1.57268217
 20
4.66937693
  0
VERTEX
  8
0
 10
1.68130048
 20
4.39464717
  0
VERTEX
  8
0
 10
1.80151907
 20
4.12664871
  0
VERTEX
  8
0
 10
2.23286650
 20
4.15297508
  0
VERTEX
  8
0
 10
2.46132649
 20
4.16236086
  0
VERTEX
  8
0
 10
2.68952774
 20
4.18537676
  0
VERTEX
  8
0
 10
2.73610517
 20
4.18537676
  0
VERTEX
  8
0
 10
3.05607180
 20
4.23094163
  0
VERTEX
  8
0
 10
3.46109286
 20
4.29068224
  0
VERTEX
  8
0
 10
4.25797179
 20
4.46686640
  0
VERTEX
  8
0
 10
4.92716626
 20
4.65352888
  0
VERTEX
  8
0
 10
5.57125258
 20
4.85872427
  0
VERTEX
  8
0
 10
5.66173109
 20
4.89053225
  0
VERTEX
  8
0
 10
5.75452461
 20
4.91137701
  0
VERTEX
  8
0
 10
5.77447248
 20
4.79774580
  0
VERTEX
  8
0
 10
5.79402827
 20
4.75282280
  0
VERTEX
  8
0
 10
5.82641584
 20
4.71494180
  0
VERTEX
  8
0
 10
5.90752964
 20
4.67364550
  0
VERTEX
  8
0
 10
5.99579608
 20
4.67160106
  0
VERTEX
  8
0
 10
6.19194735
 20
4.72101711
  0
VERTEX
  8
0
 10
6.76707725
 20
4.86479959
  0
VERTEX
  8
0
 10
6.88453336
 20
4.89821383
  0
VERTEX
  8
0
 10
6.96958778
 20
4.90428914
  0
VERTEX
  8
0
 10
7.07489326
 20
4.93669083
  0
VERTEX
  8
0
 10
7.43333690
 20
5.00858206
  0
VERTEX
  8
0
 10
8.03479317
 20
5.11996286
  0
VERTEX
  8
0
 10
8.16541246
 20
5.13312604
  0
VERTEX
  8
0
 10
8.42257648
 20
5.17169501
  0
VERTEX
  8
0
 10
8.67573899
 20
5.19792941
  0
VERTEX
  8
0
 10
8.92988971
 20
5.23134365
  0
VERTEX
  8
0
 10
9.43312837
 20
5.24450683
  0
VERTEX
  8
0
 10
9.35621697
 20
5.54552099
  0
VERTEX
  8
0
 10
9.29576928
 20
5.87036785
  0
VERTEX
  8
0
 10
9.21745466
 20
6.55778761
  0
VERTEX
  8
0
 10
9.21745466
 20
6.90408062
  0
VERTEX
  8
0
 10
9.25368444
 20
7.25482874
  0
VERTEX
  8
0
 10
9.31567227
 20
7.57034026
  0
VERTEX
  8
0
 10
9.34191697
 20
7.63397840
  0
VERTEX
  8
0
 10
9.34807395
 20
7.70095955
  0
VERTEX
  8
0
 10
9.06759687
 20
7.73336124
  0
SEQEND
  0
POLYLINE
  8
Default_Layer
 66
   1
 39
0.000000
 70
    1
  0
VERTEX
  8
0
 10
2.26526818
 20
2.69591182
  0
VERTEX
  8
0
 10
2.16705058
 20
2.95107509
  0
VERTEX
  8
0
 10
1.65773660
 20
4.18537676
  0
VERTEX
  8
0
 10
1.54635581
 20
4.42737685
  0
VERTEX
  8
0
 10
1.17008090
 20
5.35304258
  0
VERTEX
  8
0
 10
0.78187856
 20
6.28338585
  0
VERTEX
  8
0
 10
0.75232704
 20
6.35309269
  0
VERTEX
  8
0
 10
0.73631369
 20
6.41400514
  0
VERTEX
  8
0
 10
0.74852698
 20
6.49819820
  0
VERTEX
  8
0
 10
0.74947687
 20
6.59018930
  0
VERTEX
  8
0
 10
0.72671501
 20
6.63705940
  0
VERTEX
  8
0
 10
0.68623552
 20
6.67828309
  0
VERTEX
  8
0
 10
0.63155869
 20
6.70659588
  0
VERTEX
  8
0
 10
0.56620484
 20
6.71473327
  0
VERTEX
  8
0
 10
0.47446876
 20
6.67867773
  0
VERTEX
  8
0
 10
0.43452901
 20
6.64399819
  0
VERTEX
  8
0
 10
0.40925918
 20
6.60335248
  0
VERTEX
  8
0
 10
0.39774427
 20
6.53719807
  0
VERTEX
  8
0
 10
0.40419708
 20
6.47416120
  0
VERTEX
  8
0
 10
0.44267342
 20
6.38767877
  0
VERTEX
  8
0
 10
0.47764652
 20
6.36174788
  0
VERTEX
  8
0
 10
0.51765491
 20
6.34635885
  0
VERTEX
  8
0
 10
0.58645590
 20
6.31578753
  0
VERTEX
  8
0
 10
0.63809608
 20
6.19833142
  0
VERTEX
  8
0
 10
0.67049777
 20
6.10618913
  0
VERTEX
  8
0
 10
0.69074882
 20
6.08087532
  0
VERTEX
  8
0
 10
0.78896643
 20
5.83887524
  0
VERTEX
  8
0
 10
1.08868201
 20
5.11388754
  0
VERTEX
  8
0
 10
2.19337695
 20
2.44074855
  0
VERTEX
  8
0
 10
2.27836872
 20
2.43676270
  0
VERTEX
  8
0
 10
2.36348579
 20
2.44783642
  0
VERTEX
  8
0
 10
2.32092971
 20
2.57403222
  0
VERTEX
  8
0
 10
2.26526818
 20
2.69591182
  0
SEQEND
  0
POLYLINE
  8
Default_Layer
 66
   1
 39
0.000000
 70
    1
  0
VERTEX
  8
0
 10
9.34807395
 20
7.70095955
  0
VERTEX
  8
0
 10
9.34191697
 20
7.63397840
  0
VERTEX
  8
0
 10
9.31567227
 20
7.57034026
  0
VERTEX
  8
0
 10
9.25368444
 20
7.25482874
  0
VERTEX
  8
0
 10
9.21745466
 20
6.90408062
  0
VERTEX
  8
0
 10
9.21745466
 20
6.55778761
  0
VERTEX
  8
0
 10
9.29576928
 20
5.87036785
  0
VERTEX
  8
0
 10
9.35621697
 20
5.54552099
  0
VERTEX
  8
0
 10
9.43312837
 20
5.24450683
  0
VERTEX
  8
0
 10
8.92988971
 20
5.23134365
  0
VERTEX
  8
0
 10
8.67573899
 20
5.19792941
  0
VERTEX
  8
0
 10
8.42257648
 20
5.17169501
  0
VERTEX
  8
0
 10
8.16541246
 20
5.13312604
  0
VERTEX
  8
0
 10
8.03479317
 20
5.11996286
  0
VERTEX
  8
0
 10
7.43333690
 20
5.00858206
  0
VERTEX
  8
0
 10
7.07489326
 20
4.93669083
  0
VERTEX
  8
0
 10
6.96958778
 20
4.90428914
  0
VERTEX
  8
0
 10
6.88453336
 20
4.89821383
  0
VERTEX
  8
0
 10
6.76707725
 20
4.86479959
  0
VERTEX
  8
0
 10
6.19194735
 20
4.72101711
  0
VERTEX
  8
0
 10
5.99579608
 20
4.67160106
  0
VERTEX
  8
0
 10
5.90752964
 20
4.67364550
  0
VERTEX
  8
0
 10
5.82641584
 20
4.71494180
  0
VERTEX
  8
0
 10
5.79402827
 20
4.75282280
  0
VERTEX
  8
0
 10
5.77447248
 20
4.79774580
  0
VERTEX
  8
0
 10
5.75452461
 20
4.91137701
  0
VERTEX
  8
0
 10
5.66173109
 20
4.89053225
  0
VERTEX
  8
0
 10
5.57125258
 20
4.85872427
  0
VERTEX
  8
0
 10
4.92716626
 20
4.65352888
  0
VERTEX
  8
0
 10
4.25797179
 20
4.46686640
  0
VERTEX
  8
0
 10
3.46109286
 20
4.29068224
  0
VERTEX
  8
0
 10
3.05607180
 20
4.23094163
  0
VERTEX
  8
0
 10
2.73610517
 20
4.18537676
  0
VERTEX
  8
0
 10
2.68952774
 20
4.18537676
  0
VERTEX
  8
0
 10
2.46132649
 20
4.16236086
  0
VERTEX
  8
0
 10
2.23286650
 20
4.15297508
  0
VERTEX
  8
0
 10
1.80151907
 20
4.12664871
  0
VERTEX
  8
0
 10
1.68130048
 20
4.39464717
  0
VERTEX
  8
0
 10
1.57268217
 20
4.66937693
  0
VERTEX
  8
0
 10
1.23246448
 20
5.48549436
  0
VERTEX
  8
0
 10
0.94489953
 20
6.16592974
  0
VERTEX
  8
0
 10
0.91918121
 20
6.23205826
  0
VERTEX
  8
0
 10
0.90642253
 20
6.30262435
  0
VERTEX
  8
0
 10
0.93216509
 20
6.32745140
  0
VERTEX
  8
0
 10
0.96689710
 20
6.33799571
  0
VERTEX
  8
0
 10
1.03704182
 20
6.34211390
  0
VERTEX
  8
0
 10
1.48155244
 20
6.40084195
  0
VERTEX
  8
0
 10
2.04959447
 20
6.49197169
  0
VERTEX
  8
0
 10
2.32399624
 20
6.55778761
  0
VERTEX
  8
0
 10
2.71788650
 20
6.65766901
  0
VERTEX
  8
0
 10
3.09556136
 20
6.78662451
  0
VERTEX
  8
0
 10
3.33654889
 20
6.88382957
  0
VERTEX
  8
0
 10
3.39527694
 20
6.91015594
  0
VERTEX
  8
0
 10
3.98120927
 20
7.11413740
  0
VERTEX
  8
0
 10
4.61135267
 20
7.28986318
  0
VERTEX
  8
0
 10
5.02244904
 20
7.38099292
  0
VERTEX
  8
0
 10
5.15306833
 20
7.41339460
  0
VERTEX
  8
0
 10
5.42139479
 20
7.40731929
  0
VERTEX
  8
0
 10
5.50644921
 20
7.38099292
  0
VERTEX
  8
0
 10
5.64175540
 20
7.33664608
  0
VERTEX
  8
0
 10
5.76059992
 20
7.26961213
  0
VERTEX
  8
0
 10
5.81693106
 20
7.21629285
  0
VERTEX
  8
0
 10
5.86263126
 20
7.15279850
  0
VERTEX
  8
0
 10
5.93779664
 20
7.00229823
  0
VERTEX
  8
0
 10
6.27700177
 20
7.11266647
  0
VERTEX
  8
0
 10
6.98339277
 20
7.35153610
  0
VERTEX
  8
0
 10
7.34893904
 20
7.46393206
  0
VERTEX
  8
0
 10
7.72090185
 20
7.56426495
  0
VERTEX
  8
0
 10
7.94228035
 20
7.61699421
  0
VERTEX
  8
0
 10
8.17857564
 20
7.66147000
  0
VERTEX
  8
0
 10
8.57043352
 20
7.71412274
  0
VERTEX
  8
0
 10
8.68465870
 20
7.71641831
  0
VERTEX
  8
0
 10
8.79319510
 20
7.72728592
  0
VERTEX
  8
0
 10
8.92232102
 20
7.73857583
  0
VERTEX
  8
0
 10
9.06759687
 20
7.73336124
  0
VERTEX
  8
0
 10
9.34807395
 20
7.70095955
  0
SEQEND
  0
POLYLINE
  8
Default_Layer
 66
   1
 39
0.000000
 70
    1
  0
VERTEX
  8
0
 10
8.05504422
 20
6.94357017
  0
VERTEX
  8
0
 10
7.93791759
 20
6.86704739
  0
VERTEX
  8
0
 10
7.83228264
 20
6.77953664
  0
VERTEX
  8
0
 10
7.87611038
 20
6.72394736
  0
VERTEX
  8
0
 10
7.92341238
 20
6.66815585
  0
VERTEX
  8
0
 10
7.95971452
 20
6.59123233
  0
VERTEX
  8
0
 10
7.98077042
 20
6.50765535
  0
VERTEX
  8
0
 10
8.00846680
 20
6.32186285
  0
VERTEX
  8
0
 10
8.03479317
 20
6.23073311
  0
VERTEX
  8
0
 10
8.06719485
 20
6.00189621
  0
VERTEX
  8
0
 10
8.05993185
 20
5.92216455
  0
VERTEX
  8
0
 10
8.05504422
 20
5.85811374
  0
VERTEX
  8
0
 10
8.09072473
 20
5.83019155
  0
VERTEX
  8
0
 10
8.13301077
 20
5.81254887
  0
VERTEX
  8
0
 10
8.18866439
 20
5.75919100
  0
VERTEX
  8
0
 10
8.21906706
 20
5.73477606
  0
VERTEX
  8
0
 10
8.25755475
 20
5.72141913
  0
VERTEX
  8
0
 10
8.31906372
 20
5.80959587
  0
VERTEX
  8
0
 10
8.39424936
 20
5.88444010
  0
VERTEX
  8
0
 10
8.34241932
 20
5.97454276
  0
VERTEX
  8
0
 10
8.30919493
 20
6.08695063
  0
VERTEX
  8
0
 10
8.26246062
 20
6.37844649
  0
VERTEX
  8
0
 10
8.23122838
 20
6.64891735
  0
VERTEX
  8
0
 10
8.48537910
 20
6.60335248
  0
VERTEX
  8
0
 10
8.59982833
 20
6.62973831
  0
VERTEX
  8
0
 10
8.68890218
 20
6.66815585
  0
VERTEX
  8
0
 10
8.78627316
 20
6.77620652
  0
VERTEX
  8
0
 10
8.81998362
 20
6.84563772
  0
VERTEX
  8
0
 10
8.83167210
 20
6.91724380
  0
VERTEX
  8
0
 10
8.68500631
 20
6.88994249
  0
VERTEX
  8
0
 10
8.59956144
 20
6.88595738
  0
VERTEX
  8
0
 10
8.51879333
 20
6.89699275
  0
VERTEX
  8
0
 10
8.47135600
 20
6.92364305
  0
VERTEX
  8
0
 10
8.42665104
 20
6.94357017
  0
VERTEX
  8
0
 10
8.30919493
 20
6.85851575
  0
VERTEX
  8
0
 10
8.24850592
 20
6.81753343
  0
VERTEX
  8
0
 10
8.18566351
 20
6.79269983
  0
VERTEX
  8
0
 10
8.12877308
 20
6.87672223
  0
VERTEX
  8
0
 10
8.05504422
 20
6.94357017
  0
SEQEND
  0
POLYLINE
  8
Default_Layer
 66
   1
 39
0.000000
 70
    1
  0
VERTEX
  8
0
 10
7.38169671
 20
6.89699275
  0
VERTEX
  8
0
 10
7.14265626
 20
6.76232154
  0
VERTEX
  8
0
 10
6.89162123
 20
6.64284204
  0
VERTEX
  8
0
 10
6.82892463
 20
6.62342034
  0
VERTEX
  8
0
 10
6.77416512
 20
6.59626462
  0
VERTEX
  8
0
 10
6.79370489
 20
6.54908022
  0
VERTEX
  8
0
 10
6.82580531
 20
6.50513488
  0
VERTEX
  8
0
 10
6.86529486
 20
6.41400514
  0
VERTEX
  8
0
 10
6.90478441
 20
6.18516824
  0
VERTEX
  8
0
 10
6.93111078
 20
6.09403850
  0
VERTEX
  8
0
 10
6.93718610
 20
5.95633134
  0
VERTEX
  8
0
 10
6.95034928
 20
5.91076647
  0
VERTEX
  8
0
 10
6.93662935
 20
5.83372954
  0
VERTEX
  8
0
 10
6.93111078
 20
5.75989613
  0
VERTEX
  8
0
 10
7.06054978
 20
5.72161084
  0
VERTEX
  8
0
 10
7.17798657
 20
5.67115089
  0
VERTEX
  8
0
 10
7.38777203
 20
5.54523497
  0
VERTEX
  8
0
 10
7.42922110
 20
5.58756450
  0
VERTEX
  8
0
 10
7.45820320
 20
5.63772939
  0
VERTEX
  8
0
 10
7.51231600
 20
5.74065763
  0
VERTEX
  8
0
 10
7.61112881
 20
5.84428434
  0
VERTEX
  8
0
 10
7.73406503
 20
5.92392966
  0
VERTEX
  8
0
 10
7.77625077
 20
5.93577967
  0
VERTEX
  8
0
 10
7.81304414
 20
5.96341921
  0
VERTEX
  8
0
 10
7.78985947
 20
5.98993599
  0
VERTEX
  8
0
 10
7.74040140
 20
6.00246768
  0
VERTEX
  8
0
 10
7.63685998
 20
6.00189621
  0
VERTEX
  8
0
 10
7.51839132
 20
5.96949453
  0
VERTEX
  8
0
 10
7.49307750
 20
5.94316816
  0
VERTEX
  8
0
 10
7.45358795
 20
5.93000497
  0
VERTEX
  8
0
 10
7.37308122
 20
5.84051227
  0
VERTEX
  8
0
 10
7.30271760
 20
5.75382081
  0
VERTEX
  8
0
 10
7.26600838
 20
5.80643054
  0
VERTEX
  8
0
 10
7.24822044
 20
5.88187794
  0
VERTEX
  8
0
 10
7.23082637
 20
6.03531045
  0
VERTEX
  8
0
 10
7.21158787
 20
6.10618913
  0
VERTEX
  8
0
 10
7.24978415
 20
6.16045244
  0
VERTEX
  8
0
 10
7.31588079
 20
6.21149461
  0
VERTEX
  8
0
 10
7.52159362
 20
6.34058354
  0
VERTEX
  8
0
 10
7.72090185
 20
6.44033151
  0
VERTEX
  8
0
 10
7.76382311
 20
6.45049406
  0
VERTEX
  8
0
 10
7.79279308
 20
6.47273319
  0
VERTEX
  8
0
 10
7.75754935
 20
6.51857493
  0
VERTEX
  8
0
 10
7.70875122
 20
6.55069975
  0
VERTEX
  8
0
 10
7.56011146
 20
6.69393809
  0
VERTEX
  8
0
 10
7.44042476
 20
6.85851575
  0
VERTEX
  8
0
 10
7.43551620
 20
6.89069413
  0
VERTEX
  8
0
 10
7.42148514
 20
6.90485263
  0
VERTEX
  8
0
 10
7.38169671
 20
6.89699275
  0
SEQEND
  0
POLYLINE
  8
Default_Layer
 66
   1
 39
0.000000
 70
    1
  0
VERTEX
  8
0
 10
6.60405628
 20
5.68192957
  0
VERTEX
  8
0
 10
6.57878039
 20
5.75527021
  0
VERTEX
  8
0
 10
6.56866695
 20
5.83285319
  0
VERTEX
  8
0
 10
6.55849141
 20
5.99582090
  0
VERTEX
  8
0
 10
6.52578410
 20
6.20028740
  0
VERTEX
  8
0
 10
6.47745959
 20
6.37801784
  0
VERTEX
  8
0
 10
6.40256938
 20
6.52792392
  0
VERTEX
  8
0
 10
6.29016496
 20
6.64891735
  0
VERTEX
  8
0
 10
6.27092646
 20
6.64891735
  0
VERTEX
  8
0
 10
6.09474230
 20
6.49905956
  0
VERTEX
  8
0
 10
6.01806923
 20
6.42357456
  0
VERTEX
  8
0
 10
5.97510934
 20
6.39041444
  0
VERTEX
  8
0
 10
5.92463345
 20
6.36844027
  0
VERTEX
  8
0
 10
5.85246663
 20
6.48560196
  0
VERTEX
  8
0
 10
5.81144774
 20
6.53927189
  0
VERTEX
  8
0
 10
5.75452461
 20
6.57702611
  0
VERTEX
  8
0
 10
5.66947018
 20
6.49197169
  0
VERTEX
  8
0
 10
5.62178356
 20
6.44383908
  0
VERTEX
  8
0
 10
5.59150363
 20
6.39375409
  0
VERTEX
  8
0
 10
5.61380032
 20
6.34503543
  0
VERTEX
  8
0
 10
5.65630700
 20
6.28338585
  0
VERTEX
  8
0
 10
5.72023916
 20
6.10899655
  0
VERTEX
  8
0
 10
5.75452461
 20
5.88444010
  0
VERTEX
  8
0
 10
5.77475384
 20
5.70256631
  0
VERTEX
  8
0
 10
5.78085098
 20
5.55131028
  0
VERTEX
  8
0
 10
5.75985248
 20
5.47146061
  0
VERTEX
  8
0
 10
5.74136142
 20
5.40145249
  0
VERTEX
  8
0
 10
5.95095982
 20
5.27690852
  0
VERTEX
  8
0
 10
6.01706009
 20
5.38028809
  0
VERTEX
  8
0
 10
6.08765443
 20
5.47941905
  0
VERTEX
  8
0
 10
6.05270054
 20
5.55473119
  0
VERTEX
  8
0
 10
6.02937111
 20
5.63945217
  0
VERTEX
  8
0
 10
6.00260000
 20
5.83178737
  0
VERTEX
  8
0
 10
5.94387195
 20
6.20440674
  0
VERTEX
  8
0
 10
6.04014934
 20
6.30459771
  0
VERTEX
  8
0
 10
6.15347035
 20
6.38767877
  0
VERTEX
  8
0
 10
6.21813566
 20
6.34094692
  0
VERTEX
  8
0
 10
6.26346044
 20
6.26975188
  0
VERTEX
  8
0
 10
6.29349333
 20
6.17969339
  0
VERTEX
  8
0
 10
6.31228293
 20
6.07637118
  0
VERTEX
  8
0
 10
6.33232676
 20
5.85233459
  0
VERTEX
  8
0
 10
6.35598088
 20
5.64244002
  0
VERTEX
  8
0
 10
6.36914406
 20
5.55131028
  0
VERTEX
  8
0
 10
6.41343853
 20
5.44798522
  0
VERTEX
  8
0
 10
6.44866578
 20
5.40096169
  0
VERTEX
  8
0
 10
6.48660017
 20
5.38120144
  0
VERTEX
  8
0
 10
6.51521448
 20
5.39254185
  0
VERTEX
  8
0
 10
6.54143625
 20
5.41943064
  0
VERTEX
  8
0
 10
6.58481778
 20
5.47941905
  0
VERTEX
  8
0
 10
6.63333114
 20
5.53521633
  0
VERTEX
  8
0
 10
6.66885965
 20
5.59079984
  0
VERTEX
  8
0
 10
6.60405628
 20
5.68192957
  0
SEQEND
  0
POLYLINE
  8
Default_Layer
 66
   1
 39
0.000000
 70
    1
  0
VERTEX
  8
0
 10
5.12066665
 20
6.38160345
  0
VERTEX
  8
0
 10
5.03941970
 20
6.39932699
  0
VERTEX
  8
0
 10
4.96393354
 20
6.42903353
  0
VERTEX
  8
0
 10
4.83310170
 20
6.49197169
  0
VERTEX
  8
0
 10
4.77790539
 20
6.45229187
  0
VERTEX
  8
0
 10
4.72880877
 20
6.40691727
  0
VERTEX
  8
0
 10
4.58450913
 20
6.31340196
  0
VERTEX
  8
0
 10
4.42808064
 20
6.23782098
  0
VERTEX
  8
0
 10
4.39413555
 20
6.22942893
  0
VERTEX
  8
0
 10
4.36226472
 20
6.21149461
  0
VERTEX
  8
0
 10
4.39542520
 20
6.12826240
  0
VERTEX
  8
0
 10
4.44124382
 20
6.04746108
  0
VERTEX
  8
0
 10
4.47535995
 20
5.88106268
  0
VERTEX
  8
0
 10
4.48680869
 20
5.68800489
  0
VERTEX
  8
0
 10
4.51335727
 20
5.68166747
  0
VERTEX
  8
0
 10
4.53886000
 20
5.68922313
  0
VERTEX
  8
0
 10
4.59110161
 20
5.71433126
  0
VERTEX
  8
0
 10
4.83276926
 20
5.76108551
  0
VERTEX
  8
0
 10
5.08117710
 20
5.78622250
  0
VERTEX
  8
0
 10
5.10724134
 20
5.69813280
  0
VERTEX
  8
0
 10
5.12066665
 20
5.59079984
  0
VERTEX
  8
0
 10
5.13550112
 20
5.47905216
  0
VERTEX
  8
0
 10
5.13161812
 20
5.42785603
  0
VERTEX
  8
0
 10
5.10750346
 20
5.38828931
  0
VERTEX
  8
0
 10
5.01573193
 20
5.42335260
  0
VERTEX
  8
0
 10
4.91208080
 20
5.46018055
  0
VERTEX
  8
0
 10
4.75709807
 20
5.46112086
  0
VERTEX
  8
0
 10
4.63059117
 20
5.43385418
  0
VERTEX
  8
0
 10
4.52356996
 20
5.39016112
  0
VERTEX
  8
0
 10
4.48174713
 20
5.35912362
  0
VERTEX
  8
0
 10
4.46048232
 20
5.31639807
  0
VERTEX
  8
0
 10
4.65217268
 20
5.29140540
  0
VERTEX
  8
0
 10
4.81993851
 20
5.23134365
  0
VERTEX
  8
0
 10
4.92111233
 20
5.16363624
  0
VERTEX
  8
0
 10
4.98016127
 20
5.12733168
  0
VERTEX
  8
0
 10
5.02244904
 20
5.11388754
  0
VERTEX
  8
0
 10
5.06571171
 20
5.14846716
  0
VERTEX
  8
0
 10
5.10750346
 20
5.19792941
  0
VERTEX
  8
0
 10
5.18648257
 20
5.29007170
  0
VERTEX
  8
0
 10
5.32014851
 20
5.38437656
  0
VERTEX
  8
0
 10
5.44063329
 20
5.47941905
  0
VERTEX
  8
0
 10
5.36266673
 20
5.64244002
  0
VERTEX
  8
0
 10
5.34110355
 20
5.74249728
  0
VERTEX
  8
0
 10
5.33460004
 20
5.84479321
  0
VERTEX
  8
0
 10
5.34241568
 20
6.06062426
  0
VERTEX
  8
0
 10
5.22280833
 20
6.02242541
  0
VERTEX
  8
0
 10
5.08826496
 20
5.97556984
  0
VERTEX
  8
0
 10
4.99612267
 20
5.96341921
  0
VERTEX
  8
0
 10
4.86586558
 20
5.94039900
  0
VERTEX
  8
0
 10
4.73488409
 20
5.93000497
  0
VERTEX
  8
0
 10
4.71174992
 20
5.95577271
  0
VERTEX
  8
0
 10
4.69926451
 20
5.99807798
  0
VERTEX
  8
0
 10
4.68931922
 20
6.10011382
  0
VERTEX
  8
0
 10
4.68475909
 20
6.20224157
  0
VERTEX
  8
0
 10
4.69682364
 20
6.24210050
  0
VERTEX
  8
0
 10
4.72880877
 20
6.26313479
  0
VERTEX
  8
0
 10
4.83692069
 20
6.21376845
  0
VERTEX
  8
0
 10
4.97297506
 20
6.18630673
  0
VERTEX
  8
0
 10
5.11275596
 20
6.18586783
  0
VERTEX
  8
0
 10
5.23204744
 20
6.21756993
  0
VERTEX
  8
0
 10
5.33525107
 20
6.28919517
  0
VERTEX
  8
0
 10
5.40215629
 20
6.38160345
  0
VERTEX
  8
0
 10
5.25619178
 20
6.38204839
  0
VERTEX
  8
0
 10
5.12066665
 20
6.38160345
  0
SEQEND
  0
POLYLINE
  8
Default_Layer
 66
   1
 39
0.000000
 70
    1
  0
VERTEX
  8
0
 10
4.12127719
 20
5.36803825
  0
VERTEX
  8
0
 10
4.08786295
 20
5.60396302
  0
VERTEX
  8
0
 10
4.02305958
 20
5.94316816
  0
VERTEX
  8
0
 10
4.02305958
 20
5.99582090
  0
VERTEX
  8
0
 10
4.00285472
 20
6.08647276
  0
VERTEX
  8
0
 10
3.99065790
 20
6.15884187
  0
VERTEX
  8
0
 10
4.00919770
 20
6.20481747
  0
VERTEX
  8
0
 10
4.02305958
 20
6.24997161
  0
VERTEX
  8
0
 10
3.99699277
 20
6.29257405
  0
VERTEX
  8
0
 10
3.95116834
 20
6.34211390
  0
VERTEX
  8
0
 10
3.90169564
 20
6.40289140
  0
VERTEX
  8
0
 10
3.86611392
 20
6.43324364
  0
VERTEX
  8
0
 10
3.76497903
 20
6.34507541
  0
VERTEX
  8
0
 10
3.67676657
 20
6.24389629
  0
VERTEX
  8
0
 10
3.72174058
 20
6.17231930
  0
VERTEX
  8
0
 10
3.74608431
 20
6.08753623
  0
VERTEX
  8
0
 10
3.77498418
 20
5.89152797
  0
VERTEX
  8
0
 10
3.86003860
 20
5.38828931
  0
VERTEX
  8
0
 10
3.87927710
 20
5.28298383
  0
VERTEX
  8
0
 10
3.87812364
 20
5.15032361
  0
VERTEX
  8
0
 10
3.85295074
 20
5.02174525
  0
VERTEX
  8
0
 10
3.89194063
 20
4.99070141
  0
VERTEX
  8
0
 10
3.94408047
 20
4.97010506
  0
VERTEX
  8
0
 10
3.99502793
 20
4.94036433
  0
VERTEX
  8
0
 10
4.04229808
 20
4.92352764
  0
VERTEX
  8
0
 10
4.09703302
 20
4.96716791
  0
VERTEX
  8
0
 10
4.14760356
 20
5.02883312
  0
VERTEX
  8
0
 10
4.19661103
 20
5.06622231
  0
VERTEX
  8
0
 10
4.23164543
 20
5.10679967
  0
VERTEX
  8
0
 10
4.15816887
 20
5.21511352
  0
VERTEX
  8
0
 10
4.12127719
 20
5.36803825
  0
SEQEND
  0
POLYLINE
  8
Default_Layer
 66
   1
 39
0.000000
 70
    1
  0
VERTEX
  8
0
 10
2.44854021
 20
6.21149461
  0
VERTEX
  8
0
 10
2.39971147
 20
6.24758602
  0
VERTEX
  8
0
 10
2.34323474
 20
6.27022266
  0
VERTEX
  8
0
 10
2.33715942
 20
6.27629798
  0
VERTEX
  8
0
 10
2.23223090
 20
6.13639916
  0
VERTEX
  8
0
 10
2.12148571
 20
6.00189621
  0
VERTEX
  8
0
 10
2.00893606
 20
6.13358964
  0
VERTEX
  8
0
 10
1.93844170
 20
6.18325518
  0
VERTEX
  8
0
 10
1.84708394
 20
6.20440674
  0
VERTEX
  8
0
 10
1.75059095
 20
6.18823351
  0
VERTEX
  8
0
 10
1.66815588
 20
6.13995550
  0
VERTEX
  8
0
 10
1.60329359
 20
6.06846585
  0
VERTEX
  8
0
 10
1.55951899
 20
5.98265771
  0
VERTEX
  8
0
 10
1.67603930
 20
5.98226087
  0
VERTEX
  8
0
 10
1.77519270
 20
5.96949453
  0
VERTEX
  8
0
 10
1.83376294
 20
5.92527957
  0
VERTEX
  8
0
 10
1.87207599
 20
5.85759163
  0
VERTEX
  8
0
 10
1.90581199
 20
5.68192957
  0
VERTEX
  8
0
 10
1.82414463
 20
5.63928232
  0
VERTEX
  8
0
 10
1.75739760
 20
5.57725587
  0
VERTEX
  8
0
 10
1.71752093
 20
5.49238423
  0
VERTEX
  8
0
 10
1.71646465
 20
5.38120144
  0
VERTEX
  8
0
 10
1.76877423
 20
5.42335644
  0
VERTEX
  8
0
 10
1.81468226
 20
5.47334373
  0
VERTEX
  8
0
 10
1.86288755
 20
5.50202294
  0
VERTEX
  8
0
 10
1.92505050
 20
5.51890860
  0
VERTEX
  8
0
 10
1.94546681
 20
5.46110311
  0
VERTEX
  8
0
 10
1.95137686
 20
5.39436462
  0
VERTEX
  8
0
 10
1.97066518
 20
5.33316805
  0
VERTEX
  8
0
 10
1.97770323
 20
5.27690852
  0
VERTEX
  8
0
 10
1.93549800
 20
5.22702576
  0
VERTEX
  8
0
 10
1.87948563
 20
5.17869091
  0
VERTEX
  8
0
 10
1.83656439
 20
5.09725289
  0
VERTEX
  8
0
 10
1.83392076
 20
5.00250675
  0
VERTEX
  8
0
 10
1.87639391
 20
5.02700392
  0
VERTEX
  8
0
 10
1.91004627
 20
5.06026289
  0
VERTEX
  8
0
 10
1.94639113
 20
5.09071702
  0
VERTEX
  8
0
 10
1.99694173
 20
5.10679967
  0
VERTEX
  8
0
 10
2.05058308
 20
4.83094579
  0
VERTEX
  8
0
 10
2.10224721
 20
4.55192082
  0
VERTEX
  8
0
 10
2.22433377
 20
4.56477805
  0
VERTEX
  8
0
 10
2.34323474
 20
4.59748569
  0
VERTEX
  8
0
 10
2.32965938
 20
4.74046587
  0
VERTEX
  8
0
 10
2.30567131
 20
4.86997288
  0
VERTEX
  8
0
 10
2.28426412
 20
4.99714639
  0
VERTEX
  8
0
 10
2.27843137
 20
5.13312604
  0
VERTEX
  8
0
 10
2.37530669
 20
5.12386261
  0
VERTEX
  8
0
 10
2.45770475
 20
5.10014111
  0
VERTEX
  8
0
 10
2.53703937
 20
5.07342044
  0
VERTEX
  8
0
 10
2.62472437
 20
5.05515949
  0
VERTEX
  8
0
 10
2.75534367
 20
5.23134365
  0
VERTEX
  8
0
 10
2.83422596
 20
5.30581311
  0
VERTEX
  8
0
 10
2.90520146
 20
5.38828931
  0
VERTEX
  8
0
 10
2.85030790
 20
5.49128252
  0
VERTEX
  8
0
 10
2.81407172
 20
5.62320152
  0
VERTEX
  8
0
 10
2.78520327
 20
5.80233226
  0
VERTEX
  8
0
 10
2.78167003
 20
5.98265771
  0
VERTEX
  8
0
 10
2.79274094
 20
6.02579978
  0
VERTEX
  8
0
 10
2.79483322
 20
6.06771213
  0
VERTEX
  8
0
 10
2.61161483
 20
6.13151963
  0
VERTEX
  8
0
 10
2.44854021
 20
6.21149461
  0
SEQEND
  0
POLYLINE
  8
Default_Layer
 66
   1
 39
0.000000
 70
    1
  0
VERTEX
  8
0
 10
3.23225596
 20
6.10618913
  0
VERTEX
  8
0
 10
3.18787983
 20
6.17627975
  0
VERTEX
  8
0
 10
3.16165175
 20
6.19640102
  0
VERTEX
  8
0
 10
3.12796304
 20
6.18516824
  0
VERTEX
  8
0
 10
3.04983443
 20
6.11635935
  0
VERTEX
  8
0
 10
2.98418056
 20
6.03531045
  0
VERTEX
  8
0
 10
3.14112622
 20
5.84495055
  0
VERTEX
  8
0
 10
3.16939484
 20
5.85343313
  0
VERTEX
  8
0
 10
3.19076395
 20
5.87265481
  0
VERTEX
  8
0
 10
3.22618065
 20
5.91684179
  0
VERTEX
  8
0
 10
3.28358357
 20
5.96126259
  0
VERTEX
  8
0
 10
3.30875735
 20
5.98723007
  0
VERTEX
  8
0
 10
3.32338570
 20
6.02214726
  0
VERTEX
  8
0
 10
3.23225596
 20
6.10618913
  0
SEQEND
  0
POLYLINE
  8
Default_Layer
 66
   1
 39
0.000000
 70
    1
  0
VERTEX
  8
0
 10
3.14112622
 20
5.53207178
  0
VERTEX
  8
0
 10
3.16171591
 20
5.45936872
  0
VERTEX
  8
0
 10
3.17352791
 20
5.37512612
  0
VERTEX
  8
0
 10
3.18669109
 20
5.17261559
  0
VERTEX
  8
0
 10
3.21301746
 20
5.07439799
  0
VERTEX
  8
0
 10
3.22735655
 20
4.89826942
  0
VERTEX
  8
0
 10
3.25425709
 20
4.81462934
  0
VERTEX
  8
0
 10
3.27819311
 20
4.78894559
  0
VERTEX
  8
0
 10
3.31123507
 20
4.77974517
  0
VERTEX
  8
0
 10
3.36542265
 20
4.81919560
  0
VERTEX
  8
0
 10
3.42160331
 20
4.88505064
  0
VERTEX
  8
0
 10
3.48571545
 20
4.94319417
  0
VERTEX
  8
0
 10
3.52589623
 20
5.00250675
  0
VERTEX
  8
0
 10
3.49955661
 20
5.04976064
  0
VERTEX
  8
0
 10
3.46109286
 20
5.10679967
  0
VERTEX
  8
0
 10
3.44185436
 20
5.24450683
  0
VERTEX
  8
0
 10
3.42134097
 20
5.44393329
  0
VERTEX
  8
0
 10
3.38920162
 20
5.63636471
  0
VERTEX
  8
0
 10
3.34837797
 20
5.73309000
  0
VERTEX
  8
0
 10
3.32201205
 20
5.76723093
  0
VERTEX
  8
0
 10
3.29807188
 20
5.77305931
  0
VERTEX
  8
0
 10
3.19890481
 20
5.68960517
  0
VERTEX
  8
0
 10
3.08847349
 20
5.59079984
  0
VERTEX
  8
0
 10
3.11307447
 20
5.55976882
  0
VERTEX
  8
0
 10
3.14112622
 20
5.53207178
  0
SEQEND
  0
POLYLINE
  8
Default_Layer
 66
   1
 39
0.000000
 70
    1
  0
VERTEX
  8
0
 10
8.18566351
 20
6.79269983
  0
VERTEX
  8
0
 10
8.24850592
 20
6.81753343
  0
VERTEX
  8
0
 10
8.30919493
 20
6.85851575
  0
VERTEX
  8
0
 10
8.42665104
 20
6.94357017
  0
VERTEX
  8
0
 10
8.47135600
 20
6.92364305
  0
VERTEX
  8
0
 10
8.51879333
 20
6.89699275
  0
VERTEX
  8
0
 10
8.59956144
 20
6.88595738
  0
VERTEX
  8
0
 10
8.68500631
 20
6.88994249
  0
VERTEX
  8
0
 10
8.83167210
 20
6.91724380
  0
VERTEX
  8
0
 10
8.81998362
 20
6.84563772
  0
VERTEX
  8
0
 10
8.78627316
 20
6.77620652
  0
VERTEX
  8
0
 10
8.68890218
 20
6.66815585
  0
VERTEX
  8
0
 10
8.59982833
 20
6.62973831
  0
VERTEX
  8
0
 10
8.48537910
 20
6.60335248
  0
VERTEX
  8
0
 10
8.23122838
 20
6.64891735
  0
VERTEX
  8
0
 10
8.26246062
 20
6.37844649
  0
VERTEX
  8
0
 10
8.30919493
 20
6.08695063
  0
VERTEX
  8
0
 10
8.34241932
 20
5.97454276
  0
VERTEX
  8
0
 10
8.39424936
 20
5.88444010
  0
VERTEX
  8
0
 10
8.31906372
 20
5.80959587
  0
VERTEX
  8
0
 10
8.25755475
 20
5.72141913
  0
VERTEX
  8
0
 10
8.21906706
 20
5.73477606
  0
VERTEX
  8
0
 10
8.18866439
 20
5.75919100
  0
VERTEX
  8
0
 10
8.13301077
 20
5.81254887
  0
VERTEX
  8
0
 10
8.09072473
 20
5.83019155
  0
VERTEX
  8
0
 10
8.05504422
 20
5.85811374
  0
VERTEX
  8
0
 10
8.05993185
 20
5.92216455
  0
VERTEX
  8
0
 10
8.06719485
 20
6.00189621
  0
VERTEX
  8
0
 10
8.03479317
 20
6.23073311
  0
VERTEX
  8
0
 10
8.00846680
 20
6.32186285
  0
VERTEX
  8
0
 10
7.98077042
 20
6.50765535
  0
VERTEX
  8
0
 10
7.95971452
 20
6.59123233
  0
VERTEX
  8
0
 10
7.92341238
 20
6.66815585
  0
VERTEX
  8
0
 10
7.87611038
 20
6.72394736
  0
VERTEX
  8
0
 10
7.83228264
 20
6.77953664
  0
VERTEX
  8
0
 10
7.93791759
 20
6.86704739
  0
VERTEX
  8
0
 10
8.05504422
 20
6.94357017
  0
VERTEX
  8
0
 10
8.12877308
 20
6.87672223
  0
VERTEX
  8
0
 10
8.18566351
 20
6.79269983
  0
SEQEND
  0
POLYLINE
  8
Default_Layer
 66
   1
 39
0.000000
 70
    1
  0
VERTEX
  8
0
 10
7.44042476
 20
6.85851575
  0
VERTEX
  8
0
 10
7.56011146
 20
6.69393809
  0
VERTEX
  8
0
 10
7.70875122
 20
6.55069975
  0
VERTEX
  8
0
 10
7.75754935
 20
6.51857493
  0
VERTEX
  8
0
 10
7.79279308
 20
6.47273319
  0
VERTEX
  8
0
 10
7.76382311
 20
6.45049406
  0
VERTEX
  8
0
 10
7.72090185
 20
6.44033151
  0
VERTEX
  8
0
 10
7.52159362
 20
6.34058354
  0
VERTEX
  8
0
 10
7.31588079
 20
6.21149461
  0
VERTEX
  8
0
 10
7.24978415
 20
6.16045244
  0
VERTEX
  8
0
 10
7.21158787
 20
6.10618913
  0
VERTEX
  8
0
 10
7.23082637
 20
6.03531045
  0
VERTEX
  8
0
 10
7.24822044
 20
5.88187794
  0
VERTEX
  8
0
 10
7.26600838
 20
5.80643054
  0
VERTEX
  8
0
 10
7.30271760
 20
5.75382081
  0
VERTEX
  8
0
 10
7.37308122
 20
5.84051227
  0
VERTEX
  8
0
 10
7.45358795
 20
5.93000497
  0
VERTEX
  8
0
 10
7.49307750
 20
5.94316816
  0
VERTEX
  8
0
 10
7.51839132
 20
5.96949453
  0
VERTEX
  8
0
 10
7.63685998
 20
6.00189621
  0
VERTEX
  8
0
 10
7.74040140
 20
6.00246768
  0
VERTEX
  8
0
 10
7.78985947
 20
5.98993599
  0
VERTEX
  8
0
 10
7.81304414
 20
5.96341921
  0
VERTEX
  8
0
 10
7.77625077
 20
5.93577967
  0
VERTEX
  8
0
 10
7.73406503
 20
5.92392966
  0
VERTEX
  8
0
 10
7.61112881
 20
5.84428434
  0
VERTEX
  8
0
 10
7.51231600
 20
5.74065763
  0
VERTEX
  8
0
 10
7.45820320
 20
5.63772939
  0
VERTEX
  8
0
 10
7.42922110
 20
5.58756450
  0
VERTEX
  8
0
 10
7.38777203
 20
5.54523497
  0
VERTEX
  8
0
 10
7.17798657
 20
5.67115089
  0
VERTEX
  8
0
 10
7.06054978
 20
5.72161084
  0
VERTEX
  8
0
 10
6.93111078
 20
5.75989613
  0
VERTEX
  8
0
 10
6.93662935
 20
5.83372954
  0
VERTEX
  8
0
 10
6.95034928
 20
5.91076647
  0
VERTEX
  8
0
 10
6.93718610
 20
5.95633134
  0
VERTEX
  8
0
 10
6.93111078
 20
6.09403850
  0
VERTEX
  8
0
 10
6.90478441
 20
6.18516824
  0
VERTEX
  8
0
 10
6.86529486
 20
6.41400514
  0
VERTEX
  8
0
 10
6.82580531
 20
6.50513488
  0
VERTEX
  8
0
 10
6.79370489
 20
6.54908022
  0
VERTEX
  8
0
 10
6.77416512
 20
6.59626462
  0
VERTEX
  8
0
 10
6.82892463
 20
6.62342034
  0
VERTEX
  8
0
 10
6.89162123
 20
6.64284204
  0
VERTEX
  8
0
 10
7.14265626
 20
6.76232154
  0
VERTEX
  8
0
 10
7.38169671
 20
6.89699275
  0
VERTEX
  8
0
 10
7.42148514
 20
6.90485263
  0
VERTEX
  8
0
 10
7.43551620
 20
6.89069413
  0
VERTEX
  8
0
 10
7.44042476
 20
6.85851575
  0
SEQEND
  0
POLYLINE
  8
Default_Layer
 66
   1
 39
0.000000
 70
    1
  0
VERTEX
  8
0
 10
7.35537034
 20
6.56386293
  0
VERTEX
  8
0
 10
7.24398955
 20
6.68840691
  0
VERTEX
  8
0
 10
7.17317993
 20
6.65806473
  0
VERTEX
  8
0
 10
7.12045813
 20
6.60942780
  0
VERTEX
  8
0
 10
7.14879994
 20
6.43585091
  0
VERTEX
  8
0
 10
7.18526150
 20
6.27022266
  0
VERTEX
  8
0
 10
7.24281857
 20
6.29544048
  0
VERTEX
  8
0
 10
7.29056697
 20
6.33502603
  0
VERTEX
  8
0
 10
7.45358795
 20
6.43324364
  0
VERTEX
  8
0
 10
7.41094913
 20
6.50434105
  0
VERTEX
  8
0
 10
7.35537034
 20
6.56386293
  0
SEQEND
  0
POLYLINE
  8
Default_Layer
 66
   1
 39
0.000000
 70
    1
  0
VERTEX
  8
0
 10
2.36348579
 20
2.44783642
  0
VERTEX
  8
0
 10
2.27836872
 20
2.43676270
  0
VERTEX
  8
0
 10
2.19337695
 20
2.44074855
  0
VERTEX
  8
0
 10
1.08868201
 20
5.11388754
  0
VERTEX
  8
0
 10
0.78896643
 20
5.83887524
  0
VERTEX
  8
0
 10
0.69074882
 20
6.08087532
  0
VERTEX
  8
0
 10
0.67049777
 20
6.10618913
  0
VERTEX
  8
0
 10
0.63809608
 20
6.19833142
  0
VERTEX
  8
0
 10
0.58645590
 20
6.31578753
  0
VERTEX
  8
0
 10
0.51765491
 20
6.34635885
  0
VERTEX
  8
0
 10
0.47764652
 20
6.36174788
  0
VERTEX
  8
0
 10
0.44267342
 20
6.38767877
  0
VERTEX
  8
0
 10
0.40419708
 20
6.47416120
  0
VERTEX
  8
0
 10
0.39774427
 20
6.53719807
  0
VERTEX
  8
0
 10
0.40925918
 20
6.60335248
  0
VERTEX
  8
0
 10
0.43452901
 20
6.64399819
  0
VERTEX
  8
0
 10
0.47446876
 20
6.67867773
  0
VERTEX
  8
0
 10
0.56620484
 20
6.71473327
  0
VERTEX
  8
0
 10
0.63155869
 20
6.70659588
  0
VERTEX
  8
0
 10
0.68623552
 20
6.67828309
  0
VERTEX
  8
0
 10
0.72671501
 20
6.63705940
  0
VERTEX
  8
0
 10
0.74947687
 20
6.59018930
  0
VERTEX
  8
0
 10
0.74852698
 20
6.49819820
  0
VERTEX
  8
0
 10
0.73631369
 20
6.41400514
  0
VERTEX
  8
0
 10
0.75232704
 20
6.35309269
  0
VERTEX
  8
0
 10
0.78187856
 20
6.28338585
  0
VERTEX
  8
0
 10
1.17008090
 20
5.35304258
  0
VERTEX
  8
0
 10
1.54635581
 20
4.42737685
  0
VERTEX
  8
0
 10
1.65773660
 20
4.18537676
  0
VERTEX
  8
0
 10
2.16705058
 20
2.95107509
  0
VERTEX
  8
0
 10
2.26526818
 20
2.69591182
  0
VERTEX
  8
0
 10
2.32092971
 20
2.57403222
  0
VERTEX
  8
0
 10
2.36348579
 20
2.44783642
  0
SEQEND
  0
POLYLINE
  8
Default_Layer
 66
   1
 39
0.000000
 70
    1
  0
VERTEX
  8
0
 10
7.45358795
 20
6.43324364
  0
VERTEX
  8
0
 10
7.29056697
 20
6.33502603
  0
VERTEX
  8
0
 10
7.24281857
 20
6.29544048
  0
VERTEX
  8
0
 10
7.18526150
 20
6.27022266
  0
VERTEX
  8
0
 10
7.14879994
 20
6.43585091
  0
VERTEX
  8
0
 10
7.12045813
 20
6.60942780
  0
VERTEX
  8
0
 10
7.17317993
 20
6.65806473
  0
VERTEX
  8
0
 10
7.24398955
 20
6.68840691
  0
VERTEX
  8
0
 10
7.35537034
 20
6.56386293
  0
VERTEX
  8
0
 10
7.41094913
 20
6.50434105
  0
VERTEX
  8
0
 10
7.45358795
 20
6.43324364
  0
SEQEND
  0
POLYLINE
  8
Default_Layer
 66
   1
 39
0.000000
 70
    1
  0
VERTEX
  8
0
 10
6.66885965
 20
5.59079984
  0
VERTEX
  8
0
 10
6.63333114
 20
5.53521633
  0
VERTEX
  8
0
 10
6.58481778
 20
5.47941905
  0
VERTEX
  8
0
 10
6.54143625
 20
5.41943064
  0
VERTEX
  8
0
 10
6.51521448
 20
5.39254185
  0
VERTEX
  8
0
 10
6.48660017
 20
5.38120144
  0
VERTEX
  8
0
 10
6.44866578
 20
5.40096169
  0
VERTEX
  8
0
 10
6.41343853
 20
5.44798522
  0
VERTEX
  8
0
 10
6.36914406
 20
5.55131028
  0
VERTEX
  8
0
 10
6.35598088
 20
5.64244002
  0
VERTEX
  8
0
 10
6.33232676
 20
5.85233459
  0
VERTEX
  8
0
 10
6.31228293
 20
6.07637118
  0
VERTEX
  8
0
 10
6.29349333
 20
6.17969339
  0
VERTEX
  8
0
 10
6.26346044
 20
6.26975188
  0
VERTEX
  8
0
 10
6.21813566
 20
6.34094692
  0
VERTEX
  8
0
 10
6.15347035
 20
6.38767877
  0
VERTEX
  8
0
 10
6.04014934
 20
6.30459771
  0
VERTEX
  8
0
 10
5.94387195
 20
6.20440674
  0
VERTEX
  8
0
 10
6.00260000
 20
5.83178737
  0
VERTEX
  8
0
 10
6.02937111
 20
5.63945217
  0
VERTEX
  8
0
 10
6.05270054
 20
5.55473119
  0
VERTEX
  8
0
 10
6.08765443
 20
5.47941905
  0
VERTEX
  8
0
 10
6.01706009
 20
5.38028809
  0
VERTEX
  8
0
 10
5.95095982
 20
5.27690852
  0
VERTEX
  8
0
 10
5.74136142
 20
5.40145249
  0
VERTEX
  8
0
 10
5.75985248
 20
5.47146061
  0
VERTEX
  8
0
 10
5.78085098
 20
5.55131028
  0
VERTEX
  8
0
 10
5.77475384
 20
5.70256631
  0
VERTEX
  8
0
 10
5.75452461
 20
5.88444010
  0
VERTEX
  8
0
 10
5.72023916
 20
6.10899655
  0
VERTEX
  8
0
 10
5.65630700
 20
6.28338585
  0
VERTEX
  8
0
 10
5.61380032
 20
6.34503543
  0
VERTEX
  8
0
 10
5.59150363
 20
6.39375409
  0
VERTEX
  8
0
 10
5.62178356
 20
6.44383908
  0
VERTEX
  8
0
 10
5.66947018
 20
6.49197169
  0
VERTEX
  8
0
 10
5.75452461
 20
6.57702611
  0
VERTEX
  8
0
 10
5.81144774
 20
6.53927189
  0
VERTEX
  8
0
 10
5.85246663
 20
6.48560196
  0
VERTEX
  8
0
 10
5.92463345
 20
6.36844027
  0
VERTEX
  8
0
 10
5.97510934
 20
6.39041444
  0
VERTEX
  8
0
 10
6.01806923
 20
6.42357456
  0
VERTEX
  8
0
 10
6.09474230
 20
6.49905956
  0
VERTEX
  8
0
 10
6.27092646
 20
6.64891735
  0
VERTEX
  8
0
 10
6.29016496
 20
6.64891735
  0
VERTEX
  8
0
 10
6.40256938
 20
6.52792392
  0
VERTEX
  8
0
 10
6.47745959
 20
6.37801784
  0
VERTEX
  8
0
 10
6.52578410
 20
6.20028740
  0
VERTEX
  8
0
 10
6.55849141
 20
5.99582090
  0
VERTEX
  8
0
 10
6.56866695
 20
5.83285319
  0
VERTEX
  8
0
 10
6.57878039
 20
5.75527021
  0
VERTEX
  8
0
 10
6.60405628
 20
5.68192957
  0
VERTEX
  8
0
 10
6.66885965
 20
5.59079984
  0
SEQEND
  0
POLYLINE
  8
Default_Layer
 66
   1
 39
0.000000
 70
    1
  0
VERTEX
  8
0
 10
5.40215629
 20
6.38160345
  0
VERTEX
  8
0
 10
5.33525107
 20
6.28919517
  0
VERTEX
  8
0
 10
5.23204744
 20
6.21756993
  0
VERTEX
  8
0
 10
5.11275596
 20
6.18586783
  0
VERTEX
  8
0
 10
4.97297506
 20
6.18630673
  0
VERTEX
  8
0
 10
4.83692069
 20
6.21376845
  0
VERTEX
  8
0
 10
4.72880877
 20
6.26313479
  0
VERTEX
  8
0
 10
4.69682364
 20
6.24210050
  0
VERTEX
  8
0
 10
4.68475909
 20
6.20224157
  0
VERTEX
  8
0
 10
4.68931922
 20
6.10011382
  0
VERTEX
  8
0
 10
4.69926451
 20
5.99807798
  0
VERTEX
  8
0
 10
4.71174992
 20
5.95577271
  0
VERTEX
  8
0
 10
4.73488409
 20
5.93000497
  0
VERTEX
  8
0
 10
4.86586558
 20
5.94039900
  0
VERTEX
  8
0
 10
4.99612267
 20
5.96341921
  0
VERTEX
  8
0
 10
5.08826496
 20
5.97556984
  0
VERTEX
  8
0
 10
5.22280833
 20
6.02242541
  0
VERTEX
  8
0
 10
5.34241568
 20
6.06062426
  0
VERTEX
  8
0
 10
5.33460004
 20
5.84479321
  0
VERTEX
  8
0
 10
5.34110355
 20
5.74249728
  0
VERTEX
  8
0
 10
5.36266673
 20
5.64244002
  0
VERTEX
  8
0
 10
5.44063329
 20
5.47941905
  0
VERTEX
  8
0
 10
5.32014851
 20
5.38437656
  0
VERTEX
  8
0
 10
5.18648257
 20
5.29007170
  0
VERTEX
  8
0
 10
5.10750346
 20
5.19792941
  0
VERTEX
  8
0
 10
5.06571171
 20
5.14846716
  0
VERTEX
  8
0
 10
5.02244904
 20
5.11388754
  0
VERTEX
  8
0
 10
4.98016127
 20
5.12733168
  0
VERTEX
  8
0
 10
4.92111233
 20
5.16363624
  0
VERTEX
  8
0
 10
4.81993851
 20
5.23134365
  0
VERTEX
  8
0
 10
4.65217268
 20
5.29140540
  0
VERTEX
  8
0
 10
4.46048232
 20
5.31639807
  0
VERTEX
  8
0
 10
4.48174713
 20
5.35912362
  0
VERTEX
  8
0
 10
4.52356996
 20
5.39016112
  0
VERTEX
  8
0
 10
4.63059117
 20
5.43385418
  0
VERTEX
  8
0
 10
4.75709807
 20
5.46112086
  0
VERTEX
  8
0
 10
4.91208080
 20
5.46018055
  0
VERTEX
  8
0
 10
5.01573193
 20
5.42335260
  0
VERTEX
  8
0
 10
5.10750346
 20
5.38828931
  0
VERTEX
  8
0
 10
5.13161812
 20
5.42785603
  0
VERTEX
  8
0
 10
5.13550112
 20
5.47905216
  0
VERTEX
  8
0
 10
5.12066665
 20
5.59079984
  0
VERTEX
  8
0
 10
5.10724134
 20
5.69813280
  0
VERTEX
  8
0
 10
5.08117710
 20
5.78622250
  0
VERTEX
  8
0
 10
4.83276926
 20
5.76108551
  0
VERTEX
  8
0
 10
4.59110161
 20
5.71433126
  0
VERTEX
  8
0
 10
4.53886000
 20
5.68922313
  0
VERTEX
  8
0
 10
4.51335727
 20
5.68166747
  0
VERTEX
  8
0
 10
4.48680869
 20
5.68800489
  0
VERTEX
  8
0
 10
4.47535995
 20
5.88106268
  0
VERTEX
  8
0
 10
4.44124382
 20
6.04746108
  0
VERTEX
  8
0
 10
4.39542520
 20
6.12826240
  0
VERTEX
  8
0
 10
4.36226472
 20
6.21149461
  0
VERTEX
  8
0
 10
4.39413555
 20
6.22942893
  0
VERTEX
  8
0
 10
4.42808064
 20
6.23782098
  0
VERTEX
  8
0
 10
4.58450913
 20
6.31340196
  0
VERTEX
  8
0
 10
4.72880877
 20
6.40691727
  0
VERTEX
  8
0
 10
4.77790539
 20
6.45229187
  0
VERTEX
  8
0
 10
4.83310170
 20
6.49197169
  0
VERTEX
  8
0
 10
4.96393354
 20
6.42903353
  0
VERTEX
  8
0
 10
5.03941970
 20
6.39932699
  0
VERTEX
  8
0
 10
5.12066665
 20
6.38160345
  0
VERTEX
  8
0
 10
5.25619178
 20
6.38204839
  0
VERTEX
  8
0
 10
5.40215629
 20
6.38160345
  0
SEQEND
  0
POLYLINE
  8
Default_Layer
 66
   1
 39
0.000000
 70
    1
  0
VERTEX
  8
0
 10
4.23164543
 20
5.10679967
  0
VERTEX
  8
0
 10
4.19661103
 20
5.06622231
  0
VERTEX
  8
0
 10
4.14760356
 20
5.02883312
  0
VERTEX
  8
0
 10
4.09703302
 20
4.96716791
  0
VERTEX
  8
0
 10
4.04229808
 20
4.92352764
  0
VERTEX
  8
0
 10
3.99502793
 20
4.94036433
  0
VERTEX
  8
0
 10
3.94408047
 20
4.97010506
  0
VERTEX
  8
0
 10
3.89194063
 20
4.99070141
  0
VERTEX
  8
0
 10
3.85295074
 20
5.02174525
  0
VERTEX
  8
0
 10
3.87812364
 20
5.15032361
  0
VERTEX
  8
0
 10
3.87927710
 20
5.28298383
  0
VERTEX
  8
0
 10
3.86003860
 20
5.38828931
  0
VERTEX
  8
0
 10
3.77498418
 20
5.89152797
  0
VERTEX
  8
0
 10
3.74608431
 20
6.08753623
  0
VERTEX
  8
0
 10
3.72174058
 20
6.17231930
  0
VERTEX
  8
0
 10
3.67676657
 20
6.24389629
  0
VERTEX
  8
0
 10
3.76497903
 20
6.34507541
  0
VERTEX
  8
0
 10
3.86611392
 20
6.43324364
  0
VERTEX
  8
0
 10
3.90169564
 20
6.40289140
  0
VERTEX
  8
0
 10
3.95116834
 20
6.34211390
  0
VERTEX
  8
0
 10
3.99699277
 20
6.29257405
  0
VERTEX
  8
0
 10
4.02305958
 20
6.24997161
  0
VERTEX
  8
0
 10
4.00919770
 20
6.20481747
  0
VERTEX
  8
0
 10
3.99065790
 20
6.15884187
  0
VERTEX
  8
0
 10
4.00285472
 20
6.08647276
  0
VERTEX
  8
0
 10
4.02305958
 20
5.99582090
  0
VERTEX
  8
0
 10
4.02305958
 20
5.94316816
  0
VERTEX
  8
0
 10
4.08786295
 20
5.60396302
  0
VERTEX
  8
0
 10
4.12127719
 20
5.36803825
  0
VERTEX
  8
0
 10
4.15816887
 20
5.21511352
  0
VERTEX
  8
0
 10
4.23164543
 20
5.10679967
  0
SEQEND
  0
POLYLINE
  8
Default_Layer
 66
   1
 39
0.000000
 70
    1
  0
VERTEX
  8
0
 10
2.79483322
 20
6.06771213
  0
VERTEX
  8
0
 10
2.79274094
 20
6.02579978
  0
VERTEX
  8
0
 10
2.78167003
 20
5.98265771
  0
VERTEX
  8
0
 10
2.78520327
 20
5.80233226
  0
VERTEX
  8
0
 10
2.81407172
 20
5.62320152
  0
VERTEX
  8
0
 10
2.85030790
 20
5.49128252
  0
VERTEX
  8
0
 10
2.90520146
 20
5.38828931
  0
VERTEX
  8
0
 10
2.83422596
 20
5.30581311
  0
VERTEX
  8
0
 10
2.75534367
 20
5.23134365
  0
VERTEX
  8
0
 10
2.62472437
 20
5.05515949
  0
VERTEX
  8
0
 10
2.53703937
 20
5.07342044
  0
VERTEX
  8
0
 10
2.45770475
 20
5.10014111
  0
VERTEX
  8
0
 10
2.37530669
 20
5.12386261
  0
VERTEX
  8
0
 10
2.27843137
 20
5.13312604
  0
VERTEX
  8
0
 10
2.28426412
 20
4.99714639
  0
VERTEX
  8
0
 10
2.30567131
 20
4.86997288
  0
VERTEX
  8
0
 10
2.32965938
 20
4.74046587
  0
VERTEX
  8
0
 10
2.34323474
 20
4.59748569
  0
VERTEX
  8
0
 10
2.22433377
 20
4.56477805
  0
VERTEX
  8
0
 10
2.10224721
 20
4.55192082
  0
VERTEX
  8
0
 10
2.05058308
 20
4.83094579
  0
VERTEX
  8
0
 10
1.99694173
 20
5.10679967
  0
VERTEX
  8
0
 10
1.94639113
 20
5.09071702
  0
VERTEX
  8
0
 10
1.91004627
 20
5.06026289
  0
VERTEX
  8
0
 10
1.87639391
 20
5.02700392
  0
VERTEX
  8
0
 10
1.83392076
 20
5.00250675
  0
VERTEX
  8
0
 10
1.83656439
 20
5.09725289
  0
VERTEX
  8
0
 10
1.87948563
 20
5.17869091
  0
VERTEX
  8
0
 10
1.93549800
 20
5.22702576
  0
VERTEX
  8
0
 10
1.97770323
 20
5.27690852
  0
VERTEX
  8
0
 10
1.97066518
 20
5.33316805
  0
VERTEX
  8
0
 10
1.95137686
 20
5.39436462
  0
VERTEX
  8
0
 10
1.94546681
 20
5.46110311
  0
VERTEX
  8
0
 10
1.92505050
 20
5.51890860
  0
VERTEX
  8
0
 10
1.86288755
 20
5.50202294
  0
VERTEX
  8
0
 10
1.81468226
 20
5.47334373
  0
VERTEX
  8
0
 10
1.76877423
 20
5.42335644
  0
VERTEX
  8
0
 10
1.71646465
 20
5.38120144
  0
VERTEX
  8
0
 10
1.71752093
 20
5.49238423
  0
VERTEX
  8
0
 10
1.75739760
 20
5.57725587
  0
VERTEX
  8
0
 10
1.82414463
 20
5.63928232
  0
VERTEX
  8
0
 10
1.90581199
 20
5.68192957
  0
VERTEX
  8
0
 10
1.87207599
 20
5.85759163
  0
VERTEX
  8
0
 10
1.83376294
 20
5.92527957
  0
VERTEX
  8
0
 10
1.77519270
 20
5.96949453
  0
VERTEX
  8
0
 10
1.67603930
 20
5.98226087
  0
VERTEX
  8
0
 10
1.55951899
 20
5.98265771
  0
VERTEX
  8
0
 10
1.60329359
 20
6.06846585
  0
VERTEX
  8
0
 10
1.66815588
 20
6.13995550
  0
VERTEX
  8
0
 10
1.75059095
 20
6.18823351
  0
VERTEX
  8
0
 10
1.84708394
 20
6.20440674
  0
VERTEX
  8
0
 10
1.93844170
 20
6.18325518
  0
VERTEX
  8
0
 10
2.00893606
 20
6.13358964
  0
VERTEX
  8
0
 10
2.12148571
 20
6.00189621
  0
VERTEX
  8
0
 10
2.23223090
 20
6.13639916
  0
VERTEX
  8
0
 10
2.33715942
 20
6.27629798
  0
VERTEX
  8
0
 10
2.34323474
 20
6.27022266
  0
VERTEX
  8
0
 10
2.39971147
 20
6.24758602
  0
VERTEX
  8
0
 10
2.44854021
 20
6.21149461
  0
VERTEX
  8
0
 10
2.61161483
 20
6.13151963
  0
VERTEX
  8
0
 10
2.79483322
 20
6.06771213
  0
SEQEND
  0
POLYLINE
  8
Default_Layer
 66
   1
 39
0.000000
 70
    1
  0
VERTEX
  8
0
 10
2.57915951
 20
5.57763665
  0
VERTEX
  8
0
 10
2.53645634
 20
5.82209240
  0
VERTEX
  8
0
 10
2.49218756
 20
5.91557864
  0
VERTEX
  8
0
 10
2.41512598
 20
5.97556984
  0
VERTEX
  8
0
 10
2.29411248
 20
5.96726633
  0
VERTEX
  8
0
 10
2.20897380
 20
5.91413127
  0
VERTEX
  8
0
 10
2.16160156
 20
5.82640585
  0
VERTEX
  8
0
 10
2.15388739
 20
5.71433126
  0
VERTEX
  8
0
 10
2.18782842
 20
5.51747057
  0
VERTEX
  8
0
 10
2.22577863
 20
5.34171189
  0
VERTEX
  8
0
 10
2.33188772
 20
5.35092058
  0
VERTEX
  8
0
 10
2.43245697
 20
5.33932143
  0
VERTEX
  8
0
 10
2.52765151
 20
5.32258905
  0
VERTEX
  8
0
 10
2.61763651
 20
5.31639807
  0
VERTEX
  8
0
 10
2.60872065
 20
5.44005178
  0
VERTEX
  8
0
 10
2.57915951
 20
5.57763665
  0
SEQEND
  0
POLYLINE
  8
Default_Layer
 66
   1
 39
0.000000
 70
    1
  0
VERTEX
  8
0
 10
3.32338570
 20
6.02214726
  0
VERTEX
  8
0
 10
3.30875735
 20
5.98723007
  0
VERTEX
  8
0
 10
3.28358357
 20
5.96126259
  0
VERTEX
  8
0
 10
3.22618065
 20
5.91684179
  0
VERTEX
  8
0
 10
3.19076395
 20
5.87265481
  0
VERTEX
  8
0
 10
3.16939484
 20
5.85343313
  0
VERTEX
  8
0
 10
3.14112622
 20
5.84495055
  0
VERTEX
  8
0
 10
2.98418056
 20
6.03531045
  0
VERTEX
  8
0
 10
3.04983443
 20
6.11635935
  0
VERTEX
  8
0
 10
3.12796304
 20
6.18516824
  0
VERTEX
  8
0
 10
3.16165175
 20
6.19640102
  0
VERTEX
  8
0
 10
3.18787983
 20
6.17627975
  0
VERTEX
  8
0
 10
3.23225596
 20
6.10618913
  0
VERTEX
  8
0
 10
3.32338570
 20
6.02214726
  0
SEQEND
  0
POLYLINE
  8
Default_Layer
 66
   1
 39
0.000000
 70
    1
  0
VERTEX
  8
0
 10
2.61763651
 20
5.31639807
  0
VERTEX
  8
0
 10
2.52765151
 20
5.32258905
  0
VERTEX
  8
0
 10
2.43245697
 20
5.33932143
  0
VERTEX
  8
0
 10
2.33188772
 20
5.35092058
  0
VERTEX
  8
0
 10
2.22577863
 20
5.34171189
  0
VERTEX
  8
0
 10
2.18782842
 20
5.51747057
  0
VERTEX
  8
0
 10
2.15388739
 20
5.71433126
  0
VERTEX
  8
0
 10
2.16160156
 20
5.82640585
  0
VERTEX
  8
0
 10
2.20897380
 20
5.91413127
  0
VERTEX
  8
0
 10
2.29411248
 20
5.96726633
  0
VERTEX
  8
0
 10
2.41512598
 20
5.97556984
  0
VERTEX
  8
0
 10
2.49218756
 20
5.91557864
  0
VERTEX
  8
0
 10
2.53645634
 20
5.82209240
  0
VERTEX
  8
0
 10
2.57915951
 20
5.57763665
  0
VERTEX
  8
0
 10
2.60872065
 20
5.44005178
  0
VERTEX
  8
0
 10
2.61763651
 20
5.31639807
  0
SEQEND
  0
POLYLINE
  8
Default_Layer
 66
   1
 39
0.000000
 70
    1
  0
VERTEX
  8
0
 10
3.08847349
 20
5.59079984
  0
VERTEX
  8
0
 10
3.19890481
 20
5.68960517
  0
VERTEX
  8
0
 10
3.29807188
 20
5.77305931
  0
VERTEX
  8
0
 10
3.32201205
 20
5.76723093
  0
VERTEX
  8
0
 10
3.34837797
 20
5.73309000
  0
VERTEX
  8
0
 10
3.38920162
 20
5.63636471
  0
VERTEX
  8
0
 10
3.42134097
 20
5.44393329
  0
VERTEX
  8
0
 10
3.44185436
 20
5.24450683
  0
VERTEX
  8
0
 10
3.46109286
 20
5.10679967
  0
VERTEX
  8
0
 10
3.49955661
 20
5.04976064
  0
VERTEX
  8
0
 10
3.52589623
 20
5.00250675
  0
VERTEX
  8
0
 10
3.48571545
 20
4.94319417
  0
VERTEX
  8
0
 10
3.42160331
 20
4.88505064
  0
VERTEX
  8
0
 10
3.36542265
 20
4.81919560
  0
VERTEX
  8
0
 10
3.31123507
 20
4.77974517
  0
VERTEX
  8
0
 10
3.27819311
 20
4.78894559
  0
VERTEX
  8
0
 10
3.25425709
 20
4.81462934
  0
VERTEX
  8
0
 10
3.22735655
 20
4.89826942
  0
VERTEX
  8
0
 10
3.21301746
 20
5.07439799
  0
VERTEX
  8
0
 10
3.18669109
 20
5.17261559
  0
VERTEX
  8
0
 10
3.17352791
 20
5.37512612
  0
VERTEX
  8
0
 10
3.16171591
 20
5.45936872
  0
VERTEX
  8
0
 10
3.14112622
 20
5.53207178
  0
VERTEX
  8
0
 10
3.11307447
 20
5.55976882
  0
VERTEX
  8
0
 10
3.08847349
 20
5.59079984
  0
SEQEND
  0
POLYLINE
  8
Default_Layer
 66
   1
 39
0.000000
 70
    1
  0
VERTEX
  8
0
 10
8.84483529
 20
7.88423158
  0
VERTEX
  8
0
 10
8.33552130
 20
7.85182990
  0
VERTEX
  8
0
 10
8.21097733
 20
7.82550353
  0
VERTEX
  8
0
 10
7.94366343
 20
7.77993866
  0
VERTEX
  8
0
 10
7.61102170
 20
7.69697880
  0
VERTEX
  8
0
 10
7.29056697
 20
7.60274195
  0
VERTEX
  8
0
 10
6.66162422
 20
7.39622887
  0
VERTEX
  8
0
 10
6.04816487
 20
7.18455770
  0
VERTEX
  8
0
 10
6.01145917
 20
7.24607415
  0
VERTEX
  8
0
 10
5.98336150
 20
7.30910168
  0
VERTEX
  8
0
 10
5.85881753
 20
7.42655779
  0
VERTEX
  8
0
 10
5.76584953
 20
7.48070220
  0
VERTEX
  8
0
 10
5.66083141
 20
7.52327649
  0
VERTEX
  8
0
 10
5.42139479
 20
7.57034026
  0
VERTEX
  8
0
 10
5.24808500
 20
7.57311064
  0
VERTEX
  8
0
 10
5.09060540
 20
7.55691432
  0
VERTEX
  8
0
 10
4.80070001
 20
7.49237371
  0
VERTEX
  8
0
 10
4.42808064
 20
7.40023142
  0
VERTEX
  8
0
 10
4.06265902
 20
7.30273882
  0
VERTEX
  8
0
 10
3.70916826
 20
7.19164557
  0
VERTEX
  8
0
 10
3.04290862
 20
6.93040699
  0
VERTEX
  8
0
 10
2.69107157
 20
6.81112203
  0
VERTEX
  8
0
 10
2.33108411
 20
6.71473327
  0
VERTEX
  8
0
 10
2.23894182
 20
6.70157009
  0
VERTEX
  8
0
 10
2.16097526
 20
6.67524372
  0
VERTEX
  8
0
 10
1.84708394
 20
6.62259098
  0
VERTEX
  8
0
 10
1.74886633
 20
6.59626462
  0
VERTEX
  8
0
 10
1.63141023
 20
6.59018930
  0
VERTEX
  8
0
 10
1.55344367
 20
6.57095080
  0
VERTEX
  8
0
 10
1.46130138
 20
6.55778761
  0
VERTEX
  8
0
 10
1.19936473
 20
6.52045422
  0
VERTEX
  8
0
 10
0.91958572
 20
6.49905956
  0
VERTEX
  8
0
 10
0.90473948
 20
6.57231482
  0
VERTEX
  8
0
 10
0.89933466
 20
6.64284204
  0
VERTEX
  8
0
 10
0.84025597
 20
6.75519480
  0
VERTEX
  8
0
 10
0.73870010
 20
6.83816078
  0
VERTEX
  8
0
 10
0.61139661
 20
6.87890465
  0
VERTEX
  8
0
 10
0.54331751
 20
6.87943225
  0
VERTEX
  8
0
 10
0.47507510
 20
6.86459107
  0
VERTEX
  8
0
 10
0.39076584
 20
6.82012378
  0
VERTEX
  8
0
 10
0.32407924
 20
6.75369044
  0
VERTEX
  8
0
 10
0.27649427
 20
6.67130764
  0
VERTEX
  8
0
 10
0.24948988
 20
6.57899200
  0
VERTEX
  8
0
 10
0.24454505
 20
6.48276012
  0
VERTEX
  8
0
 10
0.26313873
 20
6.38862860
  0
VERTEX
  8
0
 10
0.30674989
 20
6.30261406
  0
VERTEX
  8
0
 10
0.37685750
 20
6.23073311
  0
VERTEX
  8
0
 10
0.45637645
 20
6.19212289
  0
VERTEX
  8
0
 10
0.52671529
 20
6.15276656
  0
VERTEX
  8
0
 10
0.57329271
 20
6.03531045
  0
VERTEX
  8
0
 10
0.91958572
 20
5.19792941
  0
VERTEX
  8
0
 10
1.31751891
 20
4.25119268
  0
VERTEX
  8
0
 10
1.51316542
 20
3.76731758
  0
VERTEX
  8
0
 10
1.70937678
 20
3.29736809
  0
VERTEX
  8
0
 10
1.95846473
 20
2.70198713
  0
VERTEX
  8
0
 10
1.97770323
 20
2.63718377
  0
VERTEX
  8
0
 10
2.01010492
 20
2.58453103
  0
VERTEX
  8
0
 10
2.05450950
 20
2.46311321
  0
VERTEX
  8
0
 10
2.11541039
 20
2.34961881
  0
VERTEX
  8
0
 10
2.20684543
 20
2.36242925
  0
VERTEX
  8
0
 10
2.31071760
 20
2.36289662
  0
VERTEX
  8
0
 10
2.51334358
 20
2.36885731
  0
VERTEX
  8
0
 10
2.50715687
 20
2.41812799
  0
VERTEX
  8
0
 10
2.48094190
 20
2.46099960
  0
VERTEX
  8
0
 10
2.46777871
 20
2.51972766
  0
VERTEX
  8
0
 10
2.36348579
 20
2.76780306
  0
VERTEX
  8
0
 10
2.03643129
 20
3.57176986
  0
VERTEX
  8
0
 10
1.91289986
 20
3.87249799
  0
VERTEX
  8
0
 10
1.88929279
 20
3.92186553
  0
VERTEX
  8
0
 10
1.88657349
 20
3.97679092
  0
VERTEX
  8
0
 10
2.38981216
 20
4.00919260
  0
VERTEX
  8
0
 10
2.50726827
 20
4.00919260
  0
VERTEX
  8
0
 10
2.80865256
 20
4.03489998
  0
VERTEX
  8
0
 10
3.10771199
 20
4.07500852
  0
VERTEX
  8
0
 10
3.31731038
 20
4.10032234
  0
VERTEX
  8
0
 10
3.39527694
 20
4.12664871
  0
VERTEX
  8
0
 10
3.51374560
 20
4.13981189
  0
VERTEX
  8
0
 10
4.07571232
 20
4.27043118
  0
VERTEX
  8
0
 10
4.74197196
 20
4.45370321
  0
VERTEX
  8
0
 10
5.38899310
 20
4.65621374
  0
VERTEX
  8
0
 10
5.49704954
 20
4.69749838
  0
VERTEX
  8
0
 10
5.61074213
 20
4.72101711
  0
VERTEX
  8
0
 10
5.66947018
 20
4.59748569
  0
VERTEX
  8
0
 10
5.72710166
 20
4.53886408
  0
VERTEX
  8
0
 10
5.79401416
 20
4.49926808
  0
VERTEX
  8
0
 10
5.86168198
 20
4.49135409
  0
VERTEX
  8
0
 10
5.92977236
 20
4.50002023
  0
VERTEX
  8
0
 10
6.04208956
 20
4.53166977
  0
VERTEX
  8
0
 10
6.14030716
 20
4.55192082
  0
VERTEX
  8
0
 10
6.85310341
 20
4.72728764
  0
VERTEX
  8
0
 10
7.59028256
 20
4.87796277
  0
VERTEX
  8
0
 10
7.68242485
 20
4.90428914
  0
VERTEX
  8
0
 10
7.79279308
 20
4.91137701
  0
VERTEX
  8
0
 10
7.88493538
 20
4.93669083
  0
VERTEX
  8
0
 10
8.30311962
 20
4.99541888
  0
VERTEX
  8
0
 10
8.70814068
 20
5.04807162
  0
VERTEX
  8
0
 10
9.11923705
 20
5.08756117
  0
VERTEX
  8
0
 10
9.38021071
 20
5.08975068
  0
VERTEX
  8
0
 10
9.63563890
 20
5.08756117
  0
VERTEX
  8
0
 10
9.52577694
 20
5.50086099
  0
VERTEX
  8
0
 10
9.44021624
 20
5.93709284
  0
VERTEX
  8
0
 10
9.41388987
 20
6.06062426
  0
VERTEX
  8
0
 10
9.37440032
 20
6.59626462
  0
VERTEX
  8
0
 10
9.36954388
 20
6.86999741
  0
VERTEX
  8
0
 10
9.38148819
 20
7.13899283
  0
VERTEX
  8
0
 10
9.41388987
 20
7.31517699
  0
VERTEX
  8
0
 10
9.44554328
 20
7.50758873
  0
VERTEX
  8
0
 10
9.49185643
 20
7.68172105
  0
VERTEX
  8
0
 10
9.52009522
 20
7.76271818
  0
VERTEX
  8
0
 10
9.53742130
 20
7.84474203
  0
VERTEX
  8
0
 10
9.19752135
 20
7.88243841
  0
VERTEX
  8
0
 10
8.84483529
 20
7.88423158
  0
SEQEND
  0
ENDSEC
  0
EOF
