  0
SECTION
  2
HEADER
  9
$ACADVER
  1
AC1009
  9
$EXTMIN
 10
-1.83137263
 20
-1.21818370
 30
0.0
  9
$EXTMAX
 10
1.82343107
 20
1.21485468
 30
0.0
  0
ENDSEC
  0
SECTION
  2
TABLES
  0
TABLE
  2
LAYER
 70
1
 0
LAYER
 2
Default_Layer
 70
0
 62
1
 6
CONTINUOUS
 0
ENDTAB
 0
ENDSEC
  0
SECTION
  2
ENTITIES
  0
POLYLINE
  8
Default_Layer
 66
   1
 39
0.000000
 70
    1
  0
VERTEX
  8
0
 10
-0.14981996
 20
1.20846193
  0
VERTEX
  8
0
 10
-0.08135144
 20
1.15843251
  0
VERTEX
  8
0
 10
-0.04642490
 20
1.07523148
  0
VERTEX
  8
0
 10
0.04829560
 20
1.09697619
  0
VERTEX
  8
0
 10
0.15007716
 20
1.11484053
  0
VERTEX
  8
0
 10
0.16036523
 20
1.11484053
  0
VERTEX
  8
0
 10
0.28323783
 20
1.13337668
  0
VERTEX
  8
0
 10
0.38831985
 20
1.10299940
  0
VERTEX
  8
0
 10
0.46185768
 20
1.03276079
  0
VERTEX
  8
0
 10
0.49009774
 20
0.93171296
  0
VERTEX
  8
0
 10
0.46876130
 20
0.84672618
  0
VERTEX
  8
0
 10
0.41491132
 20
0.77938713
  0
VERTEX
  8
0
 10
0.28382202
 20
0.67502572
  0
VERTEX
  8
0
 10
0.31176891
 20
0.55147192
  0
VERTEX
  8
0
 10
0.30754980
 20
0.48499400
  0
VERTEX
  8
0
 10
0.28690844
 20
0.42811214
  0
VERTEX
  8
0
 10
0.35716948
 20
0.42073128
  0
VERTEX
  8
0
 10
0.42912323
 20
0.42946180
  0
VERTEX
  8
0
 10
0.56005658
 20
0.47183642
  0
VERTEX
  8
0
 10
0.70583257
 20
0.53508348
  0
VERTEX
  8
0
 10
0.78734125
 20
0.55479234
  0
VERTEX
  8
0
 10
0.87692901
 20
0.55156893
  0
VERTEX
  8
0
 10
1.00025634
 20
0.50278565
  0
VERTEX
  8
0
 10
1.10018004
 20
0.42811214
  0
VERTEX
  8
0
 10
1.19276600
 20
0.34861847
  0
VERTEX
  8
0
 10
1.24836408
 20
0.31746091
  0
VERTEX
  8
0
 10
1.31674383
 20
0.30156893
  0
VERTEX
  8
0
 10
1.32034465
 20
0.30156893
  0
VERTEX
  8
0
 10
1.36355453
 20
0.30156893
  0
VERTEX
  8
0
 10
1.37024177
 20
0.30156893
  0
VERTEX
  8
0
 10
1.50038580
 20
0.31854424
  0
VERTEX
  8
0
 10
1.50347222
 20
0.31854424
  0
VERTEX
  8
0
 10
1.55336934
 20
0.31854424
  0
VERTEX
  8
0
 10
1.56005658
 20
0.31854424
  0
VERTEX
  8
0
 10
1.62692901
 20
0.30156893
  0
VERTEX
  8
0
 10
1.63052984
 20
0.30156893
  0
VERTEX
  8
0
 10
1.74566438
 20
0.23034959
  0
VERTEX
  8
0
 10
1.79001650
 20
0.18141944
  0
VERTEX
  8
0
 10
1.82343107
 20
0.12152778
  0
VERTEX
  8
0
 10
1.82343107
 20
0.09477881
  0
VERTEX
  8
0
 10
1.82343107
 20
0.00835905
  0
VERTEX
  8
0
 10
1.82343107
 20
0.01504630
  0
VERTEX
  8
0
 10
1.76279459
 20
-0.12102771
  0
VERTEX
  8
0
 10
1.73138358
 20
-0.19264984
  0
VERTEX
  8
0
 10
1.71386317
 20
-0.27147634
  0
VERTEX
  8
0
 10
1.71702619
 20
-0.36443900
  0
VERTEX
  8
0
 10
1.73769798
 20
-0.44551703
  0
VERTEX
  8
0
 10
1.79359568
 20
-0.59812243
  0
VERTEX
  8
0
 10
1.79359568
 20
-0.60172325
  0
VERTEX
  8
0
 10
1.81619684
 20
-0.72616821
  0
VERTEX
  8
0
 10
1.81187780
 20
-0.79232701
  0
VERTEX
  8
0
 10
1.79359568
 20
-0.84812243
  0
VERTEX
  8
0
 10
1.79359568
 20
-0.85172325
  0
VERTEX
  8
0
 10
1.72839844
 20
-0.95275332
  0
VERTEX
  8
0
 10
1.63565781
 20
-1.03718432
  0
VERTEX
  8
0
 10
1.51604763
 20
-1.09215640
  0
VERTEX
  8
0
 10
1.37024177
 20
-1.10480967
  0
VERTEX
  8
0
 10
1.28873687
 20
-1.08955353
  0
VERTEX
  8
0
 10
1.21895605
 20
-1.06254366
  0
VERTEX
  8
0
 10
1.08371914
 20
-1.00141461
  0
VERTEX
  8
0
 10
1.08199331
 20
-0.99953961
  0
VERTEX
  8
0
 10
0.97721015
 20
-0.96730415
  0
VERTEX
  8
0
 10
0.86542953
 20
-0.94655607
  0
VERTEX
  8
0
 10
0.86355453
 20
-0.94483025
  0
VERTEX
  8
0
 10
0.76615665
 20
-0.94612491
  0
VERTEX
  8
0
 10
0.68015480
 20
-0.96447496
  0
VERTEX
  8
0
 10
0.53283828
 20
-1.03608263
  0
VERTEX
  8
0
 10
0.40260313
 20
-1.12713613
  0
VERTEX
  8
0
 10
0.27044753
 20
-1.20511831
  0
VERTEX
  8
0
 10
0.20995337
 20
-1.21818370
  0
VERTEX
  8
0
 10
0.08011831
 20
-1.20511831
  0
VERTEX
  8
0
 10
0.01062461
 20
-1.18734150
  0
VERTEX
  8
0
 10
-0.05151050
 20
-1.15732034
  0
VERTEX
  8
0
 10
-0.17656893
 20
-1.09503601
  0
VERTEX
  8
0
 10
-0.17965535
 20
-1.09503601
  0
VERTEX
  8
0
 10
-0.26926715
 20
-1.08274268
  0
VERTEX
  8
0
 10
-0.34925869
 20
-1.08875687
  0
VERTEX
  8
0
 10
-0.49342507
 20
-1.13372335
  0
VERTEX
  8
0
 10
-0.63824260
 20
-1.18596653
  0
VERTEX
  8
0
 10
-0.71904808
 20
-1.20107660
  0
VERTEX
  8
0
 10
-0.80979938
 20
-1.20151749
  0
VERTEX
  8
0
 10
-0.90979931
 20
-1.17755608
  0
VERTEX
  8
0
 10
-0.99299126
 20
-1.13006887
  0
VERTEX
  8
0
 10
-1.06046175
 20
-1.06673704
  0
VERTEX
  8
0
 10
-1.11329733
 20
-0.99524177
  0
VERTEX
  8
0
 10
-1.16337452
 20
-0.89886829
  0
VERTEX
  8
0
 10
-1.19522292
 20
-0.85426389
  0
VERTEX
  8
0
 10
-1.23984053
 20
-0.82188786
  0
VERTEX
  8
0
 10
-1.32715770
 20
-0.80379562
  0
VERTEX
  8
0
 10
-1.41645691
 20
-0.81480024
  0
VERTEX
  8
0
 10
-1.59323560
 20
-0.84812243
  0
VERTEX
  8
0
 10
-1.59992284
 20
-0.84812243
  0
VERTEX
  8
0
 10
-1.68990491
 20
-0.83615764
  0
VERTEX
  8
0
 10
-1.75483591
 20
-0.79257361
  0
VERTEX
  8
0
 10
-1.79889474
 20
-0.72596667
  0
VERTEX
  8
0
 10
-1.82626029
 20
-0.64493313
  0
VERTEX
  8
0
 10
-1.82749553
 20
-0.55891284
  0
VERTEX
  8
0
 10
-1.79951132
 20
-0.47518004
  0
VERTEX
  8
0
 10
-1.72191364
 20
-0.35805738
  0
VERTEX
  8
0
 10
-1.68418557
 20
-0.29789472
  0
VERTEX
  8
0
 10
-1.65959362
 20
-0.22826646
  0
VERTEX
  8
0
 10
-1.65539621
 20
-0.16301580
  0
VERTEX
  8
0
 10
-1.66397377
 20
-0.10066044
  0
VERTEX
  8
0
 10
-1.69302984
 20
0.01144547
  0
VERTEX
  8
0
 10
-1.70477149
 20
0.10464603
  0
VERTEX
  8
0
 10
-1.69701452
 20
0.19066626
  0
VERTEX
  8
0
 10
-1.67221891
 20
0.26629420
  0
VERTEX
  8
0
 10
-1.63284465
 20
0.32831790
  0
VERTEX
  8
0
 10
-1.55371484
 20
0.39663312
  0
VERTEX
  8
0
 10
-1.44425795
 20
0.45058492
  0
VERTEX
  8
0
 10
-1.31502548
 20
0.47928283
  0
VERTEX
  8
0
 10
-1.17656893
 20
0.47183642
  0
VERTEX
  8
0
 10
-1.05787667
 20
0.43477235
  0
VERTEX
  8
0
 10
-0.94302984
 20
0.38490226
  0
VERTEX
  8
0
 10
-0.79254330
 20
0.32870350
  0
VERTEX
  8
0
 10
-0.71107152
 20
0.32090737
  0
VERTEX
  8
0
 10
-0.62975823
 20
0.34169239
  0
VERTEX
  8
0
 10
-0.62615741
 20
0.34169239
  0
VERTEX
  8
0
 10
-0.43994342
 20
0.47852366
  0
VERTEX
  8
0
 10
-0.45705947
 20
0.57736254
  0
VERTEX
  8
0
 10
-0.44978811
 20
0.67757926
  0
VERTEX
  8
0
 10
-0.42387065
 20
0.76907990
  0
VERTEX
  8
0
 10
-0.38504838
 20
0.84177053
  0
VERTEX
  8
0
 10
-0.43749483
 20
0.90530080
  0
VERTEX
  8
0
 10
-0.45712687
 20
0.94224992
  0
VERTEX
  8
0
 10
-0.46453736
 20
0.98806295
  0
VERTEX
  8
0
 10
-0.44490656
 20
1.04897379
  0
VERTEX
  8
0
 10
-0.39665632
 20
1.08353439
  0
VERTEX
  8
0
 10
-0.33412129
 20
1.08874920
  0
VERTEX
  8
0
 10
-0.27163612
 20
1.06162262
  0
VERTEX
  8
0
 10
-0.27730743
 20
1.11084318
  0
VERTEX
  8
0
 10
-0.26561208
 20
1.15289976
  0
VERTEX
  8
0
 10
-0.20785012
 20
1.20822756
  0
VERTEX
  8
0
 10
-0.14981996
 20
1.20846193
  0
SEQEND
  0
POLYLINE
  8
Default_Layer
 66
   1
 39
0.000000
 70
    1
  0
VERTEX
  8
0
 10
-0.21977881
 20
1.16165123
  0
VERTEX
  8
0
 10
-0.24394623
 20
1.11921144
  0
VERTEX
  8
0
 10
-0.23671892
 20
1.06516356
  0
VERTEX
  8
0
 10
-0.18994342
 20
0.97183642
  0
VERTEX
  8
0
 10
-0.23984053
 20
0.94508745
  0
VERTEX
  8
0
 10
-0.29566176
 20
1.03084507
  0
VERTEX
  8
0
 10
-0.33977869
 20
1.05566970
  0
VERTEX
  8
0
 10
-0.39313272
 20
1.05156893
  0
VERTEX
  8
0
 10
-0.42013705
 20
1.02636557
  0
VERTEX
  8
0
 10
-0.42965535
 20
0.98829733
  0
VERTEX
  8
0
 10
-0.42034968
 20
0.94339680
  0
VERTEX
  8
0
 10
-0.39642897
 20
0.90661222
  0
VERTEX
  8
0
 10
-0.33963477
 20
0.84837963
  0
VERTEX
  8
0
 10
-0.40153749
 20
0.74414772
  0
VERTEX
  8
0
 10
-0.42302231
 20
0.61316981
  0
VERTEX
  8
0
 10
-0.40538537
 20
0.47981225
  0
VERTEX
  8
0
 10
-0.34992284
 20
0.36844136
  0
VERTEX
  8
0
 10
-0.30311214
 20
0.32163066
  0
VERTEX
  8
0
 10
-0.35665053
 20
0.22271808
  0
VERTEX
  8
0
 10
-0.39421267
 20
0.10778879
  0
VERTEX
  8
0
 10
-0.43994342
 20
-0.15162037
  0
VERTEX
  8
0
 10
-0.04823009
 20
-0.16317641
  0
VERTEX
  8
0
 10
0.32703189
 20
-0.15830761
  0
VERTEX
  8
0
 10
0.27890413
 20
0.12027348
  0
VERTEX
  8
0
 10
0.23616035
 20
0.24084055
  0
VERTEX
  8
0
 10
0.17682613
 20
0.34477881
  0
VERTEX
  8
0
 10
0.23759888
 20
0.40730258
  0
VERTEX
  8
0
 10
0.27000406
 20
0.50043641
  0
VERTEX
  8
0
 10
0.26996636
 20
0.60331859
  0
VERTEX
  8
0
 10
0.23341049
 20
0.69508745
  0
VERTEX
  8
0
 10
0.34522642
 20
0.76336395
  0
VERTEX
  8
0
 10
0.43351337
 20
0.85815329
  0
VERTEX
  8
0
 10
0.45130328
 20
0.90182100
  0
VERTEX
  8
0
 10
0.45338001
 20
0.94586396
  0
VERTEX
  8
0
 10
0.41879455
 20
1.02653120
  0
VERTEX
  8
0
 10
0.34655822
 20
1.08306607
  0
VERTEX
  8
0
 10
0.25347222
 20
1.09837963
  0
VERTEX
  8
0
 10
0.07975358
 20
1.06776297
  0
VERTEX
  8
0
 10
-0.07626029
 20
1.02481996
  0
VERTEX
  8
0
 10
-0.08238897
 20
1.08671879
  0
VERTEX
  8
0
 10
-0.11456791
 20
1.14293025
  0
VERTEX
  8
0
 10
-0.16347267
 20
1.17429439
  0
VERTEX
  8
0
 10
-0.21977881
 20
1.16165123
  0
SEQEND
  0
POLYLINE
  8
Default_Layer
 66
   1
 39
0.000000
 70
    1
  0
VERTEX
  8
0
 10
-0.14160000
 20
0.85852500
  0
VERTEX
  8
0
 10
-0.13375046
 20
0.87747546
  0
VERTEX
  8
0
 10
-0.11480000
 20
0.88532500
  0
VERTEX
  8
0
 10
-0.09584954
 20
0.87747546
  0
VERTEX
  8
0
 10
-0.08800000
 20
0.85852500
  0
VERTEX
  8
0
 10
-0.09584954
 20
0.83957454
  0
VERTEX
  8
0
 10
-0.11480000
 20
0.83172500
  0
VERTEX
  8
0
 10
-0.13375046
 20
0.83957454
  0
VERTEX
  8
0
 10
-0.14160000
 20
0.85852500
  0
SEQEND
  0
POLYLINE
  8
Default_Layer
 66
   1
 39
0.000000
 70
    0
  0
VERTEX
  8
0
 10
0.80697016
 20
0.55156893
  0
VERTEX
  8
0
 10
0.80336934
 20
0.55156893
  0
SEQEND
  0
POLYLINE
  8
Default_Layer
 66
   1
 39
0.000000
 70
    1
  0
VERTEX
  8
0
 10
-1.44302984
 20
-0.11818416
  0
VERTEX
  8
0
 10
-1.45280350
 20
-0.30182613
  0
VERTEX
  8
0
 10
-1.44979105
 20
-0.40360998
  0
VERTEX
  8
0
 10
-1.46309156
 20
-0.48495370
  0
VERTEX
  8
0
 10
-1.50590446
 20
-0.51466798
  0
VERTEX
  8
0
 10
-1.53574818
 20
-0.51988458
  0
VERTEX
  8
0
 10
-1.56288580
 20
-0.51170267
  0
VERTEX
  8
0
 10
-1.58740276
 20
-0.45285516
  0
VERTEX
  8
0
 10
-1.59435986
 20
-0.34994403
  0
VERTEX
  8
0
 10
-1.58963477
 20
-0.15162037
  0
VERTEX
  8
0
 10
-1.58294753
 20
0.03510802
  0
VERTEX
  8
0
 10
-1.57513252
 20
0.15458459
  0
VERTEX
  8
0
 10
-1.53973765
 20
0.24858539
  0
VERTEX
  8
0
 10
-1.46519683
 20
0.30707989
  0
VERTEX
  8
0
 10
-1.36986478
 20
0.33136782
  0
VERTEX
  8
0
 10
-1.26777678
 20
0.32249500
  0
VERTEX
  8
0
 10
-1.17296811
 20
0.28150720
  0
VERTEX
  8
0
 10
-1.11098425
 20
0.21459132
  0
VERTEX
  8
0
 10
-1.08294753
 20
0.12821502
  0
VERTEX
  8
0
 10
-1.08528946
 20
0.06067337
  0
VERTEX
  8
0
 10
-1.10488126
 20
0.00187319
  0
VERTEX
  8
0
 10
-1.13919348
 20
-0.04730744
  0
VERTEX
  8
0
 10
-1.18569665
 20
-0.08599041
  0
VERTEX
  8
0
 10
-1.30515806
 20
-0.12835109
  0
VERTEX
  8
0
 10
-1.44302984
 20
-0.11818416
  0
SEQEND
  0
POLYLINE
  8
Default_Layer
 66
   1
 39
0.000000
 70
    1
  0
VERTEX
  8
0
 10
-1.22646605
 20
0.13850309
  0
VERTEX
  8
0
 10
-1.25932073
 20
0.16956224
  0
VERTEX
  8
0
 10
-1.30951993
 20
0.19426187
  0
VERTEX
  8
0
 10
-1.36564589
 20
0.20355639
  0
VERTEX
  8
0
 10
-1.41628086
 20
0.18840021
  0
VERTEX
  8
0
 10
-1.43682073
 20
0.16229865
  0
VERTEX
  8
0
 10
-1.44458217
 20
0.12600936
  0
VERTEX
  8
0
 10
-1.44663066
 20
0.03510802
  0
VERTEX
  8
0
 10
-1.41833352
 20
0.00338983
  0
VERTEX
  8
0
 10
-1.37962979
 20
-0.01287645
  0
VERTEX
  8
0
 10
-1.29225948
 20
-0.00444705
  0
VERTEX
  8
0
 10
-1.25422138
 20
0.01755174
  0
VERTEX
  8
0
 10
-1.22703362
 20
0.04960865
  0
VERTEX
  8
0
 10
-1.21601043
 20
0.09037525
  0
VERTEX
  8
0
 10
-1.22646605
 20
0.13850309
  0
SEQEND
  0
POLYLINE
  8
Default_Layer
 66
   1
 39
0.000000
 70
    1
  0
VERTEX
  8
0
 10
0.77713477
 20
-0.09812243
  0
VERTEX
  8
0
 10
0.76667737
 20
-0.18129523
  0
VERTEX
  8
0
 10
0.76684671
 20
-0.28176440
  0
VERTEX
  8
0
 10
0.75905549
 20
-0.43945064
  0
VERTEX
  8
0
 10
0.73213003
 20
-0.49205841
  0
VERTEX
  8
0
 10
0.70644169
 20
-0.50233778
  0
VERTEX
  8
0
 10
0.67013889
 20
-0.49832819
  0
VERTEX
  8
0
 10
0.64455944
 20
-0.47689801
  0
VERTEX
  8
0
 10
0.63244495
 20
-0.43763306
  0
VERTEX
  8
0
 10
0.62692901
 20
-0.33834877
  0
VERTEX
  8
0
 10
0.63052984
 20
-0.14853395
  0
VERTEX
  8
0
 10
0.63127571
 20
0.09351453
  0
VERTEX
  8
0
 10
0.64566685
 20
0.19493901
  0
VERTEX
  8
0
 10
0.68351337
 20
0.27173354
  0
VERTEX
  8
0
 10
0.72463083
 20
0.30531092
  0
VERTEX
  8
0
 10
0.77574520
 20
0.32617074
  0
VERTEX
  8
0
 10
0.89353893
 20
0.33455275
  0
VERTEX
  8
0
 10
1.00804313
 20
0.30650973
  0
VERTEX
  8
0
 10
1.09040638
 20
0.25167181
  0
VERTEX
  8
0
 10
1.12217913
 20
0.19656284
  0
VERTEX
  8
0
 10
1.13439567
 20
0.13321622
  0
VERTEX
  8
0
 10
1.12873278
 20
0.06904081
  0
VERTEX
  8
0
 10
1.10686728
 20
0.01144547
  0
VERTEX
  8
0
 10
1.05553576
 20
-0.05021691
  0
VERTEX
  8
0
 10
0.98106015
 20
-0.09431014
  0
VERTEX
  8
0
 10
0.88705498
 20
-0.11291754
  0
VERTEX
  8
0
 10
0.77713477
 20
-0.09812243
  0
SEQEND
  0
POLYLINE
  8
Default_Layer
 66
   1
 39
0.000000
 70
    1
  0
VERTEX
  8
0
 10
1.00038580
 20
0.08809156
  0
VERTEX
  8
0
 10
1.00021293
 20
0.12679677
  0
VERTEX
  8
0
 10
0.98585138
 20
0.15962183
  0
VERTEX
  8
0
 10
0.92852487
 20
0.20539474
  0
VERTEX
  8
0
 10
0.85633151
 20
0.22093685
  0
VERTEX
  8
0
 10
0.79719650
 20
0.20177469
  0
VERTEX
  8
0
 10
0.76810849
 20
0.13053267
  0
VERTEX
  8
0
 10
0.77353395
 20
0.04848251
  0
VERTEX
  8
0
 10
0.79955594
 20
0.01907087
  0
VERTEX
  8
0
 10
0.83941321
 20
0.00439774
  0
VERTEX
  8
0
 10
0.93351337
 20
0.01813272
  0
VERTEX
  8
0
 10
0.97774000
 20
0.04743220
  0
VERTEX
  8
0
 10
1.00038580
 20
0.08809156
  0
SEQEND
  0
POLYLINE
  8
Default_Layer
 66
   1
 39
0.000000
 70
    1
  0
VERTEX
  8
0
 10
1.54719650
 20
-0.71180556
  0
VERTEX
  8
0
 10
1.60378086
 20
-0.73855453
  0
VERTEX
  8
0
 10
1.68143861
 20
-0.74322098
  0
VERTEX
  8
0
 10
1.73701132
 20
-0.78485082
  0
VERTEX
  8
0
 10
1.75199505
 20
-0.83169149
  0
VERTEX
  8
0
 10
1.74873104
 20
-0.85505179
  0
VERTEX
  8
0
 10
1.73032407
 20
-0.86509774
  0
VERTEX
  8
0
 10
1.70982934
 20
-0.85121976
  0
VERTEX
  8
0
 10
1.69886901
 20
-0.82147274
  0
VERTEX
  8
0
 10
1.68447468
 20
-0.79347648
  0
VERTEX
  8
0
 10
1.65367798
 20
-0.78485082
  0
VERTEX
  8
0
 10
1.66036523
 20
-0.83166152
  0
VERTEX
  8
0
 10
1.63514115
 20
-0.88057127
  0
VERTEX
  8
0
 10
1.58637868
 20
-0.90005979
  0
VERTEX
  8
0
 10
1.53963006
 20
-0.88457757
  0
VERTEX
  8
0
 10
1.52044753
 20
-0.82857510
  0
VERTEX
  8
0
 10
1.53235690
 20
-0.79110035
  0
VERTEX
  8
0
 10
1.55697016
 20
-0.76170267
  0
VERTEX
  8
0
 10
1.51303358
 20
-0.75499978
  0
VERTEX
  8
0
 10
1.47610000
 20
-0.76896145
  0
VERTEX
  8
0
 10
1.43549142
 20
-0.78765278
  0
VERTEX
  8
0
 10
1.38052984
 20
-0.79513889
  0
VERTEX
  8
0
 10
1.32104599
 20
-0.78128856
  0
VERTEX
  8
0
 10
1.27353395
 20
-0.75501543
  0
VERTEX
  8
0
 10
1.23132757
 20
-0.69670213
  0
VERTEX
  8
0
 10
1.22044916
 20
-0.65751812
  0
VERTEX
  8
0
 10
1.23032407
 20
-0.62178498
  0
VERTEX
  8
0
 10
1.27025123
 20
-0.60312267
  0
VERTEX
  8
0
 10
1.31565657
 20
-0.62192703
  0
VERTEX
  8
0
 10
1.39030350
 20
-0.66808128
  0
VERTEX
  8
0
 10
1.43577421
 20
-0.64528168
  0
VERTEX
  8
0
 10
1.47003601
 20
-0.60480967
  0
VERTEX
  8
0
 10
1.49310325
 20
-0.54441997
  0
VERTEX
  8
0
 10
1.50038580
 20
-0.47157922
  0
VERTEX
  8
0
 10
1.38854581
 20
-0.51861114
  0
VERTEX
  8
0
 10
1.27416676
 20
-0.51208891
  0
VERTEX
  8
0
 10
1.22427496
 20
-0.48874240
  0
VERTEX
  8
0
 10
1.18364826
 20
-0.45200423
  0
VERTEX
  8
0
 10
1.15558659
 20
-0.40187337
  0
VERTEX
  8
0
 10
1.14338992
 20
-0.33834877
  0
VERTEX
  8
0
 10
1.15840540
 20
-0.24054299
  0
VERTEX
  8
0
 10
1.20736448
 20
-0.17009686
  0
VERTEX
  8
0
 10
1.28194945
 20
-0.12706372
  0
VERTEX
  8
0
 10
1.37384259
 20
-0.11149691
  0
VERTEX
  8
0
 10
1.46961386
 20
-0.12801486
  0
VERTEX
  8
0
 10
1.54065268
 20
-0.17621695
  0
VERTEX
  8
0
 10
1.58873927
 20
-0.24862119
  0
VERTEX
  8
0
 10
1.61565385
 20
-0.33774562
  0
VERTEX
  8
0
 10
1.62317664
 20
-0.43610825
  0
VERTEX
  8
0
 10
1.61308786
 20
-0.53622710
  0
VERTEX
  8
0
 10
1.58716774
 20
-0.63062020
  0
VERTEX
  8
0
 10
1.54719650
 20
-0.71180556
  0
SEQEND
  0
POLYLINE
  8
Default_Layer
 66
   1
 39
0.000000
 70
    1
  0
VERTEX
  8
0
 10
1.27044753
 20
-0.35841049
  0
VERTEX
  8
0
 10
1.31140303
 20
-0.39816747
  0
VERTEX
  8
0
 10
1.37405104
 20
-0.41016505
  0
VERTEX
  8
0
 10
1.43646622
 20
-0.39371334
  0
VERTEX
  8
0
 10
1.47672325
 20
-0.34812243
  0
VERTEX
  8
0
 10
1.47760547
 20
-0.28874049
  0
VERTEX
  8
0
 10
1.45349122
 20
-0.24944185
  0
VERTEX
  8
0
 10
1.41306919
 20
-0.22885171
  0
VERTEX
  8
0
 10
1.36502812
 20
-0.22559526
  0
VERTEX
  8
0
 10
1.31805670
 20
-0.23829771
  0
VERTEX
  8
0
 10
1.28084366
 20
-0.26558427
  0
VERTEX
  8
0
 10
1.26207770
 20
-0.30608013
  0
VERTEX
  8
0
 10
1.27044753
 20
-0.35841049
  0
SEQEND
  0
POLYLINE
  8
Default_Layer
 66
   1
 39
0.000000
 70
    1
  0
VERTEX
  8
0
 10
1.59709362
 20
-0.79153807
  0
VERTEX
  8
0
 10
1.57330572
 20
-0.80798311
  0
VERTEX
  8
0
 10
1.56674383
 20
-0.84143519
  0
VERTEX
  8
0
 10
1.58971214
 20
-0.85155724
  0
VERTEX
  8
0
 10
1.60836510
 20
-0.83579978
  0
VERTEX
  8
0
 10
1.61379487
 20
-0.81038575
  0
VERTEX
  8
0
 10
1.59709362
 20
-0.79153807
  0
SEQEND
  0
POLYLINE
  8
Default_Layer
 66
   1
 39
0.000000
 70
    1
  0
VERTEX
  8
0
 10
0.92682613
 20
-0.29822531
  0
VERTEX
  8
0
 10
0.90523326
 20
-0.24841020
  0
VERTEX
  8
0
 10
0.91705247
 20
-0.19174383
  0
VERTEX
  8
0
 10
0.94458224
 20
-0.17144748
  0
VERTEX
  8
0
 10
0.98139675
 20
-0.16452075
  0
VERTEX
  8
0
 10
1.01857513
 20
-0.17030535
  0
VERTEX
  8
0
 10
1.04719650
 20
-0.18814300
  0
VERTEX
  8
0
 10
1.06602999
 20
-0.24458377
  0
VERTEX
  8
0
 10
1.04053043
 20
-0.29483041
  0
VERTEX
  8
0
 10
0.98827132
 20
-0.31925393
  0
VERTEX
  8
0
 10
0.92682613
 20
-0.29822531
  0
SEQEND
  0
POLYLINE
  8
Default_Layer
 66
   1
 39
0.000000
 70
    1
  0
VERTEX
  8
0
 10
-1.25321502
 20
-0.41499486
  0
VERTEX
  8
0
 10
-1.25910234
 20
-0.46868184
  0
VERTEX
  8
0
 10
-1.23848555
 20
-0.50933290
  0
VERTEX
  8
0
 10
-1.19681271
 20
-0.53367913
  0
VERTEX
  8
0
 10
-1.13953189
 20
-0.53845165
  0
VERTEX
  8
0
 10
-1.06620433
 20
-0.50823012
  0
VERTEX
  8
0
 10
-1.02842823
 20
-0.49709514
  0
VERTEX
  8
0
 10
-0.99652778
 20
-0.50810185
  0
VERTEX
  8
0
 10
-0.98381541
 20
-0.54299936
  0
VERTEX
  8
0
 10
-0.99941218
 20
-0.57880134
  0
VERTEX
  8
0
 10
-1.04951132
 20
-0.62487140
  0
VERTEX
  8
0
 10
-1.13494302
 20
-0.64579245
  0
VERTEX
  8
0
 10
-1.21653131
 20
-0.63149087
  0
VERTEX
  8
0
 10
-1.28546867
 20
-0.59394643
  0
VERTEX
  8
0
 10
-1.33294753
 20
-0.54513889
  0
VERTEX
  8
0
 10
-1.36387902
 20
-0.46499556
  0
VERTEX
  8
0
 10
-1.36376416
 20
-0.37817352
  0
VERTEX
  8
0
 10
-1.33821012
 20
-0.29895968
  0
VERTEX
  8
0
 10
-1.29282407
 20
-0.24164095
  0
VERTEX
  8
0
 10
-1.17738018
 20
-0.19072186
  0
VERTEX
  8
0
 10
-1.10067175
 20
-0.18488525
  0
VERTEX
  8
0
 10
-1.02636317
 20
-0.20820473
  0
VERTEX
  8
0
 10
-0.99072005
 20
-0.24242148
  0
VERTEX
  8
0
 10
-0.96545091
 20
-0.29159497
  0
VERTEX
  8
0
 10
-0.95893523
 20
-0.34498384
  0
VERTEX
  8
0
 10
-0.97955247
 20
-0.39184671
  0
VERTEX
  8
0
 10
-1.03427178
 20
-0.42225048
  0
VERTEX
  8
0
 10
-1.10584021
 20
-0.42950415
  0
VERTEX
  8
0
 10
-1.25321502
 20
-0.41499486
  0
SEQEND
  0
POLYLINE
  8
Default_Layer
 66
   1
 39
0.000000
 70
    1
  0
VERTEX
  8
0
 10
0.28382202
 20
-0.35480967
  0
VERTEX
  8
0
 10
0.37384259
 20
-0.40830761
  0
VERTEX
  8
0
 10
0.40055823
 20
-0.45483072
  0
VERTEX
  8
0
 10
0.41180970
 20
-0.50925643
  0
VERTEX
  8
0
 10
0.41989552
 20
-0.56323345
  0
VERTEX
  8
0
 10
0.43711420
 20
-0.60841049
  0
VERTEX
  8
0
 10
0.47666025
 20
-0.64296665
  0
VERTEX
  8
0
 10
0.51015947
 20
-0.67476852
  0
VERTEX
  8
0
 10
0.51592847
 20
-0.71966726
  0
VERTEX
  8
0
 10
0.49678498
 20
-0.75501543
  0
VERTEX
  8
0
 10
0.42758623
 20
-0.75345766
  0
VERTEX
  8
0
 10
0.38052984
 20
-0.72157922
  0
VERTEX
  8
0
 10
0.32703189
 20
-0.75501543
  0
VERTEX
  8
0
 10
0.23506699
 20
-0.76780328
  0
VERTEX
  8
0
 10
0.15791490
 20
-0.74624300
  0
VERTEX
  8
0
 10
0.09767868
 20
-0.69871900
  0
VERTEX
  8
0
 10
0.05646139
 20
-0.63361571
  0
VERTEX
  8
0
 10
0.03636608
 20
-0.55931752
  0
VERTEX
  8
0
 10
0.03949581
 20
-0.48420886
  0
VERTEX
  8
0
 10
0.06795363
 20
-0.41667412
  0
VERTEX
  8
0
 10
0.12384259
 20
-0.36509774
  0
VERTEX
  8
0
 10
0.12692901
 20
-0.36509774
  0
VERTEX
  8
0
 10
0.20882509
 20
-0.34451867
  0
VERTEX
  8
0
 10
0.28382202
 20
-0.35480967
  0
SEQEND
  0
POLYLINE
  8
Default_Layer
 66
   1
 39
0.000000
 70
    1
  0
VERTEX
  8
0
 10
0.25707305
 20
-0.66190844
  0
VERTEX
  8
0
 10
0.30359371
 20
-0.64358124
  0
VERTEX
  8
0
 10
0.32445624
 20
-0.60624600
  0
VERTEX
  8
0
 10
0.32405265
 20
-0.55874560
  0
VERTEX
  8
0
 10
0.30677499
 20
-0.50992290
  0
VERTEX
  8
0
 10
0.27701530
 20
-0.46862077
  0
VERTEX
  8
0
 10
0.23916562
 20
-0.44368208
  0
VERTEX
  8
0
 10
0.19761797
 20
-0.44394968
  0
VERTEX
  8
0
 10
0.15676440
 20
-0.47826646
  0
VERTEX
  8
0
 10
0.13224140
 20
-0.54433657
  0
VERTEX
  8
0
 10
0.14553541
 20
-0.60568697
  0
VERTEX
  8
0
 10
0.18952108
 20
-0.64923761
  0
VERTEX
  8
0
 10
0.25707305
 20
-0.66190844
  0
SEQEND
  0
POLYLINE
  8
Default_Layer
 66
   1
 39
0.000000
 70
    1
  0
VERTEX
  8
0
 10
-0.12615741
 20
-0.39853395
  0
VERTEX
  8
0
 10
-0.07290970
 20
-0.44162717
  0
VERTEX
  8
0
 10
-0.03613683
 20
-0.49524177
  0
VERTEX
  8
0
 10
-0.02295381
 20
-0.55584555
  0
VERTEX
  8
0
 10
-0.02867333
 20
-0.61203522
  0
VERTEX
  8
0
 10
-0.05097249
 20
-0.66217351
  0
VERTEX
  8
0
 10
-0.08752839
 20
-0.70462313
  0
VERTEX
  8
0
 10
-0.19411874
 20
-0.75990718
  0
VERTEX
  8
0
 10
-0.32986111
 20
-0.76478909
  0
VERTEX
  8
0
 10
-0.33378762
 20
-0.83307981
  0
VERTEX
  8
0
 10
-0.32620651
 20
-0.91532081
  0
VERTEX
  8
0
 10
-0.33035497
 20
-0.98569616
  0
VERTEX
  8
0
 10
-0.34408940
 20
-1.00836674
  0
VERTEX
  8
0
 10
-0.36947016
 20
-1.01838992
  0
VERTEX
  8
0
 10
-0.39638321
 20
-1.01143785
  0
VERTEX
  8
0
 10
-0.41790847
 20
-0.99004907
  0
VERTEX
  8
0
 10
-0.43994342
 20
-0.92836934
  0
VERTEX
  8
0
 10
-0.43325617
 20
-0.72826646
  0
VERTEX
  8
0
 10
-0.42511000
 20
-0.47845077
  0
VERTEX
  8
0
 10
-0.38833983
 20
-0.38967090
  0
VERTEX
  8
0
 10
-0.35185132
 20
-0.36528354
  0
VERTEX
  8
0
 10
-0.29951132
 20
-0.35841049
  0
VERTEX
  8
0
 10
-0.20842980
 20
-0.36708006
  0
VERTEX
  8
0
 10
-0.12615741
 20
-0.39853395
  0
SEQEND
  0
POLYLINE
  8
Default_Layer
 66
   1
 39
0.000000
 70
    1
  0
VERTEX
  8
0
 10
-0.13953189
 20
-0.58166152
  0
VERTEX
  8
0
 10
-0.14813825
 20
-0.52774771
  0
VERTEX
  8
0
 10
-0.18826172
 20
-0.49370985
  0
VERTEX
  8
0
 10
-0.24658715
 20
-0.47869927
  0
VERTEX
  8
0
 10
-0.30979938
 20
-0.48186728
  0
VERTEX
  8
0
 10
-0.32686788
 20
-0.55453078
  0
VERTEX
  8
0
 10
-0.32626029
 20
-0.64493313
  0
VERTEX
  8
0
 10
-0.26532281
 20
-0.65188173
  0
VERTEX
  8
0
 10
-0.20757194
 20
-0.64390454
  0
VERTEX
  8
0
 10
-0.16248315
 20
-0.62062374
  0
VERTEX
  8
0
 10
-0.13953189
 20
-0.58166152
  0
SEQEND
  0
POLYLINE
  8
Default_Layer
 66
   1
 39
0.000000
 70
    1
  0
VERTEX
  8
0
 10
-0.81288580
 20
-0.78845165
  0
VERTEX
  8
0
 10
-0.81728087
 20
-0.85992005
  0
VERTEX
  8
0
 10
-0.80986498
 20
-0.94570611
  0
VERTEX
  8
0
 10
-0.81566217
 20
-1.01703674
  0
VERTEX
  8
0
 10
-0.83133569
 20
-1.03828970
  0
VERTEX
  8
0
 10
-0.85969650
 20
-1.04513889
  0
VERTEX
  8
0
 10
-0.88711834
 20
-1.03472236
  0
VERTEX
  8
0
 10
-0.90639870
 20
-1.01082854
  0
VERTEX
  8
0
 10
-0.92296811
 20
-0.94843107
  0
VERTEX
  8
0
 10
-0.91319444
 20
-0.72826646
  0
VERTEX
  8
0
 10
-0.91090831
 20
-0.52968745
  0
VERTEX
  8
0
 10
-0.89318420
 20
-0.44661697
  0
VERTEX
  8
0
 10
-0.84632202
 20
-0.39493313
  0
VERTEX
  8
0
 10
-0.76658951
 20
-0.38155864
  0
VERTEX
  8
0
 10
-0.66675536
 20
-0.39767821
  0
VERTEX
  8
0
 10
-0.57703113
 20
-0.44577466
  0
VERTEX
  8
0
 10
-0.51868588
 20
-0.52516331
  0
VERTEX
  8
0
 10
-0.50792696
 20
-0.57637824
  0
VERTEX
  8
0
 10
-0.51298868
 20
-0.63515947
  0
VERTEX
  8
0
 10
-0.54766063
 20
-0.70892140
  0
VERTEX
  8
0
 10
-0.61181452
 20
-0.76116753
  0
VERTEX
  8
0
 10
-0.70152977
 20
-0.78873268
  0
VERTEX
  8
0
 10
-0.81288580
 20
-0.78845165
  0
SEQEND
  0
POLYLINE
  8
Default_Layer
 66
   1
 39
0.000000
 70
    1
  0
VERTEX
  8
0
 10
-0.62307099
 20
-0.60841049
  0
VERTEX
  8
0
 10
-0.63052351
 20
-0.55531463
  0
VERTEX
  8
0
 10
-0.66840212
 20
-0.52145689
  0
VERTEX
  8
0
 10
-0.72528184
 20
-0.50522718
  0
VERTEX
  8
0
 10
-0.78973765
 20
-0.50501543
  0
VERTEX
  8
0
 10
-0.80517623
 20
-0.53622772
  0
VERTEX
  8
0
 10
-0.80999369
 20
-0.57807677
  0
VERTEX
  8
0
 10
-0.80979938
 20
-0.67168210
  0
VERTEX
  8
0
 10
-0.69116817
 20
-0.67046418
  0
VERTEX
  8
0
 10
-0.64598306
 20
-0.64726294
  0
VERTEX
  8
0
 10
-0.62307099
 20
-0.60841049
  0
SEQEND
  0
POLYLINE
  8
Default_Layer
 66
   1
 39
0.000000
 70
    1
  0
VERTEX
  8
0
 10
0.94380144
 20
-0.76478909
  0
VERTEX
  8
0
 10
0.92031654
 20
-0.73675705
  0
VERTEX
  8
0
 10
0.90290646
 20
-0.68935374
  0
VERTEX
  8
0
 10
0.88923450
 20
-0.56382055
  0
VERTEX
  8
0
 10
0.90863305
 20
-0.44296402
  0
VERTEX
  8
0
 10
0.93256110
 20
-0.40140653
  0
VERTEX
  8
0
 10
0.96694959
 20
-0.38155864
  0
VERTEX
  8
0
 10
1.01003668
 20
-0.38790700
  0
VERTEX
  8
0
 10
1.02999267
 20
-0.42002583
  0
VERTEX
  8
0
 10
1.03690844
 20
-0.52507716
  0
VERTEX
  8
0
 10
1.03473353
 20
-0.69016349
  0
VERTEX
  8
0
 10
1.00747496
 20
-0.74977942
  0
VERTEX
  8
0
 10
0.98107917
 20
-0.76423448
  0
VERTEX
  8
0
 10
0.94380144
 20
-0.76478909
  0
SEQEND
  0
POLYLINE
  8
Default_Layer
 66
   1
 39
0.000000
 70
    1
  0
VERTEX
  8
0
 10
-0.56957305
 20
0.00835905
  0
VERTEX
  8
0
 10
-0.55979938
 20
-0.02507716
  0
VERTEX
  8
0
 10
-0.59255554
 20
0.00021548
  0
VERTEX
  8
0
 10
-0.60702714
 20
0.01048085
  0
VERTEX
  8
0
 10
-0.62615741
 20
0.00167181
  0
VERTEX
  8
0
 10
-0.60939557
 20
-0.04388398
  0
VERTEX
  8
0
 10
-0.56720195
 20
-0.05911044
  0
VERTEX
  8
0
 10
-0.46309156
 20
-0.05182613
  0
VERTEX
  8
0
 10
-0.45640432
 20
-0.01838992
  0
VERTEX
  8
0
 10
-0.47955247
 20
-0.01478909
  0
VERTEX
  8
0
 10
-0.47670238
 20
0.03512837
  0
VERTEX
  8
0
 10
-0.51011309
 20
0.05920927
  0
VERTEX
  8
0
 10
-0.55074863
 20
0.05207801
  0
VERTEX
  8
0
 10
-0.56957305
 20
0.00835905
  0
SEQEND
  0
POLYLINE
  8
Default_Layer
 66
   1
 39
0.000000
 70
    1
  0
VERTEX
  8
0
 10
0.03382202
 20
0.89519033
  0
VERTEX
  8
0
 10
0.08069517
 20
0.90269219
  0
VERTEX
  8
0
 10
0.09433457
 20
0.94120956
  0
VERTEX
  8
0
 10
0.07681749
 20
0.97755065
  0
VERTEX
  8
0
 10
0.03022119
 20
0.97852366
  0
VERTEX
  8
0
 10
0.01006530
 20
0.93517519
  0
VERTEX
  8
0
 10
0.01645552
 20
0.91003125
  0
VERTEX
  8
0
 10
0.03382202
 20
0.89519033
  0
SEQEND
  0
POLYLINE
  8
Default_Layer
 66
   1
 39
0.000000
 70
    1
  0
VERTEX
  8
0
 10
0.42013889
 20
0.91833848
  0
VERTEX
  8
0
 10
0.40587961
 20
0.88450574
  0
VERTEX
  8
0
 10
0.37886780
 20
0.86216251
  0
VERTEX
  8
0
 10
0.34419935
 20
0.85286097
  0
VERTEX
  8
0
 10
0.30697016
 20
0.85815329
  0
VERTEX
  8
0
 10
0.29618891
 20
0.86562886
  0
VERTEX
  8
0
 10
0.25924954
 20
0.89896333
  0
VERTEX
  8
0
 10
0.23032407
 20
0.95486111
  0
VERTEX
  8
0
 10
0.22731674
 20
0.96823560
  0
VERTEX
  8
0
 10
0.22072502
 20
1.01050825
  0
VERTEX
  8
0
 10
0.23200424
 20
1.05414706
  0
VERTEX
  8
0
 10
0.24009774
 20
1.06185700
  0
VERTEX
  8
0
 10
0.27921676
 20
1.07105477
  0
VERTEX
  8
0
 10
0.32034465
 20
1.05825617
  0
VERTEX
  8
0
 10
0.37024177
 20
1.02842078
  0
VERTEX
  8
0
 10
0.40488404
 20
0.98630738
  0
VERTEX
  8
0
 10
0.42013889
 20
0.92502572
  0
VERTEX
  8
0
 10
0.42013889
 20
0.91833848
  0
SEQEND
  0
POLYLINE
  8
Default_Layer
 66
   1
 39
0.000000
 70
    1
  0
VERTEX
  8
0
 10
-0.11329733
 20
0.80825617
  0
VERTEX
  8
0
 10
-0.07281893
 20
0.82374815
  0
VERTEX
  8
0
 10
-0.06009763
 20
0.86329429
  0
VERTEX
  8
0
 10
-0.07474779
 20
0.90039853
  0
VERTEX
  8
0
 10
-0.11638374
 20
0.90856481
  0
VERTEX
  8
0
 10
-0.14286654
 20
0.88821474
  0
VERTEX
  8
0
 10
-0.15248409
 20
0.85564481
  0
VERTEX
  8
0
 10
-0.14327987
 20
0.82445772
  0
VERTEX
  8
0
 10
-0.11329733
 20
0.80825617
  0
SEQEND
  0
POLYLINE
  8
Default_Layer
 66
   1
 39
0.000000
 70
    1
  0
VERTEX
  8
0
 10
1.10686728
 20
0.01144547
  0
VERTEX
  8
0
 10
1.12873278
 20
0.06904081
  0
VERTEX
  8
0
 10
1.13439567
 20
0.13321622
  0
VERTEX
  8
0
 10
1.12217913
 20
0.19656284
  0
VERTEX
  8
0
 10
1.09040638
 20
0.25167181
  0
VERTEX
  8
0
 10
1.00804313
 20
0.30650973
  0
VERTEX
  8
0
 10
0.89353893
 20
0.33455275
  0
VERTEX
  8
0
 10
0.77574520
 20
0.32617074
  0
VERTEX
  8
0
 10
0.72463083
 20
0.30531092
  0
VERTEX
  8
0
 10
0.68351337
 20
0.27173354
  0
VERTEX
  8
0
 10
0.64566685
 20
0.19493901
  0
VERTEX
  8
0
 10
0.63127571
 20
0.09351453
  0
VERTEX
  8
0
 10
0.63052984
 20
-0.14853395
  0
VERTEX
  8
0
 10
0.62692901
 20
-0.33834877
  0
VERTEX
  8
0
 10
0.63244495
 20
-0.43763306
  0
VERTEX
  8
0
 10
0.64455944
 20
-0.47689801
  0
VERTEX
  8
0
 10
0.67013889
 20
-0.49832819
  0
VERTEX
  8
0
 10
0.70644169
 20
-0.50233778
  0
VERTEX
  8
0
 10
0.73213003
 20
-0.49205841
  0
VERTEX
  8
0
 10
0.75905549
 20
-0.43945064
  0
VERTEX
  8
0
 10
0.76684671
 20
-0.28176440
  0
VERTEX
  8
0
 10
0.76667737
 20
-0.18129523
  0
VERTEX
  8
0
 10
0.77713477
 20
-0.09812243
  0
VERTEX
  8
0
 10
0.88705498
 20
-0.11291754
  0
VERTEX
  8
0
 10
0.98106015
 20
-0.09431014
  0
VERTEX
  8
0
 10
1.05553576
 20
-0.05021691
  0
VERTEX
  8
0
 10
1.10686728
 20
0.01144547
  0
SEQEND
  0
POLYLINE
  8
Default_Layer
 66
   1
 39
0.000000
 70
    1
  0
VERTEX
  8
0
 10
-1.08294753
 20
0.12821502
  0
VERTEX
  8
0
 10
-1.11098425
 20
0.21459132
  0
VERTEX
  8
0
 10
-1.17296811
 20
0.28150720
  0
VERTEX
  8
0
 10
-1.26777678
 20
0.32249500
  0
VERTEX
  8
0
 10
-1.36986478
 20
0.33136782
  0
VERTEX
  8
0
 10
-1.46519683
 20
0.30707989
  0
VERTEX
  8
0
 10
-1.53973765
 20
0.24858539
  0
VERTEX
  8
0
 10
-1.57513252
 20
0.15458459
  0
VERTEX
  8
0
 10
-1.58294753
 20
0.03510802
  0
VERTEX
  8
0
 10
-1.58963477
 20
-0.15162037
  0
VERTEX
  8
0
 10
-1.59435986
 20
-0.34994403
  0
VERTEX
  8
0
 10
-1.58740276
 20
-0.45285516
  0
VERTEX
  8
0
 10
-1.56288580
 20
-0.51170267
  0
VERTEX
  8
0
 10
-1.53574818
 20
-0.51988458
  0
VERTEX
  8
0
 10
-1.50590446
 20
-0.51466798
  0
VERTEX
  8
0
 10
-1.46309156
 20
-0.48495370
  0
VERTEX
  8
0
 10
-1.44979105
 20
-0.40360998
  0
VERTEX
  8
0
 10
-1.45280350
 20
-0.30182613
  0
VERTEX
  8
0
 10
-1.44302984
 20
-0.11818416
  0
VERTEX
  8
0
 10
-1.30515806
 20
-0.12835109
  0
VERTEX
  8
0
 10
-1.18569665
 20
-0.08599041
  0
VERTEX
  8
0
 10
-1.13919348
 20
-0.04730744
  0
VERTEX
  8
0
 10
-1.10488126
 20
0.00187319
  0
VERTEX
  8
0
 10
-1.08528946
 20
0.06067337
  0
VERTEX
  8
0
 10
-1.08294753
 20
0.12821502
  0
SEQEND
  0
POLYLINE
  8
Default_Layer
 66
   1
 39
0.000000
 70
    1
  0
VERTEX
  8
0
 10
0.93351337
 20
0.01813272
  0
VERTEX
  8
0
 10
0.83941321
 20
0.00439774
  0
VERTEX
  8
0
 10
0.79955594
 20
0.01907087
  0
VERTEX
  8
0
 10
0.77353395
 20
0.04848251
  0
VERTEX
  8
0
 10
0.76810849
 20
0.13053267
  0
VERTEX
  8
0
 10
0.79719650
 20
0.20177469
  0
VERTEX
  8
0
 10
0.85633151
 20
0.22093685
  0
VERTEX
  8
0
 10
0.92852487
 20
0.20539474
  0
VERTEX
  8
0
 10
0.98585138
 20
0.15962183
  0
VERTEX
  8
0
 10
1.00021293
 20
0.12679677
  0
VERTEX
  8
0
 10
1.00038580
 20
0.08809156
  0
VERTEX
  8
0
 10
0.97774000
 20
0.04743220
  0
VERTEX
  8
0
 10
0.93351337
 20
0.01813272
  0
SEQEND
  0
POLYLINE
  8
Default_Layer
 66
   1
 39
0.000000
 70
    1
  0
VERTEX
  8
0
 10
-1.44663066
 20
0.03510802
  0
VERTEX
  8
0
 10
-1.44458217
 20
0.12600936
  0
VERTEX
  8
0
 10
-1.43682073
 20
0.16229865
  0
VERTEX
  8
0
 10
-1.41628086
 20
0.18840021
  0
VERTEX
  8
0
 10
-1.36564589
 20
0.20355639
  0
VERTEX
  8
0
 10
-1.30951993
 20
0.19426187
  0
VERTEX
  8
0
 10
-1.25932073
 20
0.16956224
  0
VERTEX
  8
0
 10
-1.22646605
 20
0.13850309
  0
VERTEX
  8
0
 10
-1.21601043
 20
0.09037525
  0
VERTEX
  8
0
 10
-1.22703362
 20
0.04960865
  0
VERTEX
  8
0
 10
-1.25422138
 20
0.01755174
  0
VERTEX
  8
0
 10
-1.29225948
 20
-0.00444705
  0
VERTEX
  8
0
 10
-1.37962979
 20
-0.01287645
  0
VERTEX
  8
0
 10
-1.41833352
 20
0.00338983
  0
VERTEX
  8
0
 10
-1.44663066
 20
0.03510802
  0
SEQEND
  0
POLYLINE
  8
Default_Layer
 66
   1
 39
0.000000
 70
    1
  0
VERTEX
  8
0
 10
-0.47955247
 20
-0.01478909
  0
VERTEX
  8
0
 10
-0.45640432
 20
-0.01838992
  0
VERTEX
  8
0
 10
-0.46309156
 20
-0.05182613
  0
VERTEX
  8
0
 10
-0.56720195
 20
-0.05911044
  0
VERTEX
  8
0
 10
-0.60939557
 20
-0.04388398
  0
VERTEX
  8
0
 10
-0.62615741
 20
0.00167181
  0
VERTEX
  8
0
 10
-0.60702714
 20
0.01048085
  0
VERTEX
  8
0
 10
-0.59255554
 20
0.00021548
  0
VERTEX
  8
0
 10
-0.55979938
 20
-0.02507716
  0
VERTEX
  8
0
 10
-0.56957305
 20
0.00835905
  0
VERTEX
  8
0
 10
-0.55074863
 20
0.05207801
  0
VERTEX
  8
0
 10
-0.51011309
 20
0.05920927
  0
VERTEX
  8
0
 10
-0.47670238
 20
0.03512837
  0
VERTEX
  8
0
 10
-0.47955247
 20
-0.01478909
  0
SEQEND
  0
POLYLINE
  8
Default_Layer
 66
   1
 39
0.000000
 70
    1
  0
VERTEX
  8
0
 10
1.37384259
 20
-0.11149691
  0
VERTEX
  8
0
 10
1.28194945
 20
-0.12706372
  0
VERTEX
  8
0
 10
1.20736448
 20
-0.17009686
  0
VERTEX
  8
0
 10
1.15840540
 20
-0.24054299
  0
VERTEX
  8
0
 10
1.14338992
 20
-0.33834877
  0
VERTEX
  8
0
 10
1.15558659
 20
-0.40187337
  0
VERTEX
  8
0
 10
1.18364826
 20
-0.45200423
  0
VERTEX
  8
0
 10
1.22427496
 20
-0.48874240
  0
VERTEX
  8
0
 10
1.27416676
 20
-0.51208891
  0
VERTEX
  8
0
 10
1.38854581
 20
-0.51861114
  0
VERTEX
  8
0
 10
1.50038580
 20
-0.47157922
  0
VERTEX
  8
0
 10
1.49310325
 20
-0.54441997
  0
VERTEX
  8
0
 10
1.47003601
 20
-0.60480967
  0
VERTEX
  8
0
 10
1.43577421
 20
-0.64528168
  0
VERTEX
  8
0
 10
1.39030350
 20
-0.66808128
  0
VERTEX
  8
0
 10
1.31565657
 20
-0.62192703
  0
VERTEX
  8
0
 10
1.27025123
 20
-0.60312267
  0
VERTEX
  8
0
 10
1.23032407
 20
-0.62178498
  0
VERTEX
  8
0
 10
1.22044916
 20
-0.65751812
  0
VERTEX
  8
0
 10
1.23132757
 20
-0.69670213
  0
VERTEX
  8
0
 10
1.27353395
 20
-0.75501543
  0
VERTEX
  8
0
 10
1.32104599
 20
-0.78128856
  0
VERTEX
  8
0
 10
1.38052984
 20
-0.79513889
  0
VERTEX
  8
0
 10
1.43549142
 20
-0.78765278
  0
VERTEX
  8
0
 10
1.47610000
 20
-0.76896145
  0
VERTEX
  8
0
 10
1.51303358
 20
-0.75499978
  0
VERTEX
  8
0
 10
1.55697016
 20
-0.76170267
  0
VERTEX
  8
0
 10
1.53235690
 20
-0.79110035
  0
VERTEX
  8
0
 10
1.52044753
 20
-0.82857510
  0
VERTEX
  8
0
 10
1.53963006
 20
-0.88457757
  0
VERTEX
  8
0
 10
1.58637868
 20
-0.90005979
  0
VERTEX
  8
0
 10
1.63514115
 20
-0.88057127
  0
VERTEX
  8
0
 10
1.66036523
 20
-0.83166152
  0
VERTEX
  8
0
 10
1.65367798
 20
-0.78485082
  0
VERTEX
  8
0
 10
1.68447468
 20
-0.79347648
  0
VERTEX
  8
0
 10
1.69886901
 20
-0.82147274
  0
VERTEX
  8
0
 10
1.70982934
 20
-0.85121976
  0
VERTEX
  8
0
 10
1.73032407
 20
-0.86509774
  0
VERTEX
  8
0
 10
1.74873104
 20
-0.85505179
  0
VERTEX
  8
0
 10
1.75199505
 20
-0.83169149
  0
VERTEX
  8
0
 10
1.73701132
 20
-0.78485082
  0
VERTEX
  8
0
 10
1.68143861
 20
-0.74322098
  0
VERTEX
  8
0
 10
1.60378086
 20
-0.73855453
  0
VERTEX
  8
0
 10
1.54719650
 20
-0.71180556
  0
VERTEX
  8
0
 10
1.58716774
 20
-0.63062020
  0
VERTEX
  8
0
 10
1.61308786
 20
-0.53622710
  0
VERTEX
  8
0
 10
1.62317664
 20
-0.43610825
  0
VERTEX
  8
0
 10
1.61565385
 20
-0.33774562
  0
VERTEX
  8
0
 10
1.58873927
 20
-0.24862119
  0
VERTEX
  8
0
 10
1.54065268
 20
-0.17621695
  0
VERTEX
  8
0
 10
1.46961386
 20
-0.12801486
  0
VERTEX
  8
0
 10
1.37384259
 20
-0.11149691
  0
SEQEND
  0
POLYLINE
  8
Default_Layer
 66
   1
 39
0.000000
 70
    1
  0
VERTEX
  8
0
 10
1.04719650
 20
-0.18814300
  0
VERTEX
  8
0
 10
1.01857513
 20
-0.17030535
  0
VERTEX
  8
0
 10
0.98139675
 20
-0.16452075
  0
VERTEX
  8
0
 10
0.94458224
 20
-0.17144748
  0
VERTEX
  8
0
 10
0.91705247
 20
-0.19174383
  0
VERTEX
  8
0
 10
0.90523326
 20
-0.24841020
  0
VERTEX
  8
0
 10
0.92682613
 20
-0.29822531
  0
VERTEX
  8
0
 10
0.98827132
 20
-0.31925393
  0
VERTEX
  8
0
 10
1.04053043
 20
-0.29483041
  0
VERTEX
  8
0
 10
1.06602999
 20
-0.24458377
  0
VERTEX
  8
0
 10
1.04719650
 20
-0.18814300
  0
SEQEND
  0
POLYLINE
  8
Default_Layer
 66
   1
 39
0.000000
 70
    1
  0
VERTEX
  8
0
 10
-0.97955247
 20
-0.39184671
  0
VERTEX
  8
0
 10
-0.95893523
 20
-0.34498384
  0
VERTEX
  8
0
 10
-0.96545091
 20
-0.29159497
  0
VERTEX
  8
0
 10
-0.99072005
 20
-0.24242148
  0
VERTEX
  8
0
 10
-1.02636317
 20
-0.20820473
  0
VERTEX
  8
0
 10
-1.10067175
 20
-0.18488525
  0
VERTEX
  8
0
 10
-1.17738018
 20
-0.19072186
  0
VERTEX
  8
0
 10
-1.29282407
 20
-0.24164095
  0
VERTEX
  8
0
 10
-1.33821012
 20
-0.29895968
  0
VERTEX
  8
0
 10
-1.36376416
 20
-0.37817352
  0
VERTEX
  8
0
 10
-1.36387902
 20
-0.46499556
  0
VERTEX
  8
0
 10
-1.33294753
 20
-0.54513889
  0
VERTEX
  8
0
 10
-1.28546867
 20
-0.59394643
  0
VERTEX
  8
0
 10
-1.21653131
 20
-0.63149087
  0
VERTEX
  8
0
 10
-1.13494302
 20
-0.64579245
  0
VERTEX
  8
0
 10
-1.04951132
 20
-0.62487140
  0
VERTEX
  8
0
 10
-0.99941218
 20
-0.57880134
  0
VERTEX
  8
0
 10
-0.98381541
 20
-0.54299936
  0
VERTEX
  8
0
 10
-0.99652778
 20
-0.50810185
  0
VERTEX
  8
0
 10
-1.02842823
 20
-0.49709514
  0
VERTEX
  8
0
 10
-1.06620433
 20
-0.50823012
  0
VERTEX
  8
0
 10
-1.13953189
 20
-0.53845165
  0
VERTEX
  8
0
 10
-1.19681271
 20
-0.53367913
  0
VERTEX
  8
0
 10
-1.23848555
 20
-0.50933290
  0
VERTEX
  8
0
 10
-1.25910234
 20
-0.46868184
  0
VERTEX
  8
0
 10
-1.25321502
 20
-0.41499486
  0
VERTEX
  8
0
 10
-1.10584021
 20
-0.42950415
  0
VERTEX
  8
0
 10
-1.03427178
 20
-0.42225048
  0
VERTEX
  8
0
 10
-0.97955247
 20
-0.39184671
  0
SEQEND
  0
POLYLINE
  8
Default_Layer
 66
   1
 39
0.000000
 70
    1
  0
VERTEX
  8
0
 10
1.47672325
 20
-0.34812243
  0
VERTEX
  8
0
 10
1.43646622
 20
-0.39371334
  0
VERTEX
  8
0
 10
1.37405104
 20
-0.41016505
  0
VERTEX
  8
0
 10
1.31140303
 20
-0.39816747
  0
VERTEX
  8
0
 10
1.27044753
 20
-0.35841049
  0
VERTEX
  8
0
 10
1.26207770
 20
-0.30608013
  0
VERTEX
  8
0
 10
1.28084366
 20
-0.26558427
  0
VERTEX
  8
0
 10
1.31805670
 20
-0.23829771
  0
VERTEX
  8
0
 10
1.36502812
 20
-0.22559526
  0
VERTEX
  8
0
 10
1.41306919
 20
-0.22885171
  0
VERTEX
  8
0
 10
1.45349122
 20
-0.24944185
  0
VERTEX
  8
0
 10
1.47760547
 20
-0.28874049
  0
VERTEX
  8
0
 10
1.47672325
 20
-0.34812243
  0
SEQEND
  0
POLYLINE
  8
Default_Layer
 66
   1
 39
0.000000
 70
    1
  0
VERTEX
  8
0
 10
1.03690844
 20
-0.52507716
  0
VERTEX
  8
0
 10
1.02999267
 20
-0.42002583
  0
VERTEX
  8
0
 10
1.01003668
 20
-0.38790700
  0
VERTEX
  8
0
 10
0.96694959
 20
-0.38155864
  0
VERTEX
  8
0
 10
0.93256110
 20
-0.40140653
  0
VERTEX
  8
0
 10
0.90863305
 20
-0.44296402
  0
VERTEX
  8
0
 10
0.88923450
 20
-0.56382055
  0
VERTEX
  8
0
 10
0.90290646
 20
-0.68935374
  0
VERTEX
  8
0
 10
0.92031654
 20
-0.73675705
  0
VERTEX
  8
0
 10
0.94380144
 20
-0.76478909
  0
VERTEX
  8
0
 10
0.98107917
 20
-0.76423448
  0
VERTEX
  8
0
 10
1.00747496
 20
-0.74977942
  0
VERTEX
  8
0
 10
1.03473353
 20
-0.69016349
  0
VERTEX
  8
0
 10
1.03690844
 20
-0.52507716
  0
SEQEND
  0
POLYLINE
  8
Default_Layer
 66
   1
 39
0.000000
 70
    1
  0
VERTEX
  8
0
 10
-0.51298868
 20
-0.63515947
  0
VERTEX
  8
0
 10
-0.50792696
 20
-0.57637824
  0
VERTEX
  8
0
 10
-0.51868588
 20
-0.52516331
  0
VERTEX
  8
0
 10
-0.57703113
 20
-0.44577466
  0
VERTEX
  8
0
 10
-0.66675536
 20
-0.39767821
  0
VERTEX
  8
0
 10
-0.76658951
 20
-0.38155864
  0
VERTEX
  8
0
 10
-0.84632202
 20
-0.39493313
  0
VERTEX
  8
0
 10
-0.89318420
 20
-0.44661697
  0
VERTEX
  8
0
 10
-0.91090831
 20
-0.52968745
  0
VERTEX
  8
0
 10
-0.91319444
 20
-0.72826646
  0
VERTEX
  8
0
 10
-0.92296811
 20
-0.94843107
  0
VERTEX
  8
0
 10
-0.90639870
 20
-1.01082854
  0
VERTEX
  8
0
 10
-0.88711834
 20
-1.03472236
  0
VERTEX
  8
0
 10
-0.85969650
 20
-1.04513889
  0
VERTEX
  8
0
 10
-0.83133569
 20
-1.03828970
  0
VERTEX
  8
0
 10
-0.81566217
 20
-1.01703674
  0
VERTEX
  8
0
 10
-0.80986498
 20
-0.94570611
  0
VERTEX
  8
0
 10
-0.81728087
 20
-0.85992005
  0
VERTEX
  8
0
 10
-0.81288580
 20
-0.78845165
  0
VERTEX
  8
0
 10
-0.70152977
 20
-0.78873268
  0
VERTEX
  8
0
 10
-0.61181452
 20
-0.76116753
  0
VERTEX
  8
0
 10
-0.54766063
 20
-0.70892140
  0
VERTEX
  8
0
 10
-0.51298868
 20
-0.63515947
  0
SEQEND
  0
POLYLINE
  8
Default_Layer
 66
   1
 39
0.000000
 70
    1
  0
VERTEX
  8
0
 10
0.15676440
 20
-0.47826646
  0
VERTEX
  8
0
 10
0.19761797
 20
-0.44394968
  0
VERTEX
  8
0
 10
0.23916562
 20
-0.44368208
  0
VERTEX
  8
0
 10
0.27701530
 20
-0.46862077
  0
VERTEX
  8
0
 10
0.30677499
 20
-0.50992290
  0
VERTEX
  8
0
 10
0.32405265
 20
-0.55874560
  0
VERTEX
  8
0
 10
0.32445624
 20
-0.60624600
  0
VERTEX
  8
0
 10
0.30359371
 20
-0.64358124
  0
VERTEX
  8
0
 10
0.25707305
 20
-0.66190844
  0
VERTEX
  8
0
 10
0.18952108
 20
-0.64923761
  0
VERTEX
  8
0
 10
0.14553541
 20
-0.60568697
  0
VERTEX
  8
0
 10
0.13224140
 20
-0.54433657
  0
VERTEX
  8
0
 10
0.15676440
 20
-0.47826646
  0
SEQEND
  0
POLYLINE
  8
Default_Layer
 66
   1
 39
0.000000
 70
    1
  0
VERTEX
  8
0
 10
-0.32626029
 20
-0.64493313
  0
VERTEX
  8
0
 10
-0.32686788
 20
-0.55453078
  0
VERTEX
  8
0
 10
-0.30979938
 20
-0.48186728
  0
VERTEX
  8
0
 10
-0.24658715
 20
-0.47869927
  0
VERTEX
  8
0
 10
-0.18826172
 20
-0.49370985
  0
VERTEX
  8
0
 10
-0.14813825
 20
-0.52774771
  0
VERTEX
  8
0
 10
-0.13953189
 20
-0.58166152
  0
VERTEX
  8
0
 10
-0.16248315
 20
-0.62062374
  0
VERTEX
  8
0
 10
-0.20757194
 20
-0.64390454
  0
VERTEX
  8
0
 10
-0.26532281
 20
-0.65188173
  0
VERTEX
  8
0
 10
-0.32626029
 20
-0.64493313
  0
SEQEND
  0
POLYLINE
  8
Default_Layer
 66
   1
 39
0.000000
 70
    1
  0
VERTEX
  8
0
 10
-0.80979938
 20
-0.67168210
  0
VERTEX
  8
0
 10
-0.80999369
 20
-0.57807677
  0
VERTEX
  8
0
 10
-0.80517623
 20
-0.53622772
  0
VERTEX
  8
0
 10
-0.78973765
 20
-0.50501543
  0
VERTEX
  8
0
 10
-0.72528184
 20
-0.50522718
  0
VERTEX
  8
0
 10
-0.66840212
 20
-0.52145689
  0
VERTEX
  8
0
 10
-0.63052351
 20
-0.55531463
  0
VERTEX
  8
0
 10
-0.62307099
 20
-0.60841049
  0
VERTEX
  8
0
 10
-0.64598306
 20
-0.64726294
  0
VERTEX
  8
0
 10
-0.69116817
 20
-0.67046418
  0
VERTEX
  8
0
 10
-0.80979938
 20
-0.67168210
  0
SEQEND
  0
POLYLINE
  8
Default_Layer
 66
   1
 39
0.000000
 70
    1
  0
VERTEX
  8
0
 10
1.56674383
 20
-0.84143519
  0
VERTEX
  8
0
 10
1.57330572
 20
-0.80798311
  0
VERTEX
  8
0
 10
1.59709362
 20
-0.79153807
  0
VERTEX
  8
0
 10
1.61379487
 20
-0.81038575
  0
VERTEX
  8
0
 10
1.60836510
 20
-0.83579978
  0
VERTEX
  8
0
 10
1.58971214
 20
-0.85155724
  0
VERTEX
  8
0
 10
1.56674383
 20
-0.84143519
  0
SEQEND
  0
POLYLINE
  8
Default_Layer
 66
   1
 39
0.000000
 70
    1
  0
VERTEX
  8
0
 10
-1.07317387
 20
-0.33166152
  0
VERTEX
  8
0
 10
-1.10034119
 20
-0.34535621
  0
VERTEX
  8
0
 10
-1.13640505
 20
-0.34397788
  0
VERTEX
  8
0
 10
-1.21309156
 20
-0.33166152
  0
VERTEX
  8
0
 10
-1.18669779
 20
-0.29788805
  0
VERTEX
  8
0
 10
-1.14133578
 20
-0.28406694
  0
VERTEX
  8
0
 10
-1.09687224
 20
-0.29404313
  0
VERTEX
  8
0
 10
-1.07317387
 20
-0.33166152
  0
SEQEND
  0
POLYLINE
  8
Default_Layer
 66
   1
 39
0.000000
 70
    1
  0
VERTEX
  8
0
 10
0.03022119
 20
0.97852366
  0
VERTEX
  8
0
 10
0.07681749
 20
0.97755065
  0
VERTEX
  8
0
 10
0.09433457
 20
0.94120956
  0
VERTEX
  8
0
 10
0.08069517
 20
0.90269219
  0
VERTEX
  8
0
 10
0.03382202
 20
0.89519033
  0
VERTEX
  8
0
 10
0.01645552
 20
0.91003125
  0
VERTEX
  8
0
 10
0.01006530
 20
0.93517519
  0
VERTEX
  8
0
 10
0.03022119
 20
0.97852366
  0
SEQEND
  0
POLYLINE
  8
Default_Layer
 66
   1
 39
0.000000
 70
    1
  0
VERTEX
  8
0
 10
-0.35300926
 20
0.23814815
  0
VERTEX
  8
0
 10
-0.41164666
 20
0.05147993
  0
VERTEX
  8
0
 10
-0.44663066
 20
-0.15897119
  0
VERTEX
  8
0
 10
-0.07084832
 20
-0.17221100
  0
VERTEX
  8
0
 10
0.33371914
 20
-0.16565844
  0
VERTEX
  8
0
 10
0.28427972
 20
0.11685942
  0
VERTEX
  8
0
 10
0.24116401
 20
0.23958522
  0
VERTEX
  8
0
 10
0.18042695
 20
0.34462963
  0
VERTEX
  8
0
 10
0.19688786
 20
0.35800412
  0
VERTEX
  8
0
 10
0.27116917
 20
0.24099130
  0
VERTEX
  8
0
 10
0.31798030
 20
0.10701181
  0
VERTEX
  8
0
 10
0.36355453
 20
-0.19189300
  0
VERTEX
  8
0
 10
-0.46617798
 20
-0.18520576
  0
VERTEX
  8
0
 10
-0.46300548
 20
-0.07917588
  0
VERTEX
  8
0
 10
-0.44656852
 20
0.02298039
  0
VERTEX
  8
0
 10
-0.39313272
 20
0.21808642
  0
VERTEX
  8
0
 10
-0.36618471
 20
0.24833535
  0
VERTEX
  8
0
 10
-0.35300926
 20
0.23814815
  0
SEQEND
  0
POLYLINE
  8
Default_Layer
 66
   1
 39
0.000000
 70
    1
  0
VERTEX
  8
0
 10
-0.01658951
 20
0.95177469
  0
VERTEX
  8
0
 10
0.00493724
 20
0.99150890
  0
VERTEX
  8
0
 10
0.03450431
 20
1.01536410
  0
VERTEX
  8
0
 10
0.06365741
 20
1.02173354
  0
VERTEX
  8
0
 10
0.10325731
 20
1.00161380
  0
VERTEX
  8
0
 10
0.12566354
 20
0.96198888
  0
VERTEX
  8
0
 10
0.12619736
 20
0.91635667
  0
VERTEX
  8
0
 10
0.10018004
 20
0.87821502
  0
VERTEX
  8
0
 10
0.05336934
 20
0.86484053
  0
VERTEX
  8
0
 10
0.00995384
 20
0.87383087
  0
VERTEX
  8
0
 10
-0.01284598
 20
0.90357350
  0
VERTEX
  8
0
 10
-0.01658951
 20
0.95177469
  0
SEQEND
  0
POLYLINE
  8
Default_Layer
 66
   1
 39
0.000000
 70
    1
  0
VERTEX
  8
0
 10
0.02090000
 20
0.93890000
  0
VERTEX
  8
0
 10
0.04390000
 20
0.96190000
  0
VERTEX
  8
0
 10
0.06690000
 20
0.93890000
  0
VERTEX
  8
0
 10
0.04390000
 20
0.91590000
  0
VERTEX
  8
0
 10
0.02090000
 20
0.93890000
  0
SEQEND
  0
POLYLINE
  8
Default_Layer
 66
   1
 39
0.000000
 70
    1
  0
VERTEX
  8
0
 10
0.25700000
 20
0.95562185
  0
VERTEX
  8
0
 10
0.26593324
 20
0.97718860
  0
VERTEX
  8
0
 10
0.28750000
 20
0.98612185
  0
VERTEX
  8
0
 10
0.30906676
 20
0.97718860
  0
VERTEX
  8
0
 10
0.31800000
 20
0.95562185
  0
VERTEX
  8
0
 10
0.30906676
 20
0.93405509
  0
VERTEX
  8
0
 10
0.28750000
 20
0.92512185
  0
VERTEX
  8
0
 10
0.26593324
 20
0.93405509
  0
VERTEX
  8
0
 10
0.25700000
 20
0.95562185
  0
SEQEND
  0
POLYLINE
  8
Default_Layer
 66
   1
 39
0.000000
 70
    1
  0
VERTEX
  8
0
 10
0.32450000
 20
0.97343435
  0
VERTEX
  8
0
 10
0.33343324
 20
0.99500110
  0
VERTEX
  8
0
 10
0.35500000
 20
1.00393435
  0
VERTEX
  8
0
 10
0.37656676
 20
0.99500110
  0
VERTEX
  8
0
 10
0.38550000
 20
0.97343435
  0
VERTEX
  8
0
 10
0.37656676
 20
0.95186759
  0
VERTEX
  8
0
 10
0.35500000
 20
0.94293435
  0
VERTEX
  8
0
 10
0.33343324
 20
0.95186759
  0
VERTEX
  8
0
 10
0.32450000
 20
0.97343435
  0
SEQEND
  0
POLYLINE
  8
Default_Layer
 66
   1
 39
0.000000
 70
    1
  0
VERTEX
  8
0
 10
-0.17783951
 20
0.86927469
  0
VERTEX
  8
0
 10
-0.15631276
 20
0.90900890
  0
VERTEX
  8
0
 10
-0.12674569
 20
0.93286410
  0
VERTEX
  8
0
 10
-0.09759259
 20
0.93923354
  0
VERTEX
  8
0
 10
-0.05799269
 20
0.91911380
  0
VERTEX
  8
0
 10
-0.03558646
 20
0.87948888
  0
VERTEX
  8
0
 10
-0.03505264
 20
0.83385667
  0
VERTEX
  8
0
 10
-0.06106996
 20
0.79571502
  0
VERTEX
  8
0
 10
-0.10788066
 20
0.78234053
  0
VERTEX
  8
0
 10
-0.15129616
 20
0.79133087
  0
VERTEX
  8
0
 10
-0.17409598
 20
0.82107350
  0
VERTEX
  8
0
 10
-0.17783951
 20
0.86927469
  0
SEQEND
  0
POLYLINE
  8
Default_Layer
 66
   1
 39
0.000000
 70
    0
  0
VERTEX
  8
0
 10
0.13750883
 20
0.54827647
  0
VERTEX
  8
0
 10
0.13718264
 20
0.54861860
  0
SEQEND
  0
POLYLINE
  8
Default_Layer
 66
   1
 39
0.000000
 70
    1
  0
VERTEX
  8
0
 10
-0.09767749
 20
0.53917076
  0
VERTEX
  8
0
 10
-0.07128170
 20
0.51297281
  0
VERTEX
  8
0
 10
-0.03178577
 20
0.48852459
  0
VERTEX
  8
0
 10
0.02438211
 20
0.47650586
  0
VERTEX
  8
0
 10
0.04313013
 20
0.47791734
  0
VERTEX
  8
0
 10
0.05808321
 20
0.48117235
  0
VERTEX
  8
0
 10
0.08821496
 20
0.49432578
  0
VERTEX
  8
0
 10
0.10707561
 20
0.50839092
  0
VERTEX
  8
0
 10
0.11696985
 20
0.51848314
  0
VERTEX
  8
0
 10
0.13656475
 20
0.54884946
  0
VERTEX
  8
0
 10
0.16026888
 20
0.55934082
  0
VERTEX
  8
0
 10
0.17045612
 20
0.53773494
  0
VERTEX
  8
0
 10
0.11320976
 20
0.46459365
  0
VERTEX
  8
0
 10
0.07085178
 20
0.44358006
  0
VERTEX
  8
0
 10
0.02245711
 20
0.43605586
  0
VERTEX
  8
0
 10
-0.06314043
 20
0.46113929
  0
VERTEX
  8
0
 10
-0.12059532
 20
0.52624898
  0
VERTEX
  8
0
 10
-0.11598246
 20
0.54078099
  0
VERTEX
  8
0
 10
-0.09767749
 20
0.53917076
  0
SEQEND
  0
POLYLINE
  8
Default_Layer
 66
   1
 39
0.000000
 70
    1
  0
VERTEX
  8
0
 10
-0.39313272
 20
0.57163066
  0
VERTEX
  8
0
 10
-0.38840316
 20
0.67619813
  0
VERTEX
  8
0
 10
-0.35300926
 20
0.77173354
  0
VERTEX
  8
0
 10
-0.29915315
 20
0.84323107
  0
VERTEX
  8
0
 10
-0.23235257
 20
0.90300070
  0
VERTEX
  8
0
 10
-0.07317387
 20
0.99189815
  0
VERTEX
  8
0
 10
0.05697016
 20
1.03150720
  0
VERTEX
  8
0
 10
0.06005658
 20
1.03150720
  0
VERTEX
  8
0
 10
0.18711420
 20
1.05516975
  0
VERTEX
  8
0
 10
0.19380144
 20
1.04848251
  0
VERTEX
  8
0
 10
0.19676802
 20
0.96348395
  0
VERTEX
  8
0
 10
0.22672325
 20
0.88737076
  0
VERTEX
  8
0
 10
0.24346682
 20
0.86507740
  0
VERTEX
  8
0
 10
0.28545976
 20
0.82963189
  0
VERTEX
  8
0
 10
0.31178342
 20
0.81780518
  0
VERTEX
  8
0
 10
0.34349280
 20
0.81854424
  0
VERTEX
  8
0
 10
0.28294135
 20
0.76274205
  0
VERTEX
  8
0
 10
0.23709141
 20
0.73385021
  0
VERTEX
  8
0
 10
0.19992972
 20
0.72046082
  0
VERTEX
  8
0
 10
0.19020062
 20
0.70846193
  0
VERTEX
  8
0
 10
0.20330118
 20
0.68358796
  0
VERTEX
  8
0
 10
0.23535667
 20
0.60842645
  0
VERTEX
  8
0
 10
0.24369856
 20
0.52842078
  0
VERTEX
  8
0
 10
0.22003601
 20
0.44508745
  0
VERTEX
  8
0
 10
0.18972287
 20
0.39545585
  0
VERTEX
  8
0
 10
0.14796681
 20
0.35594273
  0
VERTEX
  8
0
 10
0.04050926
 20
0.31185700
  0
VERTEX
  8
0
 10
-0.06957305
 20
0.29488169
  0
VERTEX
  8
0
 10
-0.07317387
 20
0.29488169
  0
VERTEX
  8
0
 10
-0.20047523
 20
0.31197851
  0
VERTEX
  8
0
 10
-0.29655134
 20
0.36791262
  0
VERTEX
  8
0
 10
-0.36092843
 20
0.45574689
  0
VERTEX
  8
0
 10
-0.39313272
 20
0.56854424
  0
VERTEX
  8
0
 10
-0.39313272
 20
0.57163066
  0
SEQEND
  0
POLYLINE
  8
Default_Layer
 66
   1
 39
0.000000
 70
    1
  0
VERTEX
  8
0
 10
-0.26658951
 20
0.91833848
  0
VERTEX
  8
0
 10
-0.31957305
 20
0.87512860
  0
VERTEX
  8
0
 10
-0.33654835
 20
0.88490226
  0
VERTEX
  8
0
 10
-0.36254725
 20
0.90736059
  0
VERTEX
  8
0
 10
-0.38558738
 20
0.94696296
  0
VERTEX
  8
0
 10
-0.39203204
 20
0.99082727
  0
VERTEX
  8
0
 10
-0.37556278
 20
1.01987966
  0
VERTEX
  8
0
 10
-0.32986111
 20
1.01504630
  0
VERTEX
  8
0
 10
-0.30972975
 20
0.99672586
  0
VERTEX
  8
0
 10
-0.25736308
 20
0.94090026
  0
VERTEX
  8
0
 10
-0.26658951
 20
0.91833848
  0
SEQEND
  0
POLYLINE
  8
Default_Layer
 66
   1
 39
0.000000
 70
    1
  0
VERTEX
  8
0
 10
-0.29642490
 20
0.51813272
  0
VERTEX
  8
0
 10
-0.32859128
 20
0.55223019
  0
VERTEX
  8
0
 10
-0.34632202
 20
0.59837963
  0
VERTEX
  8
0
 10
-0.34214965
 20
0.66693992
  0
VERTEX
  8
0
 10
-0.32419761
 20
0.69312319
  0
VERTEX
  8
0
 10
-0.29642490
 20
0.70846193
  0
VERTEX
  8
0
 10
-0.22617725
 20
0.70199377
  0
VERTEX
  8
0
 10
-0.17296811
 20
0.67502572
  0
VERTEX
  8
0
 10
-0.15794817
 20
0.64251333
  0
VERTEX
  8
0
 10
-0.15488168
 20
0.59885949
  0
VERTEX
  8
0
 10
-0.16343043
 20
0.55496572
  0
VERTEX
  8
0
 10
-0.18325617
 20
0.52173354
  0
VERTEX
  8
0
 10
-0.23737272
 20
0.50054444
  0
VERTEX
  8
0
 10
-0.29642490
 20
0.51813272
  0
SEQEND
  0
POLYLINE
  8
Default_Layer
 66
   1
 39
0.000000
 70
    1
  0
VERTEX
  8
0
 10
-0.19450617
 20
1.03819444
  0
VERTEX
  8
0
 10
-0.20852319
 20
1.07498764
  0
VERTEX
  8
0
 10
-0.20640432
 20
1.12821502
  0
VERTEX
  8
0
 10
-0.20065458
 20
1.13630851
  0
VERTEX
  8
0
 10
-0.18030949
 20
1.14247299
  0
VERTEX
  8
0
 10
-0.15365896
 20
1.13304584
  0
VERTEX
  8
0
 10
-0.11638374
 20
1.08809156
  0
VERTEX
  8
0
 10
-0.10845454
 20
1.06506060
  0
VERTEX
  8
0
 10
-0.10011651
 20
1.01898452
  0
VERTEX
  8
0
 10
-0.15959362
 20
0.98521091
  0
VERTEX
  8
0
 10
-0.16203470
 20
0.99079795
  0
VERTEX
  8
0
 10
-0.19450617
 20
1.03819444
  0
SEQEND
  0
ENDSEC
  0
EOF
