  0
SECTION
  2
HEADER
  9
$ACADVER
  1
AC1009
  9
$EXTMIN
 10
-0.00044231
 20
-0.03217117
 30
0.0
  9
$EXTMAX
 10
93.91122445
 20
22.23318745
 30
0.0
  0
ENDSEC
  0
SECTION
  2
TABLES
  0
TABLE
  2
LAYER
 70
2
 0
LAYER
 2
DEFAULT_LAYER
 70
0
 62
1
 6
CONTINUOUS
 0
LAYER
 2
Default_Layer
 70
0
 62
1
 6
CONTINUOUS
 0
ENDTAB
 0
ENDSEC
  0
SECTION
  2
ENTITIES
  0
POLYLINE
  8
DEFAULT_LAYER
 66
   1
 39
0.000000
 70
    0
  0
VERTEX
  8
0
 10
10.65826575
 20
2.32687085
  0
VERTEX
  8
0
 10
10.65833139
 20
2.32681858
  0
VERTEX
  8
0
 10
10.65840166
 20
2.32676261
  0
VERTEX
  8
0
 10
10.66196231
 20
2.32392673
  0
VERTEX
  8
0
 10
10.66201936
 20
2.32388130
  0
VERTEX
  8
0
 10
10.66207100
 20
2.32384016
  0
VERTEX
  8
0
 10
10.72174484
 20
2.28830662
  0
VERTEX
  8
0
 10
10.72177842
 20
2.28829157
  0
VERTEX
  8
0
 10
10.88058697
 20
2.24297098
  0
VERTEX
  8
0
 10
11.05223039
 20
2.21309369
  0
VERTEX
  8
0
 10
11.05230296
 20
2.21307935
  0
VERTEX
  8
0
 10
11.20172644
 20
2.16535433
  0
SEQEND
  0
POLYLINE
  8
DEFAULT_LAYER
 66
   1
 39
0.000000
 70
    0
  0
VERTEX
  8
0
 10
6.78679652
 20
19.17913385
  0
VERTEX
  8
0
 10
6.73909327
 20
19.11246309
  0
VERTEX
  8
0
 10
6.73051828
 20
19.07578832
  0
VERTEX
  8
0
 10
6.73659967
 20
19.03346456
  0
VERTEX
  8
0
 10
6.79548303
 20
19.02231200
  0
VERTEX
  8
0
 10
6.85667841
 20
19.03051181
  0
VERTEX
  8
0
 10
6.86974312
 20
19.07499022
  0
VERTEX
  8
0
 10
6.85836640
 20
19.11883120
  0
VERTEX
  8
0
 10
6.82867521
 20
19.15517587
  0
VERTEX
  8
0
 10
6.78679652
 20
19.17716535
  0
SEQEND
  0
POLYLINE
  8
DEFAULT_LAYER
 66
   1
 39
0.000000
 70
    1
  0
VERTEX
  8
0
 10
18.71861349
 20
2.16535039
  0
VERTEX
  8
0
 10
18.71861349
 20
2.16535433
  0
VERTEX
  8
0
 10
18.71864150
 20
2.16535433
  0
VERTEX
  8
0
 10
18.71861349
 20
2.16535039
  0
SEQEND
  0
POLYLINE
  8
DEFAULT_LAYER
 66
   1
 39
0.000000
 70
    0
  0
VERTEX
  8
0
 10
83.04964298
 20
2.16535433
  0
VERTEX
  8
0
 10
73.50982408
 20
2.16535039
  0
VERTEX
  8
0
 10
73.53446464
 20
2.21382455
  0
VERTEX
  8
0
 10
73.54723992
 20
2.27178149
  0
VERTEX
  8
0
 10
73.55845006
 20
2.38681102
  0
VERTEX
  8
0
 10
73.62402240
 20
2.32259596
  0
VERTEX
  8
0
 10
73.67754455
 20
2.24507874
  0
VERTEX
  8
0
 10
73.84301265
 20
2.25032917
  0
VERTEX
  8
0
 10
74.00454307
 20
2.30492199
  0
VERTEX
  8
0
 10
74.14995735
 20
2.40176765
  0
VERTEX
  8
0
 10
74.26707703
 20
2.53377657
  0
VERTEX
  8
0
 10
74.34372365
 20
2.69385919
  0
VERTEX
  8
0
 10
74.36306380
 20
2.78221264
  0
VERTEX
  8
0
 10
74.36771876
 20
2.87492593
  0
VERTEX
  8
0
 10
74.35616623
 20
2.97111286
  0
VERTEX
  8
0
 10
74.32688390
 20
3.06988724
  0
VERTEX
  8
0
 10
74.27834946
 20
3.17036286
  0
VERTEX
  8
0
 10
74.20904061
 20
3.27165354
  0
VERTEX
  8
0
 10
74.15293644
 20
3.36157801
  0
VERTEX
  8
0
 10
74.13730218
 20
3.43104287
  0
VERTEX
  8
0
 10
74.14766804
 20
3.48743229
  0
VERTEX
  8
0
 10
74.16956424
 20
3.53813041
  0
VERTEX
  8
0
 10
74.18852096
 20
3.59052138
  0
VERTEX
  8
0
 10
74.19006842
 20
3.65198935
  0
VERTEX
  8
0
 10
74.15973682
 20
3.72991848
  0
VERTEX
  8
0
 10
74.08305636
 20
3.83169291
  0
VERTEX
  8
0
 10
73.78274509
 20
4.16012112
  0
VERTEX
  8
0
 10
73.66834964
 20
4.30176900
  0
VERTEX
  8
0
 10
73.58088313
 20
4.44336958
  0
VERTEX
  8
0
 10
73.52266220
 20
4.59617053
  0
VERTEX
  8
0
 10
73.49600346
 20
4.77141947
  0
VERTEX
  8
0
 10
73.50322353
 20
4.98036407
  0
VERTEX
  8
0
 10
73.54663904
 20
5.23425196
  0
VERTEX
  8
0
 10
73.62386363
 20
5.46583956
  0
VERTEX
  8
0
 10
73.70329504
 20
5.68498425
  0
VERTEX
  8
0
 10
73.72566859
 20
5.80616757
  0
VERTEX
  8
0
 10
73.72679018
 20
5.94377263
  0
VERTEX
  8
0
 10
73.69939194
 20
6.10431028
  0
VERTEX
  8
0
 10
73.63620597
 20
6.29429133
  0
VERTEX
  8
0
 10
73.53709930
 20
6.55710906
  0
VERTEX
  8
0
 10
73.51994120
 20
6.68416092
  0
VERTEX
  8
0
 10
73.53286431
 20
6.85299058
  0
VERTEX
  8
0
 10
73.52400124
 20
7.24114173
  0
VERTEX
  8
0
 10
73.46061770
 20
7.89788606
  0
VERTEX
  8
0
 10
73.39212040
 20
8.30061140
  0
VERTEX
  8
0
 10
73.33938353
 20
8.52785252
  0
VERTEX
  8
0
 10
73.32328126
 20
8.65814419
  0
VERTEX
  8
0
 10
73.36468780
 20
8.77002118
  0
VERTEX
  8
0
 10
73.48447731
 20
8.94201827
  0
VERTEX
  8
0
 10
73.70352400
 20
9.25267022
  0
VERTEX
  8
0
 10
74.04270203
 20
9.78051181
  0
VERTEX
  8
0
 10
74.17721938
 20
10.01694629
  0
VERTEX
  8
0
 10
74.29598156
 20
10.26662647
  0
VERTEX
  8
0
 10
74.39194256
 20
10.52546389
  0
VERTEX
  8
0
 10
74.45805636
 20
10.78937008
  0
VERTEX
  8
0
 10
74.46559770
 20
10.87645275
  0
VERTEX
  8
0
 10
74.47426367
 20
10.92084448
  0
VERTEX
  8
0
 10
74.49348943
 20
10.95177165
  0
VERTEX
  8
0
 10
74.53342004
 20
10.84372982
  0
VERTEX
  8
0
 10
74.58305636
 20
10.74114173
  0
VERTEX
  8
0
 10
74.59880439
 20
10.74507874
  0
VERTEX
  8
0
 10
74.64710035
 20
10.97416321
  0
VERTEX
  8
0
 10
74.67974663
 20
11.04476153
  0
VERTEX
  8
0
 10
74.71524294
 20
11.08761232
  0
VERTEX
  8
0
 10
74.75147764
 20
11.10387692
  0
VERTEX
  8
0
 10
74.78633911
 20
11.09471664
  0
VERTEX
  8
0
 10
74.81771572
 20
11.06129280
  0
VERTEX
  8
0
 10
74.84349583
 20
11.00476673
  0
VERTEX
  8
0
 10
74.86982006
 20
10.82705316
  0
VERTEX
  8
0
 10
74.84841875
 20
10.57086651
  0
VERTEX
  8
0
 10
74.76239887
 20
10.24549734
  0
VERTEX
  8
0
 10
74.68987790
 20
10.05977261
  0
VERTEX
  8
0
 10
74.59486738
 20
9.86023622
  0
VERTEX
  8
0
 10
74.56719366
 20
9.81218504
  0
VERTEX
  8
0
 10
74.55845006
 20
9.76082677
  0
VERTEX
  8
0
 10
74.62347669
 20
9.76518480
  0
VERTEX
  8
0
 10
74.68838258
 20
9.78919426
  0
VERTEX
  8
0
 10
74.81381768
 20
9.87778543
  0
VERTEX
  8
0
 10
75.01907998
 20
10.08858267
  0
VERTEX
  8
0
 10
75.00536109
 20
9.97184678
  0
VERTEX
  8
0
 10
74.97436326
 20
9.85293147
  0
VERTEX
  8
0
 10
74.89322614
 20
9.61143307
  0
VERTEX
  8
0
 10
74.85943451
 20
9.49028520
  0
VERTEX
  8
0
 10
74.84105925
 20
9.36982837
  0
VERTEX
  8
0
 10
74.84627421
 20
9.25078019
  0
VERTEX
  8
0
 10
74.88325321
 20
9.13385826
  0
VERTEX
  8
0
 10
74.90687526
 20
9.12598425
  0
VERTEX
  8
0
 10
74.96948383
 20
9.24303727
  0
VERTEX
  8
0
 10
75.03416709
 20
9.39685433
  0
VERTEX
  8
0
 10
75.07304702
 20
9.46910871
  0
VERTEX
  8
0
 10
75.11935797
 20
9.52842532
  0
VERTEX
  8
0
 10
75.17540407
 20
9.56742788
  0
VERTEX
  8
0
 10
75.24348943
 20
9.57874015
  0
VERTEX
  8
0
 10
75.26605212
 20
9.42078771
  0
VERTEX
  8
0
 10
75.28611742
 20
9.29558666
  0
VERTEX
  8
0
 10
75.32261985
 20
9.15519734
  0
VERTEX
  8
0
 10
75.38349524
 20
9.01134092
  0
VERTEX
  8
0
 10
75.47667945
 20
8.87573862
  0
VERTEX
  8
0
 10
75.61010835
 20
8.76011161
  0
VERTEX
  8
0
 10
75.79171778
 20
8.67618110
  0
VERTEX
  8
0
 10
75.84782014
 20
8.67027559
  0
VERTEX
  8
0
 10
75.86258392
 20
8.68503937
  0
VERTEX
  8
0
 10
75.77456885
 20
8.83142058
  0
VERTEX
  8
0
 10
75.65844760
 20
8.98551919
  0
VERTEX
  8
0
 10
75.60761203
 20
9.06592861
  0
VERTEX
  8
0
 10
75.57106774
 20
9.14882671
  0
VERTEX
  8
0
 10
75.55592070
 20
9.23439990
  0
VERTEX
  8
0
 10
75.56927683
 20
9.32283464
  0
VERTEX
  8
0
 10
75.69255550
 20
9.15261558
  0
VERTEX
  8
0
 10
75.82346829
 20
8.98555506
  0
VERTEX
  8
0
 10
75.99019219
 20
8.79962057
  0
VERTEX
  8
0
 10
76.18494882
 20
8.62163212
  0
VERTEX
  8
0
 10
76.39995978
 20
8.47840975
  0
VERTEX
  8
0
 10
76.51262989
 20
8.42821710
  0
VERTEX
  8
0
 10
76.62744669
 20
8.39677347
  0
VERTEX
  8
0
 10
76.74343788
 20
8.38743137
  0
VERTEX
  8
0
 10
76.85963116
 20
8.40354330
  0
VERTEX
  8
0
 10
76.90253668
 20
8.42325984
  0
VERTEX
  8
0
 10
76.93148156
 20
8.45866141
  0
VERTEX
  8
0
 10
76.83550680
 20
8.55281692
  0
VERTEX
  8
0
 10
76.71194902
 20
8.63727110
  0
VERTEX
  8
0
 10
76.41665725
 20
8.81234596
  0
VERTEX
  8
0
 10
76.26220971
 20
8.92060189
  0
VERTEX
  8
0
 10
76.11475204
 20
9.05442698
  0
VERTEX
  8
0
 10
75.98292746
 20
9.22263885
  0
VERTEX
  8
0
 10
75.87537920
 20
9.43405511
  0
VERTEX
  8
0
 10
75.97262103
 20
9.37752083
  0
VERTEX
  8
0
 10
76.12025653
 20
9.24569599
  0
VERTEX
  8
0
 10
76.31139628
 20
9.07199903
  0
VERTEX
  8
0
 10
76.53915085
 20
8.88984842
  0
VERTEX
  8
0
 10
76.79663081
 20
8.73266263
  0
VERTEX
  8
0
 10
76.93436487
 20
8.67387481
  0
VERTEX
  8
0
 10
77.07694674
 20
8.63386011
  0
VERTEX
  8
0
 10
77.22351525
 20
8.61679585
  0
VERTEX
  8
0
 10
77.37320921
 20
8.62685933
  0
VERTEX
  8
0
 10
77.52516746
 20
8.66822785
  0
VERTEX
  8
0
 10
77.67852880
 20
8.74507874
  0
VERTEX
  8
0
 10
77.76492201
 20
8.80316880
  0
VERTEX
  8
0
 10
77.83207211
 20
8.87893700
  0
VERTEX
  8
0
 10
77.81927683
 20
8.89566535
  0
VERTEX
  8
0
 10
77.69210050
 20
8.89248985
  0
VERTEX
  8
0
 10
77.56363805
 20
8.87321259
  0
VERTEX
  8
0
 10
77.29816364
 20
8.83675196
  0
VERTEX
  8
0
 10
77.15880608
 20
8.84476814
  0
VERTEX
  8
0
 10
77.01347122
 20
8.88708169
  0
VERTEX
  8
0
 10
76.86098626
 20
8.97629238
  0
VERTEX
  8
0
 10
76.70017841
 20
9.12500000
  0
VERTEX
  8
0
 10
76.70313510
 20
9.13976378
  0
VERTEX
  8
0
 10
77.06317804
 20
9.07089997
  0
VERTEX
  8
0
 10
77.44378176
 20
8.99703051
  0
VERTEX
  8
0
 10
77.63329297
 20
8.98739073
  0
VERTEX
  8
0
 10
77.81774325
 20
9.01150602
  0
VERTEX
  8
0
 10
77.99373222
 20
9.08104523
  0
VERTEX
  8
0
 10
78.15785951
 20
9.20767716
  0
VERTEX
  8
0
 10
78.19736246
 20
9.26225295
  0
VERTEX
  8
0
 10
78.21593038
 20
9.32578740
  0
VERTEX
  8
0
 10
78.01534745
 20
9.31952959
  0
VERTEX
  8
0
 10
77.61630242
 20
9.28757135
  0
VERTEX
  8
0
 10
77.40233401
 20
9.28080158
  0
VERTEX
  8
0
 10
77.21072295
 20
9.29022311
  0
VERTEX
  8
0
 10
77.06546018
 20
9.32337474
  0
VERTEX
  8
0
 10
77.01770659
 20
9.35120522
  0
VERTEX
  8
0
 10
76.99053668
 20
9.38779527
  0
VERTEX
  8
0
 10
77.03384376
 20
9.48129921
  0
VERTEX
  8
0
 10
76.96794382
 20
9.53022966
  0
VERTEX
  8
0
 10
76.86994391
 20
9.55881908
  0
VERTEX
  8
0
 10
76.63127290
 20
9.59455265
  0
VERTEX
  8
0
 10
76.51741614
 20
9.62148572
  0
VERTEX
  8
0
 10
76.42508810
 20
9.66765557
  0
VERTEX
  8
0
 10
76.36769597
 20
9.74295667
  0
VERTEX
  8
0
 10
76.35629061
 20
9.79462345
  0
VERTEX
  8
0
 10
76.35864691
 20
9.85728346
  0
VERTEX
  8
0
 10
76.55846366
 20
9.81733261
  0
VERTEX
  8
0
 10
76.67043904
 20
9.80299647
  0
VERTEX
  8
0
 10
76.78284032
 20
9.80317076
  0
VERTEX
  8
0
 10
76.88995339
 20
9.82591870
  0
VERTEX
  8
0
 10
76.98606417
 20
9.87930345
  0
VERTEX
  8
0
 10
77.06545857
 20
9.97138823
  0
VERTEX
  8
0
 10
77.12242250
 20
10.11023622
  0
VERTEX
  8
0
 10
77.13163953
 20
10.18674754
  0
VERTEX
  8
0
 10
77.12242250
 20
10.26279527
  0
VERTEX
  8
0
 10
77.10470990
 20
10.27066535
  0
VERTEX
  8
0
 10
77.04251490
 20
10.18377282
  0
VERTEX
  8
0
 10
76.98405684
 20
10.11630955
  0
VERTEX
  8
0
 10
76.90898353
 20
10.05122588
  0
VERTEX
  8
0
 10
76.81851381
 20
10.00231501
  0
VERTEX
  8
0
 10
76.71386652
 20
9.98337014
  0
VERTEX
  8
0
 10
76.59626052
 20
10.00818446
  0
VERTEX
  8
0
 10
76.46691463
 20
10.09055118
  0
VERTEX
  8
0
 10
76.39295178
 20
10.18537553
  0
VERTEX
  8
0
 10
76.33311191
 20
10.32119918
  0
VERTEX
  8
0
 10
76.24539248
 20
10.66764468
  0
VERTEX
  8
0
 10
76.18293905
 20
11.03348831
  0
VERTEX
  8
0
 10
76.12493431
 20
11.32233070
  0
VERTEX
  8
0
 10
76.20019483
 20
11.29128198
  0
VERTEX
  8
0
 10
76.28321926
 20
11.29390354
  0
VERTEX
  8
0
 10
76.44132408
 20
11.34547244
  0
VERTEX
  8
0
 10
76.54094176
 20
11.26822804
  0
VERTEX
  8
0
 10
76.65014740
 20
11.21279084
  0
VERTEX
  8
0
 10
76.77378981
 20
11.18998382
  0
VERTEX
  8
0
 10
76.91671778
 20
11.21062992
  0
VERTEX
  8
0
 10
77.04317919
 20
11.26692579
  0
VERTEX
  8
0
 10
77.13026441
 20
11.34255179
  0
VERTEX
  8
0
 10
77.18578226
 20
11.43069766
  0
VERTEX
  8
0
 10
77.21754160
 20
11.52455315
  0
VERTEX
  8
0
 10
77.24102007
 20
11.70215194
  0
VERTEX
  8
0
 10
77.26317053
 20
11.82086614
  0
VERTEX
  8
0
 10
77.41486702
 20
11.90287807
  0
VERTEX
  8
0
 10
77.76231719
 20
12.08616732
  0
VERTEX
  8
0
 10
77.97463161
 20
12.21266263
  0
VERTEX
  8
0
 10
78.19410250
 20
12.36072330
  0
VERTEX
  8
0
 10
78.40680253
 20
12.52909801
  0
VERTEX
  8
0
 10
78.59880439
 20
12.71653543
  0
VERTEX
  8
0
 10
78.67754173
 20
12.78952124
  0
VERTEX
  8
0
 10
78.75192403
 20
12.83088128
  0
VERTEX
  8
0
 10
78.82208487
 20
12.84391167
  0
VERTEX
  8
0
 10
78.88815786
 20
12.83190852
  0
VERTEX
  8
0
 10
78.95027661
 20
12.79816795
  0
VERTEX
  8
0
 10
79.00857471
 20
12.74598606
  0
VERTEX
  8
0
 10
79.11424337
 20
12.59948277
  0
VERTEX
  8
0
 10
79.20623265
 20
12.41876757
  0
VERTEX
  8
0
 10
79.28561136
 20
12.23020933
  0
VERTEX
  8
0
 10
79.41081227
 20
11.93503937
  0
VERTEX
  8
0
 10
79.59026016
 20
11.62083083
  0
VERTEX
  8
0
 10
79.84841414
 20
11.20464960
  0
VERTEX
  8
0
 10
79.98954554
 20
11.00134711
  0
VERTEX
  8
0
 10
80.12940103
 20
10.82418491
  0
VERTEX
  8
0
 10
80.26099647
 20
10.69037415
  0
VERTEX
  8
0
 10
80.37734770
 20
10.61712598
  0
VERTEX
  8
0
 10
80.44581842
 20
10.49150596
  0
VERTEX
  8
0
 10
80.55098746
 20
10.36910482
  0
VERTEX
  8
0
 10
80.67415946
 20
10.26293867
  0
VERTEX
  8
0
 10
80.79663904
 20
10.18602362
  0
VERTEX
  8
0
 10
80.84728028
 20
9.71178518
  0
VERTEX
  8
0
 10
80.92978176
 20
9.30230807
  0
VERTEX
  8
0
 10
81.06603668
 20
8.90949188
  0
VERTEX
  8
0
 10
81.27793825
 20
8.48523622
  0
VERTEX
  8
0
 10
80.66906177
 20
7.72194143
  0
VERTEX
  8
0
 10
80.30710256
 20
7.30702626
  0
VERTEX
  8
0
 10
80.14083490
 20
7.14555658
  0
VERTEX
  8
0
 10
79.99545794
 20
7.03543307
  0
VERTEX
  8
0
 10
79.84781794
 20
6.92384556
  0
VERTEX
  8
0
 10
79.73322455
 20
6.78967372
  0
VERTEX
  8
0
 10
79.65132462
 20
6.63816329
  0
VERTEX
  8
0
 10
79.60176502
 20
6.47456004
  0
VERTEX
  8
0
 10
79.58419263
 20
6.30410971
  0
VERTEX
  8
0
 10
79.59825432
 20
6.13205807
  0
VERTEX
  8
0
 10
79.64359695
 20
5.96365086
  0
VERTEX
  8
0
 10
79.71986738
 20
5.80413385
  0
VERTEX
  8
0
 10
79.97652517
 20
5.37731539
  0
VERTEX
  8
0
 10
80.13677437
 20
5.08969832
  0
VERTEX
  8
0
 10
80.26795000
 20
4.78725178
  0
VERTEX
  8
0
 10
80.43738707
 20
4.31594488
  0
VERTEX
  8
0
 10
80.47798111
 20
4.16541670
  0
VERTEX
  8
0
 10
80.49552622
 20
4.03848326
  0
VERTEX
  8
0
 10
80.52036640
 20
3.83453937
  0
VERTEX
  8
0
 10
80.55710986
 20
3.74709830
  0
VERTEX
  8
0
 10
80.62970117
 20
3.66239074
  0
VERTEX
  8
0
 10
80.75286451
 20
3.57520140
  0
VERTEX
  8
0
 10
80.94132408
 20
3.48031496
  0
VERTEX
  8
0
 10
81.07664599
 20
3.43964708
  0
VERTEX
  8
0
 10
81.17665036
 20
3.44728592
  0
VERTEX
  8
0
 10
81.27587151
 20
3.47832904
  0
VERTEX
  8
0
 10
81.40884376
 20
3.50787401
  0
VERTEX
  8
0
 10
81.53470720
 20
3.50103389
  0
VERTEX
  8
0
 10
81.65441857
 20
3.46489911
  0
VERTEX
  8
0
 10
81.77166734
 20
3.42564548
  0
VERTEX
  8
0
 10
81.89014298
 20
3.40944882
  0
VERTEX
  8
0
 10
81.89869336
 20
3.47904922
  0
VERTEX
  8
0
 10
81.88193093
 20
3.57541793
  0
VERTEX
  8
0
 10
81.79788953
 20
3.81364468
  0
VERTEX
  8
0
 10
81.60569416
 20
4.22834645
  0
VERTEX
  8
0
 10
81.20608786
 20
4.10925196
  0
VERTEX
  8
0
 10
81.22099303
 20
4.25369711
  0
VERTEX
  8
0
 10
81.21794785
 20
4.36798142
  0
VERTEX
  8
0
 10
81.19859570
 20
4.46087467
  0
VERTEX
  8
0
 10
81.16457998
 20
4.54114665
  0
VERTEX
  8
0
 10
81.05913141
 20
4.69890588
  0
VERTEX
  8
0
 10
80.91474927
 20
4.91141732
  0
VERTEX
  8
0
 10
80.82035456
 20
5.05000270
  0
VERTEX
  8
0
 10
80.72874042
 20
5.16130610
  0
VERTEX
  8
0
 10
80.56089396
 20
5.36138189
  0
VERTEX
  8
0
 10
80.48818170
 20
5.47981176
  0
VERTEX
  8
0
 10
80.42529012
 20
5.63027460
  0
VERTEX
  8
0
 10
80.37397925
 20
5.82759916
  0
VERTEX
  8
0
 10
80.33600912
 20
6.08661417
  0
VERTEX
  8
0
 10
80.34809672
 20
6.23165945
  0
VERTEX
  8
0
 10
80.38719022
 20
6.37303149
  0
VERTEX
  8
0
 10
80.71685078
 20
6.53093596
  0
VERTEX
  8
0
 10
80.91734967
 20
6.61397883
  0
VERTEX
  8
0
 10
81.28974927
 20
6.76476378
  0
VERTEX
  8
0
 10
81.52474755
 20
6.89092298
  0
VERTEX
  8
0
 10
81.78988313
 20
7.06015551
  0
VERTEX
  8
0
 10
82.04510926
 20
7.24384768
  0
VERTEX
  8
0
 10
82.25037920
 20
7.41338582
  0
VERTEX
  8
0
 10
82.42590725
 20
7.55951624
  0
VERTEX
  8
0
 10
82.61061542
 20
7.69389763
  0
VERTEX
  8
0
 10
82.75673156
 20
6.97916683
  0
VERTEX
  8
0
 10
82.85433294
 20
6.62678475
  0
VERTEX
  8
0
 10
82.97478864
 20
6.28543307
  0
VERTEX
  8
0
 10
83.00297515
 20
6.19031561
  0
VERTEX
  8
0
 10
83.01534518
 20
6.09372053
  0
VERTEX
  8
0
 10
83.01160705
 20
5.89786565
  0
VERTEX
  8
0
 10
83.00151681
 20
5.70140471
  0
VERTEX
  8
0
 10
83.02301699
 20
5.50787401
  0
VERTEX
  8
0
 10
83.12368327
 20
5.24789905
  0
VERTEX
  8
0
 10
83.28358441
 20
4.89295718
  0
VERTEX
  8
0
 10
83.43869397
 20
4.51058200
  0
VERTEX
  8
0
 10
83.49444364
 20
4.33021116
  0
VERTEX
  8
0
 10
83.52498550
 20
4.16830708
  0
VERTEX
  8
0
 10
83.55163910
 20
3.79163152
  0
VERTEX
  8
0
 10
83.54203618
 20
3.41520177
  0
VERTEX
  8
0
 10
83.51731006
 20
3.23040946
  0
VERTEX
  8
0
 10
83.47592564
 20
3.04967507
  0
VERTEX
  8
0
 10
83.41535154
 20
2.87433075
  0
VERTEX
  8
0
 10
83.33305636
 20
2.70570866
  0
VERTEX
  8
0
 10
83.06174534
 20
2.17233858
  0
SEQEND
  0
POLYLINE
  8
DEFAULT_LAYER
 66
   1
 39
0.000000
 70
    1
  0
VERTEX
  8
0
 10
64.60175715
 20
16.80216535
  0
VERTEX
  8
0
 10
64.20044649
 20
16.70786312
  0
VERTEX
  8
0
 10
63.57958589
 20
16.52898179
  0
VERTEX
  8
0
 10
63.01385619
 20
16.33585562
  0
VERTEX
  8
0
 10
62.83750320
 20
16.25593018
  0
VERTEX
  8
0
 10
62.79097627
 20
16.22397328
  0
VERTEX
  8
0
 10
62.77793825
 20
16.19881889
  0
VERTEX
  8
0
 10
62.80217029
 20
16.17059566
  0
VERTEX
  8
0
 10
62.85414204
 20
16.16016541
  0
VERTEX
  8
0
 10
63.02598586
 20
16.18418750
  0
VERTEX
  8
0
 10
63.26283221
 20
16.25389241
  0
VERTEX
  8
0
 10
63.53404357
 20
16.35228740
  0
VERTEX
  8
0
 10
64.05701121
 20
16.56717667
  0
VERTEX
  8
0
 10
64.34978864
 20
16.69291338
  0
VERTEX
  8
0
 10
64.59978864
 20
16.77952756
  0
VERTEX
  8
0
 10
64.60175715
 20
16.80216535
  0
SEQEND
  0
POLYLINE
  8
DEFAULT_LAYER
 66
   1
 39
0.000000
 70
    1
  0
VERTEX
  8
0
 10
15.00885972
 20
13.57578740
  0
VERTEX
  8
0
 10
15.00859076
 20
14.23125196
  0
VERTEX
  8
0
 10
15.27532304
 20
14.23125196
  0
VERTEX
  8
0
 10
15.27532304
 20
15.65645275
  0
VERTEX
  8
0
 10
14.92000808
 20
15.65645275
  0
VERTEX
  8
0
 10
14.92000808
 20
15.15940551
  0
VERTEX
  8
0
 10
14.36041185
 20
15.17278225
  0
VERTEX
  8
0
 10
14.22829695
 20
14.87629232
  0
VERTEX
  8
0
 10
14.05041414
 20
14.59159842
  0
VERTEX
  8
0
 10
13.94340973
 20
14.46413484
  0
VERTEX
  8
0
 10
13.82266149
 20
14.34943011
  0
VERTEX
  8
0
 10
13.68689304
 20
14.24961171
  0
VERTEX
  8
0
 10
13.53482801
 20
14.16680708
  0
VERTEX
  8
0
 10
13.16106374
 20
14.00253297
  0
VERTEX
  8
0
 10
13.09364587
 20
13.94039474
  0
VERTEX
  8
0
 10
12.84093038
 20
13.73472047
  0
VERTEX
  8
0
 10
12.72992898
 20
13.66294273
  0
VERTEX
  8
0
 10
12.60858103
 20
13.60794052
  0
VERTEX
  8
0
 10
12.34356940
 20
13.53994961
  0
VERTEX
  8
0
 10
12.06334333
 20
13.51412157
  0
VERTEX
  8
0
 10
11.78535065
 20
13.51383021
  0
VERTEX
  8
0
 10
11.30585680
 20
13.52335279
  0
VERTEX
  8
0
 10
11.13925130
 20
13.49991436
  0
VERTEX
  8
0
 10
11.08186734
 20
13.47387126
  0
VERTEX
  8
0
 10
11.04467053
 20
13.43550787
  0
VERTEX
  8
0
 10
11.11367509
 20
13.30314351
  0
VERTEX
  8
0
 10
11.15694416
 20
13.16682726
  0
VERTEX
  8
0
 10
11.19328901
 20
13.02804029
  0
VERTEX
  8
0
 10
11.24152093
 20
12.88826378
  0
VERTEX
  8
0
 10
11.28215865
 20
12.82126939
  0
VERTEX
  8
0
 10
11.33453834
 20
12.77416966
  0
VERTEX
  8
0
 10
11.46416512
 20
12.72211811
  0
VERTEX
  8
0
 10
11.60968438
 20
12.69703703
  0
VERTEX
  8
0
 10
11.75037920
 20
12.66385433
  0
VERTEX
  8
0
 10
11.82115309
 20
12.62100872
  0
VERTEX
  8
0
 10
11.88112889
 20
12.55449157
  0
VERTEX
  8
0
 10
11.98464051
 20
12.37621998
  0
VERTEX
  8
0
 10
12.09282266
 20
12.18059430
  0
VERTEX
  8
0
 10
12.15863662
 20
12.09238454
  0
VERTEX
  8
0
 10
12.23758392
 20
12.01916929
  0
VERTEX
  8
0
 10
12.59069286
 20
11.77290686
  0
VERTEX
  8
0
 10
12.82408638
 20
11.62179921
  0
VERTEX
  8
0
 10
13.07892060
 20
11.43715120
  0
VERTEX
  8
0
 10
13.45192020
 20
11.12719005
  0
VERTEX
  8
0
 10
13.45191634
 20
13.57578740
  0
VERTEX
  8
0
 10
15.00885972
 20
13.57578740
  0
SEQEND
  0
POLYLINE
  8
DEFAULT_LAYER
 66
   1
 39
0.000000
 70
    1
  0
VERTEX
  8
0
 10
11.20172644
 20
2.16535433
  0
VERTEX
  8
0
 10
11.05223050
 20
2.21309425
  0
VERTEX
  8
0
 10
10.88320154
 20
2.24248443
  0
VERTEX
  8
0
 10
10.72614940
 20
2.28633024
  0
VERTEX
  8
0
 10
10.66196147
 20
2.32392566
  0
VERTEX
  8
0
 10
10.61258392
 20
2.37743700
  0
VERTEX
  8
0
 10
10.73406953
 20
2.45281176
  0
VERTEX
  8
0
 10
10.87525813
 20
2.52102460
  0
VERTEX
  8
0
 10
11.00469625
 20
2.59987475
  0
VERTEX
  8
0
 10
11.05517965
 20
2.64885107
  0
VERTEX
  8
0
 10
11.09093038
 20
2.70716141
  0
VERTEX
  8
0
 10
11.07616660
 20
2.73472047
  0
VERTEX
  8
0
 10
10.94972264
 20
2.73262032
  0
VERTEX
  8
0
 10
10.82235410
 20
2.70329724
  0
VERTEX
  8
0
 10
10.69443118
 20
2.67344562
  0
VERTEX
  8
0
 10
10.56632408
 20
2.66975984
  0
VERTEX
  8
0
 10
10.60117835
 20
2.74859878
  0
VERTEX
  8
0
 10
10.66327001
 20
2.82086854
  0
VERTEX
  8
0
 10
10.83815134
 20
2.95083809
  0
VERTEX
  8
0
 10
11.02893991
 20
3.06994371
  0
VERTEX
  8
0
 10
11.11091561
 20
3.12863355
  0
VERTEX
  8
0
 10
11.17360754
 20
3.18846063
  0
VERTEX
  8
0
 10
11.17065479
 20
3.21700393
  0
VERTEX
  8
0
 10
11.09984721
 20
3.23323952
  0
VERTEX
  8
0
 10
11.01083884
 20
3.21375996
  0
VERTEX
  8
0
 10
10.80671384
 20
3.10681889
  0
VERTEX
  8
0
 10
10.61526798
 20
2.97450775
  0
VERTEX
  8
0
 10
10.49348943
 20
2.89515354
  0
VERTEX
  8
0
 10
10.48573564
 20
2.95402467
  0
VERTEX
  8
0
 10
10.50062077
 20
3.03277565
  0
VERTEX
  8
0
 10
10.56069465
 20
3.21792569
  0
VERTEX
  8
0
 10
10.59848482
 20
3.38662075
  0
VERTEX
  8
0
 10
10.58551531
 20
3.44480302
  0
VERTEX
  8
0
 10
10.53876502
 20
3.47487795
  0
VERTEX
  8
0
 10
10.49567591
 20
3.39835018
  0
VERTEX
  8
0
 10
10.46502284
 20
3.31457142
  0
VERTEX
  8
0
 10
10.42425370
 20
3.13421013
  0
VERTEX
  8
0
 10
10.38291543
 20
2.95169260
  0
VERTEX
  8
0
 10
10.35155092
 20
2.86521852
  0
VERTEX
  8
0
 10
10.30746581
 20
2.78491732
  0
VERTEX
  8
0
 10
10.21100912
 20
2.77901181
  0
VERTEX
  8
0
 10
10.16063363
 20
2.70781348
  0
VERTEX
  8
0
 10
10.13071390
 20
2.67613465
  0
VERTEX
  8
0
 10
10.09585164
 20
2.65794882
  0
VERTEX
  8
0
 10
10.04366158
 20
2.76416015
  0
VERTEX
  8
0
 10
10.01640694
 20
2.89539739
  0
VERTEX
  8
0
 10
10.00456374
 20
3.19785236
  0
VERTEX
  8
0
 10
9.99604166
 20
3.49511934
  0
VERTEX
  8
0
 10
9.97293841
 20
3.61987158
  0
VERTEX
  8
0
 10
9.92656030
 20
3.71700393
  0
VERTEX
  8
0
 10
9.80212870
 20
3.85118700
  0
VERTEX
  8
0
 10
9.72155839
 20
3.90032578
  0
VERTEX
  8
0
 10
9.68268306
 20
3.90683630
  0
VERTEX
  8
0
 10
9.64703274
 20
3.89613779
  0
VERTEX
  8
0
 10
9.73214593
 20
3.71162401
  0
VERTEX
  8
0
 10
9.79854898
 20
3.55616080
  0
VERTEX
  8
0
 10
9.84191463
 20
3.39318504
  0
VERTEX
  8
0
 10
9.90513855
 20
2.94998991
  0
VERTEX
  8
0
 10
9.91216266
 20
2.78882578
  0
VERTEX
  8
0
 10
9.89242029
 20
2.76524520
  0
VERTEX
  8
0
 10
9.85601256
 20
2.75366018
  0
VERTEX
  8
0
 10
9.80206768
 20
2.73456668
  0
VERTEX
  8
0
 10
9.72971384
 20
2.68846063
  0
VERTEX
  8
0
 10
9.63718050
 20
2.75812979
  0
VERTEX
  8
0
 10
9.56870105
 20
2.85249508
  0
VERTEX
  8
0
 10
9.50395535
 20
2.94899667
  0
VERTEX
  8
0
 10
9.42262329
 20
3.02507480
  0
VERTEX
  8
0
 10
9.37575292
 20
2.99011695
  0
VERTEX
  8
0
 10
9.36016598
 20
2.94181969
  0
VERTEX
  8
0
 10
9.36895534
 20
2.88458786
  0
VERTEX
  8
0
 10
9.39521384
 20
2.82282628
  0
VERTEX
  8
0
 10
9.47250973
 20
2.70333310
  0
VERTEX
  8
0
 10
9.53679652
 20
2.61857874
  0
VERTEX
  8
0
 10
9.47676455
 20
2.56316729
  0
VERTEX
  8
0
 10
9.40835133
 20
2.52548695
  0
VERTEX
  8
0
 10
9.33891008
 20
2.51047604
  0
VERTEX
  8
0
 10
9.27579406
 20
2.52307283
  0
VERTEX
  8
0
 10
9.22635649
 20
2.56821564
  0
VERTEX
  8
0
 10
9.19795062
 20
2.65084276
  0
VERTEX
  8
0
 10
9.19792968
 20
2.77589250
  0
VERTEX
  8
0
 10
9.23364691
 20
2.94830315
  0
VERTEX
  8
0
 10
9.37734850
 20
3.42208410
  0
VERTEX
  8
0
 10
9.50221999
 20
3.77470577
  0
VERTEX
  8
0
 10
9.60864230
 20
4.02534082
  0
VERTEX
  8
0
 10
9.69699632
 20
4.19316191
  0
VERTEX
  8
0
 10
9.76766297
 20
4.29734169
  0
VERTEX
  8
0
 10
9.82102314
 20
4.35705284
  0
VERTEX
  8
0
 10
9.87734770
 20
4.41975984
  0
VERTEX
  8
0
 10
9.84313912
 20
4.44480781
  0
VERTEX
  8
0
 10
9.80119034
 20
4.44703974
  0
VERTEX
  8
0
 10
9.70667349
 20
4.40249311
  0
VERTEX
  8
0
 10
9.61899964
 20
4.32499520
  0
VERTEX
  8
0
 10
9.56337132
 20
4.25342126
  0
VERTEX
  8
0
 10
9.34100813
 20
3.68337549
  0
VERTEX
  8
0
 10
9.10864691
 20
3.06050787
  0
VERTEX
  8
0
 10
9.03326551
 20
2.75807824
  0
VERTEX
  8
0
 10
8.92459179
 20
2.46208267
  0
VERTEX
  8
0
 10
8.90293825
 20
2.45420866
  0
VERTEX
  8
0
 10
8.87875119
 20
2.52215761
  0
VERTEX
  8
0
 10
8.87025827
 20
2.60856816
  0
VERTEX
  8
0
 10
8.89197996
 20
2.82546629
  0
VERTEX
  8
0
 10
8.95135353
 20
3.08228752
  0
VERTEX
  8
0
 10
9.03162920
 20
3.35641633
  0
VERTEX
  8
0
 10
9.18788769
 20
3.86613459
  0
VERTEX
  8
0
 10
9.23037094
 20
4.05649298
  0
VERTEX
  8
0
 10
9.22675715
 20
4.17369685
  0
VERTEX
  8
0
 10
9.18755183
 20
4.15971815
  0
VERTEX
  8
0
 10
9.15116285
 20
4.12214923
  0
VERTEX
  8
0
 10
9.08750469
 20
4.00244389
  0
VERTEX
  8
0
 10
9.00136345
 20
3.76818504
  0
VERTEX
  8
0
 10
8.96550376
 20
3.79317276
  0
VERTEX
  8
0
 10
8.93920503
 20
3.83654669
  0
VERTEX
  8
0
 10
8.91121470
 20
3.96777516
  0
VERTEX
  8
0
 10
8.90924092
 20
4.14051429
  0
VERTEX
  8
0
 10
8.92513215
 20
4.33340797
  0
VERTEX
  8
0
 10
9.00431620
 20
4.87940551
  0
VERTEX
  8
0
 10
8.92688829
 20
4.87793401
  0
VERTEX
  8
0
 10
8.87722805
 20
4.83046499
  0
VERTEX
  8
0
 10
8.84875153
 20
4.74980248
  0
VERTEX
  8
0
 10
8.83487477
 20
4.64875049
  0
VERTEX
  8
0
 10
8.82458472
 20
4.43669420
  0
VERTEX
  8
0
 10
8.81500353
 20
4.35129796
  0
VERTEX
  8
0
 10
8.79368628
 20
4.29672834
  0
VERTEX
  8
0
 10
8.76577862
 20
4.38407628
  0
VERTEX
  8
0
 10
8.74135705
 20
4.49076476
  0
VERTEX
  8
0
 10
8.70594459
 20
4.58704921
  0
VERTEX
  8
0
 10
8.67959271
 20
4.62199474
  0
VERTEX
  8
0
 10
8.64506424
 20
4.64318504
  0
VERTEX
  8
0
 10
8.61657303
 20
4.61175981
  0
VERTEX
  8
0
 10
8.60433341
 20
4.56882049
  0
VERTEX
  8
0
 10
8.61862409
 20
4.44893842
  0
VERTEX
  8
0
 10
8.73239150
 20
4.07693258
  0
VERTEX
  8
0
 10
8.79192897
 20
3.82696422
  0
VERTEX
  8
0
 10
8.82660945
 20
3.53578918
  0
VERTEX
  8
0
 10
8.81646331
 20
3.20448518
  0
VERTEX
  8
0
 10
8.78833975
 20
3.02412160
  0
VERTEX
  8
0
 10
8.74152093
 20
2.83412992
  0
VERTEX
  8
0
 10
8.68416709
 20
2.62563090
  0
VERTEX
  8
0
 10
8.64322018
 20
2.52003678
  0
VERTEX
  8
0
 10
8.58896187
 20
2.44042913
  0
VERTEX
  8
0
 10
8.52727161
 20
2.48829673
  0
VERTEX
  8
0
 10
8.47049368
 20
2.57327516
  0
VERTEX
  8
0
 10
8.36764445
 20
2.81232628
  0
VERTEX
  8
0
 10
8.27235354
 20
3.07310599
  0
VERTEX
  8
0
 10
8.17656030
 20
3.27113779
  0
VERTEX
  8
0
 10
8.14604849
 20
3.27409055
  0
VERTEX
  8
0
 10
8.13080559
 20
3.20750795
  0
VERTEX
  8
0
 10
8.13180784
 20
3.13486749
  0
VERTEX
  8
0
 10
8.16882113
 20
2.98037795
  0
VERTEX
  8
0
 10
8.28679652
 20
2.69731889
  0
VERTEX
  8
0
 10
8.27498550
 20
2.69042913
  0
VERTEX
  8
0
 10
8.19397221
 20
2.74301082
  0
VERTEX
  8
0
 10
8.15031036
 20
2.76332824
  0
VERTEX
  8
0
 10
8.10667841
 20
2.76818504
  0
VERTEX
  8
0
 10
8.10618647
 20
2.70964714
  0
VERTEX
  8
0
 10
8.12675174
 20
2.65128346
  0
VERTEX
  8
0
 10
8.15007562
 20
2.59206939
  0
VERTEX
  8
0
 10
8.15785951
 20
2.53098031
  0
VERTEX
  8
0
 10
8.09366715
 20
2.50731059
  0
VERTEX
  8
0
 10
8.01429504
 20
2.50303198
  0
VERTEX
  8
0
 10
7.85963116
 20
2.51227952
  0
VERTEX
  8
0
 10
7.84585164
 20
2.53393307
  0
VERTEX
  8
0
 10
7.91560262
 20
2.68183563
  0
VERTEX
  8
0
 10
7.94828089
 20
2.75618368
  0
VERTEX
  8
0
 10
7.96297762
 20
2.83314567
  0
VERTEX
  8
0
 10
7.93148156
 20
2.85775196
  0
VERTEX
  8
0
 10
7.84184130
 20
2.80493399
  0
VERTEX
  8
0
 10
7.77045794
 20
2.73539124
  0
VERTEX
  8
0
 10
7.65785951
 20
2.56542913
  0
VERTEX
  8
0
 10
7.55607668
 20
2.56896381
  0
VERTEX
  8
0
 10
7.49367416
 20
2.58429023
  0
VERTEX
  8
0
 10
7.46140701
 20
2.61028034
  0
VERTEX
  8
0
 10
7.45003028
 20
2.64580610
  0
VERTEX
  8
0
 10
7.45296833
 20
2.74095238
  0
VERTEX
  8
0
 10
7.44879324
 20
2.79831682
  0
VERTEX
  8
0
 10
7.42852880
 20
2.86070472
  0
VERTEX
  8
0
 10
7.38256492
 20
2.86701260
  0
VERTEX
  8
0
 10
7.33980372
 20
2.85664954
  0
VERTEX
  8
0
 10
7.26040823
 20
2.80664911
  0
VERTEX
  8
0
 10
7.18338012
 20
2.75218042
  0
VERTEX
  8
0
 10
7.14357813
 20
2.73623204
  0
VERTEX
  8
0
 10
7.10175715
 20
2.73472047
  0
VERTEX
  8
0
 10
7.09814631
 20
2.78696324
  0
VERTEX
  8
0
 10
7.11073137
 20
2.85074926
  0
VERTEX
  8
0
 10
7.17047122
 20
2.99614763
  0
VERTEX
  8
0
 10
7.25294065
 20
3.13730881
  0
VERTEX
  8
0
 10
7.33010361
 20
3.24062598
  0
VERTEX
  8
0
 10
7.43218930
 20
3.33184153
  0
VERTEX
  8
0
 10
7.55448697
 20
3.42638189
  0
VERTEX
  8
0
 10
7.66375635
 20
3.52819193
  0
VERTEX
  8
0
 10
7.70311784
 20
3.58305585
  0
VERTEX
  8
0
 10
7.72675715
 20
3.64121653
  0
VERTEX
  8
0
 10
7.70313510
 20
3.65696456
  0
VERTEX
  8
0
 10
7.55121729
 20
3.58702756
  0
VERTEX
  8
0
 10
7.41376502
 20
3.48964173
  0
VERTEX
  8
0
 10
7.37931620
 20
3.51424803
  0
VERTEX
  8
0
 10
7.26278077
 20
3.38915188
  0
VERTEX
  8
0
 10
7.16486542
 20
3.23932234
  0
VERTEX
  8
0
 10
7.06221679
 20
3.09457375
  0
VERTEX
  8
0
 10
7.00181959
 20
3.03342180
  0
VERTEX
  8
0
 10
6.93148156
 20
2.98472047
  0
VERTEX
  8
0
 10
6.87151681
 20
3.18674071
  0
VERTEX
  8
0
 10
6.81819760
 20
3.48323179
  0
VERTEX
  8
0
 10
6.75726896
 20
4.01031102
  0
VERTEX
  8
0
 10
6.77498550
 20
4.42074409
  0
VERTEX
  8
0
 10
6.75481214
 20
4.74588226
  0
VERTEX
  8
0
 10
6.71957605
 20
5.07801181
  0
VERTEX
  8
0
 10
6.70047971
 20
5.40950947
  0
VERTEX
  8
0
 10
6.70673474
 20
5.57263907
  0
VERTEX
  8
0
 10
6.72872565
 20
5.73275196
  0
VERTEX
  8
0
 10
6.79047036
 20
5.98212998
  0
VERTEX
  8
0
 10
6.86819317
 20
6.23925049
  0
VERTEX
  8
0
 10
6.94631018
 20
6.50763945
  0
VERTEX
  8
0
 10
7.00923746
 20
6.79082283
  0
VERTEX
  8
0
 10
7.06407457
 20
7.07691240
  0
VERTEX
  8
0
 10
7.12006491
 20
7.20331360
  0
VERTEX
  8
0
 10
7.21888313
 20
7.31641338
  0
VERTEX
  8
0
 10
7.24011080
 20
7.25784289
  0
VERTEX
  8
0
 10
7.23804898
 20
7.18879232
  0
VERTEX
  8
0
 10
7.23649282
 20
7.11859165
  0
VERTEX
  8
0
 10
7.25923746
 20
7.05657086
  0
VERTEX
  8
0
 10
7.29762329
 20
7.05657086
  0
VERTEX
  8
0
 10
7.35738904
 20
7.16641929
  0
VERTEX
  8
0
 10
7.39389273
 20
7.21899274
  0
VERTEX
  8
0
 10
7.43738707
 20
7.25440551
  0
VERTEX
  8
0
 10
7.48708294
 20
7.18317913
  0
VERTEX
  8
0
 10
7.54270203
 20
7.11857874
  0
VERTEX
  8
0
 10
7.59959561
 20
7.15654718
  0
VERTEX
  8
0
 10
7.64812034
 20
7.22013041
  0
VERTEX
  8
0
 10
7.72675715
 20
7.35578346
  0
VERTEX
  8
0
 10
7.76883540
 20
7.29575000
  0
VERTEX
  8
0
 10
7.79171778
 20
7.22094094
  0
VERTEX
  8
0
 10
7.82124534
 20
7.21503543
  0
VERTEX
  8
0
 10
7.86864765
 20
7.27016929
  0
VERTEX
  8
0
 10
7.90140282
 20
7.33992224
  0
VERTEX
  8
0
 10
7.93492570
 20
7.40702509
  0
VERTEX
  8
0
 10
7.98463116
 20
7.45420866
  0
VERTEX
  8
0
 10
8.03679652
 20
7.41975984
  0
VERTEX
  8
0
 10
8.27199386
 20
7.49540206
  0
VERTEX
  8
0
 10
8.44920203
 20
7.54968110
  0
VERTEX
  8
0
 10
8.47446383
 20
7.65387204
  0
VERTEX
  8
0
 10
8.51143764
 20
7.69971278
  0
VERTEX
  8
0
 10
8.55742529
 20
7.70358554
  0
VERTEX
  8
0
 10
8.60972861
 20
7.68187254
  0
VERTEX
  8
0
 10
8.72248956
 20
7.62721807
  0
VERTEX
  8
0
 10
8.77755084
 20
7.62704103
  0
VERTEX
  8
0
 10
8.82813510
 20
7.66680708
  0
VERTEX
  8
0
 10
8.88558557
 20
7.72986810
  0
VERTEX
  8
0
 10
8.95369729
 20
7.78243128
  0
VERTEX
  8
0
 10
9.10093677
 20
7.86696702
  0
VERTEX
  8
0
 10
9.22791814
 20
7.94222004
  0
VERTEX
  8
0
 10
9.27070721
 20
7.98317981
  0
VERTEX
  8
0
 10
9.29270597
 20
8.02999606
  0
VERTEX
  8
0
 10
9.31729849
 20
8.22725098
  0
VERTEX
  8
0
 10
9.34967681
 20
8.32378494
  0
VERTEX
  8
0
 10
9.37754426
 20
8.35953066
  0
VERTEX
  8
0
 10
9.41573353
 20
8.38235826
  0
VERTEX
  8
0
 10
9.45379357
 20
8.32840600
  0
VERTEX
  8
0
 10
9.50530046
 20
8.29180708
  0
VERTEX
  8
0
 10
9.56862311
 20
8.35419832
  0
VERTEX
  8
0
 10
9.61257752
 20
8.43412598
  0
VERTEX
  8
0
 10
9.66736191
 20
8.51769734
  0
VERTEX
  8
0
 10
9.76317447
 20
8.59101968
  0
VERTEX
  8
0
 10
9.87950038
 20
8.65515908
  0
VERTEX
  8
0
 10
9.90730931
 20
8.68374508
  0
VERTEX
  8
0
 10
9.90685004
 20
8.70361601
  0
VERTEX
  8
0
 10
9.93837132
 20
8.74161023
  0
VERTEX
  8
0
 10
10.05451305
 20
8.78491732
  0
VERTEX
  8
0
 10
10.12633835
 20
8.84453807
  0
VERTEX
  8
0
 10
10.18991660
 20
8.91079773
  0
VERTEX
  8
0
 10
10.25838166
 20
8.97021955
  0
VERTEX
  8
0
 10
10.34486738
 20
9.00932677
  0
VERTEX
  8
0
 10
10.38733540
 20
8.93050738
  0
VERTEX
  8
0
 10
10.40792109
 20
8.89251667
  0
VERTEX
  8
0
 10
10.43935557
 20
8.86464173
  0
VERTEX
  8
0
 10
10.46888313
 20
8.87743700
  0
VERTEX
  8
0
 10
10.48881916
 20
8.96842322
  0
VERTEX
  8
0
 10
10.50497504
 20
9.01124335
  0
VERTEX
  8
0
 10
10.53187526
 20
9.04574409
  0
VERTEX
  8
0
 10
10.58327443
 20
9.01648929
  0
VERTEX
  8
0
 10
10.61953520
 20
8.96772047
  0
VERTEX
  8
0
 10
10.65478096
 20
8.91662487
  0
VERTEX
  8
0
 10
10.70313510
 20
8.88038976
  0
VERTEX
  8
0
 10
10.80978545
 20
8.97286109
  0
VERTEX
  8
0
 10
10.82218235
 20
9.00406791
  0
VERTEX
  8
0
 10
10.83903200
 20
8.99361282
  0
VERTEX
  8
0
 10
10.95904061
 20
8.96109842
  0
VERTEX
  8
0
 10
11.03159184
 20
8.96039316
  0
VERTEX
  8
0
 10
11.07455599
 20
8.98648314
  0
VERTEX
  8
0
 10
11.09485793
 20
9.03299641
  0
VERTEX
  8
0
 10
11.09942250
 20
9.09356102
  0
VERTEX
  8
0
 10
11.08903901
 20
9.23135642
  0
VERTEX
  8
0
 10
11.08794067
 20
9.29584330
  0
VERTEX
  8
0
 10
11.09880439
 20
9.34889370
  0
VERTEX
  8
0
 10
11.23561542
 20
9.57625590
  0
VERTEX
  8
0
 10
11.42363756
 20
9.59706207
  0
VERTEX
  8
0
 10
11.60832900
 20
9.60945620
  0
VERTEX
  8
0
 10
11.79071876
 20
9.63453168
  0
VERTEX
  8
0
 10
11.97183589
 20
9.69338189
  0
VERTEX
  8
0
 10
12.27939334
 20
9.82718903
  0
VERTEX
  8
0
 10
12.44067053
 20
9.86378592
  0
VERTEX
  8
0
 10
12.61654615
 20
9.85233630
  0
VERTEX
  8
0
 10
12.96789888
 20
9.84200393
  0
VERTEX
  8
0
 10
13.10172791
 20
9.86363282
  0
VERTEX
  8
0
 10
13.26757758
 20
9.92142821
  0
VERTEX
  8
0
 10
13.44650659
 20
10.00924436
  0
VERTEX
  8
0
 10
13.61957359
 20
10.12093553
  0
VERTEX
  8
0
 10
13.76783725
 20
10.25035596
  0
VERTEX
  8
0
 10
13.87235625
 20
10.39135992
  0
VERTEX
  8
0
 10
13.90229234
 20
10.46428518
  0
VERTEX
  8
0
 10
13.91418926
 20
10.53780166
  0
VERTEX
  8
0
 10
13.90567935
 20
10.61114115
  0
VERTEX
  8
0
 10
13.87439494
 20
10.68353543
  0
VERTEX
  8
0
 10
13.78882801
 20
10.78497244
  0
VERTEX
  8
0
 10
13.74525715
 20
10.83169291
  0
VERTEX
  8
0
 10
14.09486738
 20
10.83169291
  0
VERTEX
  8
0
 10
14.09486738
 20
4.86023622
  0
VERTEX
  8
0
 10
13.47872565
 20
4.86023622
  0
VERTEX
  8
0
 10
13.47794022
 20
2.16535236
  0
VERTEX
  8
0
 10
11.20172644
 20
2.16535433
  0
SEQEND
  0
POLYLINE
  8
DEFAULT_LAYER
 66
   1
 39
0.000000
 70
    1
  0
VERTEX
  8
0
 10
69.01307211
 20
15.55109842
  0
VERTEX
  8
0
 10
69.90590912
 20
15.19149917
  0
VERTEX
  8
0
 10
70.81024429
 20
14.84383667
  0
VERTEX
  8
0
 10
71.72403927
 20
14.50987431
  0
VERTEX
  8
0
 10
72.64525567
 20
14.19137549
  0
VERTEX
  8
0
 10
73.57185514
 20
13.89010360
  0
VERTEX
  8
0
 10
74.50179929
 20
13.60782203
  0
VERTEX
  8
0
 10
75.43304976
 20
13.34629419
  0
VERTEX
  8
0
 10
76.36356817
 20
13.10728346
  0
VERTEX
  8
0
 10
76.20854857
 20
12.76738038
  0
VERTEX
  8
0
 10
76.10873273
 20
12.48829503
  0
VERTEX
  8
0
 10
76.05212041
 20
12.26187171
  0
VERTEX
  8
0
 10
76.02671138
 20
12.07995472
  0
VERTEX
  8
0
 10
76.02150229
 20
11.81701697
  0
VERTEX
  8
0
 10
76.01770176
 20
11.71968482
  0
VERTEX
  8
0
 10
75.99710361
 20
11.63423622
  0
VERTEX
  8
0
 10
75.85806260
 20
11.84638535
  0
VERTEX
  8
0
 10
75.71970345
 20
12.02061528
  0
VERTEX
  8
0
 10
75.44102733
 20
12.29876476
  0
VERTEX
  8
0
 10
75.15306848
 20
12.55557911
  0
VERTEX
  8
0
 10
75.00310592
 20
12.70314011
  0
VERTEX
  8
0
 10
74.84782014
 20
12.87795275
  0
VERTEX
  8
0
 10
74.64089168
 20
13.10274943
  0
VERTEX
  8
0
 10
74.44968628
 20
13.26146296
  0
VERTEX
  8
0
 10
74.26760637
 20
13.37047036
  0
VERTEX
  8
0
 10
74.08805439
 20
13.44614862
  0
VERTEX
  8
0
 10
73.71014396
 20
13.56302571
  0
VERTEX
  8
0
 10
73.49859038
 20
13.63697854
  0
VERTEX
  8
0
 10
73.26317447
 20
13.74311023
  0
VERTEX
  8
0
 10
72.57249731
 20
14.10190120
  0
VERTEX
  8
0
 10
72.19640651
 20
14.28276213
  0
VERTEX
  8
0
 10
71.80709179
 20
14.44458858
  0
VERTEX
  8
0
 10
71.41001133
 20
14.57237197
  0
VERTEX
  8
0
 10
71.01062329
 20
14.65110371
  0
VERTEX
  8
0
 10
70.81176961
 20
14.66738504
  0
VERTEX
  8
0
 10
70.61438584
 20
14.66577523
  0
VERTEX
  8
0
 10
70.41915426
 20
14.64439823
  0
VERTEX
  8
0
 10
70.22675715
 20
14.60137795
  0
VERTEX
  8
0
 10
69.78292822
 20
14.48912317
  0
VERTEX
  8
0
 10
69.46514101
 20
14.43644851
  0
VERTEX
  8
0
 10
69.24957672
 20
14.42851058
  0
VERTEX
  8
0
 10
69.11241660
 20
14.45046604
  0
VERTEX
  8
0
 10
69.02984186
 20
14.48747151
  0
VERTEX
  8
0
 10
68.97803372
 20
14.52468362
  0
VERTEX
  8
0
 10
68.93317343
 20
14.54725902
  0
VERTEX
  8
0
 10
68.87144219
 20
14.54035433
  0
VERTEX
  8
0
 10
68.61838904
 20
14.43876624
  0
VERTEX
  8
0
 10
68.54723313
 20
14.42360363
  0
VERTEX
  8
0
 10
68.48110484
 20
14.42383876
  0
VERTEX
  8
0
 10
68.42409650
 20
14.44512364
  0
VERTEX
  8
0
 10
68.38030046
 20
14.49311023
  0
VERTEX
  8
0
 10
68.47707457
 20
14.68100935
  0
VERTEX
  8
0
 10
68.49318412
 20
14.73037897
  0
VERTEX
  8
0
 10
68.49436228
 20
14.77586116
  0
VERTEX
  8
0
 10
68.47476014
 20
14.81503321
  0
VERTEX
  8
0
 10
68.42852880
 20
14.84547244
  0
VERTEX
  8
0
 10
68.29176404
 20
14.89157726
  0
VERTEX
  8
0
 10
68.24329578
 20
14.93681391
  0
VERTEX
  8
0
 10
68.24372510
 20
14.96795290
  0
VERTEX
  8
0
 10
68.26809573
 20
15.00590551
  0
VERTEX
  8
0
 10
68.32944666
 20
15.04370231
  0
VERTEX
  8
0
 10
68.40972725
 20
15.05594623
  0
VERTEX
  8
0
 10
68.60161542
 20
15.04762500
  0
VERTEX
  8
0
 10
68.70049200
 20
15.04898460
  0
VERTEX
  8
0
 10
68.79283626
 20
15.06864087
  0
VERTEX
  8
0
 10
68.87228269
 20
15.11755618
  0
VERTEX
  8
0
 10
68.93246581
 20
15.20669291
  0
VERTEX
  8
0
 10
69.01307211
 20
15.55109842
  0
SEQEND
  0
POLYLINE
  8
DEFAULT_LAYER
 66
   1
 39
0.000000
 70
    1
  0
VERTEX
  8
0
 10
59.25880046
 20
2.16535433
  0
VERTEX
  8
0
 10
62.11585164
 20
2.16535433
  0
VERTEX
  8
0
 10
62.10761886
 20
2.29041486
  0
VERTEX
  8
0
 10
62.11947368
 20
2.41535433
  0
VERTEX
  8
0
 10
62.16402474
 20
2.55682006
  0
VERTEX
  8
0
 10
62.21621089
 20
2.66632037
  0
VERTEX
  8
0
 10
62.27637686
 20
2.86785734
  0
VERTEX
  8
0
 10
62.34486738
 20
3.28543307
  0
VERTEX
  8
0
 10
62.35211458
 20
3.47793647
  0
VERTEX
  8
0
 10
62.33615325
 20
3.72122404
  0
VERTEX
  8
0
 10
62.25684426
 20
4.29052460
  0
VERTEX
  8
0
 10
62.15141887
 20
4.85408058
  0
VERTEX
  8
0
 10
62.06435557
 20
5.27263779
  0
VERTEX
  8
0
 10
61.99332408
 20
5.60478801
  0
VERTEX
  8
0
 10
61.94133786
 20
5.91278838
  0
VERTEX
  8
0
 10
61.92723845
 20
6.22280991
  0
VERTEX
  8
0
 10
61.94028428
 20
6.38675706
  0
VERTEX
  8
0
 10
61.96986738
 20
6.56102362
  0
VERTEX
  8
0
 10
61.98782961
 20
6.82937124
  0
VERTEX
  8
0
 10
61.97180046
 20
7.19124557
  0
VERTEX
  8
0
 10
61.91770203
 20
7.87007874
  0
VERTEX
  8
0
 10
61.87883460
 20
8.08167181
  0
VERTEX
  8
0
 10
61.80469170
 20
8.27372982
  0
VERTEX
  8
0
 10
61.71864845
 20
8.46204300
  0
VERTEX
  8
0
 10
61.64407998
 20
8.66240157
  0
VERTEX
  8
0
 10
61.59808843
 20
8.86627157
  0
VERTEX
  8
0
 10
61.58867755
 20
9.00419722
  0
VERTEX
  8
0
 10
61.60522861
 20
9.17262106
  0
VERTEX
  8
0
 10
61.59400593
 20
9.24832208
  0
VERTEX
  8
0
 10
61.54499472
 20
9.34848437
  0
VERTEX
  8
0
 10
61.43960267
 20
9.49570935
  0
VERTEX
  8
0
 10
61.25923746
 20
9.71259842
  0
VERTEX
  8
0
 10
61.12022996
 20
9.89182662
  0
VERTEX
  8
0
 10
61.03934007
 20
10.03833593
  0
VERTEX
  8
0
 10
60.99784106
 20
10.17045840
  0
VERTEX
  8
0
 10
60.97700616
 20
10.30652608
  0
VERTEX
  8
0
 10
60.95810865
 20
10.46487101
  0
VERTEX
  8
0
 10
60.92242176
 20
10.66382523
  0
VERTEX
  8
0
 10
60.85121876
 20
10.92172080
  0
VERTEX
  8
0
 10
60.72577290
 20
11.25688976
  0
VERTEX
  8
0
 10
60.64100869
 20
11.50066020
  0
VERTEX
  8
0
 10
60.62038830
 20
11.65270263
  0
VERTEX
  8
0
 10
60.63333300
 20
11.75577120
  0
VERTEX
  8
0
 10
60.64926404
 20
11.85262008
  0
VERTEX
  8
0
 10
60.63760268
 20
11.98600340
  0
VERTEX
  8
0
 10
60.56777019
 20
12.19867532
  0
VERTEX
  8
0
 10
60.40918782
 20
12.53338999
  0
VERTEX
  8
0
 10
60.13127683
 20
13.03290157
  0
VERTEX
  8
0
 10
60.13128471
 20
10.14566535
  0
VERTEX
  8
0
 10
58.54467053
 20
10.14566535
  0
VERTEX
  8
0
 10
58.42049140
 20
10.56768590
  0
VERTEX
  8
0
 10
58.33748673
 20
10.79807109
  0
VERTEX
  8
0
 10
58.23386738
 20
11.02027559
  0
VERTEX
  8
0
 10
58.10462993
 20
11.21847639
  0
VERTEX
  8
0
 10
57.94477093
 20
11.37685051
  0
VERTEX
  8
0
 10
57.85179477
 20
11.43615789
  0
VERTEX
  8
0
 10
57.74928692
 20
11.47957497
  0
VERTEX
  8
0
 10
57.63662197
 20
11.50512389
  0
VERTEX
  8
0
 10
57.51317447
 20
11.51082677
  0
VERTEX
  8
0
 10
57.41115912
 20
11.49737544
  0
VERTEX
  8
0
 10
57.32059272
 20
11.46644090
  0
VERTEX
  8
0
 10
57.24127050
 20
11.41992348
  0
VERTEX
  8
0
 10
57.17298771
 20
11.35972354
  0
VERTEX
  8
0
 10
57.06872141
 20
11.20587744
  0
VERTEX
  8
0
 10
57.00615577
 20
11.02010531
  0
VERTEX
  8
0
 10
56.98365276
 20
10.81760988
  0
VERTEX
  8
0
 10
56.99957432
 20
10.61359387
  0
VERTEX
  8
0
 10
57.05228243
 20
10.42326001
  0
VERTEX
  8
0
 10
57.14013904
 20
10.26181102
  0
VERTEX
  8
0
 10
57.25039222
 20
10.12990337
  0
VERTEX
  8
0
 10
57.38505536
 20
9.99591798
  0
VERTEX
  8
0
 10
57.71450457
 20
9.71762660
  0
VERTEX
  8
0
 10
58.52214593
 20
9.09114960
  0
VERTEX
  8
0
 10
58.94791025
 20
8.72661440
  0
VERTEX
  8
0
 10
59.15480972
 20
8.52794615
  0
VERTEX
  8
0
 10
59.35335176
 20
8.31698166
  0
VERTEX
  8
0
 10
59.54025962
 20
8.09269910
  0
VERTEX
  8
0
 10
59.71225655
 20
7.85407660
  0
VERTEX
  8
0
 10
59.86606582
 20
7.60009232
  0
VERTEX
  8
0
 10
59.99841069
 20
7.32972441
  0
VERTEX
  8
0
 10
60.11809243
 20
7.02306813
  0
VERTEX
  8
0
 10
60.21893334
 20
6.70137629
  0
VERTEX
  8
0
 10
60.30023052
 20
6.36741030
  0
VERTEX
  8
0
 10
60.36128108
 20
6.02393159
  0
VERTEX
  8
0
 10
60.40138214
 20
5.67370159
  0
VERTEX
  8
0
 10
60.41983081
 20
5.31948173
  0
VERTEX
  8
0
 10
60.41592419
 20
4.96403342
  0
VERTEX
  8
0
 10
60.38895941
 20
4.61011811
  0
VERTEX
  8
0
 10
60.33823357
 20
4.26049721
  0
VERTEX
  8
0
 10
60.26304379
 20
3.91793214
  0
VERTEX
  8
0
 10
60.16268717
 20
3.58518435
  0
VERTEX
  8
0
 10
60.03646083
 20
3.26501525
  0
VERTEX
  8
0
 10
59.88366187
 20
2.96018627
  0
VERTEX
  8
0
 10
59.70358742
 20
2.67345884
  0
VERTEX
  8
0
 10
59.49553458
 20
2.40759438
  0
VERTEX
  8
0
 10
59.25880046
 20
2.16535433
  0
SEQEND
  0
POLYLINE
  8
DEFAULT_LAYER
 66
   1
 39
0.000000
 70
    1
  0
VERTEX
  8
0
 10
31.94230833
 20
2.16535433
  0
VERTEX
  8
0
 10
33.13719416
 20
2.16535433
  0
VERTEX
  8
0
 10
33.13719416
 20
4.56496063
  0
VERTEX
  8
0
 10
33.75923746
 20
4.56496063
  0
VERTEX
  8
0
 10
33.48955242
 20
6.01771653
  0
VERTEX
  8
0
 10
31.67163904
 20
6.01771653
  0
VERTEX
  8
0
 10
31.36061542
 20
4.56496063
  0
VERTEX
  8
0
 10
31.94230833
 20
4.56496063
  0
VERTEX
  8
0
 10
31.94230833
 20
2.16535433
  0
SEQEND
  0
POLYLINE
  8
DEFAULT_LAYER
 66
   1
 39
0.000000
 70
    1
  0
VERTEX
  8
0
 10
21.59289888
 20
14.57066004
  0
VERTEX
  8
0
 10
22.25825321
 20
14.57066004
  0
VERTEX
  8
0
 10
22.25717813
 20
14.66861285
  0
VERTEX
  8
0
 10
22.23989830
 20
14.75345829
  0
VERTEX
  8
0
 10
22.20872875
 20
14.82520643
  0
VERTEX
  8
0
 10
22.16598451
 20
14.88386735
  0
VERTEX
  8
0
 10
22.11398062
 20
14.92945112
  0
VERTEX
  8
0
 10
22.05503209
 20
14.96196779
  0
VERTEX
  8
0
 10
21.92556128
 20
14.98784016
  0
VERTEX
  8
0
 10
21.79609232
 20
14.96156502
  0
VERTEX
  8
0
 10
21.73714610
 20
14.92889730
  0
VERTEX
  8
0
 10
21.68514544
 20
14.88322291
  0
VERTEX
  8
0
 10
21.64240535
 20
14.82455193
  0
VERTEX
  8
0
 10
21.61124088
 20
14.75289440
  0
VERTEX
  8
0
 10
21.59396704
 20
14.66826042
  0
VERTEX
  8
0
 10
21.59289888
 20
14.57066004
  0
SEQEND
  0
POLYLINE
  8
DEFAULT_LAYER
 66
   1
 39
0.000000
 70
    1
  0
VERTEX
  8
0
 10
62.92459179
 20
2.16240157
  0
VERTEX
  8
0
 10
62.94995563
 20
2.28986345
  0
VERTEX
  8
0
 10
62.94423746
 20
2.40445952
  0
VERTEX
  8
0
 10
62.91710517
 20
2.50861520
  0
VERTEX
  8
0
 10
62.87822664
 20
2.60475590
  0
VERTEX
  8
0
 10
62.80390233
 20
2.78269402
  0
VERTEX
  8
0
 10
62.78779230
 20
2.86934225
  0
VERTEX
  8
0
 10
62.79860754
 20
2.95767716
  0
VERTEX
  8
0
 10
62.83202784
 20
3.12125621
  0
VERTEX
  8
0
 10
62.84824405
 20
3.32099286
  0
VERTEX
  8
0
 10
62.84514839
 20
3.78561909
  0
VERTEX
  8
0
 10
62.82148900
 20
4.26491609
  0
VERTEX
  8
0
 10
62.80943431
 20
4.67224409
  0
VERTEX
  8
0
 10
62.82535853
 20
5.15578494
  0
VERTEX
  8
0
 10
62.82699915
 20
5.39760168
  0
VERTEX
  8
0
 10
62.81238707
 20
5.63877952
  0
VERTEX
  8
0
 10
62.80108134
 20
5.89917316
  0
VERTEX
  8
0
 10
62.82056620
 20
6.08042372
  0
VERTEX
  8
0
 10
62.84777253
 20
6.24705296
  0
VERTEX
  8
0
 10
62.85963116
 20
6.46358267
  0
VERTEX
  8
0
 10
62.89426502
 20
6.60557006
  0
VERTEX
  8
0
 10
62.97475518
 20
6.85128887
  0
VERTEX
  8
0
 10
63.12341069
 20
7.27952756
  0
VERTEX
  8
0
 10
63.14703274
 20
7.28444882
  0
VERTEX
  8
0
 10
63.26706192
 20
7.15743723
  0
VERTEX
  8
0
 10
63.36017466
 20
6.99518294
  0
VERTEX
  8
0
 10
63.43243678
 20
6.80770308
  0
VERTEX
  8
0
 10
63.48991414
 20
6.60501476
  0
VERTEX
  8
0
 10
63.58477788
 20
6.19408132
  0
VERTEX
  8
0
 10
63.63429594
 20
6.00587046
  0
VERTEX
  8
0
 10
63.69329258
 20
5.84251968
  0
VERTEX
  8
0
 10
63.74997541
 20
5.67071924
  0
VERTEX
  8
0
 10
63.78233195
 20
5.49539763
  0
VERTEX
  8
0
 10
63.81027708
 20
5.31844020
  0
VERTEX
  8
0
 10
63.85372565
 20
5.14173228
  0
VERTEX
  8
0
 10
63.90637136
 20
4.91161795
  0
VERTEX
  8
0
 10
63.92701090
 20
4.66507135
  0
VERTEX
  8
0
 10
63.91555095
 20
4.14769783
  0
VERTEX
  8
0
 10
63.90590473
 20
3.63964468
  0
VERTEX
  8
0
 10
63.92881143
 20
3.40474855
  0
VERTEX
  8
0
 10
63.98463116
 20
3.19094488
  0
VERTEX
  8
0
 10
64.04952363
 20
2.97864462
  0
VERTEX
  8
0
 10
64.04885914
 20
2.91832235
  0
VERTEX
  8
0
 10
64.02771286
 20
2.87388041
  0
VERTEX
  8
0
 10
63.92875100
 20
2.78862284
  0
VERTEX
  8
0
 10
63.76219022
 20
2.63484252
  0
VERTEX
  8
0
 10
63.70884112
 20
2.53943227
  0
VERTEX
  8
0
 10
63.67377142
 20
2.40621899
  0
VERTEX
  8
0
 10
63.66776939
 20
2.26994445
  0
VERTEX
  8
0
 10
63.67904008
 20
2.21151600
  0
VERTEX
  8
0
 10
63.70162329
 20
2.16535039
  0
VERTEX
  8
0
 10
62.92459179
 20
2.16240157
  0
SEQEND
  0
POLYLINE
  8
DEFAULT_LAYER
 66
   1
 39
0.000000
 70
    1
  0
VERTEX
  8
0
 10
65.92656030
 20
17.02460630
  0
VERTEX
  8
0
 10
65.61772233
 20
17.00006717
  0
VERTEX
  8
0
 10
65.51804061
 20
17.00978740
  0
VERTEX
  8
0
 10
65.41002031
 20
16.97942692
  0
VERTEX
  8
0
 10
65.07616660
 20
16.83464567
  0
VERTEX
  8
0
 10
64.56009426
 20
16.63689074
  0
VERTEX
  8
0
 10
64.30174306
 20
16.53912500
  0
VERTEX
  8
0
 10
64.04860754
 20
16.42716535
  0
VERTEX
  8
0
 10
63.46836591
 20
16.19066437
  0
VERTEX
  8
0
 10
62.99152093
 20
15.99311023
  0
VERTEX
  8
0
 10
63.09761394
 20
15.94669045
  0
VERTEX
  8
0
 10
63.14578711
 20
15.92208298
  0
VERTEX
  8
0
 10
63.18443431
 20
15.87598425
  0
VERTEX
  8
0
 10
63.23393704
 20
15.79668252
  0
VERTEX
  8
0
 10
63.27903514
 20
15.75492624
  0
VERTEX
  8
0
 10
63.32268038
 20
15.74174239
  0
VERTEX
  8
0
 10
63.36782457
 20
15.74815797
  0
VERTEX
  8
0
 10
63.47441691
 20
15.78389536
  0
VERTEX
  8
0
 10
63.54176863
 20
15.79527115
  0
VERTEX
  8
0
 10
63.62242644
 20
15.79035433
  0
VERTEX
  8
0
 10
63.63975547
 20
15.74271296
  0
VERTEX
  8
0
 10
63.64207592
 20
15.69084768
  0
VERTEX
  8
0
 10
63.62138412
 20
15.57883169
  0
VERTEX
  8
0
 10
63.59973709
 20
15.46307898
  0
VERTEX
  8
0
 10
63.60086352
 20
15.40654281
  0
VERTEX
  8
0
 10
63.61652093
 20
15.35236220
  0
VERTEX
  8
0
 10
63.66170197
 20
15.34652418
  0
VERTEX
  8
0
 10
63.70759647
 20
15.35497717
  0
VERTEX
  8
0
 10
63.80127782
 20
15.39133809
  0
VERTEX
  8
0
 10
63.89706891
 20
15.41460869
  0
VERTEX
  8
0
 10
63.94560059
 20
15.40669881
  0
VERTEX
  8
0
 10
63.99447368
 20
15.37795275
  0
VERTEX
  8
0
 10
63.97751127
 20
15.30027257
  0
VERTEX
  8
0
 10
63.96400469
 20
15.15171998
  0
VERTEX
  8
0
 10
63.97637679
 20
15.07883546
  0
VERTEX
  8
0
 10
64.01100819
 20
15.02179558
  0
VERTEX
  8
0
 10
64.07503069
 20
14.99178790
  0
VERTEX
  8
0
 10
64.17557605
 20
15.00000000
  0
VERTEX
  8
0
 10
64.22008408
 20
15.02555040
  0
VERTEX
  8
0
 10
64.23265460
 20
15.06677971
  0
VERTEX
  8
0
 10
64.19993284
 20
15.17942273
  0
VERTEX
  8
0
 10
64.15331024
 20
15.30422447
  0
VERTEX
  8
0
 10
64.14850471
 20
15.36065216
  0
VERTEX
  8
0
 10
64.16868628
 20
15.40748031
  0
VERTEX
  8
0
 10
64.23225075
 20
15.46236319
  0
VERTEX
  8
0
 10
64.31548943
 20
15.54469488
  0
VERTEX
  8
0
 10
64.34039857
 20
15.58735943
  0
VERTEX
  8
0
 10
64.34132063
 20
15.62633267
  0
VERTEX
  8
0
 10
64.30862040
 20
15.65809676
  0
VERTEX
  8
0
 10
64.23266266
 20
15.67913385
  0
VERTEX
  8
0
 10
64.14058693
 20
15.69049698
  0
VERTEX
  8
0
 10
64.04186788
 20
15.71519734
  0
VERTEX
  8
0
 10
64.00814068
 20
15.73750995
  0
VERTEX
  8
0
 10
63.99450094
 20
15.76911005
  0
VERTEX
  8
0
 10
64.00819809
 20
15.81198201
  0
VERTEX
  8
0
 10
64.05648156
 20
15.86811023
  0
VERTEX
  8
0
 10
64.13158834
 20
15.91222551
  0
VERTEX
  8
0
 10
64.25330728
 20
15.95422071
  0
VERTEX
  8
0
 10
64.40247200
 20
15.98563730
  0
VERTEX
  8
0
 10
64.55991611
 20
15.99801673
  0
VERTEX
  8
0
 10
64.70647322
 20
15.98290046
  0
VERTEX
  8
0
 10
64.82297694
 20
15.93182997
  0
VERTEX
  8
0
 10
64.86396930
 20
15.89016859
  0
VERTEX
  8
0
 10
64.89026091
 20
15.83634670
  0
VERTEX
  8
0
 10
64.89945598
 20
15.76930698
  0
VERTEX
  8
0
 10
64.88915872
 20
15.68799212
  0
VERTEX
  8
0
 10
64.87189663
 20
15.55512946
  0
VERTEX
  8
0
 10
64.88065251
 20
15.42896758
  0
VERTEX
  8
0
 10
64.91208953
 20
15.31698123
  0
VERTEX
  8
0
 10
64.96287083
 20
15.22664517
  0
VERTEX
  8
0
 10
65.02965958
 20
15.16543418
  0
VERTEX
  8
0
 10
65.10911892
 20
15.14082302
  0
VERTEX
  8
0
 10
65.19791202
 20
15.16028644
  0
VERTEX
  8
0
 10
65.29270203
 20
15.23129921
  0
VERTEX
  8
0
 10
65.46414291
 20
15.38694783
  0
VERTEX
  8
0
 10
65.56829603
 20
15.44988582
  0
VERTEX
  8
0
 10
65.63504584
 20
15.47661122
  0
VERTEX
  8
0
 10
65.69427683
 20
15.52362204
  0
VERTEX
  8
0
 10
65.66059521
 20
15.61956629
  0
VERTEX
  8
0
 10
65.60007432
 20
15.72917507
  0
VERTEX
  8
0
 10
65.53321277
 20
15.85370394
  0
VERTEX
  8
0
 10
65.48050912
 20
15.99440846
  0
VERTEX
  8
0
 10
65.46246197
 20
16.15254421
  0
VERTEX
  8
0
 10
65.47284038
 20
16.23854116
  0
VERTEX
  8
0
 10
65.49956989
 20
16.32936675
  0
VERTEX
  8
0
 10
65.54521282
 20
16.42517794
  0
VERTEX
  8
0
 10
65.61233149
 20
16.52613166
  0
VERTEX
  8
0
 10
65.70348822
 20
16.63238486
  0
VERTEX
  8
0
 10
65.82124534
 20
16.74409448
  0
VERTEX
  8
0
 10
65.93304701
 20
16.84793553
  0
VERTEX
  8
0
 10
65.97116543
 20
16.90805382
  0
VERTEX
  8
0
 10
65.98955242
 20
16.98326771
  0
VERTEX
  8
0
 10
65.92656030
 20
17.02460630
  0
SEQEND
  0
POLYLINE
  8
DEFAULT_LAYER
 66
   1
 39
0.000000
 70
    1
  0
VERTEX
  8
0
 10
59.13610292
 20
15.32972441
  0
VERTEX
  8
0
 10
58.99782880
 20
15.21450012
  0
VERTEX
  8
0
 10
58.91667280
 20
15.16645767
  0
VERTEX
  8
0
 10
58.64791394
 20
15.12007874
  0
VERTEX
  8
0
 10
58.45550591
 20
15.06418891
  0
VERTEX
  8
0
 10
58.27011620
 20
14.98530265
  0
VERTEX
  8
0
 10
58.08391080
 20
14.90564499
  0
VERTEX
  8
0
 10
57.88905567
 20
14.84744094
  0
VERTEX
  8
0
 10
57.76781896
 20
14.82535383
  0
VERTEX
  8
0
 10
57.73421703
 20
14.79444912
  0
VERTEX
  8
0
 10
57.72763835
 20
14.72834645
  0
VERTEX
  8
0
 10
57.75391935
 20
14.48600246
  0
VERTEX
  8
0
 10
57.78209621
 20
14.35806920
  0
VERTEX
  8
0
 10
57.82803205
 20
14.26574803
  0
VERTEX
  8
0
 10
59.27980370
 20
15.16043307
  0
VERTEX
  8
0
 10
59.28067040
 20
15.21640391
  0
VERTEX
  8
0
 10
59.24275301
 20
15.26802460
  0
VERTEX
  8
0
 10
59.18743578
 20
15.30817236
  0
VERTEX
  8
0
 10
59.13610292
 20
15.32972441
  0
SEQEND
  0
POLYLINE
  8
DEFAULT_LAYER
 66
   1
 39
0.000000
 70
    1
  0
VERTEX
  8
0
 10
59.40195400
 20
14.98818897
  0
VERTEX
  8
0
 10
58.71106719
 20
14.62965649
  0
VERTEX
  8
0
 10
58.31139605
 20
14.39899569
  0
VERTEX
  8
0
 10
58.17189724
 20
14.30594895
  0
VERTEX
  8
0
 10
58.10077290
 20
14.24114173
  0
VERTEX
  8
0
 10
59.47675715
 20
14.76279527
  0
VERTEX
  8
0
 10
59.49172036
 20
14.82162087
  0
VERTEX
  8
0
 10
59.47482113
 20
14.88429576
  0
VERTEX
  8
0
 10
59.40195400
 20
14.98818897
  0
SEQEND
  0
POLYLINE
  8
DEFAULT_LAYER
 66
   1
 39
0.000000
 70
    1
  0
VERTEX
  8
0
 10
57.53876109
 20
14.81102362
  0
VERTEX
  8
0
 10
57.42544674
 20
14.80814979
  0
VERTEX
  8
0
 10
57.34063313
 20
14.78539025
  0
VERTEX
  8
0
 10
57.31504823
 20
14.76147080
  0
VERTEX
  8
0
 10
57.30394945
 20
14.72648086
  0
VERTEX
  8
0
 10
57.30979044
 20
14.67838743
  0
VERTEX
  8
0
 10
57.33502487
 20
14.61515748
  0
VERTEX
  8
0
 10
57.47534868
 20
14.34368061
  0
VERTEX
  8
0
 10
57.56443407
 20
14.20789031
  0
VERTEX
  8
0
 10
57.65982801
 20
14.11220472
  0
VERTEX
  8
0
 10
57.68049731
 20
14.12500000
  0
VERTEX
  8
0
 10
57.68156356
 20
14.27177325
  0
VERTEX
  8
0
 10
57.65223894
 20
14.48938385
  0
VERTEX
  8
0
 10
57.60160945
 20
14.69630844
  0
VERTEX
  8
0
 10
57.57114475
 20
14.77028741
  0
VERTEX
  8
0
 10
57.53876109
 20
14.81102362
  0
SEQEND
  0
POLYLINE
  8
DEFAULT_LAYER
 66
   1
 39
0.000000
 70
    1
  0
VERTEX
  8
0
 10
73.45510361
 20
3.57381889
  0
VERTEX
  8
0
 10
73.44027487
 20
3.47238502
  0
VERTEX
  8
0
 10
73.44381522
 20
3.36642273
  0
VERTEX
  8
0
 10
73.44857063
 20
3.25908962
  0
VERTEX
  8
0
 10
73.43738707
 20
3.15354330
  0
VERTEX
  8
0
 10
73.41353618
 20
3.03080690
  0
VERTEX
  8
0
 10
73.41238313
 20
2.92941781
  0
VERTEX
  8
0
 10
73.43923402
 20
2.83182375
  0
VERTEX
  8
0
 10
73.49939494
 20
2.72047244
  0
VERTEX
  8
0
 10
73.51317053
 20
2.73129921
  0
VERTEX
  8
0
 10
73.54318524
 20
2.92742888
  0
VERTEX
  8
0
 10
73.57117103
 20
3.16979133
  0
VERTEX
  8
0
 10
73.57143806
 20
3.29116956
  0
VERTEX
  8
0
 10
73.55563984
 20
3.40353764
  0
VERTEX
  8
0
 10
73.51859036
 20
3.50003946
  0
VERTEX
  8
0
 10
73.45510361
 20
3.57381889
  0
SEQEND
  0
POLYLINE
  8
DEFAULT_LAYER
 66
   1
 39
0.000000
 70
    1
  0
VERTEX
  8
0
 10
56.83360959
 20
2.16535039
  0
VERTEX
  8
0
 10
56.70198840
 20
2.26853795
  0
VERTEX
  8
0
 10
56.57998065
 20
2.38449950
  0
VERTEX
  8
0
 10
56.34714502
 20
2.62795275
  0
VERTEX
  8
0
 10
56.34714502
 20
2.16535433
  0
VERTEX
  8
0
 10
56.83360959
 20
2.16535039
  0
SEQEND
  0
POLYLINE
  8
DEFAULT_LAYER
 66
   1
 39
0.000000
 70
    1
  0
VERTEX
  8
0
 10
52.83274328
 20
11.90270078
  0
VERTEX
  8
0
 10
53.14143053
 20
11.96535405
  0
VERTEX
  8
0
 10
53.26389358
 20
12.01071217
  0
VERTEX
  8
0
 10
53.36731070
 20
12.06527091
  0
VERTEX
  8
0
 10
53.45333775
 20
12.12891501
  0
VERTEX
  8
0
 10
53.52363058
 20
12.20152919
  0
VERTEX
  8
0
 10
53.57984504
 20
12.28299817
  0
VERTEX
  8
0
 10
53.62363698
 20
12.37320669
  0
VERTEX
  8
0
 10
53.68057669
 20
12.57938124
  0
VERTEX
  8
0
 10
53.70769653
 20
12.81913066
  0
VERTEX
  8
0
 10
53.72546375
 20
13.39566535
  0
VERTEX
  8
0
 10
52.83274722
 20
13.39566535
  0
VERTEX
  8
0
 10
52.83274328
 20
11.90270078
  0
SEQEND
  0
POLYLINE
  8
DEFAULT_LAYER
 66
   1
 39
0.000000
 70
    1
  0
VERTEX
  8
0
 10
49.76608117
 20
2.16535039
  0
VERTEX
  8
0
 10
46.89760479
 20
8.86318897
  0
VERTEX
  8
0
 10
46.89760479
 20
4.79527559
  0
VERTEX
  8
0
 10
47.52457330
 20
4.79527559
  0
VERTEX
  8
0
 10
47.52457330
 20
2.16535433
  0
VERTEX
  8
0
 10
49.76608117
 20
2.16535039
  0
SEQEND
  0
POLYLINE
  8
DEFAULT_LAYER
 66
   1
 39
0.000000
 70
    1
  0
VERTEX
  8
0
 10
32.61159967
 20
10.65059055
  0
VERTEX
  8
0
 10
31.94230833
 20
7.45472441
  0
VERTEX
  8
0
 10
33.21396187
 20
7.45472441
  0
VERTEX
  8
0
 10
32.61159967
 20
10.65059055
  0
SEQEND
  0
POLYLINE
  8
DEFAULT_LAYER
 66
   1
 39
0.000000
 70
    1
  0
VERTEX
  8
0
 10
26.92701049
 20
2.16535433
  0
VERTEX
  8
0
 10
26.79158691
 20
2.26499059
  0
VERTEX
  8
0
 10
26.67189511
 20
2.37918846
  0
VERTEX
  8
0
 10
26.56697502
 20
2.50687312
  0
VERTEX
  8
0
 10
26.47586656
 20
2.64696972
  0
VERTEX
  8
0
 10
26.39760966
 20
2.79840343
  0
VERTEX
  8
0
 10
26.33124424
 20
2.96009940
  0
VERTEX
  8
0
 10
26.23034753
 20
3.30997877
  0
VERTEX
  8
0
 10
26.16549583
 20
3.68800915
  0
VERTEX
  8
0
 10
26.12900853
 20
4.08559182
  0
VERTEX
  8
0
 10
26.11320501
 20
4.49412807
  0
VERTEX
  8
0
 10
26.11040468
 20
4.90501919
  0
VERTEX
  8
0
 10
26.11309113
 20
5.69947123
  0
VERTEX
  8
0
 10
26.10321669
 20
6.06583473
  0
VERTEX
  8
0
 10
26.07562300
 20
6.40015828
  0
VERTEX
  8
0
 10
26.02262945
 20
6.69384316
  0
VERTEX
  8
0
 10
25.93655543
 20
6.93829067
  0
VERTEX
  8
0
 10
25.87871306
 20
7.03936331
  0
VERTEX
  8
0
 10
25.80972034
 20
7.12490209
  0
VERTEX
  8
0
 10
25.72861720
 20
7.19383218
  0
VERTEX
  8
0
 10
25.63444356
 20
7.24507874
  0
VERTEX
  8
0
 10
25.50469110
 20
7.28847317
  0
VERTEX
  8
0
 10
25.36797235
 20
7.31617366
  0
VERTEX
  8
0
 10
25.08205871
 20
7.33670817
  0
VERTEX
  8
0
 10
24.51928608
 20
7.32381889
  0
VERTEX
  8
0
 10
24.50783523
 20
6.67530358
  0
VERTEX
  8
0
 10
24.49752673
 20
5.61096899
  0
VERTEX
  8
0
 10
24.50407150
 20
5.05600497
  0
VERTEX
  8
0
 10
24.52442664
 20
4.55684873
  0
VERTEX
  8
0
 10
24.56310040
 20
4.16675446
  0
VERTEX
  8
0
 10
24.59071559
 20
4.02924751
  0
VERTEX
  8
0
 10
24.62460104
 20
3.93897637
  0
VERTEX
  8
0
 10
24.69189450
 20
3.86475995
  0
VERTEX
  8
0
 10
24.78677648
 20
3.81516867
  0
VERTEX
  8
0
 10
24.90127104
 20
3.78566260
  0
VERTEX
  8
0
 10
25.02740222
 20
3.77170177
  0
VERTEX
  8
0
 10
25.28267067
 20
3.77225602
  0
VERTEX
  8
0
 10
25.48877427
 20
3.78051181
  0
VERTEX
  8
0
 10
25.48877427
 20
2.16535433
  0
VERTEX
  8
0
 10
26.92701049
 20
2.16535433
  0
SEQEND
  0
POLYLINE
  8
DEFAULT_LAYER
 66
   1
 39
0.000000
 70
    1
  0
VERTEX
  8
0
 10
24.52006424
 20
8.87204724
  0
VERTEX
  8
0
 10
24.96258677
 20
8.87627117
  0
VERTEX
  8
0
 10
25.34786505
 20
8.90315612
  0
VERTEX
  8
0
 10
25.51810751
 20
8.93175889
  0
VERTEX
  8
0
 10
25.67292280
 20
8.97402182
  0
VERTEX
  8
0
 10
25.81193888
 20
9.03260986
  0
VERTEX
  8
0
 10
25.93478372
 20
9.11018799
  0
VERTEX
  8
0
 10
26.04108529
 20
9.20942117
  0
VERTEX
  8
0
 10
26.13047155
 20
9.33297436
  0
VERTEX
  8
0
 10
26.20257045
 20
9.48351254
  0
VERTEX
  8
0
 10
26.25700998
 20
9.66370066
  0
VERTEX
  8
0
 10
26.29341808
 20
9.87620370
  0
VERTEX
  8
0
 10
26.31142273
 20
10.12368662
  0
VERTEX
  8
0
 10
26.31065189
 20
10.40881439
  0
VERTEX
  8
0
 10
26.29073353
 20
10.73425196
  0
VERTEX
  8
0
 10
26.26510617
 20
10.95164360
  0
VERTEX
  8
0
 10
26.22798710
 20
11.14024599
  0
VERTEX
  8
0
 10
26.17940914
 20
11.30209631
  0
VERTEX
  8
0
 10
26.11940509
 20
11.43923173
  0
VERTEX
  8
0
 10
26.04800777
 20
11.55368940
  0
VERTEX
  8
0
 10
25.96524997
 20
11.64750649
  0
VERTEX
  8
0
 10
25.87116452
 20
11.72272018
  0
VERTEX
  8
0
 10
25.76578422
 20
11.78136761
  0
VERTEX
  8
0
 10
25.64914187
 20
11.82548597
  0
VERTEX
  8
0
 10
25.52127029
 20
11.85711241
  0
VERTEX
  8
0
 10
25.23197067
 20
11.89103820
  0
VERTEX
  8
0
 10
24.89814783
 20
11.89944230
  0
VERTEX
  8
0
 10
24.52006424
 20
11.89862204
  0
VERTEX
  8
0
 10
24.52006424
 20
8.87204724
  0
SEQEND
  0
POLYLINE
  8
DEFAULT_LAYER
 66
   1
 39
0.000000
 70
    1
  0
VERTEX
  8
0
 10
16.84289888
 20
6.88681102
  0
VERTEX
  8
0
 10
16.84289888
 20
4.63188976
  0
VERTEX
  8
0
 10
17.24788239
 20
4.63453741
  0
VERTEX
  8
0
 10
17.61033589
 20
4.65340237
  0
VERTEX
  8
0
 10
17.92421655
 20
4.70486770
  0
VERTEX
  8
0
 10
18.06105369
 20
4.74794520
  0
VERTEX
  8
0
 10
18.18348156
 20
4.80531643
  0
VERTEX
  8
0
 10
18.29074481
 20
4.87902928
  0
VERTEX
  8
0
 10
18.38208810
 20
4.97113162
  0
VERTEX
  8
0
 10
18.45675607
 20
5.08367133
  0
VERTEX
  8
0
 10
18.51399337
 20
5.21869629
  0
VERTEX
  8
0
 10
18.55304464
 20
5.37825439
  0
VERTEX
  8
0
 10
18.57315454
 20
5.56439350
  0
VERTEX
  8
0
 10
18.57356771
 20
5.77916151
  0
VERTEX
  8
0
 10
18.55352880
 20
6.02460630
  0
VERTEX
  8
0
 10
18.52406089
 20
6.19614318
  0
VERTEX
  8
0
 10
18.47934761
 20
6.34363964
  0
VERTEX
  8
0
 10
18.42044305
 20
6.46888582
  0
VERTEX
  8
0
 10
18.34840134
 20
6.57367181
  0
VERTEX
  8
0
 10
18.26427658
 20
6.65978773
  0
VERTEX
  8
0
 10
18.16912289
 20
6.72902370
  0
VERTEX
  8
0
 10
18.06399437
 20
6.78316983
  0
VERTEX
  8
0
 10
17.94994514
 20
6.82401624
  0
VERTEX
  8
0
 10
17.69930098
 20
6.87297032
  0
VERTEX
  8
0
 10
17.42562329
 20
6.89020687
  0
VERTEX
  8
0
 10
16.84289888
 20
6.88681102
  0
SEQEND
  0
POLYLINE
  8
DEFAULT_LAYER
 66
   1
 39
0.000000
 70
    1
  0
VERTEX
  8
0
 10
16.84289888
 20
11.06200787
  0
VERTEX
  8
0
 10
16.84289888
 20
8.97342126
  0
VERTEX
  8
0
 10
17.46531577
 20
8.97686109
  0
VERTEX
  8
0
 10
17.73756281
 20
9.00436969
  0
VERTEX
  8
0
 10
17.97503815
 20
9.06970078
  0
VERTEX
  8
0
 10
18.07867454
 20
9.12138493
  0
VERTEX
  8
0
 10
18.17114372
 20
9.18832691
  0
VERTEX
  8
0
 10
18.25162094
 20
9.27246077
  0
VERTEX
  8
0
 10
18.31928145
 20
9.37572059
  0
VERTEX
  8
0
 10
18.37330047
 20
9.50004044
  0
VERTEX
  8
0
 10
18.41285326
 20
9.64735437
  0
VERTEX
  8
0
 10
18.43711505
 20
9.81959647
  0
VERTEX
  8
0
 10
18.44526109
 20
10.01870078
  0
VERTEX
  8
0
 10
18.43681505
 20
10.21721979
  0
VERTEX
  8
0
 10
18.41238691
 20
10.38898130
  0
VERTEX
  8
0
 10
18.37278136
 20
10.53591012
  0
VERTEX
  8
0
 10
18.31880310
 20
10.65993110
  0
VERTEX
  8
0
 10
18.25125681
 20
10.76296905
  0
VERTEX
  8
0
 10
18.17094718
 20
10.84694882
  0
VERTEX
  8
0
 10
18.07867890
 20
10.91379521
  0
VERTEX
  8
0
 10
17.97525666
 20
10.96543307
  0
VERTEX
  8
0
 10
17.73816905
 20
11.03078248
  0
VERTEX
  8
0
 10
17.46612188
 20
11.05839567
  0
VERTEX
  8
0
 10
16.84289888
 20
11.06200787
  0
SEQEND
  0
POLYLINE
  8
DEFAULT_LAYER
 66
   1
 39
0.000000
 70
    1
  0
VERTEX
  8
0
 10
6.42360754
 20
18.53149606
  0
VERTEX
  8
0
 10
6.33662846
 20
18.41329024
  0
VERTEX
  8
0
 10
6.23986985
 20
18.23006182
  0
VERTEX
  8
0
 10
6.14156030
 20
18.00085503
  0
VERTEX
  8
0
 10
6.04992841
 20
17.74471407
  0
VERTEX
  8
0
 10
5.97320277
 20
17.48068317
  0
VERTEX
  8
0
 10
5.91961197
 20
17.22780653
  0
VERTEX
  8
0
 10
5.89738461
 20
17.00512837
  0
VERTEX
  8
0
 10
5.91474927
 20
16.83169291
  0
VERTEX
  8
0
 10
5.97212191
 20
16.67203201
  0
VERTEX
  8
0
 10
6.07155199
 20
16.45178807
  0
VERTEX
  8
0
 10
6.20409732
 20
16.20172232
  0
VERTEX
  8
0
 10
6.36081571
 20
15.95259596
  0
VERTEX
  8
0
 10
6.53276497
 20
15.73517020
  0
VERTEX
  8
0
 10
6.62165674
 20
15.64795793
  0
VERTEX
  8
0
 10
6.71100290
 20
15.58020626
  0
VERTEX
  8
0
 10
6.79968569
 20
15.53576035
  0
VERTEX
  8
0
 10
6.88658733
 20
15.51846534
  0
VERTEX
  8
0
 10
6.97059004
 20
15.53216639
  0
VERTEX
  8
0
 10
7.05057605
 20
15.58070866
  0
VERTEX
  8
0
 10
7.17275657
 20
15.70200039
  0
VERTEX
  8
0
 10
7.27618804
 20
15.83512450
  0
VERTEX
  8
0
 10
7.36270137
 20
15.97751785
  0
VERTEX
  8
0
 10
7.43412747
 20
16.12661731
  0
VERTEX
  8
0
 10
7.53904169
 20
16.43468200
  0
VERTEX
  8
0
 10
7.60557801
 20
16.73881348
  0
VERTEX
  8
0
 10
7.68210631
 20
17.25325646
  0
VERTEX
  8
0
 10
7.72139294
 20
17.42255777
  0
VERTEX
  8
0
 10
7.74770009
 20
17.47625740
  0
VERTEX
  8
0
 10
7.78089101
 20
17.50590551
  0
VERTEX
  8
0
 10
7.83406619
 20
17.50860626
  0
VERTEX
  8
0
 10
7.87370880
 20
17.46990772
  0
VERTEX
  8
0
 10
7.90171293
 20
17.40142362
  0
VERTEX
  8
0
 10
7.91997270
 20
17.31476771
  0
VERTEX
  8
0
 10
7.93483552
 20
17.13339542
  0
VERTEX
  8
0
 10
7.93345006
 20
17.01870078
  0
VERTEX
  8
0
 10
7.89849663
 20
16.71017497
  0
VERTEX
  8
0
 10
7.85323902
 20
16.44238898
  0
VERTEX
  8
0
 10
7.79947961
 20
16.21186174
  0
VERTEX
  8
0
 10
7.73902081
 20
16.01511214
  0
VERTEX
  8
0
 10
7.60521456
 20
15.70902147
  0
VERTEX
  8
0
 10
7.46623943
 20
15.49626820
  0
VERTEX
  8
0
 10
7.33651455
 20
15.34900356
  0
VERTEX
  8
0
 10
7.23045904
 20
15.23937875
  0
VERTEX
  8
0
 10
7.16249206
 20
15.13954500
  0
VERTEX
  8
0
 10
7.14729775
 20
15.08459703
  0
VERTEX
  8
0
 10
7.14703274
 20
15.02165354
  0
VERTEX
  8
0
 10
7.17255118
 20
14.95012906
  0
VERTEX
  8
0
 10
7.22981017
 20
14.87938486
  0
VERTEX
  8
0
 10
7.31452885
 20
14.80984026
  0
VERTEX
  8
0
 10
7.42242638
 20
14.74191455
  0
VERTEX
  8
0
 10
7.69063452
 20
14.61259708
  0
VERTEX
  8
0
 10
8.00018776
 20
14.49478691
  0
VERTEX
  8
0
 10
8.60634210
 20
14.30710636
  0
VERTEX
  8
0
 10
8.96691463
 20
14.20570866
  0
VERTEX
  8
0
 10
9.18601754
 20
14.11846278
  0
VERTEX
  8
0
 10
9.44825174
 20
14.01928002
  0
VERTEX
  8
0
 10
9.58382719
 20
13.98300070
  0
VERTEX
  8
0
 10
9.71612643
 20
13.96508323
  0
VERTEX
  8
0
 10
9.84046310
 20
13.97264297
  0
VERTEX
  8
0
 10
9.95215085
 20
14.01279527
  0
VERTEX
  8
0
 10
9.91830066
 20
14.10895512
  0
VERTEX
  8
0
 10
9.86651004
 20
14.20126697
  0
VERTEX
  8
0
 10
9.73564740
 20
14.39423425
  0
VERTEX
  8
0
 10
9.66984535
 20
14.50483344
  0
VERTEX
  8
0
 10
9.61264279
 20
14.63147219
  0
VERTEX
  8
0
 10
9.57067469
 20
14.77912238
  0
VERTEX
  8
0
 10
9.55057605
 20
14.95275590
  0
VERTEX
  8
0
 10
9.54660840
 20
15.68684805
  0
VERTEX
  8
0
 10
9.54688810
 20
15.96647737
  0
VERTEX
  8
0
 10
9.53123353
 20
16.21931496
  0
VERTEX
  8
0
 10
9.48656222
 20
16.46897537
  0
VERTEX
  8
0
 10
9.39979172
 20
16.73907320
  0
VERTEX
  8
0
 10
9.25783956
 20
17.05322301
  0
VERTEX
  8
0
 10
9.04762329
 20
17.43503937
  0
VERTEX
  8
0
 10
8.86464836
 20
17.71651449
  0
VERTEX
  8
0
 10
8.70696950
 20
17.89466590
  0
VERTEX
  8
0
 10
8.55932374
 20
17.99544487
  0
VERTEX
  8
0
 10
8.40644809
 20
18.04480265
  0
VERTEX
  8
0
 10
8.02395523
 20
18.09305973
  0
VERTEX
  8
0
 10
7.76381205
 20
18.14386155
  0
VERTEX
  8
0
 10
7.43738707
 20
18.24704724
  0
VERTEX
  8
0
 10
6.94033884
 20
18.44405708
  0
VERTEX
  8
0
 10
6.72157703
 20
18.50004712
  0
VERTEX
  8
0
 10
6.42360754
 20
18.53149606
  0
SEQEND
  0
POLYLINE
  8
DEFAULT_LAYER
 66
   1
 39
0.000000
 70
    1
  0
VERTEX
  8
0
 10
13.00825321
 20
14.43405511
  0
VERTEX
  8
0
 10
12.75835213
 20
14.37955610
  0
VERTEX
  8
0
 10
12.63381700
 20
14.33193258
  0
VERTEX
  8
0
 10
12.58672686
 20
14.29783996
  0
VERTEX
  8
0
 10
12.55549731
 20
14.25491732
  0
VERTEX
  8
0
 10
12.60608167
 20
14.20308691
  0
VERTEX
  8
0
 10
12.67507106
 20
14.18228881
  0
VERTEX
  8
0
 10
12.75601977
 20
14.18688949
  0
VERTEX
  8
0
 10
12.84248205
 20
14.21125541
  0
VERTEX
  8
0
 10
13.00616444
 20
14.29674883
  0
VERTEX
  8
0
 10
13.11455242
 20
14.39370078
  0
VERTEX
  8
0
 10
13.08108786
 20
14.44192913
  0
VERTEX
  8
0
 10
13.00825321
 20
14.43405511
  0
SEQEND
  0
POLYLINE
  8
DEFAULT_LAYER
 66
   1
 39
0.000000
 70
    1
  0
VERTEX
  8
0
 10
10.76612723
 20
12.09744094
  0
VERTEX
  8
0
 10
10.72519170
 20
12.08196653
  0
VERTEX
  8
0
 10
10.69526109
 20
12.05314567
  0
VERTEX
  8
0
 10
10.73827219
 20
12.01821230
  0
VERTEX
  8
0
 10
10.78024706
 20
12.00328654
  0
VERTEX
  8
0
 10
10.86403274
 20
11.99498523
  0
VERTEX
  8
0
 10
10.90731587
 20
11.98237341
  0
VERTEX
  8
0
 10
10.95250739
 20
11.95129663
  0
VERTEX
  8
0
 10
11.00034349
 20
11.89213673
  0
VERTEX
  8
0
 10
11.05156030
 20
11.79527559
  0
VERTEX
  8
0
 10
11.10280095
 20
11.69439517
  0
VERTEX
  8
0
 10
11.13950241
 20
11.65861854
  0
VERTEX
  8
0
 10
11.19329258
 20
11.63681102
  0
VERTEX
  8
0
 10
11.21002487
 20
11.65255905
  0
VERTEX
  8
0
 10
11.15234216
 20
11.83940901
  0
VERTEX
  8
0
 10
11.07167742
 20
11.96842372
  0
VERTEX
  8
0
 10
11.01684596
 20
12.01471891
  0
VERTEX
  8
0
 10
10.94921200
 20
12.05072656
  0
VERTEX
  8
0
 10
10.76612723
 20
12.09744094
  0
SEQEND
  0
POLYLINE
  8
DEFAULT_LAYER
 66
   1
 39
0.000000
 70
    1
  0
VERTEX
  8
0
 10
10.49152093
 20
11.82480315
  0
VERTEX
  8
0
 10
10.58610582
 20
11.75616369
  0
VERTEX
  8
0
 10
10.69437231
 20
11.71223179
  0
VERTEX
  8
0
 10
10.80825051
 20
11.70367021
  0
VERTEX
  8
0
 10
10.91967053
 20
11.74114173
  0
VERTEX
  8
0
 10
10.92360754
 20
11.76476378
  0
VERTEX
  8
0
 10
10.84840386
 20
11.79528734
  0
VERTEX
  8
0
 10
10.76124780
 20
11.79956348
  0
VERTEX
  8
0
 10
10.67505507
 20
11.80489450
  0
VERTEX
  8
0
 10
10.60274140
 20
11.83858267
  0
VERTEX
  8
0
 10
10.55991315
 20
11.89203248
  0
VERTEX
  8
0
 10
10.51022565
 20
11.93996063
  0
VERTEX
  8
0
 10
10.48710785
 20
11.91605382
  0
VERTEX
  8
0
 10
10.47972713
 20
11.88841584
  0
VERTEX
  8
0
 10
10.49152093
 20
11.82480315
  0
SEQEND
  0
POLYLINE
  8
DEFAULT_LAYER
 66
   1
 39
0.000000
 70
    1
  0
VERTEX
  8
0
 10
5.37242644
 20
6.73720472
  0
VERTEX
  8
0
 10
5.26494945
 20
6.72587186
  0
VERTEX
  8
0
 10
5.14752683
 20
6.70625246
  0
VERTEX
  8
0
 10
5.09888198
 20
6.68645873
  0
VERTEX
  8
0
 10
5.06430599
 20
6.65634147
  0
VERTEX
  8
0
 10
5.04931730
 20
6.61315006
  0
VERTEX
  8
0
 10
5.05943431
 20
6.55413385
  0
VERTEX
  8
0
 10
5.18312624
 20
6.27905462
  0
VERTEX
  8
0
 10
5.26248796
 20
6.14420478
  0
VERTEX
  8
0
 10
5.34782014
 20
6.02755905
  0
VERTEX
  8
0
 10
5.37866577
 20
6.08343159
  0
VERTEX
  8
0
 10
5.40057359
 20
6.16558292
  0
VERTEX
  8
0
 10
5.41958294
 20
6.37492618
  0
VERTEX
  8
0
 10
5.40886246
 20
6.58799729
  0
VERTEX
  8
0
 10
5.37242644
 20
6.73720472
  0
SEQEND
  0
POLYLINE
  8
DEFAULT_LAYER
 66
   1
 39
0.000000
 70
    1
  0
VERTEX
  8
0
 10
4.16376502
 20
5.84645669
  0
VERTEX
  8
0
 10
4.14705611
 20
5.74214080
  0
VERTEX
  8
0
 10
4.15965177
 20
5.60386780
  0
VERTEX
  8
0
 10
4.22763264
 20
5.24997883
  0
VERTEX
  8
0
 10
4.26045574
 20
5.04662705
  0
VERTEX
  8
0
 10
4.27745923
 20
4.83384651
  0
VERTEX
  8
0
 10
4.26736204
 20
4.61776932
  0
VERTEX
  8
0
 10
4.21888313
 20
4.40452756
  0
VERTEX
  8
0
 10
4.12859155
 20
4.17005579
  0
VERTEX
  8
0
 10
3.99620990
 20
3.80106053
  0
VERTEX
  8
0
 10
3.93957411
 20
3.60663612
  0
VERTEX
  8
0
 10
3.90282236
 20
3.42720429
  0
VERTEX
  8
0
 10
3.89609016
 20
3.27897284
  0
VERTEX
  8
0
 10
3.90714875
 20
3.22162221
  0
VERTEX
  8
0
 10
3.92951305
 20
3.17814960
  0
VERTEX
  8
0
 10
4.01958786
 20
3.19016289
  0
VERTEX
  8
0
 10
4.06308577
 20
3.19321143
  0
VERTEX
  8
0
 10
4.10274140
 20
3.18110236
  0
VERTEX
  8
0
 10
4.11077456
 20
3.01683581
  0
VERTEX
  8
0
 10
4.08587378
 20
2.85398474
  0
VERTEX
  8
0
 10
4.06423949
 20
2.68958421
  0
VERTEX
  8
0
 10
4.06595991
 20
2.60587636
  0
VERTEX
  8
0
 10
4.08207211
 20
2.52066929
  0
VERTEX
  8
0
 10
4.14672498
 20
2.50281064
  0
VERTEX
  8
0
 10
4.20310465
 20
2.51886805
  0
VERTEX
  8
0
 10
4.25222801
 20
2.56095537
  0
VERTEX
  8
0
 10
4.29511197
 20
2.62118651
  0
VERTEX
  8
0
 10
4.42459179
 20
2.88582677
  0
VERTEX
  8
0
 10
4.50391143
 20
3.04242261
  0
VERTEX
  8
0
 10
4.53193431
 20
3.16821161
  0
VERTEX
  8
0
 10
4.53581227
 20
3.48425196
  0
VERTEX
  8
0
 10
4.56016894
 20
4.01692193
  0
VERTEX
  8
0
 10
4.55867053
 20
4.27134891
  0
VERTEX
  8
0
 10
4.44919809
 20
5.05511811
  0
VERTEX
  8
0
 10
4.41610496
 20
5.29084178
  0
VERTEX
  8
0
 10
4.37223353
 20
5.47583858
  0
VERTEX
  8
0
 10
4.29548611
 20
5.64830979
  0
VERTEX
  8
0
 10
4.16376502
 20
5.84645669
  0
SEQEND
  0
POLYLINE
  8
DEFAULT_LAYER
 66
   1
 39
0.000000
 70
    1
  0
VERTEX
  8
0
 10
6.21494613
 20
5.20767716
  0
VERTEX
  8
0
 10
6.22255587
 20
5.09684990
  0
VERTEX
  8
0
 10
6.21997707
 20
5.04090532
  0
VERTEX
  8
0
 10
6.20411935
 20
4.99212598
  0
VERTEX
  8
0
 10
6.12833195
 20
4.99311023
  0
VERTEX
  8
0
 10
6.11854172
 20
4.90188035
  0
VERTEX
  8
0
 10
6.12682605
 20
4.77778887
  0
VERTEX
  8
0
 10
6.14309573
 20
4.54330708
  0
VERTEX
  8
0
 10
6.09714937
 20
4.08781496
  0
VERTEX
  8
0
 10
6.05379498
 20
3.82074926
  0
VERTEX
  8
0
 10
6.02850244
 20
3.72585922
  0
VERTEX
  8
0
 10
6.00136345
 20
3.67519685
  0
VERTEX
  8
0
 10
5.97914101
 20
4.04383021
  0
VERTEX
  8
0
 10
5.95602905
 20
4.22885021
  0
VERTEX
  8
0
 10
5.90687526
 20
4.40059055
  0
VERTEX
  8
0
 10
5.88423746
 20
4.40059055
  0
VERTEX
  8
0
 10
5.86623402
 20
4.33857652
  0
VERTEX
  8
0
 10
5.86442349
 20
4.26893110
  0
VERTEX
  8
0
 10
5.87636345
 20
4.13090551
  0
VERTEX
  8
0
 10
5.84490233
 20
4.12688533
  0
VERTEX
  8
0
 10
5.81238707
 20
4.13385826
  0
VERTEX
  8
0
 10
5.79270203
 20
4.11417322
  0
VERTEX
  8
0
 10
5.82283847
 20
3.94510999
  0
VERTEX
  8
0
 10
5.86960262
 20
3.74476968
  0
VERTEX
  8
0
 10
5.90326096
 20
3.55171973
  0
VERTEX
  8
0
 10
5.90588373
 20
3.46998096
  0
VERTEX
  8
0
 10
5.89407998
 20
3.40452756
  0
VERTEX
  8
0
 10
5.85019613
 20
3.55070472
  0
VERTEX
  8
0
 10
5.82178434
 20
3.62103469
  0
VERTEX
  8
0
 10
5.78187526
 20
3.68405511
  0
VERTEX
  8
0
 10
5.74053668
 20
3.68011811
  0
VERTEX
  8
0
 10
5.91278077
 20
2.85236220
  0
VERTEX
  8
0
 10
5.97671581
 20
2.87946948
  0
VERTEX
  8
0
 10
6.03482801
 20
2.91929133
  0
VERTEX
  8
0
 10
6.04809210
 20
2.74837426
  0
VERTEX
  8
0
 10
6.06204603
 20
2.57765059
  0
VERTEX
  8
0
 10
6.09287985
 20
2.51876907
  0
VERTEX
  8
0
 10
6.15220394
 20
2.49162524
  0
VERTEX
  8
0
 10
6.24945756
 20
2.50678223
  0
VERTEX
  8
0
 10
6.39407998
 20
2.57480315
  0
VERTEX
  8
0
 10
6.35470990
 20
2.60236220
  0
VERTEX
  8
0
 10
6.37635379
 20
2.77620189
  0
VERTEX
  8
0
 10
6.39010016
 20
2.82019488
  0
VERTEX
  8
0
 10
6.31632408
 20
3.17322834
  0
VERTEX
  8
0
 10
6.26346040
 20
3.51039173
  0
VERTEX
  8
0
 10
6.22520849
 20
3.67753617
  0
VERTEX
  8
0
 10
6.15884376
 20
3.83169291
  0
VERTEX
  8
0
 10
6.23489101
 20
4.03780561
  0
VERTEX
  8
0
 10
6.26796212
 20
4.14357425
  0
VERTEX
  8
0
 10
6.28384376
 20
4.24803149
  0
VERTEX
  8
0
 10
6.26219022
 20
4.26279527
  0
VERTEX
  8
0
 10
6.21205784
 20
4.19865846
  0
VERTEX
  8
0
 10
6.17557605
 20
4.12401574
  0
VERTEX
  8
0
 10
6.28057851
 20
4.74041978
  0
VERTEX
  8
0
 10
6.30079039
 20
4.92434743
  0
VERTEX
  8
0
 10
6.30627148
 20
5.09061940
  0
VERTEX
  8
0
 10
6.29086413
 20
5.22444252
  0
VERTEX
  8
0
 10
6.24841069
 20
5.31102362
  0
VERTEX
  8
0
 10
6.22455931
 20
5.26260433
  0
VERTEX
  8
0
 10
6.21494613
 20
5.20767716
  0
SEQEND
  0
POLYLINE
  8
DEFAULT_LAYER
 66
   1
 39
0.000000
 70
    1
  0
VERTEX
  8
0
 10
5.31238707
 20
4.67913385
  0
VERTEX
  8
0
 10
5.17949829
 20
3.65955167
  0
VERTEX
  8
0
 10
5.11950383
 20
3.09141061
  0
VERTEX
  8
0
 10
5.10873803
 20
2.88798652
  0
VERTEX
  8
0
 10
5.11750518
 20
2.77460630
  0
VERTEX
  8
0
 10
5.14211148
 20
2.76574803
  0
VERTEX
  8
0
 10
5.20891906
 20
2.85166929
  0
VERTEX
  8
0
 10
5.23862175
 20
2.89664222
  0
VERTEX
  8
0
 10
5.27793825
 20
2.93503937
  0
VERTEX
  8
0
 10
5.30943431
 20
2.92913385
  0
VERTEX
  8
0
 10
5.33769711
 20
2.85813699
  0
VERTEX
  8
0
 10
5.33827782
 20
2.82112746
  0
VERTEX
  8
0
 10
5.35002733
 20
2.78177270
  0
VERTEX
  8
0
 10
5.41179652
 20
2.70374015
  0
VERTEX
  8
0
 10
5.44418382
 20
2.64069242
  0
VERTEX
  8
0
 10
5.45981774
 20
2.61113195
  0
VERTEX
  8
0
 10
5.48856817
 20
2.58759842
  0
VERTEX
  8
0
 10
5.50077612
 20
2.68871166
  0
VERTEX
  8
0
 10
5.49946353
 20
2.92938724
  0
VERTEX
  8
0
 10
5.46607752
 20
3.64958021
  0
VERTEX
  8
0
 10
5.40801164
 20
4.38848702
  0
VERTEX
  8
0
 10
5.37584921
 20
4.65255488
  0
VERTEX
  8
0
 10
5.34486738
 20
4.78641732
  0
VERTEX
  8
0
 10
5.31238707
 20
4.67913385
  0
SEQEND
  0
POLYLINE
  8
DEFAULT_LAYER
 66
   1
 39
0.000000
 70
    1
  0
VERTEX
  8
0
 10
6.44821384
 20
3.85629921
  0
VERTEX
  8
0
 10
6.49420240
 20
3.71792759
  0
VERTEX
  8
0
 10
6.54076601
 20
3.55883021
  0
VERTEX
  8
0
 10
6.55185242
 20
3.48048193
  0
VERTEX
  8
0
 10
6.54818936
 20
3.40771930
  0
VERTEX
  8
0
 10
6.52481241
 20
3.34413134
  0
VERTEX
  8
0
 10
6.47675715
 20
3.29330708
  0
VERTEX
  8
0
 10
6.49332783
 20
3.18787949
  0
VERTEX
  8
0
 10
6.53576355
 20
3.09036565
  0
VERTEX
  8
0
 10
6.56715079
 20
2.99097607
  0
VERTEX
  8
0
 10
6.56716576
 20
2.93751866
  0
VERTEX
  8
0
 10
6.55057605
 20
2.87992126
  0
VERTEX
  8
0
 10
6.50594465
 20
2.75055610
  0
VERTEX
  8
0
 10
6.50903022
 20
2.69184695
  0
VERTEX
  8
0
 10
6.53187526
 20
2.61614173
  0
VERTEX
  8
0
 10
6.54467053
 20
2.61614173
  0
VERTEX
  8
0
 10
6.70688116
 20
2.89608612
  0
VERTEX
  8
0
 10
6.77886652
 20
3.07725941
  0
VERTEX
  8
0
 10
6.79710857
 20
3.17799308
  0
VERTEX
  8
0
 10
6.79762329
 20
3.28543307
  0
VERTEX
  8
0
 10
6.78187526
 20
3.32283464
  0
VERTEX
  8
0
 10
6.75726896
 20
3.32677165
  0
VERTEX
  8
0
 10
6.71016561
 20
3.24500639
  0
VERTEX
  8
0
 10
6.67852880
 20
3.15452756
  0
VERTEX
  8
0
 10
6.64126856
 20
3.23416023
  0
VERTEX
  8
0
 10
6.61694563
 20
3.32862340
  0
VERTEX
  8
0
 10
6.58762427
 20
3.54579035
  0
VERTEX
  8
0
 10
6.55158983
 20
3.77352669
  0
VERTEX
  8
0
 10
6.51887554
 20
3.88120160
  0
VERTEX
  8
0
 10
6.46986738
 20
3.97933070
  0
VERTEX
  8
0
 10
6.44919809
 20
3.98129921
  0
VERTEX
  8
0
 10
6.44821384
 20
3.85629921
  0
SEQEND
  0
POLYLINE
  8
DEFAULT_LAYER
 66
   1
 39
0.000000
 70
    1
  0
VERTEX
  8
0
 10
83.74466403
 20
2.16535433
  0
VERTEX
  8
0
 10
83.93103171
 20
2.25445737
  0
VERTEX
  8
0
 10
83.98231800
 20
2.30241837
  0
VERTEX
  8
0
 10
84.01232299
 20
2.35653887
  0
VERTEX
  8
0
 10
84.02844030
 20
2.49491787
  0
VERTEX
  8
0
 10
84.01928608
 20
2.69291338
  0
VERTEX
  8
0
 10
84.13519651
 20
2.76269635
  0
VERTEX
  8
0
 10
84.19661974
 20
2.78518276
  0
VERTEX
  8
0
 10
84.26436482
 20
2.79429133
  0
VERTEX
  8
0
 10
84.15113942
 20
3.63412057
  0
VERTEX
  8
0
 10
84.08917375
 20
4.05288010
  0
VERTEX
  8
0
 10
84.01239631
 20
4.46948819
  0
VERTEX
  8
0
 10
83.91407692
 20
5.05170177
  0
VERTEX
  8
0
 10
83.87814096
 20
5.38405339
  0
VERTEX
  8
0
 10
83.88247505
 20
5.61122047
  0
VERTEX
  8
0
 10
83.94862342
 20
5.95211346
  0
VERTEX
  8
0
 10
83.98670875
 20
6.25623007
  0
VERTEX
  8
0
 10
84.00350979
 20
6.52737435
  0
VERTEX
  8
0
 10
84.00580527
 20
6.76935039
  0
VERTEX
  8
0
 10
83.99399455
 20
7.18101402
  0
VERTEX
  8
0
 10
83.99344584
 20
7.35830976
  0
VERTEX
  8
0
 10
84.00550655
 20
7.52165354
  0
VERTEX
  8
0
 10
84.85270783
 20
7.54382086
  0
VERTEX
  8
0
 10
85.27536414
 20
7.56714739
  0
VERTEX
  8
0
 10
85.69349868
 20
7.61811023
  0
VERTEX
  8
0
 10
86.08041501
 20
7.67149366
  0
VERTEX
  8
0
 10
86.31257742
 20
7.69282529
  0
VERTEX
  8
0
 10
86.57968864
 20
7.73954546
  0
VERTEX
  8
0
 10
87.07145143
 20
7.86909448
  0
VERTEX
  8
0
 10
87.46778411
 20
7.97176722
  0
VERTEX
  8
0
 10
87.86082151
 20
8.07775590
  0
VERTEX
  8
0
 10
87.99557379
 20
8.11120719
  0
VERTEX
  8
0
 10
88.13105576
 20
8.12872102
  0
VERTEX
  8
0
 10
88.26559728
 20
8.12926915
  0
VERTEX
  8
0
 10
88.39752820
 20
8.11182332
  0
VERTEX
  8
0
 10
88.52517836
 20
8.07535529
  0
VERTEX
  8
0
 10
88.64687761
 20
8.01883680
  0
VERTEX
  8
0
 10
88.76095580
 20
7.94123959
  0
VERTEX
  8
0
 10
88.86574277
 20
7.84153543
  0
VERTEX
  8
0
 10
88.97109132
 20
7.64455327
  0
VERTEX
  8
0
 10
89.05977274
 20
7.47581147
  0
VERTEX
  8
0
 10
89.18336875
 20
7.27429527
  0
VERTEX
  8
0
 10
89.35006171
 20
7.05054926
  0
VERTEX
  8
0
 10
89.56803399
 20
6.81511798
  0
VERTEX
  8
0
 10
89.84546793
 20
6.57854603
  0
VERTEX
  8
0
 10
90.19054592
 20
6.35137795
  0
VERTEX
  8
0
 10
90.32495917
 20
6.28600672
  0
VERTEX
  8
0
 10
90.44330416
 20
6.24528481
  0
VERTEX
  8
0
 10
90.64230675
 20
6.18338189
  0
VERTEX
  8
0
 10
90.72822301
 20
6.13499730
  0
VERTEX
  8
0
 10
90.80858837
 20
6.05685494
  0
VERTEX
  8
0
 10
90.88603216
 20
5.93535302
  0
VERTEX
  8
0
 10
90.96318371
 20
5.75688976
  0
VERTEX
  8
0
 10
90.97707179
 20
5.69559451
  0
VERTEX
  8
0
 10
90.97698766
 20
5.62907213
  0
VERTEX
  8
0
 10
90.94193119
 20
5.48527220
  0
VERTEX
  8
0
 10
90.87207124
 20
5.33534245
  0
VERTEX
  8
0
 10
90.78146472
 20
5.18913533
  0
VERTEX
  8
0
 10
90.59423963
 20
4.94729890
  0
VERTEX
  8
0
 10
90.49271127
 20
4.83858267
  0
VERTEX
  8
0
 10
90.36200753
 20
4.75213632
  0
VERTEX
  8
0
 10
90.17676639
 20
4.56102362
  0
VERTEX
  8
0
 10
90.12056884
 20
4.47360747
  0
VERTEX
  8
0
 10
90.09519091
 20
4.38481133
  0
VERTEX
  8
0
 10
90.09233707
 20
4.29496520
  0
VERTEX
  8
0
 10
90.10371177
 20
4.20439911
  0
VERTEX
  8
0
 10
90.13596466
 20
4.02242710
  0
VERTEX
  8
0
 10
90.14025177
 20
3.93168121
  0
VERTEX
  8
0
 10
90.12558529
 20
3.84153543
  0
VERTEX
  8
0
 10
90.11406580
 20
3.73253913
  0
VERTEX
  8
0
 10
90.14101602
 20
3.63005296
  0
VERTEX
  8
0
 10
90.19759955
 20
3.53368537
  0
VERTEX
  8
0
 10
90.27497997
 20
3.44304478
  0
VERTEX
  8
0
 10
90.45678595
 20
3.27737838
  0
VERTEX
  8
0
 10
90.61574277
 20
3.12992126
  0
VERTEX
  8
0
 10
90.80373490
 20
2.91732283
  0
VERTEX
  8
0
 10
90.92520783
 20
3.36797047
  0
VERTEX
  8
0
 10
90.98211106
 20
3.63051636
  0
VERTEX
  8
0
 10
90.99202014
 20
3.72537597
  0
VERTEX
  8
0
 10
90.98286875
 20
3.77854330
  0
VERTEX
  8
0
 10
90.87968248
 20
3.87578174
  0
VERTEX
  8
0
 10
90.76608037
 20
3.96527657
  0
VERTEX
  8
0
 10
90.72358541
 20
4.01350455
  0
VERTEX
  8
0
 10
90.70034095
 20
4.06745792
  0
VERTEX
  8
0
 10
90.70363180
 20
4.12969045
  0
VERTEX
  8
0
 10
90.74074277
 20
4.20275590
  0
VERTEX
  8
0
 10
90.89920734
 20
4.20767716
  0
VERTEX
  8
0
 10
91.03880133
 20
4.50094439
  0
VERTEX
  8
0
 10
91.11429660
 20
4.64377245
  0
VERTEX
  8
0
 10
91.20235694
 20
4.77952756
  0
VERTEX
  8
0
 10
91.26219602
 20
4.00624704
  0
VERTEX
  8
0
 10
91.31160891
 20
3.23326771
  0
VERTEX
  8
0
 10
91.11954518
 20
2.99796776
  0
VERTEX
  8
0
 10
90.97216993
 20
2.74016633
  0
VERTEX
  8
0
 10
90.85953386
 20
2.46364591
  0
VERTEX
  8
0
 10
90.77168765
 20
2.17218897
  0
VERTEX
  8
0
 10
83.74466403
 20
2.16535433
  0
SEQEND
  0
POLYLINE
  8
DEFAULT_LAYER
 66
   1
 39
0.000000
 70
    1
  0
VERTEX
  8
0
 10
64.61120203
 20
2.16535433
  0
VERTEX
  8
0
 10
64.64852667
 20
2.20138129
  0
VERTEX
  8
0
 10
64.67301362
 20
2.24542310
  0
VERTEX
  8
0
 10
64.68980052
 20
2.35284916
  0
VERTEX
  8
0
 10
64.67421497
 20
2.47822834
  0
VERTEX
  8
0
 10
64.63890922
 20
2.61215649
  0
VERTEX
  8
0
 10
64.55974601
 20
2.86804306
  0
VERTEX
  8
0
 10
64.54119304
 20
2.97119316
  0
VERTEX
  8
0
 10
64.55352880
 20
3.04527559
  0
VERTEX
  8
0
 10
64.63870671
 20
3.23870540
  0
VERTEX
  8
0
 10
64.65190679
 20
3.32048293
  0
VERTEX
  8
0
 10
64.65157014
 20
3.40692569
  0
VERTEX
  8
0
 10
64.62845425
 20
3.63767722
  0
VERTEX
  8
0
 10
64.60569416
 20
4.01870078
  0
VERTEX
  8
0
 10
64.59257168
 20
4.61702134
  0
VERTEX
  8
0
 10
64.59681177
 20
4.82036761
  0
VERTEX
  8
0
 10
64.62443991
 20
4.99394346
  0
VERTEX
  8
0
 10
64.68148156
 20
5.50295275
  0
VERTEX
  8
0
 10
64.68416764
 20
5.64288351
  0
VERTEX
  8
0
 10
64.66826798
 20
5.76865003
  0
VERTEX
  8
0
 10
64.60137329
 20
5.99333907
  0
VERTEX
  8
0
 10
64.52212132
 20
6.20831723
  0
VERTEX
  8
0
 10
64.49077505
 20
6.32194516
  0
VERTEX
  8
0
 10
64.47183589
 20
6.44488189
  0
VERTEX
  8
0
 10
64.46321034
 20
6.71120884
  0
VERTEX
  8
0
 10
64.47102536
 20
6.97869439
  0
VERTEX
  8
0
 10
64.47776927
 20
7.24649809
  0
VERTEX
  8
0
 10
64.46593038
 20
7.51377952
  0
VERTEX
  8
0
 10
64.42845351
 20
7.74523277
  0
VERTEX
  8
0
 10
64.41290645
 20
7.86139290
  0
VERTEX
  8
0
 10
64.41179652
 20
7.97736220
  0
VERTEX
  8
0
 10
64.76066986
 20
7.95742938
  0
VERTEX
  8
0
 10
64.92576532
 20
7.94683024
  0
VERTEX
  8
0
 10
65.07974583
 20
7.95491338
  0
VERTEX
  8
0
 10
65.21894576
 20
7.99600686
  0
VERTEX
  8
0
 10
65.33969951
 20
8.08443873
  0
VERTEX
  8
0
 10
65.43834145
 20
8.23453706
  0
VERTEX
  8
0
 10
65.51120597
 20
8.46062992
  0
VERTEX
  8
0
 10
65.56475279
 20
8.65356761
  0
VERTEX
  8
0
 10
65.62965780
 20
8.76095552
  0
VERTEX
  8
0
 10
65.67156361
 20
8.79071101
  0
VERTEX
  8
0
 10
65.72254174
 20
8.80885029
  0
VERTEX
  8
0
 10
65.86002536
 20
8.82330856
  0
VERTEX
  8
0
 10
66.05872938
 20
8.83038697
  0
VERTEX
  8
0
 10
66.33527456
 20
8.85614216
  0
VERTEX
  8
0
 10
66.70628162
 20
8.92663077
  0
VERTEX
  8
0
 10
67.18837132
 20
9.06790945
  0
VERTEX
  8
0
 10
67.77183128
 20
9.26822496
  0
VERTEX
  8
0
 10
68.12124761
 20
9.37769795
  0
VERTEX
  8
0
 10
68.48835607
 20
9.47627116
  0
VERTEX
  8
0
 10
68.85758257
 20
9.55111215
  0
VERTEX
  8
0
 10
69.21335305
 20
9.58938847
  0
VERTEX
  8
0
 10
69.54009342
 20
9.57826767
  0
VERTEX
  8
0
 10
69.68771041
 20
9.55017322
  0
VERTEX
  8
0
 10
69.82222959
 20
9.50491732
  0
VERTEX
  8
0
 10
69.99554497
 20
9.44160773
  0
VERTEX
  8
0
 10
70.13159832
 20
9.41240735
  0
VERTEX
  8
0
 10
70.24034329
 20
9.40825133
  0
VERTEX
  8
0
 10
70.33173353
 20
9.42007480
  0
VERTEX
  8
0
 10
70.50226441
 20
9.45540071
  0
VERTEX
  8
0
 10
70.60131234
 20
9.46077342
  0
VERTEX
  8
0
 10
70.72282014
 20
9.44586614
  0
VERTEX
  8
0
 10
70.75699168
 20
9.43083755
  0
VERTEX
  8
0
 10
70.78450752
 20
9.40205681
  0
VERTEX
  8
0
 10
70.82526650
 20
9.30705610
  0
VERTEX
  8
0
 10
70.88955439
 20
8.99401870
  0
VERTEX
  8
0
 10
70.93586086
 20
8.79125107
  0
VERTEX
  8
0
 10
71.00679406
 20
8.56783021
  0
VERTEX
  8
0
 10
71.11374275
 20
8.33139065
  0
VERTEX
  8
0
 10
71.26809573
 20
8.08956693
  0
VERTEX
  8
0
 10
71.63118038
 20
7.63635974
  0
VERTEX
  8
0
 10
71.80134462
 20
7.40577122
  0
VERTEX
  8
0
 10
71.95116660
 20
7.15255905
  0
VERTEX
  8
0
 10
72.12104910
 20
6.83173702
  0
VERTEX
  8
0
 10
72.23872467
 20
6.63241978
  0
VERTEX
  8
0
 10
72.39604849
 20
6.37696850
  0
VERTEX
  8
0
 10
72.42993085
 20
6.29230253
  0
VERTEX
  8
0
 10
72.43850426
 20
6.21906742
  0
VERTEX
  8
0
 10
72.42251059
 20
6.06611220
  0
VERTEX
  8
0
 10
72.41933670
 20
5.96600332
  0
VERTEX
  8
0
 10
72.43364021
 20
5.83654773
  0
VERTEX
  8
0
 10
72.47611772
 20
5.66755105
  0
VERTEX
  8
0
 10
72.55746581
 20
5.44881889
  0
VERTEX
  8
0
 10
72.59335257
 20
5.34106378
  0
VERTEX
  8
0
 10
72.61350893
 20
5.23053045
  0
VERTEX
  8
0
 10
72.61969366
 20
5.00386171
  0
VERTEX
  8
0
 10
72.58699337
 20
4.54724409
  0
VERTEX
  8
0
 10
72.59756719
 20
3.65369734
  0
VERTEX
  8
0
 10
72.58925887
 20
3.09516640
  0
VERTEX
  8
0
 10
72.57406731
 20
2.89275339
  0
VERTEX
  8
0
 10
72.54860754
 20
2.78149606
  0
VERTEX
  8
0
 10
72.44508355
 20
2.64505444
  0
VERTEX
  8
0
 10
72.31802093
 20
2.49847195
  0
VERTEX
  8
0
 10
72.26200683
 20
2.42063334
  0
VERTEX
  8
0
 10
72.21972110
 20
2.33936608
  0
VERTEX
  8
0
 10
72.19770143
 20
2.25437234
  0
VERTEX
  8
0
 10
72.20248550
 20
2.16535433
  0
VERTEX
  8
0
 10
64.61120203
 20
2.16535433
  0
SEQEND
  0
POLYLINE
  8
DEFAULT_LAYER
 66
   1
 39
0.000000
 70
    1
  0
VERTEX
  8
0
 10
65.89309573
 20
16.65846456
  0
VERTEX
  8
0
 10
65.82803392
 20
16.56102576
  0
VERTEX
  8
0
 10
65.76957857
 20
16.43895244
  0
VERTEX
  8
0
 10
65.72249069
 20
16.30081789
  0
VERTEX
  8
0
 10
65.69153126
 20
16.15519537
  0
VERTEX
  8
0
 10
65.68146130
 20
16.01065818
  0
VERTEX
  8
0
 10
65.69704178
 20
15.87577959
  0
VERTEX
  8
0
 10
65.74303372
 20
15.75913288
  0
VERTEX
  8
0
 10
65.82419809
 20
15.66929133
  0
VERTEX
  8
0
 10
65.92691469
 20
15.76950646
  0
VERTEX
  8
0
 10
66.07813363
 20
15.95367470
  0
VERTEX
  8
0
 10
66.13716657
 20
16.05024717
  0
VERTEX
  8
0
 10
66.16660723
 20
16.13541504
  0
VERTEX
  8
0
 10
66.15254965
 20
16.19838068
  0
VERTEX
  8
0
 10
66.12486340
 20
16.21816340
  0
VERTEX
  8
0
 10
66.08108786
 20
16.22834645
  0
VERTEX
  8
0
 10
65.94941887
 20
16.24340428
  0
VERTEX
  8
0
 10
65.91787947
 20
16.25927150
  0
VERTEX
  8
0
 10
65.90469563
 20
16.28962992
  0
VERTEX
  8
0
 10
65.91987126
 20
16.42061737
  0
VERTEX
  8
0
 10
65.96789888
 20
16.68996063
  0
VERTEX
  8
0
 10
65.89309573
 20
16.65846456
  0
SEQEND
  0
POLYLINE
  8
Default_Layer
 66
   1
 39
0.000000
 70
    1
  0
VERTEX
  8
0
 10
21.27902554
 20
13.58998080
  0
VERTEX
  8
0
 10
21.06269250
 20
13.66738564
  0
VERTEX
  8
0
 10
20.86828047
 20
13.76758710
  0
VERTEX
  8
0
 10
20.69735908
 20
13.90070367
  0
VERTEX
  8
0
 10
20.58544772
 20
14.03584295
  0
VERTEX
  8
0
 10
20.58705909
 20
13.56102362
  0
VERTEX
  8
0
 10
19.33115358
 20
13.56102362
  0
VERTEX
  8
0
 10
19.34828485
 20
14.15642384
  0
VERTEX
  8
0
 10
19.35072551
 20
14.40895846
  0
VERTEX
  8
0
 10
19.33221756
 20
14.61666830
  0
VERTEX
  8
0
 10
19.31115505
 20
14.70026524
  0
VERTEX
  8
0
 10
19.28011204
 20
14.76851754
  0
VERTEX
  8
0
 10
19.23750740
 20
14.82004574
  0
VERTEX
  8
0
 10
19.18176000
 20
14.85347035
  0
VERTEX
  8
0
 10
19.11128874
 20
14.86741188
  0
VERTEX
  8
0
 10
19.02451248
 20
14.86049088
  0
VERTEX
  8
0
 10
18.91985011
 20
14.83132784
  0
VERTEX
  8
0
 10
18.79572051
 20
14.77854330
  0
VERTEX
  8
0
 10
18.79572051
 20
14.16141338
  0
VERTEX
  8
0
 10
19.07229531
 20
14.16141338
  0
VERTEX
  8
0
 10
19.07229531
 20
13.56102362
  0
VERTEX
  8
0
 10
18.42069470
 20
13.56102362
  0
VERTEX
  8
0
 10
18.93649214
 20
13.50496772
  0
VERTEX
  8
0
 10
19.41112102
 20
13.42054220
  0
VERTEX
  8
0
 10
19.62839559
 20
13.36337199
  0
VERTEX
  8
0
 10
19.83240245
 20
13.29392678
  0
VERTEX
  8
0
 10
20.02321078
 20
13.21047902
  0
VERTEX
  8
0
 10
20.20088972
 20
13.11130118
  0
VERTEX
  8
0
 10
20.36550844
 20
12.99466572
  0
VERTEX
  8
0
 10
20.51713609
 20
12.85884512
  0
VERTEX
  8
0
 10
20.65584184
 20
12.70211182
  0
VERTEX
  8
0
 10
20.78169484
 20
12.52273831
  0
VERTEX
  8
0
 10
20.89476425
 20
12.31899704
  0
VERTEX
  8
0
 10
20.99511923
 20
12.08916048
  0
VERTEX
  8
0
 10
21.08282895
 20
11.83150109
  0
VERTEX
  8
0
 10
21.15796255
 20
11.54429133
  0
VERTEX
  8
0
 10
21.24119186
 20
11.05937520
  0
VERTEX
  8
0
 10
21.26788166
 20
10.57582591
  0
VERTEX
  8
0
 10
21.25843663
 20
10.33755456
  0
VERTEX
  8
0
 10
21.23295160
 20
10.10321381
  0
VERTEX
  8
0
 10
21.19079150
 20
9.87399994
  0
VERTEX
  8
0
 10
21.13132131
 20
9.65110925
  0
VERTEX
  8
0
 10
21.05390598
 20
9.43573803
  0
VERTEX
  8
0
 10
20.95791046
 20
9.22908257
  0
VERTEX
  8
0
 10
20.84269970
 20
9.03233916
  0
VERTEX
  8
0
 10
20.70763867
 20
8.84670411
  0
VERTEX
  8
0
 10
20.55209232
 20
8.67337369
  0
VERTEX
  8
0
 10
20.37542560
 20
8.51354421
  0
VERTEX
  8
0
 10
20.17700348
 20
8.36841196
  0
VERTEX
  8
0
 10
19.95619090
 20
8.23917322
  0
VERTEX
  8
0
 10
20.28663157
 20
8.02392872
  0
VERTEX
  8
0
 10
20.57482260
 20
7.78812912
  0
VERTEX
  8
0
 10
20.82210145
 20
7.53016197
  0
VERTEX
  8
0
 10
21.02980556
 20
7.24841486
  0
VERTEX
  8
0
 10
21.19927242
 20
6.94127533
  0
VERTEX
  8
0
 10
21.33183946
 20
6.60713096
  0
VERTEX
  8
0
 10
21.42884416
 20
6.24436931
  0
VERTEX
  8
0
 10
21.49162397
 20
5.85137795
  0
VERTEX
  8
0
 10
21.51959338
 20
5.33872484
  0
VERTEX
  8
0
 10
21.51146069
 20
5.07593242
  0
VERTEX
  8
0
 10
21.48785170
 20
4.81187235
  0
VERTEX
  8
0
 10
21.44821787
 20
4.54882686
  0
VERTEX
  8
0
 10
21.39201067
 20
4.28907814
  0
VERTEX
  8
0
 10
21.31868157
 20
4.03490842
  0
VERTEX
  8
0
 10
21.22768204
 20
3.78859990
  0
VERTEX
  8
0
 10
21.11846354
 20
3.55243478
  0
VERTEX
  8
0
 10
20.99047755
 20
3.32869529
  0
VERTEX
  8
0
 10
20.84317552
 20
3.11966362
  0
VERTEX
  8
0
 10
20.67600894
 20
2.92762198
  0
VERTEX
  8
0
 10
20.48842926
 20
2.75485259
  0
VERTEX
  8
0
 10
20.27988795
 20
2.60363766
  0
VERTEX
  8
0
 10
20.04983649
 20
2.47625939
  0
VERTEX
  8
0
 10
19.79772633
 20
2.37500000
  0
VERTEX
  8
0
 10
19.50623790
 20
2.29307332
  0
VERTEX
  8
0
 10
19.20687299
 20
2.23403937
  0
VERTEX
  8
0
 10
18.71864150
 20
2.16535236
  0
VERTEX
  8
0
 10
21.27902554
 20
2.16535039
  0
VERTEX
  8
0
 10
21.27902554
 20
3.78051181
  0
VERTEX
  8
0
 10
21.57497138
 20
3.78489595
  0
VERTEX
  8
0
 10
21.79857082
 20
3.80431354
  0
VERTEX
  8
0
 10
21.96031076
 20
3.84816233
  0
VERTEX
  8
0
 10
22.07067810
 20
3.92584006
  0
VERTEX
  8
0
 10
22.14015974
 20
4.04674447
  0
VERTEX
  8
0
 10
22.17924257
 20
4.22027331
  0
VERTEX
  8
0
 10
22.19841349
 20
4.45582433
  0
VERTEX
  8
0
 10
22.20815940
 20
4.76279527
  0
VERTEX
  8
0
 10
22.23001029
 20
8.26003592
  0
VERTEX
  8
0
 10
22.22032568
 20
10.39123173
  0
VERTEX
  8
0
 10
22.20562811
 20
11.14589643
  0
VERTEX
  8
0
 10
22.18256885
 20
11.53838582
  0
VERTEX
  8
0
 10
22.13772043
 20
11.70980934
  0
VERTEX
  8
0
 10
22.06872959
 20
11.83068928
  0
VERTEX
  8
0
 10
21.97793975
 20
11.90955935
  0
VERTEX
  8
0
 10
21.86769434
 20
11.95495324
  0
VERTEX
  8
0
 10
21.74033679
 20
11.97540465
  0
VERTEX
  8
0
 10
21.59821052
 20
11.97944728
  0
VERTEX
  8
0
 10
21.27902554
 20
11.97244094
  0
VERTEX
  8
0
 10
21.27902554
 20
13.58998080
  0
SEQEND
  0
POLYLINE
  8
Default_Layer
 66
   1
 39
0.000000
 70
    1
  0
VERTEX
  8
0
 10
62.34315933
 20
16.55696161
 42
0.06248894
  0
VERTEX
  8
0
 10
62.59257189
 20
16.40369491
 42
0.15388023
  0
VERTEX
  8
0
 10
62.84187111
 20
16.41316200
 42
-0.04270672
  0
VERTEX
  8
0
 10
64.63259650
 20
16.90952272
 42
0.04991209
  0
VERTEX
  8
0
 10
65.22815359
 20
17.08003355
 42
0.05140545
  0
VERTEX
  8
0
 10
65.20768834
 20
17.28491698
 42
-0.04832579
  0
VERTEX
  8
0
 10
65.41065863
 20
17.54801503
 42
-0.09402201
  0
VERTEX
  8
0
 10
65.70380762
 20
17.68611752
 42
0.03860853
  0
VERTEX
  8
0
 10
66.24291737
 20
17.66763198
 42
-0.05499073
  0
VERTEX
  8
0
 10
66.23187061
 20
18.02119251
  0
VERTEX
  8
0
 10
66.44852810
 20
18.45314889
 42
0.05503792
  0
VERTEX
  8
0
 10
66.47913784
 20
18.90286820
 42
-0.20400965
  0
VERTEX
  8
0
 10
66.63150996
 20
19.11921758
 42
0.17403121
  0
VERTEX
  8
0
 10
66.69764178
 20
19.36152961
  0
VERTEX
  8
0
 10
66.67992524
 20
19.37629339
 42
-0.51449061
  0
VERTEX
  8
0
 10
66.32386225
 20
19.56043463
 42
0.05880432
  0
VERTEX
  8
0
 10
66.24145420
 20
19.84517306
 42
0.13449827
  0
VERTEX
  8
0
 10
66.06138273
 20
20.00087939
 42
-0.32928039
  0
VERTEX
  8
0
 10
66.03237750
 20
20.05457784
 42
0.02127858
  0
VERTEX
  8
0
 10
66.17598823
 20
20.36349812
 42
0.27513634
  0
VERTEX
  8
0
 10
66.11622164
 20
20.41781162
 42
0.16951466
  0
VERTEX
  8
0
 10
65.95239245
 20
20.41316193
  0
VERTEX
  8
0
 10
65.59362645
 20
20.26729637
 42
-0.23316540
  0
VERTEX
  8
0
 10
65.46581354
 20
20.26543346
 42
-0.26638000
  0
VERTEX
  8
0
 10
65.41712997
 20
20.40385245
 42
-0.26808735
  0
VERTEX
  8
0
 10
65.80389212
 20
20.93830288
  0
VERTEX
  8
0
 10
66.22036353
 20
21.13280033
 42
0.15965210
  0
VERTEX
  8
0
 10
66.34525996
 20
21.46060019
 42
-0.19546207
  0
VERTEX
  8
0
 10
66.51424762
 20
21.80050923
 42
-0.23706842
  0
VERTEX
  8
0
 10
66.90728253
 20
21.81417146
 42
-0.04272257
  0
VERTEX
  8
0
 10
67.70438056
 20
21.45911374
 42
-0.36582756
  0
VERTEX
  8
0
 10
67.78891521
 20
21.24120506
 42
0.03306227
  0
VERTEX
  8
0
 10
67.75571264
 20
20.94912804
 42
0.21052111
  0
VERTEX
  8
0
 10
67.85599032
 20
20.82216378
 42
-0.09235108
  0
VERTEX
  8
0
 10
68.46845042
 20
20.30587176
 42
-0.16141288
  0
VERTEX
  8
0
 10
68.57153107
 20
20.00718160
 42
-0.30564910
  0
VERTEX
  8
0
 10
68.52694954
 20
19.94457643
 42
-0.15527586
  0
VERTEX
  8
0
 10
68.29898577
 20
19.98872007
  0
VERTEX
  8
0
 10
68.00976930
 20
20.11567596
 42
0.18171567
  0
VERTEX
  8
0
 10
67.80787800
 20
20.15385245
 42
0.02562449
  0
VERTEX
  8
0
 10
67.89535948
 20
19.78738591
 42
-0.18064893
  0
VERTEX
  8
0
 10
67.86791737
 20
19.68141150
  0
VERTEX
  8
0
 10
67.75866540
 20
19.66074221
 42
0.23030361
  0
VERTEX
  8
0
 10
67.95211865
 20
19.52946662
 42
-0.22559280
  0
VERTEX
  8
0
 10
68.15236619
 20
19.38810442
 42
0.30506182
  0
VERTEX
  8
0
 10
68.13258229
 20
19.25863398
 42
0.06602042
  0
VERTEX
  8
0
 10
68.35200989
 20
18.92840018
 42
0.02177106
  0
VERTEX
  8
0
 10
69.16721416
 20
18.02006612
 42
-0.16870341
  0
VERTEX
  8
0
 10
69.27557029
 20
17.68426503
 42
0.01082636
  0
VERTEX
  8
0
 10
69.44389251
 20
16.68239649
 42
-0.15850169
  0
VERTEX
  8
0
 10
69.39502505
 20
16.33546770
 42
-0.01594453
  0
VERTEX
  8
0
 10
69.07070477
 20
15.72408473
 42
0.01605436
  0
VERTEX
  8
0
 10
72.71166934
 20
14.37363050
 42
0.01460170
  0
VERTEX
  8
0
 10
76.41811422
 20
13.27589969
  0
VERTEX
  8
0
 10
76.90948971
 20
14.44631997
 42
-0.16711178
  0
VERTEX
  8
0
 10
77.58150004
 20
15.14204142
 42
0.56176603
  0
VERTEX
  8
0
 10
77.65089454
 20
15.43038842
 42
-0.08702700
  0
VERTEX
  8
0
 10
77.34640481
 20
15.87986432
 42
-0.15887490
  0
VERTEX
  8
0
 10
77.38119194
 20
16.24672681
 42
0.09053757
  0
VERTEX
  8
0
 10
77.36691934
 20
16.59316889
 42
-0.04242901
  0
VERTEX
  8
0
 10
77.29606697
 20
17.05838001
 42
-0.29135891
  0
VERTEX
  8
0
 10
77.57507977
 20
17.15652568
 42
-0.14874674
  0
VERTEX
  8
0
 10
77.66591072
 20
17.06756492
 42
-0.05825445
  0
VERTEX
  8
0
 10
77.94838784
 20
16.16838050
  0
VERTEX
  8
0
 10
78.05197248
 20
15.43534851
 42
-0.10778142
  0
VERTEX
  8
0
 10
78.60319261
 20
16.16534660
 42
0.07461121
  0
VERTEX
  8
0
 10
78.86525343
 20
16.34858535
 42
-0.11708945
  0
VERTEX
  8
0
 10
79.30492524
 20
16.96487607
 42
-0.46849625
  0
VERTEX
  8
0
 10
79.50472839
 20
16.76900993
 42
0.24648138
  0
VERTEX
  8
0
 10
79.29806508
 20
16.37078835
 42
0.04322712
  0
VERTEX
  8
0
 10
79.28228745
 20
15.66861623
  0
VERTEX
  8
0
 10
79.42500398
 20
15.74440363
  0
VERTEX
  8
0
 10
79.34921658
 20
15.60070284
  0
VERTEX
  8
0
 10
79.72716934
 20
15.60070284
 42
0.42187470
  0
VERTEX
  8
0
 10
79.71929532
 20
15.53574221
 42
-0.09026018
  0
VERTEX
  8
0
 10
80.08394383
 20
15.47799773
 42
-0.21262973
  0
VERTEX
  8
0
 10
80.26752367
 20
15.25326190
 42
-0.09538407
  0
VERTEX
  8
0
 10
80.85807485
 20
15.01704142
  0
VERTEX
  8
0
 10
80.76555516
 20
14.95503355
 42
-0.23448864
  0
VERTEX
  8
0
 10
81.30492524
 20
14.55542725
  0
VERTEX
  8
0
 10
81.22027957
 20
14.51507292
 42
-0.19781714
  0
VERTEX
  8
0
 10
81.60639990
 20
14.32177248
 42
-0.01978804
  0
VERTEX
  8
0
 10
81.96831107
 20
13.83101780
  0
VERTEX
  8
0
 10
81.80590949
 20
13.72274615
  0
VERTEX
  8
0
 10
82.16122445
 20
13.69912804
  0
VERTEX
  8
0
 10
82.15433469
 20
13.63416741
 42
-0.13462663
  0
VERTEX
  8
0
 10
82.32559453
 20
13.48751387
 42
0.06477249
  0
VERTEX
  8
0
 10
82.78480811
 20
13.03084015
  0
VERTEX
  8
0
 10
83.28130319
 20
12.68928552
 42
-0.05540024
  0
VERTEX
  8
0
 10
83.37420014
 20
13.43507138
 42
-0.16101004
  0
VERTEX
  8
0
 10
83.63804434
 20
13.94733670
 42
-0.16283632
  0
VERTEX
  8
0
 10
84.14610101
 20
14.10728656
 42
-0.03908966
  0
VERTEX
  8
0
 10
84.85612966
 20
14.08605982
 42
-0.01537142
  0
VERTEX
  8
0
 10
85.59527957
 20
13.90385245
 42
0.05986231
  0
VERTEX
  8
0
 10
86.01790543
 20
13.89031474
 42
0.00517660
  0
VERTEX
  8
0
 10
87.27736619
 20
14.11251387
 42
-0.06320589
  0
VERTEX
  8
0
 10
88.04878246
 20
14.11944860
 42
-0.26249729
  0
VERTEX
  8
0
 10
88.48698481
 20
13.81781479
 42
-0.07613161
  0
VERTEX
  8
0
 10
88.59260025
 20
13.43800605
  0
VERTEX
  8
0
 10
88.69370477
 20
12.66073828
 42
-0.15566085
  0
VERTEX
  8
0
 10
89.80492524
 20
12.83298237
 42
-0.06665121
  0
VERTEX
  8
0
 10
90.18035161
 20
12.68794546
  0
VERTEX
  8
0
 10
90.62066294
 20
12.43113493
 42
0.02615427
  0
VERTEX
  8
0
 10
91.72917327
 20
11.73150058
 42
-0.09111933
  0
VERTEX
  8
0
 10
91.91319296
 20
11.47471859
 42
-0.07061168
  0
VERTEX
  8
0
 10
92.33668286
 20
10.54384684
 42
-0.02273190
  0
VERTEX
  8
0
 10
92.48322085
 20
9.51812482
 42
0.10185720
  0
VERTEX
  8
0
 10
93.16691854
 20
7.75289366
 42
-0.10469167
  0
VERTEX
  8
0
 10
93.53777071
 20
7.09227568
 42
0.08640020
  0
VERTEX
  8
0
 10
93.91122445
 20
6.39204142
 42
-0.12445052
  0
VERTEX
  8
0
 10
93.66516146
 20
6.52196268
 42
0.13272529
  0
VERTEX
  8
0
 10
93.75669689
 20
6.20404930
 42
-0.12254042
  0
VERTEX
  8
0
 10
93.87930916
 20
5.05777451
 42
-0.09862066
  0
VERTEX
  8
0
 10
93.76752367
 20
4.73357686
 42
-0.02506652
  0
VERTEX
  8
0
 10
93.50177563
 20
5.64991544
 42
-0.23148296
  0
VERTEX
  8
0
 10
93.42697248
 20
5.43141150
 42
-0.09342343
  0
VERTEX
  8
0
 10
93.22316257
 20
6.33816150
 42
-0.06636745
  0
VERTEX
  8
0
 10
93.22298823
 20
6.96342430
 42
0.20336537
  0
VERTEX
  8
0
 10
93.13071264
 20
7.23160835
 42
-0.09960574
  0
VERTEX
  8
0
 10
92.32340473
 20
8.87031775
 42
-0.01343791
  0
VERTEX
  8
0
 10
92.05886225
 20
9.89597450
 42
-0.09383277
  0
VERTEX
  8
0
 10
91.50927662
 20
8.74965658
 42
0.05896640
  0
VERTEX
  8
0
 10
91.14845654
 20
8.21788079
 42
0.21256652
  0
VERTEX
  8
0
 10
91.17028203
 20
7.42268023
 42
0.22334415
  0
VERTEX
  8
0
 10
91.75966441
 20
6.84837631
 42
0.07809061
  0
VERTEX
  8
0
 10
91.96831107
 20
6.82314379
  0
VERTEX
  8
0
 10
92.22403298
 20
6.49989422
 42
-0.33309926
  0
VERTEX
  8
0
 10
92.01752367
 20
5.78574221
 42
0.12367439
  0
VERTEX
  8
0
 10
92.05750656
 20
3.58909171
 42
-0.10989344
  0
VERTEX
  8
0
 10
92.07630850
 20
3.29578487
 42
-0.18092345
  0
VERTEX
  8
0
 10
91.92401973
 20
3.06330127
 42
0.21303396
  0
VERTEX
  8
0
 10
91.70092721
 20
2.55111623
 42
-0.27481011
  0
VERTEX
  8
0
 10
91.50038193
 20
2.13318316
  0
VERTEX
  8
0
 10
92.46347642
 20
2.13318316
  0
VERTEX
  8
0
 10
92.46347642
 20
-0.03217117
  0
VERTEX
  8
0
 10
0.44772839
 20
-0.03217117
  0
VERTEX
  8
0
 10
0.44772839
 20
2.13318316
  0
VERTEX
  8
0
 10
1.69122551
 20
2.13308842
 42
0.51695566
  0
VERTEX
  8
0
 10
1.58323122
 20
2.31460423
 42
0.04832682
  0
VERTEX
  8
0
 10
1.08574525
 20
2.30537109
 42
-0.16440649
  0
VERTEX
  8
0
 10
0.90433469
 20
2.34821859
  0
VERTEX
  8
0
 10
0.90630319
 20
2.37577765
  0
VERTEX
  8
0
 10
1.17389178
 20
2.46722991
 42
0.13022483
  0
VERTEX
  8
0
 10
1.40728745
 20
2.61396662
 42
0.15049967
  0
VERTEX
  8
0
 10
1.27176758
 20
2.70378650
  0
VERTEX
  8
0
 10
0.91124162
 20
2.79346613
 42
-0.15833188
  0
VERTEX
  8
0
 10
0.77835044
 20
2.89447843
  0
VERTEX
  8
0
 10
0.78720871
 20
2.92302174
 42
-0.11686728
  0
VERTEX
  8
0
 10
0.97918416
 20
2.95713610
 42
-0.01324047
  0
VERTEX
  8
0
 10
1.58740556
 20
2.82951780
  0
VERTEX
  8
0
 10
1.60216934
 20
2.84428158
 42
-0.13844620
  0
VERTEX
  8
0
 10
1.41909847
 20
3.10018709
  0
VERTEX
  8
0
 10
1.43976776
 20
3.12184064
  0
VERTEX
  8
0
 10
2.06450097
 20
2.87443919
 42
0.26362620
  0
VERTEX
  8
0
 10
2.20551579
 20
2.89152568
 42
-0.00933941
  0
VERTEX
  8
0
 10
1.83401222
 20
3.39461051
 42
-0.28558252
  0
VERTEX
  8
0
 10
1.82461028
 20
3.52538394
 42
-0.16775595
  0
VERTEX
  8
0
 10
1.96619726
 20
3.44666476
  0
VERTEX
  8
0
 10
2.27011139
 20
3.10611272
 42
0.13346018
  0
VERTEX
  8
0
 10
2.42008272
 20
3.00865166
 42
0.06582602
  0
VERTEX
  8
0
 10
2.58051579
 20
3.27046268
 42
-0.27344798
  0
VERTEX
  8
0
 10
2.64449217
 20
3.24782489
 42
0.19264649
  0
VERTEX
  8
0
 10
2.67008272
 20
3.06573828
  0
VERTEX
  8
0
 10
2.76543010
 20
3.07578786
  0
VERTEX
  8
0
 10
2.90236619
 20
2.92499024
 42
0.48551302
  0
VERTEX
  8
0
 10
3.00198460
 20
2.94285282
 42
-0.07293918
  0
VERTEX
  8
0
 10
3.09675706
 20
3.13304273
  0
VERTEX
  8
0
 10
3.15623473
 20
3.16917393
 42
-0.19954320
  0
VERTEX
  8
0
 10
3.38071264
 20
3.09428158
  0
VERTEX
  8
0
 10
3.40532283
 20
3.12197787
 42
0.10876676
  0
VERTEX
  8
0
 10
3.44659484
 20
3.32359617
 42
0.03146274
  0
VERTEX
  8
0
 10
3.40335044
 20
4.48010835
 42
0.06447481
  0
VERTEX
  8
0
 10
3.40304741
 20
5.36770912
 42
0.02093230
  0
VERTEX
  8
0
 10
3.16122445
 20
6.43680127
 42
-0.06281338
  0
VERTEX
  8
0
 10
3.13774463
 20
7.04445333
 42
0.04401018
  0
VERTEX
  8
0
 10
3.13858666
 20
7.63857292
 42
0.09305587
  0
VERTEX
  8
0
 10
3.03167032
 20
7.81860313
 42
-0.08629018
  0
VERTEX
  8
0
 10
2.33257860
 20
9.23126126
 42
-0.04411558
  0
VERTEX
  8
0
 10
2.12790613
 20
10.12317982
 42
-0.09573998
  0
VERTEX
  8
0
 10
2.17699955
 20
10.94125205
 42
0.03442368
  0
VERTEX
  8
0
 10
2.42401973
 20
11.79014772
 42
-0.06055682
  0
VERTEX
  8
0
 10
2.50601241
 20
12.66259297
 42
-0.06190503
  0
VERTEX
  8
0
 10
2.67697248
 20
13.07065953
 42
-0.03403709
  0
VERTEX
  8
0
 10
3.10315359
 20
13.44073828
 42
-0.38970344
  0
VERTEX
  8
0
 10
3.24285979
 20
13.60223286
 42
0.10751984
  0
VERTEX
  8
0
 10
3.93138046
 20
13.89176534
 42
-0.05649242
  0
VERTEX
  8
0
 10
4.36102760
 20
14.08739182
 42
-0.13149433
  0
VERTEX
  8
0
 10
4.53905172
 20
14.10721810
 42
-0.28301752
  0
VERTEX
  8
0
 10
5.11846461
 20
14.20412213
  0
VERTEX
  8
0
 10
5.64923387
 20
14.02565117
 42
-0.06807451
  0
VERTEX
  8
0
 10
5.87677563
 20
13.98699812
 42
-0.07197213
  0
VERTEX
  8
0
 10
6.40517641
 20
13.65952100
 42
0.05682264
  0
VERTEX
  8
0
 10
6.92351511
 20
13.22104616
 42
0.09991452
  0
VERTEX
  8
0
 10
7.45811782
 20
13.05211358
 42
0.08842168
  0
VERTEX
  8
0
 10
8.32338876
 20
13.07980065
 42
0.03755415
  0
VERTEX
  8
0
 10
9.38464965
 20
13.37676190
 42
0.11281992
  0
VERTEX
  8
0
 10
9.10413784
 20
13.50865166
 42
0.03409169
  0
VERTEX
  8
0
 10
7.71471510
 20
13.83567430
 42
-0.09553827
  0
VERTEX
  8
0
 10
7.20271898
 20
14.08073741
 42
-0.03127127
  0
VERTEX
  8
0
 10
6.30783229
 20
14.94030834
 42
-0.05618008
  0
VERTEX
  8
0
 10
5.04323817
 20
16.24369572
 42
0.18516787
  0
VERTEX
  8
0
 10
4.61843607
 20
16.47023028
 42
-0.03171192
  0
VERTEX
  8
0
 10
3.64638556
 20
16.63480859
 42
0.01478995
  0
VERTEX
  8
0
 10
2.86988587
 20
16.88758867
 42
0.12586371
  0
VERTEX
  8
0
 10
2.38626182
 20
16.77660945
 42
0.02550697
  0
VERTEX
  8
0
 10
1.56378351
 20
16.36199812
 42
-0.03109479
  0
VERTEX
  8
0
 10
0.70453154
 20
16.09231308
 42
-0.04659955
  0
VERTEX
  8
0
 10
0.24770733
 20
15.87291970
 42
-0.13891593
  0
VERTEX
  8
0
 10
0.06267689
 20
15.85044631
 42
-0.61549337
  0
VERTEX
  8
0
 10
0.02221799
 20
15.97845461
 42
-0.10112587
  0
VERTEX
  8
0
 10
0.55659306
 20
16.29178552
 42
-0.01855527
  0
VERTEX
  8
0
 10
1.20453154
 20
16.53719497
 42
0.04244796
  0
VERTEX
  8
0
 10
1.98134515
 20
17.03264729
 42
-0.08437129
  0
VERTEX
  8
0
 10
2.83543705
 20
17.43975402
 42
0.26684770
  0
VERTEX
  8
0
 10
2.96484890
 20
17.60829253
 42
0.09284465
  0
VERTEX
  8
0
 10
2.95100152
 20
17.87280520
 42
-0.04039428
  0
VERTEX
  8
0
 10
2.82854729
 20
18.42302174
 42
-0.03727820
  0
VERTEX
  8
0
 10
3.11791737
 20
20.37479339
 42
-0.28691536
  0
VERTEX
  8
0
 10
3.18864325
 20
20.46253583
 42
-0.26826167
  0
VERTEX
  8
0
 10
3.25307386
 20
20.39322892
 42
-0.10193559
  0
VERTEX
  8
0
 10
3.30984650
 20
20.01455717
 42
-0.00916654
  0
VERTEX
  8
0
 10
3.19211216
 20
18.86022420
 42
0.08932632
  0
VERTEX
  8
0
 10
3.23468621
 20
18.19529486
 42
0.21852992
  0
VERTEX
  8
0
 10
3.94567327
 20
17.39644694
 42
0.05674701
  0
VERTEX
  8
0
 10
4.45346946
 20
17.18590900
 42
0.40276645
  0
VERTEX
  8
0
 10
5.18755147
 20
17.47736777
 42
-0.04860650
  0
VERTEX
  8
0
 10
5.52356304
 20
18.12695530
 42
0.06204779
  0
VERTEX
  8
0
 10
5.65531894
 20
18.37873040
 42
0.11797624
  0
VERTEX
  8
0
 10
5.52227354
 20
18.37482554
 42
0.01875143
  0
VERTEX
  8
0
 10
4.44671008
 20
18.01584581
 42
-0.06377039
  0
VERTEX
  8
0
 10
3.92256741
 20
17.90373055
 42
-0.25650265
  0
VERTEX
  8
0
 10
3.69444113
 20
17.98104891
 42
-0.34926241
  0
VERTEX
  8
0
 10
3.76315043
 20
18.07807168
 42
-0.05775013
  0
VERTEX
  8
0
 10
4.17500398
 20
18.23207686
  0
VERTEX
  8
0
 10
5.29016146
 20
18.72321859
 42
-0.03531129
  0
VERTEX
  8
0
 10
5.91100004
 20
18.90855717
 42
0.16430868
  0
VERTEX
  8
0
 10
6.19681357
 20
19.20284917
 42
0.05523404
  0
VERTEX
  8
0
 10
6.41328449
 20
19.62009310
 42
0.21689127
  0
VERTEX
  8
0
 10
6.36641638
 20
19.89414133
 42
-0.16070091
  0
VERTEX
  8
0
 10
6.17160991
 20
20.86545813
 42
-0.16501056
  0
VERTEX
  8
0
 10
6.25866540
 20
21.05589576
 42
-0.28803270
  0
VERTEX
  8
0
 10
6.41646240
 20
20.93910491
 42
-0.06756601
  0
VERTEX
  8
0
 10
6.52760462
 20
20.41518611
 42
0.14700131
  0
VERTEX
  8
0
 10
6.61988587
 20
20.21534457
  0
VERTEX
  8
0
 10
6.65236619
 20
20.22813985
 42
0.02568739
  0
VERTEX
  8
0
 10
6.83743976
 20
21.21002457
 42
-0.12104682
  0
VERTEX
  8
0
 10
6.90138193
 20
21.38758867
 42
-0.66046745
  0
VERTEX
  8
0
 10
7.01823656
 20
21.34614006
 42
-0.09198598
  0
VERTEX
  8
0
 10
7.05213439
 20
20.76909211
 42
-0.01607484
  0
VERTEX
  8
0
 10
6.97716934
 20
19.91317922
 42
0.16868989
  0
VERTEX
  8
0
 10
7.22844197
 20
19.32734211
 42
0.13756564
  0
VERTEX
  8
0
 10
7.89055516
 20
18.81770678
 42
0.05517217
  0
VERTEX
  8
0
 10
8.59426186
 20
18.62167319
 42
0.32061417
  0
VERTEX
  8
0
 10
9.07001921
 20
18.82098103
 42
0.00962663
  0
VERTEX
  8
0
 10
9.42008272
 20
19.51849418
  0
VERTEX
  8
0
 10
9.76457091
 20
20.05097450
 42
0.09705560
  0
VERTEX
  8
0
 10
10.04740467
 20
21.01375790
 42
-0.03528707
  0
VERTEX
  8
0
 10
10.20770409
 20
21.91978678
 42
-0.22194407
  0
VERTEX
  8
0
 10
10.43878351
 20
22.23318745
  0
VERTEX
  8
0
 10
10.49587012
 20
22.20747056
 42
-0.02493614
  0
VERTEX
  8
0
 10
10.41516146
 20
20.72026583
 42
-0.05426644
  0
VERTEX
  8
0
 10
10.29220663
 20
20.09984176
 42
-0.04465108
  0
VERTEX
  8
0
 10
9.87283863
 20
19.23798237
 42
0.10174145
  0
VERTEX
  8
0
 10
9.66003106
 20
18.60368092
 42
0.10200633
  0
VERTEX
  8
0
 10
9.75051592
 20
18.08342067
 42
-0.04655047
  0
VERTEX
  8
0
 10
9.97340051
 20
17.35282237
 42
-0.01486145
  0
VERTEX
  8
0
 10
10.06717524
 20
16.53392922
 42
0.09323738
  0
VERTEX
  8
0
 10
10.15332314
 20
16.23905347
 42
0.39821599
  0
VERTEX
  8
0
 10
10.54311422
 20
16.12085639
 42
0.22644661
  0
VERTEX
  8
0
 10
11.50986569
 20
16.97545727
 42
-0.00807364
  0
VERTEX
  8
0
 10
11.74883165
 20
17.58856269
 42
-0.13434352
  0
VERTEX
  8
0
 10
11.83346855
 20
17.68483276
 42
-0.32165422
  0
VERTEX
  8
0
 10
11.94569739
 20
17.43728798
 42
-0.05485358
  0
VERTEX
  8
0
 10
11.90433863
 20
17.13758867
 42
-0.07417679
  0
VERTEX
  8
0
 10
11.66413415
 20
16.49585626
 42
-0.15798998
  0
VERTEX
  8
0
 10
10.96013809
 20
15.92025562
 42
0.08666278
  0
VERTEX
  8
0
 10
10.37446524
 20
15.55463674
 42
0.32233428
  0
VERTEX
  8
0
 10
10.31019380
 20
14.59753137
 42
0.15828396
  0
VERTEX
  8
0
 10
10.70462824
 20
14.31396282
 42
0.13815666
  0
VERTEX
  8
0
 10
11.34901850
 20
14.35703978
 42
0.13979646
  0
VERTEX
  8
0
 10
11.58271289
 20
14.55967756
 42
0.09197004
  0
VERTEX
  8
0
 10
11.84255412
 20
15.23597453
 42
-0.00935334
  0
VERTEX
  8
0
 10
11.95945280
 20
15.76160442
  0
VERTEX
  8
0
 10
12.01172079
 20
15.85165185
 42
-0.32785067
  0
VERTEX
  8
0
 10
12.05962843
 20
15.86481437
 42
-0.17801621
  0
VERTEX
  8
0
 10
12.13879187
 20
15.73081062
 42
-0.15990306
  0
VERTEX
  8
0
 10
12.16534539
 20
15.11038604
 42
0.03369630
  0
VERTEX
  8
0
 10
11.98701186
 20
14.46436032
 42
0.06970145
  0
VERTEX
  8
0
 10
12.40647987
 20
14.55297154
 42
0.05528902
  0
VERTEX
  8
0
 10
12.99371584
 20
14.77389295
 42
0.26390665
  0
VERTEX
  8
0
 10
13.15544788
 20
15.00821219
  0
VERTEX
  8
0
 10
13.15984035
 20
15.15960595
 42
-0.20646156
  0
VERTEX
  8
0
 10
13.23307485
 20
15.29605324
 42
-0.34538441
  0
VERTEX
  8
0
 10
13.33086619
 20
15.20611770
 42
0.14335611
  0
VERTEX
  8
0
 10
13.39055516
 20
15.07656505
 42
0.18570289
  0
VERTEX
  8
0
 10
13.58669776
 20
15.40931695
 42
0.06837666
  0
VERTEX
  8
0
 10
13.61205221
 20
15.85582932
  0
VERTEX
  8
0
 10
13.56750460
 20
16.26384144
 42
-0.08217612
  0
VERTEX
  8
0
 10
13.55394099
 20
16.48109261
  0
VERTEX
  8
0
 10
13.60992487
 20
16.48167713
 42
-0.19027178
  0
VERTEX
  8
0
 10
13.75177563
 20
16.37577765
 42
-0.23737513
  0
VERTEX
  8
0
 10
13.84578746
 20
15.25618403
 42
-0.06458840
  0
VERTEX
  8
0
 10
13.52146067
 20
14.63562016
  0
VERTEX
  8
0
 10
13.52933469
 20
14.62184064
 42
0.14293233
  0
VERTEX
  8
0
 10
14.03941805
 20
15.13984818
  0
VERTEX
  8
0
 10
14.18016916
 20
15.38840149
 42
-0.14815264
  0
VERTEX
  8
0
 10
14.27592086
 20
15.50714775
  0
VERTEX
  8
0
 10
14.28228745
 20
16.27979339
  0
VERTEX
  8
0
 10
17.34232682
 20
16.27979339
  0
VERTEX
  8
0
 10
17.34232682
 20
15.12723434
  0
VERTEX
  8
0
 10
16.76358666
 20
15.12723434
  0
VERTEX
  8
0
 10
16.76358666
 20
15.62428158
  0
VERTEX
  8
0
 10
16.41024020
 20
15.62428158
  0
VERTEX
  8
0
 10
16.41024020
 20
14.19908079
  0
VERTEX
  8
0
 10
16.68287800
 20
14.19908079
  0
VERTEX
  8
0
 10
16.68287800
 20
13.54357292
  0
VERTEX
  8
0
 10
17.44859060
 20
13.52885245
  0
VERTEX
  8
0
 10
17.45157878
 20
14.12924221
  0
VERTEX
  8
0
 10
17.71043705
 20
14.12924221
  0
VERTEX
  8
0
 10
17.71043705
 20
15.66467922
  0
VERTEX
  8
0
 10
17.45157878
 20
15.66467922
  0
VERTEX
  8
0
 10
17.45157878
 20
16.26507292
  0
VERTEX
  8
0
 10
18.73405910
 20
16.26507292
  0
VERTEX
  8
0
 10
18.73405910
 20
15.20601780
 42
-0.07741691
  0
VERTEX
  8
0
 10
19.41271756
 20
15.45684015
 42
-0.30490878
  0
VERTEX
  8
0
 10
20.17239942
 20
15.17413098
 42
-0.10855374
  0
VERTEX
  8
0
 10
20.28825103
 20
14.73266052
 42
-0.02262311
  0
VERTEX
  8
0
 10
20.29311422
 20
14.12924221
  0
VERTEX
  8
0
 10
20.45298671
 20
14.12924221
 42
0.52923277
  0
VERTEX
  8
0
 10
20.45763384
 20
14.15345575
 42
-0.29861572
  0
VERTEX
  8
0
 10
20.60707551
 20
15.04020635
 42
-0.16497319
  0
VERTEX
  8
0
 10
21.52603651
 20
15.47492381
 42
-0.17878210
  0
VERTEX
  8
0
 10
22.85463423
 20
15.24538041
 42
-0.25809347
  0
VERTEX
  8
0
 10
23.33445280
 20
14.38279339
  0
VERTEX
  8
0
 10
21.53622445
 20
14.38279339
 42
0.19116992
  0
VERTEX
  8
0
 10
21.72074909
 20
13.98723956
 42
0.31074858
  0
VERTEX
  8
0
 10
22.16024020
 20
13.97236032
  0
VERTEX
  8
0
 10
22.30295674
 20
14.13082489
  0
VERTEX
  8
0
 10
23.28031894
 20
14.03141544
 42
-0.07207290
  0
VERTEX
  8
0
 10
23.00559109
 20
13.75798581
  0
VERTEX
  8
0
 10
22.66615359
 20
13.55641150
 42
-0.00953955
  0
VERTEX
  8
0
 10
25.86650177
 20
13.56840671
 42
-0.06507673
  0
VERTEX
  8
0
 10
26.96705204
 20
13.44754987
 42
-0.24543011
  0
VERTEX
  8
0
 10
28.40731655
 20
12.09889445
 42
-0.16009620
  0
VERTEX
  8
0
 10
28.44616927
 20
9.55937884
 42
-0.15103607
  0
VERTEX
  8
0
 10
27.73236010
 20
8.54118802
 42
-0.06171941
  0
VERTEX
  8
0
 10
27.13071264
 20
8.18928552
 42
-0.12780619
  0
VERTEX
  8
0
 10
27.87669228
 20
7.79227976
 42
-0.14195452
  0
VERTEX
  8
0
 10
28.19778400
 20
7.15171385
 42
-0.05646668
  0
VERTEX
  8
0
 10
28.30998928
 20
5.98732907
 42
0.02208245
  0
VERTEX
  8
0
 10
28.38692543
 20
4.29651854
 42
0.06970664
  0
VERTEX
  8
0
 10
28.46513143
 20
3.90247217
 42
0.26297787
  0
VERTEX
  8
0
 10
28.62343656
 20
3.77899861
 42
0.07152770
  0
VERTEX
  8
0
 10
29.08740162
 20
3.76800993
  0
VERTEX
  8
0
 10
29.08740556
 20
4.76507292
  0
VERTEX
  8
0
 10
29.62874414
 20
4.76507292
  0
VERTEX
  8
0
 10
30.96043705
 20
10.78278946
  0
VERTEX
  8
0
 10
30.38858666
 20
10.78278946
  0
VERTEX
  8
0
 10
30.38858666
 20
13.54853749
  0
VERTEX
  8
0
 10
35.49390162
 20
13.54853749
  0
VERTEX
  8
0
 10
35.49390162
 20
10.78278946
  0
VERTEX
  8
0
 10
34.92205123
 20
10.78278946
  0
VERTEX
  8
0
 10
36.27933469
 20
4.76507292
  0
VERTEX
  8
0
 10
36.80000398
 20
4.76507292
  0
VERTEX
  8
0
 10
36.79999611
 20
2.13318316
  0
VERTEX
  8
0
 10
38.70270477
 20
2.13318316
 42
-0.18520062
  0
VERTEX
  8
0
 10
37.48699236
 20
3.28594159
 42
-0.08510328
  0
VERTEX
  8
0
 10
36.99044456
 20
5.02958006
 42
-0.02949811
  0
VERTEX
  8
0
 10
36.87579138
 20
7.08790757
  0
VERTEX
  8
0
 10
36.87579138
 20
10.78573828
  0
VERTEX
  8
0
 10
36.28228745
 20
10.78573828
  0
VERTEX
  8
0
 10
36.28228745
 20
13.54853749
  0
VERTEX
  8
0
 10
40.23701186
 20
13.54853749
  0
VERTEX
  8
0
 10
40.23701186
 20
10.78573828
  0
VERTEX
  8
0
 10
39.87185437
 20
10.78573828
 42
0.01629190
  0
VERTEX
  8
0
 10
39.89839430
 20
6.12840215
 42
0.03614583
  0
VERTEX
  8
0
 10
39.99835654
 20
5.18601133
 42
0.29129963
  0
VERTEX
  8
0
 10
40.54012249
 20
4.50931735
 42
0.34112256
  0
VERTEX
  8
0
 10
41.14437677
 20
4.77898212
 42
0.12008199
  0
VERTEX
  8
0
 10
41.37185831
 20
5.55542725
 42
0.01682719
  0
VERTEX
  8
0
 10
41.42671553
 20
6.70774283
 42
0.00731490
  0
VERTEX
  8
0
 10
41.41417721
 20
10.78573828
  0
VERTEX
  8
0
 10
41.02638193
 20
10.78573828
  0
VERTEX
  8
0
 10
41.02638193
 20
13.54853749
  0
VERTEX
  8
0
 10
43.92992524
 20
13.54853749
  0
VERTEX
  8
0
 10
43.92992524
 20
10.78573828
  0
VERTEX
  8
0
 10
43.31968902
 20
10.78573828
 42
-0.00846743
  0
VERTEX
  8
0
 10
43.32735657
 20
6.78907481
 42
-0.02950412
  0
VERTEX
  8
0
 10
43.19424635
 20
4.82445914
 42
-0.12584133
  0
VERTEX
  8
0
 10
42.40586197
 20
2.82280414
 42
-0.13162763
  0
VERTEX
  8
0
 10
41.54887800
 20
2.13318316
  0
VERTEX
  8
0
 10
44.52441343
 20
2.13318316
  0
VERTEX
  8
0
 10
44.52441343
 20
4.76015166
  0
VERTEX
  8
0
 10
45.14645674
 20
4.76015166
  0
VERTEX
  8
0
 10
45.14645674
 20
10.78180520
  0
VERTEX
  8
0
 10
44.52441343
 20
10.78180520
  0
VERTEX
  8
0
 10
44.52441343
 20
13.54853749
  0
VERTEX
  8
0
 10
47.88858666
 20
13.54853749
  0
VERTEX
  8
0
 10
50.47027957
 20
7.51015166
  0
VERTEX
  8
0
 10
50.47027957
 20
10.78180520
  0
VERTEX
  8
0
 10
49.89350792
 20
10.78180520
  0
VERTEX
  8
0
 10
49.89350792
 20
13.54853749
  0
VERTEX
  8
0
 10
52.70059060
 20
13.54853749
  0
VERTEX
  8
0
 10
52.70059453
 20
15.98357686
  0
VERTEX
  8
0
 10
55.24783863
 20
15.98357686
  0
VERTEX
  8
0
 10
55.26129876
 20
14.21642528
 42
-0.01840152
  0
VERTEX
  8
0
 10
55.21214571
 20
12.45058473
 42
-0.23751973
  0
VERTEX
  8
0
 10
56.73314951
 20
13.54367749
 42
-0.21938659
  0
VERTEX
  8
0
 10
58.13858666
 20
13.06920678
  0
VERTEX
  8
0
 10
58.48110634
 20
12.69125402
  0
VERTEX
  8
0
 10
58.48110634
 20
13.40582095
  0
VERTEX
  8
0
 10
59.86239374
 20
13.40582489
 42
-0.05460067
  0
VERTEX
  8
0
 10
59.46338981
 20
14.47373434
 42
0.04863645
  0
VERTEX
  8
0
 10
58.80855369
 20
14.31403158
 42
0.03252813
  0
VERTEX
  8
0
 10
57.79355781
 20
13.94301522
  0
VERTEX
  8
0
 10
57.43109164
 20
13.73722511
 42
-0.31347613
  0
VERTEX
  8
0
 10
57.31507591
 20
13.73994985
 42
-0.31347613
  0
VERTEX
  8
0
 10
57.27722793
 20
13.84965219
 42
-0.11762702
  0
VERTEX
  8
0
 10
57.45551579
 20
14.01802568
  0
VERTEX
  8
0
 10
57.30906500
 20
14.31626436
 42
0.08786814
  0
VERTEX
  8
0
 10
57.12775989
 20
14.58495481
 42
-0.21732030
  0
VERTEX
  8
0
 10
56.96721070
 20
14.42944827
 42
-0.06498753
  0
VERTEX
  8
0
 10
56.64350792
 20
14.49932489
 42
0.03562087
  0
VERTEX
  8
0
 10
56.24695575
 20
14.45796662
 42
-0.24284451
  0
VERTEX
  8
0
 10
56.13648171
 20
14.55446096
 42
-0.05705916
  0
VERTEX
  8
0
 10
55.94640642
 20
15.03379140
 42
-0.29956518
  0
VERTEX
  8
0
 10
56.16680615
 20
15.66169743
 42
0.07089817
  0
VERTEX
  8
0
 10
56.54073688
 20
15.99184804
 42
0.08991098
  0
VERTEX
  8
0
 10
56.60213123
 20
16.17105548
 42
-0.22230411
  0
VERTEX
  8
0
 10
56.82977607
 20
16.29372942
 42
0.12820828
  0
VERTEX
  8
0
 10
57.08134016
 20
16.49289077
 42
0.13810481
  0
VERTEX
  8
0
 10
57.41290970
 20
16.96621943
 42
-0.18588306
  0
VERTEX
  8
0
 10
57.54717176
 20
17.37343691
 42
0.02351589
  0
VERTEX
  8
0
 10
58.09894628
 20
17.82677617
 42
0.25663674
  0
VERTEX
  8
0
 10
58.31279926
 20
18.13810442
 42
-0.06915527
  0
VERTEX
  8
0
 10
58.36931860
 20
18.42250360
 42
-0.35815556
  0
VERTEX
  8
0
 10
58.48926038
 20
18.50571201
  0
VERTEX
  8
0
 10
58.64448823
 20
18.46389182
 42
-0.02703161
  0
VERTEX
  8
0
 10
59.00079298
 20
19.05031729
 42
-0.19509453
  0
VERTEX
  8
0
 10
59.14020080
 20
19.14975173
 42
-0.34191038
  0
VERTEX
  8
0
 10
59.26260241
 20
19.05641150
 42
-0.11995042
  0
VERTEX
  8
0
 10
59.38295443
 20
18.67191147
  0
VERTEX
  8
0
 10
59.36883174
 20
18.59965363
  0
VERTEX
  8
0
 10
59.20551579
 20
18.33495481
  0
VERTEX
  8
0
 10
59.21732682
 20
18.31231702
 42
0.16744988
  0
VERTEX
  8
0
 10
59.32390286
 20
18.33829138
 42
0.02849841
  0
VERTEX
  8
0
 10
59.81855044
 20
18.77960579
 42
-0.30348252
  0
VERTEX
  8
0
 10
59.89214751
 20
18.81875044
 42
-0.30348252
  0
VERTEX
  8
0
 10
59.95645045
 20
18.76570363
 42
-0.17789709
  0
VERTEX
  8
0
 10
59.72178923
 20
17.98130631
 42
0.32432176
  0
VERTEX
  8
0
 10
59.78228745
 20
17.90483670
 42
0.10785745
  0
VERTEX
  8
0
 10
60.05263642
 20
17.79962982
 42
0.39895050
  0
VERTEX
  8
0
 10
60.23858733
 20
17.97792128
 42
-0.08446413
  0
VERTEX
  8
0
 10
60.29016146
 20
18.09971859
 42
-0.22979460
  0
VERTEX
  8
0
 10
60.36904329
 20
18.06862275
 42
-0.12031095
  0
VERTEX
  8
0
 10
60.44468902
 20
17.80739576
  0
VERTEX
  8
0
 10
60.53355178
 20
17.83521250
 42
0.06463027
  0
VERTEX
  8
0
 10
60.76850792
 20
18.06330127
 42
-0.29730046
  0
VERTEX
  8
0
 10
60.84087357
 20
18.00052469
 42
0.17038164
  0
VERTEX
  8
0
 10
60.86852320
 20
17.83043852
 42
0.21539462
  0
VERTEX
  8
0
 10
61.11185684
 20
17.81368906
  0
VERTEX
  8
0
 10
61.32136895
 20
17.85246478
 42
-0.14031078
  0
VERTEX
  8
0
 10
61.48012209
 20
17.84479733
  0
VERTEX
  8
0
 10
61.47815359
 20
17.82412804
  0
VERTEX
  8
0
 10
61.32222052
 20
17.72520579
 42
0.15991850
  0
VERTEX
  8
0
 10
61.21043705
 20
17.58692331
 42
0.32243119
  0
VERTEX
  8
0
 10
61.50742032
 20
17.58154142
  0
VERTEX
  8
0
 10
61.66720920
 20
17.64043943
 42
-0.20994166
  0
VERTEX
  8
0
 10
61.79705123
 20
17.63318316
 42
-0.18187921
  0
VERTEX
  8
0
 10
61.68887061
 20
17.47074566
 42
0.10672412
  0
VERTEX
  8
0
 10
61.55689374
 20
17.32215953
 42
0.20658485
  0
VERTEX
  8
0
 10
61.66256008
 20
17.24493611
 42
-0.04319806
  0
VERTEX
  8
0
 10
61.97387018
 20
17.15428540
 42
-0.22705525
  0
VERTEX
  8
0
 10
62.03280664
 20
17.10778060
 42
-0.11930803
  0
VERTEX
  8
0
 10
61.93287800
 20
16.94125402
 42
0.15114641
  0
VERTEX
  8
0
 10
62.07960148
 20
16.83086414
 42
-0.04452417
  0
VERTEX
  8
0
 10
62.51964245
 20
16.65340129
 42
-0.18525603
  0
VERTEX
  8
0
 10
62.64941343
 20
16.50129339
  0
VERTEX
  8
0
 10
62.62775989
 20
16.46979733
 42
0.09586464
  0
VERTEX
  8
0
 10
62.35940548
 20
16.59894257
 42
0.37793723
  0
VERTEX
  8
0
 10
62.33277232
 20
16.58511528
 42
0.37793723
  0
VERTEX
  8
0
 10
62.34315933
 20
16.55696161
  0
SEQEND
  0
POLYLINE
  8
Default_Layer
 66
   1
 39
0.000000
 70
    1
  0
VERTEX
  8
0
 10
57.88561862
 20
5.27992608
 42
-0.19329298
  0
VERTEX
  8
0
 10
57.91287520
 20
4.40370305
 42
-0.36017943
  0
VERTEX
  8
0
 10
57.28046329
 20
4.07139617
 42
-0.20394974
  0
VERTEX
  8
0
 10
56.78116285
 20
4.39598702
 42
-0.07033058
  0
VERTEX
  8
0
 10
56.54097138
 20
4.86536202
 42
-0.02856084
  0
VERTEX
  8
0
 10
56.33642083
 20
5.58070866
  0
VERTEX
  8
0
 10
54.73897989
 20
5.58070866
  0
VERTEX
  8
0
 10
54.73897989
 20
2.16535433
  0
VERTEX
  8
0
 10
52.13957044
 20
2.16535433
  0
VERTEX
  8
0
 10
52.13957044
 20
10.81397637
  0
VERTEX
  8
0
 10
52.70059406
 20
10.81397637
  0
VERTEX
  8
0
 10
54.76623954
 20
11.16804013
 42
0.13333880
  0
VERTEX
  8
0
 10
54.97170156
 20
8.43740063
 42
0.11974600
  0
VERTEX
  8
0
 10
56.08630104
 20
6.89246138
 42
0.02051208
  0
VERTEX
  8
0
 10
57.29443689
 20
5.94763191
 42
-0.03803125
  0
VERTEX
  8
0
 10
57.75320804
 20
5.51904864
 42
-0.09218799
  0
VERTEX
  8
0
 10
57.88561862
 20
5.27992608
  0
SEQEND
  0
ENDSEC
  0
EOF
