  0
SECTION
  2
HEADER
  9
$ACADVER
  1
AC1009
  9
$DWGCODEPAGE
  3
ansi_1252
  9
$INSBASE
 10
0.0
 20
0.0
 30
0.0
  9
$EXTMIN
 10
-0.0327087983937358
 20
-0.032917133490356
 30
0.0
  9
$EXTMAX
 10
56.40461888419716
 20
25.098046
 30
0.0
  9
$LIMMIN
 10
0.0
 20
0.0
  9
$LIMMAX
 10
12.0
 20
9.0
  9
$ORTHOMODE
 70
     0
  9
$REGENMODE
 70
     1
  9
$FILLMODE
 70
     1
  9
$QTEXTMODE
 70
     0
  9
$MIRRTEXT
 70
     1
  9
$DRAGMODE
 70
     2
  9
$LTSCALE
 40
1.0
  9
$OSMODE
 70
    37
  9
$ATTMODE
 70
     1
  9
$TEXTSIZE
 40
0.2
  9
$TRACEWID
 40
0.05
  9
$TEXTSTYLE
  7
STANDARD
  9
$CLAYER
  8
0
  9
$CELTYPE
  6
BYBLOCK
  9
$CECOLOR
 62
   256
  9
$DIMSCALE
 40
1.0
  9
$DIMASZ
 40
0.18
  9
$DIMEXO
 40
0.0625
  9
$DIMDLI
 40
0.38
  9
$DIMRND
 40
0.0
  9
$DIMDLE
 40
0.0
  9
$DIMEXE
 40
0.18
  9
$DIMTP
 40
0.0
  9
$DIMTM
 40
0.0
  9
$DIMTXT
 40
0.18
  9
$DIMCEN
 40
0.09
  9
$DIMTSZ
 40
0.0
  9
$DIMTOL
 70
     0
  9
$DIMLIM
 70
     0
  9
$DIMTIH
 70
     1
  9
$DIMTOH
 70
     1
  9
$DIMSE1
 70
     0
  9
$DIMSE2
 70
     0
  9
$DIMTAD
 70
     0
  9
$DIMZIN
 70
     0
  9
$DIMBLK
  1

  9
$DIMASO
 70
     1
  9
$DIMSHO
 70
     1
  9
$DIMPOST
  1

  9
$DIMAPOST
  1

  9
$DIMALT
 70
     0
  9
$DIMALTD
 70
     2
  9
$DIMALTF
 40
25.4
  9
$DIMLFAC
 40
1.0
  9
$DIMTOFL
 70
     0
  9
$DIMTVP
 40
0.0
  9
$DIMTIX
 70
     0
  9
$DIMSOXD
 70
     0
  9
$DIMSAH
 70
     0
  9
$DIMBLK1
  1

  9
$DIMBLK2
  1

  9
$DIMSTYLE
  2
STANDARD
  9
$DIMCLRD
 70
     0
  9
$DIMCLRE
 70
     0
  9
$DIMCLRT
 70
     0
  9
$DIMTFAC
 40
1.0
  9
$DIMGAP
 40
0.09
  9
$LUNITS
 70
     2
  9
$LUPREC
 70
     4
  9
$SKETCHINC
 40
0.1
  9
$FILLETRAD
 40
0.5
  9
$AUNITS
 70
     0
  9
$AUPREC
 70
     0
  9
$MENU
  1
.
  9
$ELEVATION
 40
0.0
  9
$PELEVATION
 40
0.0
  9
$THICKNESS
 40
0.0
  9
$LIMCHECK
 70
     0
  9
$CHAMFERA
 40
0.5
  9
$CHAMFERB
 40
0.5
  9
$SKPOLY
 70
     0
  9
$TDCREATE
 40
2453353.508792488
  9
$TDUPDATE
 40
4910413.857651852
  9
$TDINDWG
 40
4895786.051922963
  9
$TDUSRTIMER
 40
4895786.051922963
  9
$USRTIMER
 70
     1
  9
$ANGBASE
 50
0.0
  9
$ANGDIR
 70
     0
  9
$PDMODE
 70
     0
  9
$PDSIZE
 40
0.0
  9
$PLINEWID
 40
0.0
  9
$COORDS
 70
     1
  9
$SPLFRAME
 70
     0
  9
$SPLINETYPE
 70
     6
  9
$SPLINESEGS
 70
     8
  9
$ATTDIA
 70
     0
  9
$ATTREQ
 70
     1
  9
$HANDLING
 70
     1
  9
$HANDSEED
  5
CA
  9
$SURFTAB1
 70
     6
  9
$SURFTAB2
 70
     6
  9
$SURFTYPE
 70
     6
  9
$SURFU
 70
     6
  9
$SURFV
 70
     6
  9
$UCSNAME
  2

  9
$UCSORG
 10
0.0
 20
0.0
 30
0.0
  9
$UCSXDIR
 10
1.0
 20
0.0
 30
0.0
  9
$UCSYDIR
 10
0.0
 20
1.0
 30
0.0
  9
$PUCSNAME
  2

  9
$PUCSORG
 10
0.0
 20
0.0
 30
0.0
  9
$PUCSXDIR
 10
1.0
 20
0.0
 30
0.0
  9
$PUCSYDIR
 10
0.0
 20
1.0
 30
0.0
  9
$USERI1
 70
     0
  9
$USERI2
 70
     0
  9
$USERI3
 70
     0
  9
$USERI4
 70
     0
  9
$USERI5
 70
     0
  9
$USERR1
 40
0.0
  9
$USERR2
 40
0.0
  9
$USERR3
 40
0.0
  9
$USERR4
 40
0.0
  9
$USERR5
 40
0.0
  9
$WORLDVIEW
 70
     1
  9
$SHADEDGE
 70
     3
  9
$SHADEDIF
 70
    70
  9
$TILEMODE
 70
     1
  9
$MAXACTVP
 70
    64
  9
$PLIMCHECK
 70
     0
  9
$PEXTMIN
 10
0.0
 20
0.0
 30
0.0
  9
$PEXTMAX
 10
0.0
 20
0.0
 30
0.0
  9
$PLIMMIN
 10
0.0
 20
0.0
  9
$PLIMMAX
 10
0.0
 20
0.0
  9
$UNITMODE
 70
     0
  9
$VISRETAIN
 70
     1
  9
$PLINEGEN
 70
     0
  9
$PSLTSCALE
 70
     1
  0
ENDSEC
  0
SECTION
  2
TABLES
  0
TABLE
  2
VPORT
 70
     1
  0
VPORT
  2
*ACTIVE
 70
     0
 10
0.0
 20
0.0
 11
1.0
 21
1.0
 12
28.92023247508589
 22
12.33231028499204
 13
0.0
 23
0.0
 14
0.5
 24
0.5
 15
0.5
 25
0.5
 16
0.0
 26
0.0
 36
1.0
 17
0.0
 27
0.0
 37
0.0
 40
46.79934441909986
 41
1.972972972850329
 42
50.0
 43
0.0
 44
0.0
 50
0.0
 51
0.0
 71
    16
 72
   100
 73
     1
 74
     3
 75
     0
 76
     0
 77
     0
 78
     0
  0
ENDTAB
  0
TABLE
  2
LTYPE
 70
     1
  0
LTYPE
  2
CONTINUOUS
 70
     0
  3
Solid line
 72
    65
 73
     0
 40
0.0
  0
ENDTAB
  0
TABLE
  2
LAYER
 70
     2
  0
LAYER
  2
0
 70
     0
 62
     7
  6
CONTINUOUS
  0
LAYER
  2
LAYER_1
 70
     0
 62
     7
  6
CONTINUOUS
  0
ENDTAB
  0
TABLE
  2
STYLE
 70
     1
  0
STYLE
  2
STANDARD
 70
     0
 40
0.0
 41
1.0
 50
0.0
 71
     0
 42
0.2
  3
txt
  4

  0
ENDTAB
  0
TABLE
  2
VIEW
 70
     0
  0
ENDTAB
  0
TABLE
  2
UCS
 70
     0
  0
ENDTAB
  0
TABLE
  2
APPID
 70
     1
  0
APPID
  2
ACAD
 70
     0
  0
ENDTAB
  0
TABLE
  2
DIMSTYLE
 70
     1
  0
DIMSTYLE
  2
STANDARD
 70
     0
  3

  4

  5

  6

  7

 40
1.0
 41
0.18
 42
0.0625
 43
0.38
 44
0.18
 45
0.0
 46
0.0
 47
0.0
 48
0.0
140
0.18
141
0.09
142
0.0
143
25.4
144
1.0
145
0.0
146
1.0
147
0.09
 71
     0
 72
     0
 73
     1
 74
     1
 75
     0
 76
     0
 77
     0
 78
     0
170
     0
171
     2
172
     0
173
     0
174
     0
175
     0
176
     0
177
     0
178
     0
  0
ENDTAB
  0
ENDSEC
  0
SECTION
  2
BLOCKS
  0
BLOCK
  8
0
  2
$MODEL_SPACE
 70
     0
 10
0.0
 20
0.0
 30
0.0
  3
$MODEL_SPACE
  1

  0
ENDBLK
  5
21
  8
0
  0
BLOCK
 67
     1
  8
0
  2
$PAPER_SPACE
 70
     0
 10
0.0
 20
0.0
 30
0.0
  3
$PAPER_SPACE
  1

  0
ENDBLK
  5
76
 67
     1
  8
0
  0
ENDSEC
  0
SECTION
  2
ENTITIES
  0
LINE
  5
32
  8
LAYER_1
 10
0.0058546464873494
 20
-0.032917133490356
 30
0.0
 11
-0.0327087983937358
 21
21.35043953410865
 31
0.0
  0
LINE
  5
33
  8
LAYER_1
 10
-0.0327087983937358
 20
21.35043953410865
 30
0.0
 11
5.878644992949653
 21
19.80795655551076
 31
0.0
  0
LINE
  5
34
  8
LAYER_1
 10
5.878644992949653
 20
19.80795655551076
 30
0.0
 11
8.39432131908805
 21
20.13003276335547
 31
0.0
  0
LINE
  5
35
  8
LAYER_1
 10
8.39432131908805
 20
20.13003276335547
 30
0.0
 11
10.93506688419716
 21
19.084505
 31
0.0
  0
LINE
  5
36
  8
LAYER_1
 10
10.93506688419716
 20
19.084505
 30
0.0
 11
11.53552988419716
 21
19.244954
 31
0.0
  0
LINE
  5
37
  8
LAYER_1
 10
11.53552988419716
 20
19.244954
 30
0.0
 11
13.31134488419716
 21
20.059192
 31
0.0
  0
LINE
  5
38
  8
LAYER_1
 10
13.31134488419716
 20
20.059192
 30
0.0
 11
15.18433388419716
 21
21.176832
 31
0.0
  0
LINE
  5
39
  8
LAYER_1
 10
15.18433388419716
 20
21.176832
 30
0.0
 11
16.35128588419716
 21
22.172606
 31
0.0
  0
LINE
  5
3A
  8
LAYER_1
 10
16.35128588419716
 20
22.172606
 30
0.0
 11
16.77522088419716
 21
22.641488
 31
0.0
  0
LINE
  5
3B
  8
LAYER_1
 10
16.77522088419716
 20
22.641488
 30
0.0
 11
17.18779488419716
 21
22.785468
 31
0.0
  0
LINE
  5
3C
  8
LAYER_1
 10
17.18779488419716
 20
22.785468
 30
0.0
 11
17.60408088419716
 21
22.603863
 31
0.0
  0
LINE
  5
3D
  8
LAYER_1
 10
17.60408088419716
 20
22.603863
 30
0.0
 11
18.03914988419716
 21
22.095988
 31
0.0
  0
LINE
  5
3E
  8
LAYER_1
 10
18.03914988419716
 20
22.095988
 30
0.0
 11
18.41696988419716
 21
21.648404
 31
0.0
  0
LINE
  5
3F
  8
LAYER_1
 10
18.41696988419716
 20
21.648404
 30
0.0
 11
18.89214588419716
 21
21.448109
 31
0.0
  0
LINE
  5
40
  8
LAYER_1
 10
18.89214588419716
 20
21.448109
 30
0.0
 11
19.64219088419716
 21
21.46913
 31
0.0
  0
LINE
  5
41
  8
LAYER_1
 10
19.64219088419716
 20
21.46913
 30
0.0
 11
20.84461888419716
 21
21.685492
 31
0.0
  0
LINE
  5
42
  8
LAYER_1
 10
20.84461888419716
 20
21.685492
 30
0.0
 11
21.71479388419716
 21
21.921536
 31
0.0
  0
LINE
  5
43
  8
LAYER_1
 10
21.71479388419716
 20
21.921536
 30
0.0
 11
22.56073888419716
 21
22.323903
 31
0.0
  0
LINE
  5
44
  8
LAYER_1
 10
22.56073888419716
 20
22.323903
 30
0.0
 11
25.07795288419716
 21
24.150512
 31
0.0
  0
LINE
  5
45
  8
LAYER_1
 10
25.07795288419716
 20
24.150512
 30
0.0
 11
26.04007888419716
 21
24.828455
 31
0.0
  0
LINE
  5
46
  8
LAYER_1
 10
26.04007888419716
 20
24.828455
 30
0.0
 11
26.73123088419716
 21
25.098046
 31
0.0
  0
LINE
  5
47
  8
LAYER_1
 10
26.73123088419716
 20
25.098046
 30
0.0
 11
27.23074388419716
 21
24.968626
 31
0.0
  0
LINE
  5
48
  8
LAYER_1
 10
27.23074388419716
 20
24.968626
 30
0.0
 11
27.61795288419716
 21
24.449533
 31
0.0
  0
LINE
  5
49
  8
LAYER_1
 10
27.61795288419716
 20
24.449533
 30
0.0
 11
28.05682788419716
 21
23.956176
 31
0.0
  0
LINE
  5
4A
  8
LAYER_1
 10
28.05682788419716
 20
23.956176
 30
0.0
 11
28.61863388419716
 21
23.750975
 31
0.0
  0
LINE
  5
4B
  8
LAYER_1
 10
28.61863388419716
 20
23.750975
 30
0.0
 11
29.31157788419716
 21
23.442084
 31
0.0
  0
LINE
  5
4C
  8
LAYER_1
 10
29.31157788419716
 20
23.442084
 30
0.0
 11
30.06574188419716
 21
22.699435
 31
0.0
  0
LINE
  5
4D
  8
LAYER_1
 10
30.06574188419716
 20
22.699435
 30
0.0
 11
32.21148888419716
 21
20.100319
 31
0.0
  0
LINE
  5
4E
  8
LAYER_1
 10
32.21148888419716
 20
20.100319
 30
0.0
 11
33.00439788419716
 21
19.245666
 31
0.0
  0
LINE
  5
4F
  8
LAYER_1
 10
33.00439788419716
 20
19.245666
 30
0.0
 11
33.63912188419716
 21
18.810528
 31
0.0
  0
LINE
  5
50
  8
LAYER_1
 10
33.63912188419716
 20
18.810528
 30
0.0
 11
34.37141788419716
 21
18.691164
 31
0.0
  0
LINE
  5
51
  8
LAYER_1
 10
34.37141788419716
 20
18.691164
 30
0.0
 11
35.45704488419716
 21
18.783831
 31
0.0
  0
LINE
  5
52
  8
LAYER_1
 10
35.45704488419716
 20
18.783831
 30
0.0
 11
37.61683388419716
 21
19.136032
 31
0.0
  0
LINE
  5
53
  8
LAYER_1
 10
37.61683388419716
 20
19.136032
 30
0.0
 11
39.18906388419716
 21
19.726521
 31
0.0
  0
LINE
  5
54
  8
LAYER_1
 10
39.18906388419716
 20
19.726521
 30
0.0
 11
41.02350788419716
 21
20.560422
 31
0.0
  0
LINE
  5
55
  8
LAYER_1
 10
41.02350788419716
 20
20.560422
 30
0.0
 11
42.78498688419716
 21
21.552095
 31
0.0
  0
LINE
  5
56
  8
LAYER_1
 10
42.78498688419716
 20
21.552095
 30
0.0
 11
43.44438388419716
 21
21.799422
 31
0.0
  0
LINE
  5
57
  8
LAYER_1
 10
43.44438388419716
 20
21.799422
 30
0.0
 11
44.16682588419716
 21
21.477955
 31
0.0
  0
LINE
  5
58
  8
LAYER_1
 10
44.16682588419716
 20
21.477955
 30
0.0
 11
44.60791588419716
 21
21.225659
 31
0.0
  0
LINE
  5
BE
  8
LAYER_1
 10
44.60791588419716
 20
21.225659
 30
0.0
 11
45.03968688419716
 21
21.225779
 31
0.0
  0
LINE
  5
BF
  8
LAYER_1
 10
45.03968688419716
 20
21.225779
 30
0.0
 11
46.37202888419716
 21
22.130194
 31
0.0
  0
LINE
  5
5B
  8
LAYER_1
 10
46.37202888419716
 20
22.130194
 30
0.0
 11
47.47862388419716
 21
22.954207
 31
0.0
  0
LINE
  5
5C
  8
LAYER_1
 10
47.47862388419716
 20
22.954207
 30
0.0
 11
48.09463388419716
 21
23.228379
 31
0.0
  0
LINE
  5
5D
  8
LAYER_1
 10
48.09463388419716
 20
23.228379
 30
0.0
 11
48.76152888419716
 21
23.330339
 31
0.0
  0
LINE
  5
C0
  8
LAYER_1
 10
48.76152888419716
 20
23.330339
 30
0.0
 11
49.99046688419716
 21
23.740311
 31
0.0
  0
LINE
  5
5F
  8
LAYER_1
 10
49.99046688419716
 20
23.740311
 30
0.0
 11
50.91510488419716
 21
24.0708
 31
0.0
  0
LINE
  5
60
  8
LAYER_1
 10
50.91510488419716
 20
24.0708
 30
0.0
 11
51.47019088419716
 21
24.138217
 31
0.0
  0
LINE
  5
61
  8
LAYER_1
 10
51.47019088419716
 20
24.138217
 30
0.0
 11
51.83528888419716
 21
23.911473
 31
0.0
  0
LINE
  5
62
  8
LAYER_1
 10
51.83528888419716
 20
23.911473
 30
0.0
 11
52.18996288419716
 21
23.359477
 31
0.0
  0
LINE
  5
63
  8
LAYER_1
 10
52.18996288419716
 20
23.359477
 30
0.0
 11
52.52243088419716
 21
22.861928
 31
0.0
  0
LINE
  5
64
  8
LAYER_1
 10
52.52243088419716
 20
22.861928
 30
0.0
 11
52.86413588419717
 21
22.598005
 31
0.0
  0
LINE
  5
65
  8
LAYER_1
 10
52.86413588419717
 20
22.598005
 30
0.0
 11
53.29010488419716
 21
22.535839
 31
0.0
  0
LINE
  5
66
  8
LAYER_1
 10
53.29010488419716
 20
22.535839
 30
0.0
 11
53.87536388419716
 21
22.643564
 31
0.0
  0
LINE
  5
67
  8
LAYER_1
 10
53.87536388419716
 20
22.643564
 30
0.0
 11
54.80627088419716
 21
22.712578
 31
0.0
  0
LINE
  5
68
  8
LAYER_1
 10
54.80627088419716
 20
22.712578
 30
0.0
 11
55.40295088419717
 21
22.372882
 31
0.0
  0
LINE
  5
69
  8
LAYER_1
 10
55.40295088419717
 20
22.372882
 30
0.0
 11
55.78081188419716
 21
22.062163
 31
0.0
  0
LINE
  5
6A
  8
LAYER_1
 10
55.78081188419716
 20
22.062163
 30
0.0
 11
56.11003588419716
 21
22.108399
 31
0.0
  0
LINE
  5
C1
  8
LAYER_1
 10
56.11003588419716
 20
22.108399
 30
0.0
 11
56.24107688419716
 21
21.569171
 31
0.0
  0
LINE
  5
C2
  8
LAYER_1
 10
56.24107688419716
 20
21.569171
 30
0.0
 11
56.33289488419716
 21
19.607658
 31
0.0
  0
LINE
  5
6D
  8
LAYER_1
 10
56.33289488419716
 20
19.607658
 30
0.0
 11
56.40461888419716
 21
11.204414
 31
0.0
  0
LINE
  5
6E
  8
LAYER_1
 10
56.40461888419716
 20
11.204414
 30
0.0
 11
56.40461888419716
 21
0.0
 31
0.0
  0
LINE
  5
6F
  8
LAYER_1
 10
56.40461888419716
 20
0.0
 30
0.0
 11
0.0058546464873494
 21
-0.032917133490356
 31
0.0
  0
LINE
  5
71
  8
LAYER_1
 10
0.0
 20
0.0
 30
0.0
 11
0.0
 21
11.176929
 31
0.0
  0
LINE
  5
72
  8
LAYER_1
 10
0.0
 20
11.176929
 30
0.0
 11
0.0
 21
11.176929
 31
0.0
  0
ENDSEC
  0
EOF
