  0
SECTION
  2
HEADER
  9
$ACADVER
  1
AC1009
  9
$DWGCODEPAGE
  3
ansi_1252
  9
$INSBASE
 10
0.0
 20
0.0
 30
0.0
  9
$EXTMIN
 10
-0.0143928345001482
 20
-0.0697688801504803
 30
0.0
  9
$EXTMAX
 10
122.0510005203641
 20
39.25266641597123
 30
0.0
  9
$LIMMIN
 10
0.0
 20
0.0
  9
$LIMMAX
 10
12.0
 20
9.0
  9
$ORTHOMODE
 70
     0
  9
$REGENMODE
 70
     1
  9
$FILLMODE
 70
     1
  9
$QTEXTMODE
 70
     0
  9
$MIRRTEXT
 70
     1
  9
$DRAGMODE
 70
     2
  9
$LTSCALE
 40
1.0
  9
$OSMODE
 70
    37
  9
$ATTMODE
 70
     1
  9
$TEXTSIZE
 40
0.2
  9
$TRACEWID
 40
0.05
  9
$TEXTSTYLE
  7
STANDARD
  9
$CLAYER
  8
0
  9
$CELTYPE
  6
BYBLOCK
  9
$CECOLOR
 62
   256
  9
$DIMSCALE
 40
1.0
  9
$DIMASZ
 40
0.18
  9
$DIMEXO
 40
0.0625
  9
$DIMDLI
 40
0.38
  9
$DIMRND
 40
0.0
  9
$DIMDLE
 40
0.0
  9
$DIMEXE
 40
0.18
  9
$DIMTP
 40
0.0
  9
$DIMTM
 40
0.0
  9
$DIMTXT
 40
0.18
  9
$DIMCEN
 40
0.09
  9
$DIMTSZ
 40
0.0
  9
$DIMTOL
 70
     0
  9
$DIMLIM
 70
     0
  9
$DIMTIH
 70
     1
  9
$DIMTOH
 70
     1
  9
$DIMSE1
 70
     0
  9
$DIMSE2
 70
     0
  9
$DIMTAD
 70
     0
  9
$DIMZIN
 70
     0
  9
$DIMBLK
  1

  9
$DIMASO
 70
     1
  9
$DIMSHO
 70
     1
  9
$DIMPOST
  1

  9
$DIMAPOST
  1

  9
$DIMALT
 70
     0
  9
$DIMALTD
 70
     2
  9
$DIMALTF
 40
25.4
  9
$DIMLFAC
 40
1.0
  9
$DIMTOFL
 70
     0
  9
$DIMTVP
 40
0.0
  9
$DIMTIX
 70
     0
  9
$DIMSOXD
 70
     0
  9
$DIMSAH
 70
     0
  9
$DIMBLK1
  1

  9
$DIMBLK2
  1

  9
$DIMSTYLE
  2
STANDARD
  9
$DIMCLRD
 70
     0
  9
$DIMCLRE
 70
     0
  9
$DIMCLRT
 70
     0
  9
$DIMTFAC
 40
1.0
  9
$DIMGAP
 40
0.09
  9
$LUNITS
 70
     2
  9
$LUPREC
 70
     4
  9
$SKETCHINC
 40
0.1
  9
$FILLETRAD
 40
0.5
  9
$AUNITS
 70
     0
  9
$AUPREC
 70
     0
  9
$MENU
  1
.
  9
$ELEVATION
 40
0.0
  9
$PELEVATION
 40
0.0
  9
$THICKNESS
 40
0.0
  9
$LIMCHECK
 70
     0
  9
$CHAMFERA
 40
0.5
  9
$CHAMFERB
 40
0.5
  9
$SKPOLY
 70
     0
  9
$TDCREATE
 40
2453353.508792488
  9
$TDUPDATE
 40
4910413.857651852
  9
$TDINDWG
 40
4895786.051922963
  9
$TDUSRTIMER
 40
4895786.051922963
  9
$USRTIMER
 70
     1
  9
$ANGBASE
 50
0.0
  9
$ANGDIR
 70
     0
  9
$PDMODE
 70
     0
  9
$PDSIZE
 40
0.0
  9
$PLINEWID
 40
0.0
  9
$COORDS
 70
     1
  9
$SPLFRAME
 70
     0
  9
$SPLINETYPE
 70
     6
  9
$SPLINESEGS
 70
     8
  9
$ATTDIA
 70
     0
  9
$ATTREQ
 70
     1
  9
$HANDLING
 70
     1
  9
$HANDSEED
  5
647
  9
$SURFTAB1
 70
     6
  9
$SURFTAB2
 70
     6
  9
$SURFTYPE
 70
     6
  9
$SURFU
 70
     6
  9
$SURFV
 70
     6
  9
$UCSNAME
  2

  9
$UCSORG
 10
0.0
 20
0.0
 30
0.0
  9
$UCSXDIR
 10
1.0
 20
0.0
 30
0.0
  9
$UCSYDIR
 10
0.0
 20
1.0
 30
0.0
  9
$PUCSNAME
  2

  9
$PUCSORG
 10
0.0
 20
0.0
 30
0.0
  9
$PUCSXDIR
 10
1.0
 20
0.0
 30
0.0
  9
$PUCSYDIR
 10
0.0
 20
1.0
 30
0.0
  9
$USERI1
 70
     0
  9
$USERI2
 70
     0
  9
$USERI3
 70
     0
  9
$USERI4
 70
     0
  9
$USERI5
 70
     0
  9
$USERR1
 40
0.0
  9
$USERR2
 40
0.0
  9
$USERR3
 40
0.0
  9
$USERR4
 40
0.0
  9
$USERR5
 40
0.0
  9
$WORLDVIEW
 70
     1
  9
$SHADEDGE
 70
     3
  9
$SHADEDIF
 70
    70
  9
$TILEMODE
 70
     1
  9
$MAXACTVP
 70
    64
  9
$PLIMCHECK
 70
     0
  9
$PEXTMIN
 10
0.0
 20
0.0
 30
0.0
  9
$PEXTMAX
 10
0.0
 20
0.0
 30
0.0
  9
$PLIMMIN
 10
0.0
 20
0.0
  9
$PLIMMAX
 10
0.0
 20
0.0
  9
$UNITMODE
 70
     0
  9
$VISRETAIN
 70
     1
  9
$PLINEGEN
 70
     0
  9
$PSLTSCALE
 70
     1
  0
ENDSEC
  0
SECTION
  2
TABLES
  0
TABLE
  2
VPORT
 70
     1
  0
VPORT
  2
*ACTIVE
 70
     0
 10
0.0
 20
0.0
 11
1.0
 21
1.0
 12
73.75739824885093
 22
17.94902616463962
 13
0.0
 23
0.0
 14
0.5
 24
0.5
 15
0.5
 25
0.5
 16
0.0
 26
0.0
 36
1.0
 17
0.0
 27
0.0
 37
0.0
 40
92.88462816631622
 41
1.972972972850329
 42
50.0
 43
0.0
 44
0.0
 50
0.0
 51
0.0
 71
    16
 72
   100
 73
     1
 74
     3
 75
     0
 76
     0
 77
     0
 78
     0
  0
ENDTAB
  0
TABLE
  2
LTYPE
 70
     1
  0
LTYPE
  2
CONTINUOUS
 70
     0
  3
Solid line
 72
    65
 73
     0
 40
0.0
  0
ENDTAB
  0
TABLE
  2
LAYER
 70
     2
  0
LAYER
  2
0
 70
     0
 62
     7
  6
CONTINUOUS
  0
LAYER
  2
LAYER_1
 70
     0
 62
     7
  6
CONTINUOUS
  0
ENDTAB
  0
TABLE
  2
STYLE
 70
     1
  0
STYLE
  2
STANDARD
 70
     0
 40
0.0
 41
1.0
 50
0.0
 71
     0
 42
0.2
  3
txt
  4

  0
ENDTAB
  0
TABLE
  2
VIEW
 70
     0
  0
ENDTAB
  0
TABLE
  2
UCS
 70
     0
  0
ENDTAB
  0
TABLE
  2
APPID
 70
     1
  0
APPID
  2
ACAD
 70
     0
  0
ENDTAB
  0
TABLE
  2
DIMSTYLE
 70
     1
  0
DIMSTYLE
  2
STANDARD
 70
     0
  3

  4

  5

  6

  7

 40
1.0
 41
0.18
 42
0.0625
 43
0.38
 44
0.18
 45
0.0
 46
0.0
 47
0.0
 48
0.0
140
0.18
141
0.09
142
0.0
143
25.4
144
1.0
145
0.0
146
1.0
147
0.09
 71
     0
 72
     0
 73
     1
 74
     1
 75
     0
 76
     0
 77
     0
 78
     0
170
     0
171
     2
172
     0
173
     0
174
     0
175
     0
176
     0
177
     0
178
     0
  0
ENDTAB
  0
ENDSEC
  0
SECTION
  2
BLOCKS
  0
BLOCK
  8
0
  2
$MODEL_SPACE
 70
     0
 10
0.0
 20
0.0
 30
0.0
  3
$MODEL_SPACE
  1

  0
ENDBLK
  5
21
  8
0
  0
BLOCK
 67
     1
  8
0
  2
$PAPER_SPACE
 70
     0
 10
0.0
 20
0.0
 30
0.0
  3
$PAPER_SPACE
  1

  0
ENDBLK
  5
76
 67
     1
  8
0
  0
ENDSEC
  0
SECTION
  2
ENTITIES
  0
LINE
  5
635
  8
LAYER_1
 10
0.0
 20
9.487360000000001
 30
0.0
 11
-0.0143928345001482
 21
17.72126020580063
 31
0.0
  0
LINE
  5
23
  8
LAYER_1
 10
-0.0143928345001482
 20
17.72126020580063
 30
0.0
 11
0.380345
 21
18.850965
 31
0.0
  0
LINE
  5
24
  8
LAYER_1
 10
0.380345
 20
18.850965
 30
0.0
 11
0.564163
 21
18.827188
 31
0.0
  0
LINE
  5
25
  8
LAYER_1
 10
0.564163
 20
18.827188
 30
0.0
 11
1.002846
 21
18.788108
 31
0.0
  0
LINE
  5
26
  8
LAYER_1
 10
1.002846
 20
18.788108
 30
0.0
 11
1.265321
 21
18.901317
 31
0.0
  0
LINE
  5
636
  8
LAYER_1
 10
1.265321
 20
18.901317
 30
0.0
 11
1.971547
 21
19.271835
 31
0.0
  0
LINE
  5
28
  8
LAYER_1
 10
1.971547
 20
19.271835
 30
0.0
 11
2.330397
 21
19.307116
 31
0.0
  0
LINE
  5
29
  8
LAYER_1
 10
2.330397
 20
19.307116
 30
0.0
 11
2.393816
 21
19.182904
 31
0.0
  0
LINE
  5
2A
  8
LAYER_1
 10
2.393816
 20
19.182904
 30
0.0
 11
2.854178488768998
 21
18.67397372279718
 31
0.0
  0
LINE
  5
34
  8
LAYER_1
 10
2.854178488768998
 20
18.67397372279718
 30
0.0
 11
3.705163152292469
 21
17.92936214221415
 31
0.0
  0
LINE
  5
35
  8
LAYER_1
 10
3.705163152292469
 20
17.92936214221415
 30
0.0
 11
5.503333
 21
17.035763
 31
0.0
  0
LINE
  5
36
  8
LAYER_1
 10
5.503333
 20
17.035763
 30
0.0
 11
7.637641
 21
16.900355
 31
0.0
  0
LINE
  5
37
  8
LAYER_1
 10
7.637641
 20
16.900355
 30
0.0
 11
11.994444
 21
16.93832
 31
0.0
  0
LINE
  5
38
  8
LAYER_1
 10
11.994444
 20
16.93832
 30
0.0
 11
14.465121
 21
17.212912
 31
0.0
  0
LINE
  5
39
  8
LAYER_1
 10
14.465121
 20
17.212912
 30
0.0
 11
17.638889
 21
18.218723
 31
0.0
  0
LINE
  5
3A
  8
LAYER_1
 10
17.638889
 20
18.218723
 30
0.0
 11
24.623498
 21
20.85458
 31
0.0
  0
LINE
  5
3B
  8
LAYER_1
 10
24.623498
 20
20.85458
 30
0.0
 11
32.596667
 21
24.060514
 31
0.0
  0
LINE
  5
3C
  8
LAYER_1
 10
32.596667
 20
24.060514
 30
0.0
 11
39.793333
 21
26.902582
 31
0.0
  0
LINE
  5
3D
  8
LAYER_1
 10
39.793333
 20
26.902582
 30
0.0
 11
44.349766
 21
28.742266
 31
0.0
  0
LINE
  5
3E
  8
LAYER_1
 10
44.349766
 20
28.742266
 30
0.0
 11
46.019196
 21
29.616908
 31
0.0
  0
LINE
  5
3F
  8
LAYER_1
 10
46.019196
 20
29.616908
 30
0.0
 11
47.672216
 21
30.646474
 31
0.0
  0
LINE
  5
40
  8
LAYER_1
 10
47.672216
 20
30.646474
 30
0.0
 11
51.905549
 21
33.402044
 31
0.0
  0
LINE
  5
41
  8
LAYER_1
 10
51.905549
 20
33.402044
 30
0.0
 11
54.186667
 21
34.984868
 31
0.0
  0
LINE
  5
42
  8
LAYER_1
 10
54.186667
 20
34.984868
 30
0.0
 11
56.711382
 21
36.578379
 31
0.0
  0
LINE
  5
43
  8
LAYER_1
 10
56.711382
 20
36.578379
 30
0.0
 11
58.956576
 21
37.721481
 31
0.0
  0
LINE
  5
44
  8
LAYER_1
 10
58.956576
 20
37.721481
 30
0.0
 11
59.757816
 21
37.905112
 31
0.0
  0
LINE
  5
45
  8
LAYER_1
 10
59.757816
 20
37.905112
 30
0.0
 11
60.84610112683177
 21
39.25266641597123
 31
0.0
  0
LINE
  5
46
  8
LAYER_1
 10
60.84610112683177
 20
39.25266641597123
 30
0.0
 11
63.442401
 21
37.711225
 31
0.0
  0
LINE
  5
47
  8
LAYER_1
 10
63.442401
 20
37.711225
 30
0.0
 11
64.28062799999999
 21
37.430876
 31
0.0
  0
LINE
  5
48
  8
LAYER_1
 10
64.28062799999999
 20
37.430876
 30
0.0
 11
64.868284
 21
37.013938
 31
0.0
  0
LINE
  5
49
  8
LAYER_1
 10
64.868284
 20
37.013938
 30
0.0
 11
65.517827
 21
36.498639
 31
0.0
  0
LINE
  5
4A
  8
LAYER_1
 10
65.517827
 20
36.498639
 30
0.0
 11
66.19118899999999
 21
36.416745
 31
0.0
  0
LINE
  5
4B
  8
LAYER_1
 10
66.19118899999999
 20
36.416745
 30
0.0
 11
66.792023
 21
35.977181
 31
0.0
  0
LINE
  5
4C
  8
LAYER_1
 10
66.792023
 20
35.977181
 30
0.0
 11
67.221057
 21
35.702397
 31
0.0
  0
LINE
  5
4D
  8
LAYER_1
 10
67.221057
 20
35.702397
 30
0.0
 11
67.62114699999999
 21
35.67316
 31
0.0
  0
LINE
  5
4E
  8
LAYER_1
 10
67.62114699999999
 20
35.67316
 30
0.0
 11
67.953525
 21
35.675817
 31
0.0
  0
LINE
  5
4F
  8
LAYER_1
 10
67.953525
 20
35.675817
 30
0.0
 11
68.219757
 21
35.477724
 31
0.0
  0
LINE
  5
50
  8
LAYER_1
 10
68.219757
 20
35.477724
 30
0.0
 11
68.58177600000001
 21
35.219387
 31
0.0
  0
LINE
  5
51
  8
LAYER_1
 10
68.58177600000001
 20
35.219387
 30
0.0
 11
69.14444399999999
 21
35.077214
 31
0.0
  0
LINE
  5
52
  8
LAYER_1
 10
69.14444399999999
 20
35.077214
 30
0.0
 11
70.29911
 21
34.884761
 31
0.0
  0
LINE
  5
53
  8
LAYER_1
 10
70.29911
 20
34.884761
 30
0.0
 11
71.479726
 21
34.537969
 31
0.0
  0
LINE
  5
54
  8
LAYER_1
 10
71.479726
 20
34.537969
 30
0.0
 11
72.47500599999999
 21
34.111888
 31
0.0
  0
LINE
  5
55
  8
LAYER_1
 10
72.47500599999999
 20
34.111888
 30
0.0
 11
73.073661
 21
33.681566
 31
0.0
  0
LINE
  5
56
  8
LAYER_1
 10
73.073661
 20
33.681566
 30
0.0
 11
73.69253000000001
 21
33.241795
 31
0.0
  0
LINE
  5
57
  8
LAYER_1
 10
73.69253000000001
 20
33.241795
 30
0.0
 11
74.6255
 21
32.856595
 31
0.0
  0
LINE
  5
58
  8
LAYER_1
 10
74.6255
 20
32.856595
 30
0.0
 11
75.53085400000001
 21
32.638171
 31
0.0
  0
LINE
  5
637
  8
LAYER_1
 10
75.53085400000001
 20
32.638171
 30
0.0
 11
76.066873
 21
32.698727
 31
0.0
  0
LINE
  5
638
  8
LAYER_1
 10
76.066873
 20
32.698727
 30
0.0
 11
77.703231
 21
32.930818
 31
0.0
  0
LINE
  5
5B
  8
LAYER_1
 10
77.703231
 20
32.930818
 30
0.0
 11
79.34999500000001
 21
33.182405
 31
0.0
  0
LINE
  5
5C
  8
LAYER_1
 10
79.34999500000001
 20
33.182405
 30
0.0
 11
81.258876
 21
33.708882
 31
0.0
  0
LINE
  5
5D
  8
LAYER_1
 10
81.258876
 20
33.708882
 30
0.0
 11
82.766947
 21
34.172289
 31
0.0
  0
LINE
  5
639
  8
LAYER_1
 10
82.766947
 20
34.172289
 30
0.0
 11
83.93009600000001
 21
34.389735
 31
0.0
  0
LINE
  5
5F
  8
LAYER_1
 10
83.93009600000001
 20
34.389735
 30
0.0
 11
84.834861
 21
34.369471
 31
0.0
  0
LINE
  5
60
  8
LAYER_1
 10
84.834861
 20
34.369471
 30
0.0
 11
85.56778
 21
34.119749
 31
0.0
  0
LINE
  5
61
  8
LAYER_1
 10
85.56778
 20
34.119749
 30
0.0
 11
86.07750400000001
 21
33.955416
 31
0.0
  0
LINE
  5
62
  8
LAYER_1
 10
86.07750400000001
 20
33.955416
 30
0.0
 11
86.391569
 21
34.190305
 31
0.0
  0
LINE
  5
63
  8
LAYER_1
 10
86.391569
 20
34.190305
 30
0.0
 11
86.568164
 21
34.379085
 31
0.0
  0
LINE
  5
64
  8
LAYER_1
 10
86.568164
 20
34.379085
 30
0.0
 11
86.637901
 21
34.25236
 31
0.0
  0
LINE
  5
65
  8
LAYER_1
 10
86.637901
 20
34.25236
 30
0.0
 11
86.79879200000001
 21
33.967939
 31
0.0
  0
LINE
  5
66
  8
LAYER_1
 10
86.79879200000001
 20
33.967939
 30
0.0
 11
87.190028
 21
33.801146
 31
0.0
  0
LINE
  5
67
  8
LAYER_1
 10
87.190028
 20
33.801146
 30
0.0
 11
87.68801000000001
 21
33.778336
 31
0.0
  0
LINE
  5
68
  8
LAYER_1
 10
87.68801000000001
 20
33.778336
 30
0.0
 11
88.169138
 21
33.925863
 31
0.0
  0
LINE
  5
69
  8
LAYER_1
 10
88.169138
 20
33.925863
 30
0.0
 11
88.629188
 21
34.042777
 31
0.0
  0
LINE
  5
6A
  8
LAYER_1
 10
88.629188
 20
34.042777
 30
0.0
 11
89.052795
 21
33.85697
 31
0.0
  0
LINE
  5
63A
  8
LAYER_1
 10
89.052795
 20
33.85697
 30
0.0
 11
89.613125
 21
33.66007
 31
0.0
  0
LINE
  5
63B
  8
LAYER_1
 10
89.613125
 20
33.66007
 30
0.0
 11
90.441676
 21
33.704956
 31
0.0
  0
LINE
  5
6D
  8
LAYER_1
 10
90.441676
 20
33.704956
 30
0.0
 11
91.338973
 21
33.740926
 31
0.0
  0
LINE
  5
6E
  8
LAYER_1
 10
91.338973
 20
33.740926
 30
0.0
 11
92.06754700000001
 21
33.485921
 31
0.0
  0
LINE
  5
6F
  8
LAYER_1
 10
92.06754700000001
 20
33.485921
 30
0.0
 11
92.96420000000001
 21
33.173449
 31
0.0
  0
LINE
  5
70
  8
LAYER_1
 10
92.96420000000001
 20
33.173449
 30
0.0
 11
94.228717
 21
33.432699
 31
0.0
  0
LINE
  5
71
  8
LAYER_1
 10
94.228717
 20
33.432699
 30
0.0
 11
94.725261
 21
33.470172
 31
0.0
  0
LINE
  5
72
  8
LAYER_1
 10
94.725261
 20
33.470172
 30
0.0
 11
94.99936099999999
 21
33.18057
 31
0.0
  0
LINE
  5
63C
  8
LAYER_1
 10
94.99936099999999
 20
33.18057
 30
0.0
 11
95.46361400000001
 21
32.837642
 31
0.0
  0
LINE
  5
63D
  8
LAYER_1
 10
95.46361400000001
 20
32.837642
 30
0.0
 11
96.644268
 21
32.737778
 31
0.0
  0
LINE
  5
63E
  8
LAYER_1
 10
96.644268
 20
32.737778
 30
0.0
 11
98.314679
 21
32.9332
 31
0.0
  0
LINE
  5
63F
  8
LAYER_1
 10
98.314679
 20
32.9332
 30
0.0
 11
99.12557700000001
 21
33.222548
 31
0.0
  0
LINE
  5
77
  8
LAYER_1
 10
99.12557700000001
 20
33.222548
 30
0.0
 11
99.894415
 21
33.521015
 31
0.0
  0
LINE
  5
78
  8
LAYER_1
 10
99.894415
 20
33.521015
 30
0.0
 11
100.262144
 21
33.705105
 31
0.0
  0
LINE
  5
79
  8
LAYER_1
 10
100.262144
 20
33.705105
 30
0.0
 11
100.979428
 21
33.825587
 31
0.0
  0
LINE
  5
7A
  8
LAYER_1
 10
100.979428
 20
33.825587
 30
0.0
 11
103.096413
 21
33.884598
 31
0.0
  0
LINE
  5
7B
  8
LAYER_1
 10
103.096413
 20
33.884598
 30
0.0
 11
105.512868
 21
33.715788
 31
0.0
  0
LINE
  5
7C
  8
LAYER_1
 10
105.512868
 20
33.715788
 30
0.0
 11
107.496291
 21
33.336899
 31
0.0
  0
LINE
  5
7D
  8
LAYER_1
 10
107.496291
 20
33.336899
 30
0.0
 11
108.67714
 21
33.174452
 31
0.0
  0
LINE
  5
7E
  8
LAYER_1
 10
108.67714
 20
33.174452
 30
0.0
 11
109.178628
 21
33.092846
 31
0.0
  0
LINE
  5
7F
  8
LAYER_1
 10
109.178628
 20
33.092846
 30
0.0
 11
110.070556
 21
32.702726
 31
0.0
  0
LINE
  5
80
  8
LAYER_1
 10
110.070556
 20
32.702726
 30
0.0
 11
111.261355
 21
32.258168
 31
0.0
  0
LINE
  5
81
  8
LAYER_1
 10
111.261355
 20
32.258168
 30
0.0
 11
112.481405
 21
32.045681
 31
0.0
  0
LINE
  5
82
  8
LAYER_1
 10
112.481405
 20
32.045681
 30
0.0
 11
113.904014
 21
31.816726
 31
0.0
  0
LINE
  5
83
  8
LAYER_1
 10
113.904014
 20
31.816726
 30
0.0
 11
115.194453
 21
31.79007
 31
0.0
  0
LINE
  5
84
  8
LAYER_1
 10
115.194453
 20
31.79007
 30
0.0
 11
116.627697
 21
31.771571
 31
0.0
  0
LINE
  5
85
  8
LAYER_1
 10
116.627697
 20
31.771571
 30
0.0
 11
118.299291
 21
31.452018
 31
0.0
  0
LINE
  5
86
  8
LAYER_1
 10
118.299291
 20
31.452018
 30
0.0
 11
119.823228
 21
30.932738
 31
0.0
  0
LINE
  5
87
  8
LAYER_1
 10
119.823228
 20
30.932738
 30
0.0
 11
120.8135
 21
30.315058
 31
0.0
  0
LINE
  5
88
  8
LAYER_1
 10
120.8135
 20
30.315058
 30
0.0
 11
122.0510005203641
 21
28.74816701417836
 31
0.0
  0
LINE
  5
89
  8
LAYER_1
 10
122.037592374717
 20
-0.0697688801504803
 30
0.0
 11
122.0510005203641
 21
28.74816701417836
 31
0.0
  0
LINE
  5
C3
  8
LAYER_1
 10
122.037592374717
 20
-0.0697688801504803
 30
0.0
 11
0.0
 21
0.0
 31
0.0
  0
LINE
  5
C4
  8
LAYER_1
 10
0.0
 20
0.0
 30
0.0
 11
0.0
 21
9.487360000000001
 31
0.0
  0
LINE
  5
C5
  8
LAYER_1
 10
0.0
 20
9.487360000000001
 30
0.0
 11
0.0
 21
9.487360000000001
 31
0.0
  0
ENDSEC
  0
EOF
