  0
SECTION
  2
HEADER
  9
$ACADVER
  1
AC1009
  9
$LIMMIN
 10
-0.000000
 20
0.000000
  9
$LIMMAX
 10
24.053630
 20
17.420477
  0
ENDSEC
  0
SECTION
  2
TABLES
  0
TABLE
  2
LTYPE
 70
     4
  0
LTYPE
  2
CONTINUOUS
 70
     0
  3
Solid line
 72
     65
 73
     0
 40
0.000000
  0
LTYPE
  2
HIDDEN
 70
     0
  3
 _ _ _ _ _ _ _ _ _ _ _
 72
     65
 73
     2
 40
0.375000
 49
0.250000
 49
-0.125000
  0
LTYPE
  2
DASHED
 70
     0
  3
 ___ ___ ___ ___ ___ ___ ___ 
 72
     65
 73
     2
 40
0.750000
 49
0.500000
 49
-0.250000
  0
LTYPE
  2
CENTER
 70
     0
  3
___ _ ___ _ ___ _ ___
 72
     65
 73
     4
 40
2.000000
 49
1.250000
 49
-0.250000
 49
0.250000
 49
-0.250000
  0
LTYPE
  2
BORDER
 70
     0
  3
___ ___ . ___ ___ . ___ ___
 72
     65
 73
     6
 40
1.750000
 49
0.500000
 49
-0.250000
 49
0.500000
 49
-0.250000
 49
0.000000
 49
-0.250000
  0
LTYPE
  2
DOT
 70
     0
  3
.................
 72
     65
 73
     2
 40
0.250000
 49
0.000000
 49
-0.250000
  0
LTYPE
  2
DASHDOT
 70
     0
  3
__ . __ . __ . __
 72
     65
 73
     4
 40
1.000000
 49
0.500000
 49
-0.250000
 49
0.000000
 49
-0.250000
  0
LTYPE
  2
DIVIDE
 70
     0
  3
___ .. ___ .. ___ .. ___
 72
     65
 73
     6
 40
1.250000
 49
0.500000
 49
-0.250000
 49
0.000000
 49
-0.250000
 49
0.000000
 49
-0.250000
  0
ENDTAB
  0
TABLE
  2
LAYER
 70
     8
  0
LAYER
  2
BLACK
 70
     0
 62
     1
  6
CONTINUOUS
  0
LAYER
  2
WHITE
 70
     0
 62
     7
  6
CONTINUOUS
  0
LAYER
  2
RED
 70
     0
 62
     1
  6
CONTINUOUS
  0
LAYER
  2
YELLOW
 70
     0
 62
     2
  6
CONTINUOUS
  0
LAYER
  2
GREEN
 70
     0
 62
     3
  6
CONTINUOUS
  0
LAYER
  2
CYAN
 70
     0
 62
     4
  6
CONTINUOUS
  0
LAYER
  2
BLUE
 70
     0
 62
     5
  6
CONTINUOUS
  0
LAYER
  2
MAGENTA
 70
     0
 62
     6
  6
CONTINUOUS
  0
ENDTAB
  0
TABLE
  2
APPID
 70
     1
  0
APPID
  2
TC_BEND_DATA
 70
     0
  0
ENDTAB
  0
ENDSEC
  0
SECTION
  2
BLOCKS
  0
ENDSEC
  0
SECTION
  2
ENTITIES
  0
LINE
  8
WHITE
 10
22.973440
 20
4.771052
 30
0.000000
 11
22.785394
 21
4.332542
 31
0.000000
  6
CONTINUOUS
  0
LINE
  8
WHITE
 10
22.785394
 20
4.332542
 30
0.000000
 11
22.644547
 21
4.003579
 31
0.000000
  6
CONTINUOUS
  0
LINE
  8
WHITE
 10
22.644547
 20
4.003579
 30
0.000000
 11
22.539019
 21
3.756811
 31
0.000000
  6
CONTINUOUS
  0
LINE
  8
WHITE
 10
22.539019
 20
3.756811
 30
0.000000
 11
22.380897
 21
3.386586
 31
0.000000
  6
CONTINUOUS
  0
LINE
  8
WHITE
 10
22.380897
 20
3.386586
 30
0.000000
 11
22.222980
 21
3.016274
 31
0.000000
  6
CONTINUOUS
  0
ARC
  8
WHITE
 10
25.125577
 20
1.835563
 30
0.000000
 40
3.133552
 50
157.864611
 51
181.128987
  6
CONTINUOUS
  0
ARC
  8
WHITE
 10
236.151094
 20
-10.907974
 30
0.000000
 40
214.533621
 50
176.611080
 51
177.064156
  6
CONTINUOUS
  0
ARC
  8
WHITE
 10
21.659622
 20
1.111889
 30
0.000000
 40
1.059350
 50
-108.704562
 51
-76.937651
  6
CONTINUOUS
  0
ARC
  8
WHITE
 10
21.427396
 20
0.678671
 30
0.000000
 40
0.580226
 50
-158.717169
 51
-100.676541
  6
CONTINUOUS
  0
ARC
  8
WHITE
 10
22.320284
 20
0.706177
 30
0.000000
 40
1.453184
 50
174.069460
 51
189.430744
  6
CONTINUOUS
  0
ARC
  8
WHITE
 10
12.833516
 20
1.625238
 30
0.000000
 40
8.078040
 50
-5.462013
 51
5.645234
  6
CONTINUOUS
  0
LINE
  8
WHITE
 10
20.872378
 20
2.419863
 30
0.000000
 11
20.124835
 21
4.755197
 31
0.000000
  6
CONTINUOUS
  0
ARC
  8
WHITE
 10
19.790272
 20
8.016832
 30
0.000000
 40
3.278748
 50
-109.274740
 51
-84.143362
  6
CONTINUOUS
  0
ARC
  8
WHITE
 10
19.562344
 20
7.674564
 30
0.000000
 40
2.882239
 50
-111.420684
 51
-107.243292
  6
CONTINUOUS
  0
LINE
  8
WHITE
 10
18.509714
 20
4.991419
 30
0.000000
 11
17.221290
 21
2.784876
 31
0.000000
  6
CONTINUOUS
  0
LINE
  8
WHITE
 10
17.221290
 20
2.784876
 30
0.000000
 11
18.577340
 21
0.855513
 31
0.000000
  6
CONTINUOUS
  0
ARC
  8
WHITE
 10
16.522113
 20
-0.625416
 30
0.000000
 40
2.533202
 50
33.110044
 51
35.775281
  6
CONTINUOUS
  0
ARC
  8
WHITE
 10
18.441628
 20
0.661362
 30
0.000000
 40
0.224391
 50
-32.685453
 51
25.606696
  6
CONTINUOUS
  0
ARC
  8
WHITE
 10
8.150300
 20
8.918013
 30
0.000000
 40
13.417239
 50
-40.466652
 51
-38.638729
  6
CONTINUOUS
  0
ARC
  8
WHITE
 10
18.314747
 20
0.271025
 30
0.000000
 40
0.074628
 50
-126.551408
 51
-54.655097
  6
CONTINUOUS
  0
ARC
  8
WHITE
 10
34.591917
 20
23.645522
 30
0.000000
 40
28.558158
 50
-125.584435
 51
-124.856424
  6
CONTINUOUS
  0
ARC
  8
WHITE
 10
19.218600
 20
2.259669
 30
0.000000
 40
2.220916
 50
-140.469834
 51
-124.087603
  6
CONTINUOUS
  0
ARC
  8
WHITE
 10
145.400268
 20
92.647151
 30
0.000000
 40
157.430851
 50
-145.023040
 51
-144.329721
  6
CONTINUOUS
  0
LINE
  8
WHITE
 10
16.404164
 20
2.400388
 30
0.000000
 11
16.404164
 21
0.687243
 31
0.000000
  6
CONTINUOUS
  0
ARC
  8
WHITE
 10
14.362374
 20
0.544481
 30
0.000000
 40
2.046776
 50
-11.981911
 51
3.999615
  6
CONTINUOUS
  0
ARC
  8
WHITE
 10
16.239450
 20
0.114167
 30
0.000000
 40
0.125223
 50
-65.742913
 51
2.470219
  6
CONTINUOUS
  0
ARC
  8
WHITE
 10
16.292734
 20
0.919108
 30
0.000000
 40
0.919110
 50
-140.499105
 51
-90.114611
  6
CONTINUOUS
  0
LINE
  8
WHITE
 10
15.583536
 20
0.334471
 30
0.000000
 11
15.548269
 21
0.797220
 31
0.000000
  6
CONTINUOUS
  0
ARC
  8
WHITE
 10
18.860360
 20
1.154629
 30
0.000000
 40
3.331319
 50
177.035871
 51
186.158988
  6
CONTINUOUS
  0
LINE
  8
WHITE
 10
15.533498
 20
1.326894
 30
0.000000
 11
15.584075
 21
5.569704
 31
0.000000
  6
CONTINUOUS
  0
ARC
  8
WHITE
 10
15.870744
 20
4.941713
 30
0.000000
 40
0.690327
 50
105.779453
 51
114.536075
  6
CONTINUOUS
  0
ARC
  8
WHITE
 10
6.300298
 20
90.025865
 30
0.000000
 40
84.939654
 50
-84.648237
 51
-83.657971
  6
CONTINUOUS
  0
LINE
  8
WHITE
 10
14.222630
 20
5.456477
 30
0.000000
 11
14.039630
 21
5.396477
 31
0.000000
  6
CONTINUOUS
  0
LINE
  8
WHITE
 10
14.039630
 20
5.396477
 30
0.000000
 11
13.781630
 21
5.441477
 31
0.000000
  6
CONTINUOUS
  0
LINE
  8
WHITE
 10
13.781630
 20
5.441477
 30
0.000000
 11
13.755246
 21
5.440743
 31
0.000000
  6
CONTINUOUS
  0
ARC
  8
WHITE
 10
12.926563
 20
4.511750
 30
0.000000
 40
1.244887
 50
23.422083
 51
48.266329
  6
CONTINUOUS
  0
ARC
  8
WHITE
 10
12.111226
 20
4.244046
 30
0.000000
 40
2.100919
 50
-8.847405
 51
21.282041
  6
CONTINUOUS
  0
ARC
  8
WHITE
 10
13.627028
 20
4.025287
 30
0.000000
 40
0.569760
 50
-59.149477
 51
-10.555075
  6
CONTINUOUS
  0
ARC
  8
WHITE
 10
13.730738
 20
3.903655
 30
0.000000
 40
0.413017
 50
-125.860372
 51
-62.850810
  6
CONTINUOUS
  0
ARC
  8
WHITE
 10
13.824037
 20
4.081843
 30
0.000000
 40
0.612761
 50
-162.962488
 51
-123.169233
  6
CONTINUOUS
  0
ARC
  8
WHITE
 10
14.485452
 20
4.171398
 30
0.000000
 40
1.275981
 50
174.325665
 51
192.174588
  6
CONTINUOUS
  0
ARC
  8
WHITE
 10
11.998406
 20
4.167620
 30
0.000000
 40
1.224233
 50
6.092827
 51
23.576400
  6
CONTINUOUS
  0
ARC
  8
WHITE
 10
13.030597
 20
4.634655
 30
0.000000
 40
0.092657
 50
14.132370
 51
124.791873
  6
CONTINUOUS
  0
ARC
  8
WHITE
 10
17.069337
 20
2.218936
 30
0.000000
 40
4.790657
 50
148.658369
 51
181.123163
  6
CONTINUOUS
  0
ARC
  8
WHITE
 10
17.668043
 20
2.113910
 30
0.000000
 40
5.388454
 50
179.881746
 51
187.106061
  6
CONTINUOUS
  0
ARC
  8
WHITE
 10
14.316573
 20
1.594719
 30
0.000000
 40
2.001031
 50
-175.775798
 51
-161.184880
  6
CONTINUOUS
  0
ARC
  8
WHITE
 10
12.839881
 20
1.014942
 30
0.000000
 40
0.422533
 50
-171.070306
 51
-119.216108
  6
CONTINUOUS
  0
ARC
  8
WHITE
 10
12.721521
 20
0.904461
 30
0.000000
 40
0.272840
 50
-108.789584
 51
-48.778410
  6
CONTINUOUS
  0
ARC
  8
WHITE
 10
12.376061
 20
1.382904
 30
0.000000
 40
0.862142
 50
-52.465235
 51
-23.889871
  6
CONTINUOUS
  0
ARC
  8
WHITE
 10
10.625842
 20
2.382076
 30
0.000000
 40
2.874360
 50
-27.974983
 51
-19.404949
  6
CONTINUOUS
  0
ARC
  8
WHITE
 10
11.197869
 20
2.139362
 30
0.000000
 40
2.254522
 50
-18.416956
 51
-9.651493
  6
CONTINUOUS
  0
ARC
  8
WHITE
 10
14.066967
 20
1.728233
 30
0.000000
 40
0.647336
 50
116.962212
 51
177.064789
  6
CONTINUOUS
  0
ARC
  8
WHITE
 10
13.907253
 20
2.100828
 30
0.000000
 40
0.244275
 50
46.061694
 51
123.209378
  6
CONTINUOUS
  0
ARC
  8
WHITE
 10
13.711805
 20
1.785656
 30
0.000000
 40
0.611831
 50
-7.260531
 51
53.381677
  6
CONTINUOUS
  0
ARC
  8
WHITE
 10
12.881876
 20
1.762674
 30
0.000000
 40
1.437881
 50
-27.162652
 51
-2.165918
  6
CONTINUOUS
  0
ARC
  8
WHITE
 10
9.373149
 20
3.164715
 30
0.000000
 40
5.211765
 50
-29.944546
 51
-23.263729
  6
CONTINUOUS
  0
ARC
  8
WHITE
 10
12.940811
 20
0.993010
 30
0.000000
 40
1.041228
 50
-56.775917
 51
-24.380166
  6
CONTINUOUS
  0
ARC
  8
WHITE
 10
12.892908
 20
1.704102
 30
0.000000
 40
1.698680
 50
-107.121251
 51
-68.650777
  6
CONTINUOUS
  0
ARC
  8
WHITE
 10
12.617538
 20
1.240812
 30
0.000000
 40
1.181674
 50
-152.811650
 51
-100.962386
  6
CONTINUOUS
  0
ARC
  8
WHITE
 10
16.455116
 20
2.290071
 30
0.000000
 40
5.140505
 50
175.668735
 51
198.008004
  6
CONTINUOUS
  0
ARC
  8
WHITE
 10
16.991257
 20
2.301838
 30
0.000000
 40
5.674466
 50
150.731707
 51
176.196057
  6
CONTINUOUS
  0
ARC
  8
WHITE
 10
14.063387
 20
4.051703
 30
0.000000
 40
2.266853
 50
143.547227
 51
153.134642
  6
CONTINUOUS
  0
LINE
  8
WHITE
 10
12.240051
 20
5.398576
 30
0.000000
 11
12.164630
 21
5.396477
 31
0.000000
  6
CONTINUOUS
  0
LINE
  8
WHITE
 10
12.164630
 20
5.396477
 30
0.000000
 11
11.963630
 21
5.324477
 31
0.000000
  6
CONTINUOUS
  0
ARC
  8
WHITE
 10
11.714892
 20
4.729304
 30
0.000000
 40
0.645059
 50
67.318739
 51
93.639240
  6
CONTINUOUS
  0
LINE
  8
WHITE
 10
11.673948
 20
5.373062
 30
0.000000
 11
10.560794
 21
5.349209
 31
0.000000
  6
CONTINUOUS
  0
ARC
  8
WHITE
 10
10.410442
 20
9.959103
 30
0.000000
 40
4.612345
 50
-101.746324
 51
-88.131955
  6
CONTINUOUS
  0
LINE
  8
WHITE
 10
9.471466
 20
5.443347
 30
0.000000
 11
10.117006
 21
0.356039
 31
0.000000
  6
CONTINUOUS
  0
ARC
  8
WHITE
 10
9.866645
 20
0.562836
 30
0.000000
 40
0.324724
 50
-92.921679
 51
-39.556573
  6
CONTINUOUS
  0
ARC
  8
WHITE
 10
9.786126
 20
0.988853
 30
0.000000
 40
0.753040
 50
-106.699292
 51
-85.127146
  6
CONTINUOUS
  0
ARC
  8
WHITE
 10
9.816417
 20
0.808905
 30
0.000000
 40
0.594888
 50
-165.646683
 51
-114.497854
  6
CONTINUOUS
  0
ARC
  8
WHITE
 10
-377.602197
 20
-54.645366
 30
0.000000
 40
390.775899
 50
8.136433
 51
8.682022
  6
CONTINUOUS
  0
LINE
  8
WHITE
 10
8.695919
 20
4.342508
 30
0.000000
 11
8.203359
 21
2.594286
 31
0.000000
  6
CONTINUOUS
  0
LINE
  8
WHITE
 10
8.203359
 20
2.594286
 30
0.000000
 11
8.786957
 21
2.552977
 31
0.000000
  6
CONTINUOUS
  0
LINE
  8
WHITE
 10
8.786957
 20
2.552977
 30
0.000000
 11
8.888458
 21
1.747460
 31
0.000000
  6
CONTINUOUS
  0
LINE
  8
WHITE
 10
8.888458
 20
1.747460
 30
0.000000
 11
7.929886
 21
1.611902
 31
0.000000
  6
CONTINUOUS
  0
ARC
  8
WHITE
 10
-35.876119
 20
13.795166
 30
0.000000
 40
45.468649
 50
-17.085676
 51
-15.542237
  6
CONTINUOUS
  0
LINE
  8
WHITE
 10
7.585838
 20
0.436415
 30
0.000000
 11
7.386223
 21
0.082742
 31
0.000000
  6
CONTINUOUS
  0
ARC
  8
WHITE
 10
7.166477
 20
0.684117
 30
0.000000
 40
0.640265
 50
-104.472745
 51
-69.927422
  6
CONTINUOUS
  0
ARC
  8
WHITE
 10
7.050683
 20
0.397787
 30
0.000000
 40
0.336536
 50
-162.969570
 51
-97.550528
  6
CONTINUOUS
  0
ARC
  8
WHITE
 10
11.683504
 20
-0.296486
 30
0.000000
 40
4.990282
 50
164.279797
 51
173.144042
  6
CONTINUOUS
  0
LINE
  8
WHITE
 10
6.879876
 20
1.055581
 30
0.000000
 11
7.318961
 21
2.537952
 31
0.000000
  6
CONTINUOUS
  0
LINE
  8
WHITE
 10
7.318961
 20
2.537952
 30
0.000000
 11
8.197020
 21
5.502728
 31
0.000000
  6
CONTINUOUS
  0
ARC
  8
WHITE
 10
8.890304
 20
5.404897
 30
0.000000
 40
0.700153
 50
128.945474
 51
171.967858
  6
CONTINUOUS
  0
ARC
  8
WHITE
 10
9.169656
 20
6.412749
 30
0.000000
 40
0.855729
 50
-162.870916
 51
-147.219439
  6
CONTINUOUS
  0
ARC
  8
WHITE
 10
1.045450
 20
3.945293
 30
0.000000
 40
7.634924
 50
16.868097
 51
23.130348
  6
CONTINUOUS
  0
ARC
  8
WHITE
 10
8.279635
 20
7.515239
 30
0.000000
 40
0.609213
 50
-166.149024
 51
-110.465298
  6
CONTINUOUS
  0
ARC
  8
WHITE
 10
12.526442
 20
8.898844
 30
0.000000
 40
5.074289
 50
-174.192272
 51
-162.457604
  6
CONTINUOUS
  0
LINE
  8
WHITE
 10
7.478199
 20
8.385374
 30
0.000000
 11
7.363484
 21
9.156515
 31
0.000000
  6
CONTINUOUS
  0
ARC
  8
WHITE
 10
6.897005
 20
9.161015
 30
0.000000
 40
0.466500
 50
-0.552797
 51
35.054979
  6
CONTINUOUS
  0
ARC
  8
WHITE
 10
9.572985
 20
11.306430
 30
0.000000
 40
2.964425
 50
-160.466904
 51
-140.703387
  6
CONTINUOUS
  0
ARC
  8
WHITE
 10
23.146889
 20
15.159016
 30
0.000000
 40
17.069393
 50
-166.945698
 51
-163.514787
  6
CONTINUOUS
  0
LINE
  8
WHITE
 10
6.518630
 20
11.303477
 30
0.000000
 11
6.404630
 21
11.333477
 31
0.000000
  6
CONTINUOUS
  0
ARC
  8
WHITE
 10
5.699507
 20
12.209128
 30
0.000000
 40
1.124261
 50
-60.411540
 51
-51.157056
  6
CONTINUOUS
  0
ARC
  8
WHITE
 10
5.873454
 20
10.358778
 30
0.000000
 40
0.952312
 50
66.405358
 51
82.750319
  6
CONTINUOUS
  0
ARC
  8
WHITE
 10
4.843151
 20
12.261727
 30
0.000000
 40
1.497279
 50
-50.771172
 51
-39.791399
  6
CONTINUOUS
  0
ARC
  8
WHITE
 10
6.083764
 20
10.383860
 30
0.000000
 40
0.775781
 50
112.246510
 51
133.512361
  6
CONTINUOUS
  0
ARC
  8
WHITE
 10
11.924980
 20
9.575424
 30
0.000000
 40
6.521111
 50
167.863090
 51
174.905614
  6
CONTINUOUS
  0
ARC
  8
WHITE
 10
88.177350
 20
79.350737
 30
0.000000
 40
107.867084
 50
-140.096566
 51
-138.700845
  6
CONTINUOUS
  0
LINE
  8
WHITE
 10
7.139630
 20
8.159477
 30
0.000000
 11
7.148630
 21
8.090477
 31
0.000000
  6
CONTINUOUS
  0
LINE
  8
WHITE
 10
7.148630
 20
8.090477
 30
0.000000
 11
7.094630
 21
8.054477
 31
0.000000
  6
CONTINUOUS
  0
ARC
  8
WHITE
 10
7.092724
 20
8.550710
 30
0.000000
 40
0.496237
 50
-130.033972
 51
-89.779998
  6
CONTINUOUS
  0
ARC
  8
WHITE
 10
4.737576
 20
4.746527
 30
0.000000
 40
3.983774
 50
59.265527
 51
64.308710
  6
CONTINUOUS
  0
ARC
  8
WHITE
 10
1.968148
 20
7.874140
 30
0.000000
 40
4.520189
 50
-4.170126
 51
5.870637
  6
CONTINUOUS
  0
ARC
  8
WHITE
 10
3.469879
 20
7.707048
 30
0.000000
 40
3.010831
 50
-48.292162
 51
-3.076875
  6
CONTINUOUS
  0
ARC
  8
WHITE
 10
43.554350
 20
-5.844843
 30
0.000000
 40
39.723634
 50
163.466838
 51
165.369958
  6
CONTINUOUS
  0
ARC
  8
WHITE
 10
20.750225
 20
0.188453
 30
0.000000
 40
16.135207
 50
165.646532
 51
172.674567
  6
CONTINUOUS
  0
ARC
  8
WHITE
 10
36.644850
 20
-2.046154
 30
0.000000
 40
32.185582
 50
172.336820
 51
175.860108
  6
CONTINUOUS
  0
ARC
  8
WHITE
 10
4.324678
 20
0.532033
 30
0.000000
 40
0.335587
 50
-129.432448
 51
-49.360024
  6
CONTINUOUS
  0
ARC
  8
WHITE
 10
1.689401
 20
-3.683174
 30
0.000000
 40
4.638607
 50
58.522340
 51
64.319201
  6
CONTINUOUS
  0
ARC
  8
WHITE
 10
4.073070
 20
1.070840
 30
0.000000
 40
0.684480
 50
-149.236006
 51
-123.069989
  6
CONTINUOUS
  0
ARC
  8
WHITE
 10
5.548158
 20
1.658999
 30
0.000000
 40
2.266573
 50
-166.085573
 51
-155.546112
  6
CONTINUOUS
  0
ARC
  8
WHITE
 10
43.962539
 20
9.459443
 30
0.000000
 40
41.462999
 50
-170.694943
 51
-168.388434
  6
CONTINUOUS
  0
LINE
  8
WHITE
 10
3.045133
 20
2.755253
 30
0.000000
 11
2.583172
 21
0.390819
 31
0.000000
  6
CONTINUOUS
  0
ARC
  8
WHITE
 10
0.955141
 20
0.621235
 30
0.000000
 40
1.644255
 50
-19.921141
 51
-8.055599
  6
CONTINUOUS
  0
ARC
  8
WHITE
 10
2.377770
 20
1.428181
 30
0.000000
 40
1.372731
 50
-118.794847
 51
-84.849307
  6
CONTINUOUS
  0
ARC
  8
WHITE
 10
2.036305
 20
0.811146
 30
0.000000
 40
0.667520
 50
171.387164
 51
241.379635
  6
CONTINUOUS
  0
LINE
  8
WHITE
 10
1.376313
 20
0.911112
 30
0.000000
 11
0.976776
 21
5.081204
 31
0.000000
  6
CONTINUOUS
  0
ARC
  8
WHITE
 10
1.307704
 20
5.131118
 30
0.000000
 40
0.334671
 50
124.374621
 51
188.577343
  6
CONTINUOUS
  0
ARC
  8
WHITE
 10
3.198821
 20
7.850553
 30
0.000000
 40
3.208734
 50
-172.098381
 51
-130.410030
  6
CONTINUOUS
  0
ARC
  8
WHITE
 10
3.060334
 20
7.763511
 30
0.000000
 40
3.060334
 50
113.712466
 51
186.643825
  6
CONTINUOUS
  0
LINE
  8
WHITE
 10
1.829630
 20
10.565477
 30
0.000000
 11
1.841630
 21
10.595477
 31
0.000000
  6
CONTINUOUS
  0
ARC
  8
WHITE
 10
2.057481
 20
12.622361
 30
0.000000
 40
2.038345
 50
-111.444961
 51
-96.078764
  6
CONTINUOUS
  0
ARC
  8
WHITE
 10
1.374100
 20
10.901284
 30
0.000000
 40
0.186695
 50
-165.163121
 51
-109.347932
  6
CONTINUOUS
  0
LINE
  8
WHITE
 10
1.193630
 20
10.853477
 30
0.000000
 11
1.238630
 21
10.898477
 31
0.000000
  6
CONTINUOUS
  0
ARC
  8
WHITE
 10
3.941622
 20
-19.032966
 30
0.000000
 40
30.053243
 50
92.342484
 51
95.160162
  6
CONTINUOUS
  0
ARC
  8
WHITE
 10
2.975844
 20
6.666284
 30
0.000000
 40
4.336836
 50
73.955017
 51
93.471157
  6
CONTINUOUS
  0
ARC
  8
WHITE
 10
4.305985
 20
11.166566
 30
0.000000
 40
0.357445
 50
-111.581065
 51
-80.069155
  6
CONTINUOUS
  0
ARC
  8
WHITE
 10
5.176578
 20
10.378576
 30
0.000000
 40
0.918916
 50
133.622302
 51
151.682058
  6
CONTINUOUS
  0
ARC
  8
WHITE
 10
3.972394
 20
11.716654
 30
0.000000
 40
0.881992
 50
-49.720495
 51
-21.440000
  6
CONTINUOUS
  0
ARC
  8
WHITE
 10
3.558870
 20
12.188407
 30
0.000000
 40
1.467860
 50
-32.753239
 51
-15.891738
  6
CONTINUOUS
  0
ARC
  8
WHITE
 10
5.141254
 20
11.959310
 30
0.000000
 40
0.242866
 50
-177.443496
 51
-134.631526
  6
CONTINUOUS
  0
LINE
  8
WHITE
 10
4.898630
 20
11.948477
 30
0.000000
 11
5.057630
 21
12.200477
 31
0.000000
  6
CONTINUOUS
  0
ARC
  8
WHITE
 10
4.159421
 20
15.302162
 30
0.000000
 40
3.229122
 50
-82.692616
 51
-73.849654
  6
CONTINUOUS
  0
ARC
  8
WHITE
 10
4.637689
 20
12.446742
 30
0.000000
 40
0.353980
 50
-171.992960
 51
-101.000830
  6
CONTINUOUS
  0
ARC
  8
WHITE
 10
6.881233
 20
13.093822
 30
0.000000
 40
2.685921
 50
162.411940
 51
195.026936
  6
CONTINUOUS
  0
ARC
  8
WHITE
 10
4.623832
 20
13.721285
 30
0.000000
 40
0.354536
 50
86.809379
 51
148.708273
  6
CONTINUOUS
  0
ARC
  8
WHITE
 10
4.461032
 20
13.104966
 30
0.000000
 40
0.987325
 50
62.820753
 51
79.346089
  6
CONTINUOUS
  0
ARC
  8
WHITE
 10
3.961228
 20
9.537997
 30
0.000000
 40
4.545820
 50
67.065596
 51
77.927047
  6
CONTINUOUS
  0
LINE
  8
WHITE
 10
5.732630
 20
13.724477
 30
0.000000
 11
5.918630
 21
13.901477
 31
0.000000
  6
CONTINUOUS
  0
ARC
  8
WHITE
 10
5.910455
 20
14.419010
 30
0.000000
 40
0.517598
 50
-89.095084
 51
-64.335183
  6
CONTINUOUS
  0
ARC
  8
WHITE
 10
7.023479
 20
13.595821
 30
0.000000
 40
0.957734
 50
139.369535
 51
158.136606
  6
CONTINUOUS
  0
ARC
  8
WHITE
 10
6.258407
 20
14.655474
 30
0.000000
 40
0.437670
 50
-84.989775
 51
-42.200264
  6
CONTINUOUS
  0
LINE
  8
WHITE
 10
6.582633
 20
14.361481
 30
0.000000
 11
6.930878
 21
14.823284
 31
0.000000
  6
CONTINUOUS
  0
ARC
  8
WHITE
 10
2.758233
 20
16.581280
 30
0.000000
 40
4.527860
 50
-22.846399
 51
-17.374458
  6
CONTINUOUS
  0
ARC
  8
WHITE
 10
8.658378
 20
14.721472
 30
0.000000
 40
1.658501
 50
150.938729
 51
162.173765
  6
CONTINUOUS
  0
ARC
  8
WHITE
 10
7.796944
 20
15.152893
 30
0.000000
 40
0.697187
 50
127.685671
 51
147.539999
  6
CONTINUOUS
  0
ARC
  8
WHITE
 10
7.789052
 20
14.970127
 30
0.000000
 40
0.845273
 50
94.964299
 51
119.662681
  6
CONTINUOUS
  0
LINE
  8
WHITE
 10
7.715907
 20
15.812229
 30
0.000000
 11
7.898406
 21
15.825848
 31
0.000000
  6
CONTINUOUS
  0
ARC
  8
WHITE
 10
7.924461
 20
16.091482
 30
0.000000
 40
0.266908
 50
-95.602117
 51
-56.280415
  6
CONTINUOUS
  0
ARC
  8
WHITE
 10
7.782483
 20
15.959822
 30
0.000000
 40
0.303887
 50
-17.295350
 51
24.728114
  6
CONTINUOUS
  0
ARC
  8
WHITE
 10
9.535738
 20
16.559971
 30
0.000000
 40
1.551120
 50
-176.662369
 51
-162.244256
  6
CONTINUOUS
  0
ARC
  8
WHITE
 10
8.962857
 20
16.416446
 30
0.000000
 40
0.977059
 50
159.813941
 51
176.877622
  6
CONTINUOUS
  0
ARC
  8
WHITE
 10
18.328528
 20
15.989924
 30
0.000000
 40
10.311035
 50
173.317814
 51
175.752560
  6
CONTINUOUS
  0
ARC
  8
WHITE
 10
8.432911
 20
17.046651
 30
0.000000
 40
0.373840
 50
90.502871
 51
157.496281
  6
CONTINUOUS
  0
ARC
  8
WHITE
 10
7.372076
 20
15.000798
 30
0.000000
 40
2.640695
 50
56.211816
 51
66.391601
  6
CONTINUOUS
  0
ARC
  8
WHITE
 10
8.153592
 20
17.039527
 30
0.000000
 40
0.704515
 50
-18.907045
 51
12.788809
  6
CONTINUOUS
  0
ARC
  8
WHITE
 10
8.566304
 20
16.854681
 30
0.000000
 40
0.257483
 50
-95.808372
 51
-9.713092
  6
CONTINUOUS
  0
ARC
  8
WHITE
 10
8.461115
 20
16.150713
 30
0.000000
 40
0.454745
 50
79.978831
 51
112.290362
  6
CONTINUOUS
  0
ARC
  8
WHITE
 10
9.056811
 20
16.431366
 30
0.000000
 40
0.780854
 50
169.663253
 51
219.424415
  6
CONTINUOUS
  0
ARC
  8
WHITE
 10
8.257010
 20
14.304289
 30
0.000000
 40
1.642996
 50
72.296514
 51
83.126840
  6
CONTINUOUS
  0
ARC
  8
WHITE
 10
8.987274
 20
15.514599
 30
0.000000
 40
0.423244
 50
5.243252
 51
123.020842
  6
CONTINUOUS
  0
ARC
  8
WHITE
 10
10.456301
 20
16.421590
 30
0.000000
 40
1.360639
 50
-140.344828
 51
-116.922933
  6
CONTINUOUS
  0
ARC
  8
WHITE
 10
8.679850
 20
13.151621
 30
0.000000
 40
2.361541
 50
47.026119
 51
60.570038
  6
CONTINUOUS
  0
ARC
  8
WHITE
 10
1.434413
 20
13.051218
 30
0.000000
 40
9.041979
 50
9.017844
 51
11.665446
  6
CONTINUOUS
  0
ARC
  8
WHITE
 10
10.060486
 20
14.564713
 30
0.000000
 40
0.319006
 50
-86.019646
 51
-17.558304
  6
CONTINUOUS
  0
ARC
  8
WHITE
 10
10.189428
 20
14.737127
 30
0.000000
 40
0.502139
 50
-134.856687
 51
-102.279781
  6
CONTINUOUS
  0
ARC
  8
WHITE
 10
2.642519
 20
5.087981
 30
0.000000
 40
11.751546
 50
52.260898
 51
56.429820
  6
CONTINUOUS
  0
ARC
  8
WHITE
 10
11.362571
 20
15.142678
 30
0.000000
 40
2.237476
 50
-173.244477
 51
-168.810270
  6
CONTINUOUS
  0
LINE
  8
WHITE
 10
9.167630
 20
14.708477
 30
0.000000
 11
9.140630
 21
14.639477
 31
0.000000
  6
CONTINUOUS
  0
LINE
  8
WHITE
 10
9.140630
 20
14.639477
 30
0.000000
 11
9.089630
 21
14.642477
 31
0.000000
  6
CONTINUOUS
  0
ARC
  8
WHITE
 10
7.971426
 20
13.841849
 30
0.000000
 40
1.375276
 50
35.602459
 51
61.501008
  6
CONTINUOUS
  0
LINE
  8
WHITE
 10
8.627630
 20
15.050477
 30
0.000000
 11
8.615630
 21
15.017477
 31
0.000000
  6
CONTINUOUS
  0
LINE
  8
WHITE
 10
8.615630
 20
15.017477
 30
0.000000
 11
8.873239
 21
14.723467
 31
0.000000
  6
CONTINUOUS
  0
ARC
  8
WHITE
 10
8.330457
 20
14.271282
 30
0.000000
 40
0.706458
 50
8.235528
 51
39.797252
  6
CONTINUOUS
  0
LINE
  8
WHITE
 10
9.029630
 20
14.372477
 30
0.000000
 11
8.993630
 21
14.303477
 31
0.000000
  6
CONTINUOUS
  0
LINE
  8
WHITE
 10
8.993630
 20
14.303477
 30
0.000000
 11
8.936630
 21
14.297477
 31
0.000000
  6
CONTINUOUS
  0
ARC
  8
WHITE
 10
4.605458
 20
10.863297
 30
0.000000
 40
5.527445
 50
38.410844
 51
45.575785
  6
CONTINUOUS
  0
ARC
  8
WHITE
 10
9.903519
 20
16.972752
 30
0.000000
 40
2.591504
 50
-138.733012
 51
-123.465420
  6
CONTINUOUS
  0
LINE
  8
WHITE
 10
7.955630
 20
15.263477
 30
0.000000
 11
7.883630
 21
15.236477
 31
0.000000
  6
CONTINUOUS
  0
ARC
  8
WHITE
 10
18.419479
 20
7.024676
 30
0.000000
 40
13.358061
 50
142.066607
 51
148.062446
  6
CONTINUOUS
  0
ARC
  8
WHITE
 10
7.244766
 20
13.932023
 30
0.000000
 40
0.226470
 50
135.407505
 51
186.222266
  6
CONTINUOUS
  0
ARC
  8
WHITE
 10
6.534618
 20
13.437414
 30
0.000000
 40
0.675423
 50
6.551481
 51
44.103263
  6
CONTINUOUS
  0
LINE
  8
WHITE
 10
7.205630
 20
13.514477
 30
0.000000
 11
7.319630
 21
13.418477
 31
0.000000
  6
CONTINUOUS
  0
LINE
  8
WHITE
 10
7.319630
 20
13.418477
 30
0.000000
 11
7.316630
 21
13.313477
 31
0.000000
  6
CONTINUOUS
  0
LINE
  8
WHITE
 10
7.316630
 20
13.313477
 30
0.000000
 11
7.415630
 21
13.220477
 31
0.000000
  6
CONTINUOUS
  0
LINE
  8
WHITE
 10
7.415630
 20
13.220477
 30
0.000000
 11
7.424630
 21
13.145477
 31
0.000000
  6
CONTINUOUS
  0
LINE
  8
WHITE
 10
7.424630
 20
13.145477
 30
0.000000
 11
7.370630
 21
13.043477
 31
0.000000
  6
CONTINUOUS
  0
ARC
  8
WHITE
 10
7.547535
 20
12.647180
 30
0.000000
 40
0.433989
 50
114.055733
 51
141.982153
  6
CONTINUOUS
  0
LINE
  8
WHITE
 10
7.205630
 20
12.914477
 30
0.000000
 11
7.208630
 21
12.860477
 31
0.000000
  6
CONTINUOUS
  0
ARC
  8
WHITE
 10
7.450761
 20
13.344501
 30
0.000000
 40
0.541209
 50
-116.576316
 51
-91.496171
  6
CONTINUOUS
  0
ARC
  8
WHITE
 10
9.187325
 20
12.542573
 30
0.000000
 40
1.770030
 50
152.911557
 51
171.523666
  6
CONTINUOUS
  0
ARC
  8
WHITE
 10
8.088034
 20
13.080990
 30
0.000000
 40
0.546561
 50
120.695987
 51
150.686114
  6
CONTINUOUS
  0
ARC
  8
WHITE
 10
7.135488
 20
14.703118
 30
0.000000
 40
1.334575
 50
-59.689759
 51
-47.353317
  6
CONTINUOUS
  0
LINE
  8
WHITE
 10
8.039630
 20
13.721477
 30
0.000000
 11
8.137838
 21
14.031158
 31
0.000000
  6
CONTINUOUS
  0
ARC
  8
WHITE
 10
8.351815
 20
13.935521
 30
0.000000
 40
0.234377
 50
75.743037
 51
155.917780
  6
CONTINUOUS
  0
ARC
  8
WHITE
 10
7.434840
 20
10.556256
 30
0.000000
 40
3.735816
 50
64.917023
 51
74.876198
  6
CONTINUOUS
  0
ARC
  8
WHITE
 10
15.140765
 20
27.200384
 30
0.000000
 40
14.605660
 50
-114.781957
 51
-109.677957
  6
CONTINUOUS
  0
ARC
  8
WHITE
 10
8.166502
 20
8.015511
 30
0.000000
 40
5.808265
 50
43.608965
 51
69.268580
  6
CONTINUOUS
  0
ARC
  8
WHITE
 10
11.452949
 20
11.097633
 30
0.000000
 40
1.303299
 50
12.444082
 51
45.152973
  6
CONTINUOUS
  0
ARC
  8
WHITE
 10
13.823046
 20
9.842725
 30
0.000000
 40
1.887553
 50
119.812300
 51
125.548809
  6
CONTINUOUS
  0
ARC
  8
WHITE
 10
12.802483
 20
10.931495
 30
0.000000
 40
0.555094
 50
51.253038
 51
81.489701
  6
CONTINUOUS
  0
ARC
  8
WHITE
 10
14.587856
 20
13.474961
 30
0.000000
 40
2.553835
 50
-124.267341
 51
-99.626243
  6
CONTINUOUS
  0
ARC
  8
WHITE
 10
14.898123
 20
14.607819
 30
0.000000
 40
3.724446
 50
-101.418145
 51
-76.103096
  6
CONTINUOUS
  0
ARC
  8
WHITE
 10
12.779582
 20
18.969989
 30
0.000000
 40
8.527639
 50
-69.308932
 51
-63.782331
  6
CONTINUOUS
  0
ARC
  8
WHITE
 10
17.388789
 20
9.745728
 30
0.000000
 40
1.784922
 50
104.958794
 51
118.140953
  6
CONTINUOUS
  0
ARC
  8
WHITE
 10
17.011195
 20
11.192159
 30
0.000000
 40
0.290168
 50
66.073204
 51
106.649617
  6
CONTINUOUS
  0
ARC
  8
WHITE
 10
13.330159
 20
6.818540
 30
0.000000
 40
5.995766
 50
48.722196
 51
50.686224
  6
CONTINUOUS
  0
ARC
  8
WHITE
 10
18.119397
 20
11.551140
 30
0.000000
 40
0.864028
 50
171.326754
 51
195.208520
  6
CONTINUOUS
  0
ARC
  8
WHITE
 10
17.557849
 20
11.583008
 30
0.000000
 40
0.308711
 50
95.260234
 51
161.407729
  6
CONTINUOUS
  0
ARC
  8
WHITE
 10
17.872192
 20
7.416093
 30
0.000000
 40
4.487426
 50
85.183034
 51
94.379182
  6
CONTINUOUS
  0
ARC
  8
WHITE
 10
17.049240
 20
-23.420571
 30
0.000000
 40
35.328618
 50
85.718045
 51
88.053838
  6
CONTINUOUS
  0
ARC
  8
WHITE
 10
19.621978
 20
11.285223
 30
0.000000
 40
0.528234
 50
38.281428
 51
82.925088
  6
CONTINUOUS
  0
LINE
  8
WHITE
 10
20.036630
 20
11.612477
 30
0.000000
 11
20.072630
 21
11.348477
 31
0.000000
  6
CONTINUOUS
  0
LINE
  8
WHITE
 10
20.072630
 20
11.348477
 30
0.000000
 11
20.318630
 21
11.081477
 31
0.000000
  6
CONTINUOUS
  0
ARC
  8
WHITE
 10
19.042958
 20
2.756987
 30
0.000000
 40
8.421667
 50
74.807054
 51
81.287583
  6
CONTINUOUS
  0
ARC
  8
WHITE
 10
20.561184
 20
8.343219
 30
0.000000
 40
2.632799
 50
54.093671
 51
74.832665
  6
CONTINUOUS
  0
ARC
  8
WHITE
 10
22.443213
 20
10.890358
 30
0.000000
 40
0.534939
 50
-129.185547
 51
-100.025160
  6
CONTINUOUS
  0
ARC
  8
WHITE
 10
22.481767
 20
14.845547
 30
0.000000
 40
4.483894
 50
-91.682830
 51
-87.714442
  6
CONTINUOUS
  0
ARC
  8
WHITE
 10
22.647032
 20
8.136681
 30
0.000000
 40
2.228581
 50
80.516236
 51
89.651575
  6
CONTINUOUS
  0
ARC
  8
WHITE
 10
22.889438
 20
10.072642
 30
0.000000
 40
0.290346
 50
-15.842903
 51
64.544665
  6
CONTINUOUS
  0
ARC
  8
WHITE
 10
22.947589
 20
9.944463
 30
0.000000
 40
0.226511
 50
-42.485292
 51
12.471179
  6
CONTINUOUS
  0
LINE
  8
WHITE
 10
23.114630
 20
9.791477
 30
0.000000
 11
22.880630
 21
9.719477
 31
0.000000
  6
CONTINUOUS
  0
LINE
  8
WHITE
 10
22.880630
 20
9.719477
 30
0.000000
 11
22.856630
 21
9.677477
 31
0.000000
  6
CONTINUOUS
  0
ARC
  8
WHITE
 10
17.218950
 20
6.767741
 30
0.000000
 40
6.344289
 50
8.372096
 51
27.299298
  6
CONTINUOUS
  0
LINE
  8
WHITE
 10
23.495630
 20
7.691477
 30
0.000000
 11
23.408630
 21
7.664477
 31
0.000000
  6
CONTINUOUS
  0
LINE
  8
WHITE
 10
23.408630
 20
7.664477
 30
0.000000
 11
23.075630
 21
7.862477
 31
0.000000
  6
CONTINUOUS
  0
LINE
  8
WHITE
 10
23.075630
 20
7.862477
 30
0.000000
 11
23.027630
 21
7.859477
 31
0.000000
  6
CONTINUOUS
  0
ARC
  8
WHITE
 10
24.790121
 20
7.534477
 30
0.000000
 40
1.792205
 50
169.552144
 51
184.576509
  6
CONTINUOUS
  0
LINE
  8
WHITE
 10
23.003630
 20
7.391477
 30
0.000000
 11
23.990630
 21
7.052477
 31
0.000000
  6
CONTINUOUS
  0
LINE
  8
WHITE
 10
23.990630
 20
7.052477
 30
0.000000
 11
24.053630
 21
6.986477
 31
0.000000
  6
CONTINUOUS
  0
LINE
  8
WHITE
 10
24.053630
 20
6.986477
 30
0.000000
 11
24.044630
 21
6.932477
 31
0.000000
  6
CONTINUOUS
  0
ARC
  8
WHITE
 10
23.819380
 20
7.605442
 30
0.000000
 40
0.709662
 50
-94.303279
 51
-71.493985
  6
CONTINUOUS
  0
ARC
  8
WHITE
 10
23.997273
 20
-10.916751
 30
0.000000
 40
17.816031
 50
90.743368
 51
93.477447
  6
CONTINUOUS
  0
LINE
  8
WHITE
 10
22.916630
 20
6.866477
 30
0.000000
 11
22.838630
 21
6.809477
 31
0.000000
  6
CONTINUOUS
  0
ARC
  8
WHITE
 10
19.790272
 20
8.016832
 30
0.000000
 40
3.278748
 50
-71.807986
 51
-21.606900
  6
CONTINUOUS
  0
ARC
  8
WHITE
 10
168.159663
 20
71.164565
 30
0.000000
 40
161.559598
 50
-155.786160
 51
-155.252987
  6
CONTINUOUS
  0
ARC
  8
WHITE
 10
293.548382
 20
-116.635815
 30
0.000000
 40
297.464921
 50
155.601977
 51
156.172849
  6
CONTINUOUS
  0
ARC
  8
WHITE
 10
22.640869
 20
5.585716
 30
0.000000
 40
0.653234
 50
-3.812595
 51
89.400885
  6
CONTINUOUS
  0
ARC
  8
WHITE
 10
20.428020
 20
6.480780
 30
0.000000
 40
3.014452
 50
-24.941221
 51
-18.139605
  6
CONTINUOUS
  0
LINE
  8
WHITE
 10
23.161347
 20
5.209621
 30
0.000000
 11
22.973440
 21
4.771052
 31
0.000000
  6
CONTINUOUS
  0
ARC
  8
WHITE
 10
16.431167
 20
5.212634
 30
0.000000
 40
0.140424
 50
78.908671
 51
101.091329
  6
CONTINUOUS
  0
ARC
  8
WHITE
 10
15.870376
 20
4.987312
 30
0.000000
 40
0.645581
 50
34.227057
 51
74.194013
  6
CONTINUOUS
  0
LINE
  8
WHITE
 10
16.046220
 20
5.608484
 30
0.000000
 11
16.955630
 21
5.726477
 31
0.000000
  6
CONTINUOUS
  0
LINE
  8
WHITE
 10
16.955630
 20
5.726477
 30
0.000000
 11
17.060630
 21
5.783477
 31
0.000000
  6
CONTINUOUS
  0
LINE
  8
WHITE
 10
17.060630
 20
5.783477
 30
0.000000
 11
17.081630
 21
5.852477
 31
0.000000
  6
CONTINUOUS
  0
LINE
  8
WHITE
 10
17.081630
 20
5.852477
 30
0.000000
 11
17.006630
 21
5.975477
 31
0.000000
  6
CONTINUOUS
  0
ARC
  8
WHITE
 10
16.511748
 20
4.879232
 30
0.000000
 40
1.202772
 50
65.703981
 51
81.398803
  6
CONTINUOUS
  0
LINE
  8
WHITE
 10
16.691630
 20
6.068477
 30
0.000000
 11
16.667630
 21
6.125477
 31
0.000000
  6
CONTINUOUS
  0
LINE
  8
WHITE
 10
16.667630
 20
6.125477
 30
0.000000
 11
16.745630
 21
6.167477
 31
0.000000
  6
CONTINUOUS
  0
LINE
  8
WHITE
 10
16.745630
 20
6.167477
 30
0.000000
 11
17.057630
 21
6.185477
 31
0.000000
  6
CONTINUOUS
  0
ARC
  8
WHITE
 10
15.985228
 20
5.024229
 30
0.000000
 40
1.580677
 50
31.112870
 51
47.277809
  6
CONTINUOUS
  0
ARC
  8
WHITE
 10
19.562344
 20
7.674564
 30
0.000000
 40
2.882239
 50
-140.494101
 51
-128.732414
  6
CONTINUOUS
  0
ARC
  8
WHITE
 10
187.358765
 20
-93.705189
 30
0.000000
 40
196.446230
 50
149.693637
 51
150.454124
  6
CONTINUOUS
  0
LINE
  8
WHITE
 10
16.458180
 20
3.166433
 30
0.000000
 11
16.458180
 21
5.350435
 31
0.000000
  6
CONTINUOUS
  0
ARC
  8
WHITE
 10
49.606400
 20
10.384586
 30
0.000000
 40
46.407728
 50
-172.914404
 51
-169.958720
  6
CONTINUOUS
  0
LINE
  8
WHITE
 10
3.909528
 20
2.293043
 30
0.000000
 11
4.243591
 21
4.061486
 31
0.000000
  6
CONTINUOUS
  0
ARC
  8
WHITE
 10
17.938373
 20
1.592354
 30
0.000000
 40
13.915591
 50
166.482221
 51
169.779529
  6
CONTINUOUS
  0
ARC
  8
WHITE
 10
3.266450
 20
8.054541
 30
0.000000
 40
3.406522
 50
-85.173175
 51
-70.415950
  6
CONTINUOUS
  0
ARC
  8
WHITE
 10
21.179856
 20
-0.064821
 30
0.000000
 40
19.228725
 50
165.629648
 51
173.648530
  6
CONTINUOUS
  0
LINE
  8
WHITE
 10
2.069158
 20
2.062399
 30
0.000000
 11
1.894212
 21
4.197335
 31
0.000000
  6
CONTINUOUS
  0
ARC
  8
WHITE
 10
13.026704
 20
5.311074
 30
0.000000
 40
11.188065
 50
-178.107131
 51
-174.286913
  6
CONTINUOUS
  0
ARC
  8
WHITE
 10
3.198821
 20
7.850553
 30
0.000000
 40
3.208734
 50
-114.960730
 51
-101.615485
  6
CONTINUOUS
  0
LINE
  8
WHITE
 10
6.191630
 20
13.127477
 30
0.000000
 11
5.675630
 21
12.122477
 31
0.000000
  6
CONTINUOUS
  0
LINE
  8
WHITE
 10
5.675630
 20
12.122477
 30
0.000000
 11
5.699630
 21
12.062477
 31
0.000000
  6
CONTINUOUS
  0
LINE
  8
WHITE
 10
5.699630
 20
12.062477
 30
0.000000
 11
5.942630
 21
11.900477
 31
0.000000
  6
CONTINUOUS
  0
LINE
  8
WHITE
 10
5.942630
 20
11.900477
 30
0.000000
 11
6.026630
 21
11.897477
 31
0.000000
  6
CONTINUOUS
  0
ARC
  8
WHITE
 10
5.785755
 20
12.247062
 30
0.000000
 40
0.424535
 50
-55.431967
 51
-19.624915
  6
CONTINUOUS
  0
ARC
  8
WHITE
 10
5.330777
 20
11.913604
 30
0.000000
 40
0.875903
 50
12.586637
 51
22.902706
  6
CONTINUOUS
  0
ARC
  8
WHITE
 10
7.541073
 20
11.830032
 30
0.000000
 40
1.466222
 50
143.095324
 51
163.173049
  6
CONTINUOUS
  0
LINE
  8
WHITE
 10
6.368630
 20
12.710477
 30
0.000000
 11
6.458630
 21
12.719477
 31
0.000000
  6
CONTINUOUS
  0
ARC
  8
WHITE
 10
5.403656
 20
13.460901
 30
0.000000
 40
1.289449
 50
-35.099135
 51
-15.261922
  6
CONTINUOUS
  0
LINE
  8
WHITE
 10
6.647630
 20
13.121477
 30
0.000000
 11
6.623630
 21
13.220477
 31
0.000000
  6
CONTINUOUS
  0
LINE
  8
WHITE
 10
6.623630
 20
13.220477
 30
0.000000
 11
6.548630
 21
13.289477
 31
0.000000
  6
CONTINUOUS
  0
LINE
  8
WHITE
 10
6.548630
 20
13.289477
 30
0.000000
 11
6.419630
 21
13.301477
 31
0.000000
  6
CONTINUOUS
  0
ARC
  8
WHITE
 10
6.537515
 20
13.085733
 30
0.000000
 40
0.245851
 50
118.652742
 51
158.590227
  6
CONTINUOUS
  0
LINE
  8
WHITE
 10
6.308630
 20
13.175477
 30
0.000000
 11
6.191630
 21
13.127477
 31
0.000000
  6
CONTINUOUS
  0
ARC
  8
WHITE
 10
9.541826
 20
11.427872
 30
0.000000
 40
2.773014
 50
-177.925199
 51
-161.754143
  6
CONTINUOUS
  0
ARC
  8
WHITE
 10
8.651368
 20
10.973845
 30
0.000000
 40
1.791667
 50
-166.633674
 51
-141.580475
  6
CONTINUOUS
  0
LINE
  8
WHITE
 10
7.247630
 20
9.860477
 30
0.000000
 11
7.265630
 21
9.923477
 31
0.000000
  6
CONTINUOUS
  0
LINE
  8
WHITE
 10
7.265630
 20
9.923477
 30
0.000000
 11
7.235630
 21
10.601477
 31
0.000000
  6
CONTINUOUS
  0
LINE
  8
WHITE
 10
7.235630
 20
10.601477
 30
0.000000
 11
7.271630
 21
10.781477
 31
0.000000
  6
CONTINUOUS
  0
LINE
  8
WHITE
 10
7.271630
 20
10.781477
 30
0.000000
 11
7.202630
 21
11.126477
 31
0.000000
  6
CONTINUOUS
  0
ARC
  8
WHITE
 10
6.190634
 20
9.516181
 30
0.000000
 40
1.901891
 50
57.852569
 51
72.244406
  6
CONTINUOUS
  0
ARC
  8
WHITE
 10
14.297572
 20
14.266185
 30
0.000000
 40
8.501067
 50
-89.473893
 51
-83.312739
  6
CONTINUOUS
  0
ARC
  8
WHITE
 10
15.136520
 20
8.139191
 30
0.000000
 40
2.321153
 50
-86.270041
 51
-74.976590
  6
CONTINUOUS
  0
ARC
  8
WHITE
 10
16.427413
 20
4.191948
 30
0.000000
 40
1.839431
 50
97.773093
 51
112.005247
  6
CONTINUOUS
  0
LINE
  8
WHITE
 10
16.178630
 20
6.014477
 30
0.000000
 11
16.256630
 21
6.098477
 31
0.000000
  6
CONTINUOUS
  0
LINE
  8
WHITE
 10
16.256630
 20
6.098477
 30
0.000000
 11
16.199630
 21
6.137477
 31
0.000000
  6
CONTINUOUS
  0
LINE
  8
WHITE
 10
16.199630
 20
6.137477
 30
0.000000
 11
15.470630
 21
6.119477
 31
0.000000
  6
CONTINUOUS
  0
LINE
  8
WHITE
 10
15.470630
 20
6.119477
 30
0.000000
 11
15.146630
 21
6.119477
 31
0.000000
  6
CONTINUOUS
  0
LINE
  8
WHITE
 10
15.146630
 20
6.119477
 30
0.000000
 11
15.083630
 21
6.083477
 31
0.000000
  6
CONTINUOUS
  0
LINE
  8
WHITE
 10
15.083630
 20
6.083477
 30
0.000000
 11
15.038630
 21
5.846477
 31
0.000000
  6
CONTINUOUS
  0
LINE
  8
WHITE
 10
15.038630
 20
5.846477
 30
0.000000
 11
14.978630
 21
5.822477
 31
0.000000
  6
CONTINUOUS
  0
LINE
  8
WHITE
 10
14.978630
 20
5.822477
 30
0.000000
 11
14.903630
 21
5.858477
 31
0.000000
  6
CONTINUOUS
  0
ARC
  8
WHITE
 10
19.350739
 20
8.127785
 30
0.000000
 40
4.992649
 50
-154.843849
 51
-152.965303
  6
CONTINUOUS
  0
LINE
  8
WHITE
 10
14.831630
 20
6.005477
 30
0.000000
 11
14.762630
 21
5.996477
 31
0.000000
  6
CONTINUOUS
  0
LINE
  8
WHITE
 10
14.762630
 20
5.996477
 30
0.000000
 11
14.375630
 21
5.765477
 31
0.000000
  6
CONTINUOUS
  0
LINE
  8
WHITE
 10
19.938454
 20
4.845429
 30
0.000000
 11
19.779860
 21
5.340878
 31
0.000000
  6
CONTINUOUS
  0
ARC
  8
WHITE
 10
20.077865
 20
5.503853
 30
0.000000
 40
0.339659
 50
142.469959
 51
208.673710
  6
CONTINUOUS
  0
ARC
  8
WHITE
 10
20.100789
 20
5.086243
 30
0.000000
 40
0.689535
 50
36.793211
 51
115.080222
  6
CONTINUOUS
  0
ARC
  8
WHITE
 10
17.872844
 20
3.603529
 30
0.000000
 40
3.364932
 50
26.327012
 51
34.289070
  6
CONTINUOUS
  0
LINE
  8
WHITE
 10
20.888757
 20
5.095856
 30
0.000000
 11
20.754316
 21
5.029332
 31
0.000000
  6
CONTINUOUS
  0
ARC
  8
WHITE
 10
17.872844
 20
3.603529
 30
0.000000
 40
3.214932
 50
26.327012
 51
34.227725
  6
CONTINUOUS
  0
ARC
  8
WHITE
 10
20.100789
 20
5.086243
 30
0.000000
 40
0.539535
 50
37.124009
 51
110.797391
  6
CONTINUOUS
  0
ARC
  8
WHITE
 10
20.077865
 20
5.503853
 30
0.000000
 40
0.189659
 50
152.773709
 51
212.386230
  6
CONTINUOUS
  0
LINE
  8
WHITE
 10
19.917707
 20
5.402268
 30
0.000000
 11
20.081313
 21
4.891159
 31
0.000000
  6
CONTINUOUS
  0
LINE
  8
WHITE
 10
20.081313
 20
4.891159
 30
0.000000
 11
19.938454
 21
4.845429
 31
0.000000
  6
CONTINUOUS
  0
LINE
  8
WHITE
 10
4.450753
 20
5.016940
 30
0.000000
 11
4.305367
 21
5.053855
 31
0.000000
  6
CONTINUOUS
  0
ARC
  8
WHITE
 10
17.938373
 20
1.592354
 30
0.000000
 40
14.065591
 50
162.335152
 51
165.753325
  6
CONTINUOUS
  0
ARC
  8
WHITE
 10
4.954957
 20
5.678566
 30
0.000000
 40
0.456764
 50
61.436470
 51
156.522364
  6
CONTINUOUS
  0
ARC
  8
WHITE
 10
4.564279
 20
4.131358
 30
0.000000
 40
2.041359
 50
65.565090
 51
72.640525
  6
CONTINUOUS
  0
ARC
  8
WHITE
 10
5.364758
 20
5.678539
 30
0.000000
 40
0.314424
 50
28.737956
 51
81.965318
  6
CONTINUOUS
  0
ARC
  8
WHITE
 10
3.426491
 20
7.732682
 30
0.000000
 40
2.919402
 50
-43.986581
 51
-40.680031
  6
CONTINUOUS
  0
ARC
  8
WHITE
 10
5.364758
 20
5.678539
 30
0.000000
 40
0.164424
 50
9.326696
 51
88.462082
  6
CONTINUOUS
  0
ARC
  8
WHITE
 10
4.564279
 20
4.131358
 30
0.000000
 40
1.891359
 50
64.813707
 51
73.122654
  6
CONTINUOUS
  0
ARC
  8
WHITE
 10
4.954957
 20
5.678566
 30
0.000000
 40
0.306764
 50
58.905451
 51
155.236901
  6
CONTINUOUS
  0
ARC
  8
WHITE
 10
17.938373
 20
1.592354
 30
0.000000
 40
13.915591
 50
162.369545
 51
165.753325
  6
CONTINUOUS
  0
ARC
  8
WHITE
 10
3.940793
 20
-11.381155
 30
0.000000
 40
23.055841
 50
77.935822
 51
80.946885
  6
CONTINUOUS
  0
ARC
  8
WHITE
 10
7.853263
 20
11.225693
 30
0.000000
 40
0.327400
 50
150.386330
 51
191.668417
  6
CONTINUOUS
  0
ARC
  8
WHITE
 10
7.863860
 20
11.498100
 30
0.000000
 40
0.473687
 50
-134.367639
 51
-102.081723
  6
CONTINUOUS
  0
ARC
  8
WHITE
 10
7.988864
 20
11.505491
 30
0.000000
 40
0.521242
 50
-115.469501
 51
-86.065496
  6
CONTINUOUS
  0
LINE
  8
WHITE
 10
8.024630
 20
10.985477
 30
0.000000
 11
8.168630
 21
11.078477
 31
0.000000
  6
CONTINUOUS
  0
LINE
  8
WHITE
 10
8.168630
 20
11.078477
 30
0.000000
 11
8.348630
 21
11.057477
 31
0.000000
  6
CONTINUOUS
  0
LINE
  8
WHITE
 10
8.348630
 20
11.057477
 30
0.000000
 11
8.759630
 21
11.165477
 31
0.000000
  6
CONTINUOUS
  0
ARC
  8
WHITE
 10
2.083441
 20
11.088904
 30
0.000000
 40
3.311676
 50
-13.274701
 51
5.172679
  6
CONTINUOUS
  0
LINE
  8
WHITE
 10
5.381630
 20
11.387477
 30
0.000000
 11
5.342630
 21
11.429477
 31
0.000000
  6
CONTINUOUS
  0
ARC
  8
WHITE
 10
6.281719
 20
10.783224
 30
0.000000
 40
1.139970
 50
145.465419
 51
170.528029
  6
CONTINUOUS
  0
ARC
  8
WHITE
 10
4.603897
 20
10.944380
 30
0.000000
 40
0.554025
 50
-48.964452
 51
2.735738
  6
CONTINUOUS
  0
LINE
  8
WHITE
 10
4.967630
 20
10.526477
 30
0.000000
 11
5.000630
 21
10.463477
 31
0.000000
  6
CONTINUOUS
  0
LINE
  8
WHITE
 10
5.000630
 20
10.463477
 30
0.000000
 11
5.264630
 21
10.295477
 31
0.000000
  6
CONTINUOUS
  0
LINE
  8
WHITE
 10
5.264630
 20
10.295477
 30
0.000000
 11
5.306630
 21
10.328477
 31
0.000000
  6
CONTINUOUS
  0
LINE
  8
WHITE
 10
17.830197
 20
5.547950
 30
0.000000
 11
17.849367
 21
5.580685
 31
0.000000
  6
CONTINUOUS
  0
ARC
  8
WHITE
 10
18.110747
 20
5.466976
 30
0.000000
 40
0.285043
 50
76.614120
 51
156.489196
  6
CONTINUOUS
  0
ARC
  8
WHITE
 10
14.468293
 20
-0.017153
 30
0.000000
 40
6.851759
 50
53.433393
 51
57.231935
  6
CONTINUOUS
  0
ARC
  8
WHITE
 10
18.496100
 20
5.342284
 30
0.000000
 40
0.153531
 50
-21.311426
 51
69.337555
  6
CONTINUOUS
  0
ARC
  8
WHITE
 10
16.547145
 20
6.028133
 30
0.000000
 40
2.219561
 50
-24.231956
 51
-19.520344
  6
CONTINUOUS
  0
LINE
  8
WHITE
 10
18.571144
 20
5.117155
 30
0.000000
 11
18.707927
 21
5.055590
 31
0.000000
  6
CONTINUOUS
  0
ARC
  8
WHITE
 10
16.547145
 20
6.028133
 30
0.000000
 40
2.369561
 50
-24.231956
 51
-19.568371
  6
CONTINUOUS
  0
ARC
  8
WHITE
 10
18.496100
 20
5.342284
 30
0.000000
 40
0.303531
 50
-20.801198
 51
64.747551
  6
CONTINUOUS
  0
ARC
  8
WHITE
 10
14.468293
 20
-0.017153
 30
0.000000
 40
7.001759
 50
53.576412
 51
57.420060
  6
CONTINUOUS
  0
ARC
  8
WHITE
 10
18.110747
 20
5.466976
 30
0.000000
 40
0.435043
 50
72.913235
 51
155.183427
  6
CONTINUOUS
  0
LINE
  8
WHITE
 10
17.715877
 20
5.649569
 30
0.000000
 11
17.830197
 21
5.547950
 31
0.000000
  6
CONTINUOUS
  0
LINE
  8
WHITE
 10
2.453705
 20
4.924414
 30
0.000000
 11
2.498464
 21
5.098289
 31
0.000000
  6
CONTINUOUS
  0
ARC
  8
WHITE
 10
2.716472
 20
5.039534
 30
0.000000
 40
0.225787
 50
97.091175
 51
164.916622
  6
CONTINUOUS
  0
LINE
  8
WHITE
 10
2.688599
 20
5.263594
 30
0.000000
 11
2.957915
 21
5.263594
 31
0.000000
  6
CONTINUOUS
  0
ARC
  8
WHITE
 10
2.818798
 20
1.752061
 30
0.000000
 40
3.514287
 50
79.618780
 51
87.731302
  6
CONTINUOUS
  0
ARC
  8
WHITE
 10
3.376658
 20
4.780266
 30
0.000000
 40
0.435139
 50
63.724623
 51
80.021103
  6
CONTINUOUS
  0
ARC
  8
WHITE
 10
3.394659
 20
4.970637
 30
0.000000
 40
0.265365
 50
8.572813
 51
48.847061
  6
CONTINUOUS
  0
LINE
  8
WHITE
 10
3.657059
 20
5.010193
 30
0.000000
 11
3.682090
 21
4.825311
 31
0.000000
  6
CONTINUOUS
  0
LINE
  8
WHITE
 10
3.682090
 20
4.825311
 30
0.000000
 11
3.533446
 21
4.805186
 31
0.000000
  6
CONTINUOUS
  0
LINE
  8
WHITE
 10
3.533446
 20
4.805186
 30
0.000000
 11
3.511724
 21
4.965630
 31
0.000000
  6
CONTINUOUS
  0
ARC
  8
WHITE
 10
3.424516
 20
4.973253
 30
0.000000
 40
0.087541
 50
-4.995651
 51
87.542008
  6
CONTINUOUS
  0
ARC
  8
WHITE
 10
2.825000
 20
1.761903
 30
0.000000
 40
3.353518
 50
79.636549
 51
88.108501
  6
CONTINUOUS
  0
ARC
  8
WHITE
 10
2.873709
 20
2.206799
 30
0.000000
 40
2.907456
 50
88.778495
 51
93.647743
  6
CONTINUOUS
  0
ARC
  8
WHITE
 10
2.749584
 20
5.005256
 30
0.000000
 40
0.119726
 50
120.548677
 51
179.133626
  6
CONTINUOUS
  0
LINE
  8
WHITE
 10
2.629872
 20
5.007067
 30
0.000000
 11
2.598969
 21
4.887020
 31
0.000000
  6
CONTINUOUS
  0
LINE
  8
WHITE
 10
2.598969
 20
4.887020
 30
0.000000
 11
2.453705
 21
4.924414
 31
0.000000
  6
CONTINUOUS
  0
ARC
  8
WHITE
 10
12.926563
 20
4.511750
 30
0.000000
 40
1.394887
 50
57.812973
 51
81.140894
  6
CONTINUOUS
  0
ARC
  8
WHITE
 10
12.873448
 20
5.045347
 30
0.000000
 40
0.886127
 50
72.400189
 51
125.044248
  6
CONTINUOUS
  0
ARC
  8
WHITE
 10
14.063387
 20
4.051703
 30
0.000000
 40
2.416853
 50
134.658658
 51
139.274162
  6
CONTINUOUS
  0
LINE
  8
WHITE
 10
12.231799
 20
5.628555
 30
0.000000
 11
12.345475
 21
5.530689
 31
0.000000
  6
CONTINUOUS
  0
ARC
  8
WHITE
 10
14.063387
 20
4.051703
 30
0.000000
 40
2.266853
 50
134.987336
 51
139.274162
  6
CONTINUOUS
  0
ARC
  8
WHITE
 10
12.873448
 20
5.045347
 30
0.000000
 40
0.736127
 50
71.523466
 51
124.091699
  6
CONTINUOUS
  0
ARC
  8
WHITE
 10
12.926563
 20
4.511750
 30
0.000000
 40
1.244887
 50
57.812973
 51
81.678235
  6
CONTINUOUS
  0
LINE
  8
WHITE
 10
13.589695
 20
5.565314
 30
0.000000
 11
13.669598
 21
5.692261
 31
0.000000
  6
CONTINUOUS
  0
ARC
  8
WHITE
 10
3.893739
 20
6.704456
 30
0.000000
 40
1.105815
 50
25.039035
 51
35.677143
  6
CONTINUOUS
  0
ARC
  8
WHITE
 10
4.577428
 20
7.257481
 30
0.000000
 40
0.233436
 50
23.185477
 51
171.377924
  6
CONTINUOUS
  0
LINE
  8
WHITE
 10
4.346630
 20
7.292477
 30
0.000000
 11
4.472630
 21
7.106477
 31
0.000000
  6
CONTINUOUS
  0
LINE
  8
WHITE
 10
4.472630
 20
7.106477
 30
0.000000
 11
4.544630
 21
7.073477
 31
0.000000
  6
CONTINUOUS
  0
LINE
  8
WHITE
 10
4.544630
 20
7.073477
 30
0.000000
 11
4.853630
 21
7.130477
 31
0.000000
  6
CONTINUOUS
  0
LINE
  8
WHITE
 10
4.853630
 20
7.130477
 30
0.000000
 11
4.895630
 21
7.172477
 31
0.000000
  6
CONTINUOUS
  0
ARC
  8
WHITE
 10
4.052062
 20
6.555238
 30
0.000000
 40
0.269520
 50
107.363155
 51
205.908156
  6
CONTINUOUS
  0
ARC
  8
WHITE
 10
4.216909
 20
6.973527
 30
0.000000
 40
0.673221
 50
-127.226818
 51
-97.105874
  6
CONTINUOUS
  0
LINE
  8
WHITE
 10
4.133630
 20
6.305477
 30
0.000000
 11
4.169630
 21
6.359477
 31
0.000000
  6
CONTINUOUS
  0
ARC
  8
WHITE
 10
3.308449
 20
6.470537
 30
0.000000
 40
0.868312
 50
-7.348444
 51
19.366455
  6
CONTINUOUS
  0
LINE
  8
WHITE
 10
4.127630
 20
6.758477
 30
0.000000
 11
3.971630
 21
6.812477
 31
0.000000
  6
CONTINUOUS
  0
ARC
  8
WHITE
 10
-68.353105
 20
36.520720
 30
0.000000
 40
85.260958
 50
-19.158091
 51
-18.761360
  6
CONTINUOUS
  0
ARC
  8
WHITE
 10
9.526320
 20
10.581955
 30
0.000000
 40
3.352901
 50
-47.612932
 51
-37.515094
  6
CONTINUOUS
  0
LINE
  8
WHITE
 10
11.786630
 20
8.105477
 30
0.000000
 11
11.816630
 21
8.075477
 31
0.000000
  6
CONTINUOUS
  0
ARC
  8
WHITE
 10
11.887839
 20
8.466616
 30
0.000000
 40
0.397568
 50
-100.318088
 51
-54.867075
  6
CONTINUOUS
  0
LINE
  8
WHITE
 10
12.116630
 20
8.141477
 30
0.000000
 11
12.218630
 21
8.318477
 31
0.000000
  6
CONTINUOUS
  0
LINE
  8
WHITE
 10
12.218630
 20
8.318477
 30
0.000000
 11
12.434630
 21
8.948477
 31
0.000000
  6
CONTINUOUS
  0
LINE
  8
WHITE
 10
12.434630
 20
8.948477
 30
0.000000
 11
12.377630
 21
9.098477
 31
0.000000
  6
CONTINUOUS
  0
ARC
  8
WHITE
 10
2.594843
 20
9.068045
 30
0.000000
 40
0.386668
 50
-123.998447
 51
-88.697896
  6
CONTINUOUS
  0
ARC
  8
WHITE
 10
2.413125
 20
8.928550
 30
0.000000
 40
0.311989
 50
-52.366111
 51
12.575248
  6
CONTINUOUS
  0
ARC
  8
WHITE
 10
2.160060
 20
8.421327
 30
0.000000
 40
0.801050
 50
45.889175
 51
73.271666
  6
CONTINUOUS
  0
LINE
  8
WHITE
 10
2.390630
 20
9.188477
 30
0.000000
 11
2.348630
 21
9.149477
 31
0.000000
  6
CONTINUOUS
  0
LINE
  8
WHITE
 10
2.348630
 20
9.149477
 30
0.000000
 11
2.336630
 21
8.825477
 31
0.000000
  6
CONTINUOUS
  0
LINE
  8
WHITE
 10
2.336630
 20
8.825477
 30
0.000000
 11
2.378630
 21
8.747477
 31
0.000000
  6
CONTINUOUS
  0
ARC
  8
WHITE
 10
1.924030
 20
8.227291
 30
0.000000
 40
0.229259
 50
-119.358704
 51
-8.734545
  6
CONTINUOUS
  0
LINE
  8
WHITE
 10
2.150630
 20
8.192477
 30
0.000000
 11
2.114630
 21
8.294477
 31
0.000000
  6
CONTINUOUS
  0
LINE
  8
WHITE
 10
2.114630
 20
8.294477
 30
0.000000
 11
1.985630
 21
8.387477
 31
0.000000
  6
CONTINUOUS
  0
LINE
  8
WHITE
 10
1.985630
 20
8.387477
 30
0.000000
 11
1.625630
 21
8.318477
 31
0.000000
  6
CONTINUOUS
  0
LINE
  8
WHITE
 10
1.625630
 20
8.318477
 30
0.000000
 11
1.628630
 21
8.261477
 31
0.000000
  6
CONTINUOUS
  0
LINE
  8
WHITE
 10
1.628630
 20
8.261477
 30
0.000000
 11
1.811630
 21
8.027477
 31
0.000000
  6
CONTINUOUS
  0
ARC
  8
WHITE
 10
8.515165
 20
7.360135
 30
0.000000
 40
0.118951
 50
-133.936391
 51
-80.266692
  6
CONTINUOUS
  0
ARC
  8
WHITE
 10
5.163122
 20
-105.630965
 30
0.000000
 40
112.924222
 50
88.120060
 51
88.288774
  6
CONTINUOUS
  0
LINE
  8
WHITE
 10
8.867630
 20
7.232477
 30
0.000000
 11
8.885630
 21
7.274477
 31
0.000000
  6
CONTINUOUS
  0
LINE
  8
WHITE
 10
8.885630
 20
7.274477
 30
0.000000
 11
8.390630
 21
7.796477
 31
0.000000
  6
CONTINUOUS
  0
LINE
  8
WHITE
 10
8.390630
 20
7.796477
 30
0.000000
 11
8.432630
 21
7.274477
 31
0.000000
  6
CONTINUOUS
  0
ARC
  8
WHITE
 10
3.108081
 20
6.246117
 30
0.000000
 40
0.333487
 50
107.891348
 51
149.877646
  6
CONTINUOUS
  0
ARC
  8
WHITE
 10
3.158486
 20
6.401114
 30
0.000000
 40
0.339082
 50
177.910595
 51
224.256914
  6
CONTINUOUS
  0
LINE
  8
WHITE
 10
2.915630
 20
6.164477
 30
0.000000
 11
2.993630
 21
6.128477
 31
0.000000
  6
CONTINUOUS
  0
LINE
  8
WHITE
 10
2.993630
 20
6.128477
 30
0.000000
 11
3.068630
 21
6.155477
 31
0.000000
  6
CONTINUOUS
  0
LINE
  8
WHITE
 10
3.068630
 20
6.155477
 30
0.000000
 11
3.242630
 21
6.389477
 31
0.000000
  6
CONTINUOUS
  0
LINE
  8
WHITE
 10
3.242630
 20
6.389477
 30
0.000000
 11
3.260630
 21
6.479477
 31
0.000000
  6
CONTINUOUS
  0
LINE
  8
WHITE
 10
3.260630
 20
6.479477
 30
0.000000
 11
3.212630
 21
6.539477
 31
0.000000
  6
CONTINUOUS
  0
LINE
  8
WHITE
 10
3.212630
 20
6.539477
 30
0.000000
 11
3.005630
 21
6.563477
 31
0.000000
  6
CONTINUOUS
  0
ARC
  8
WHITE
 10
1.375865
 20
4.690476
 30
0.000000
 40
0.775697
 50
67.933408
 51
93.256686
  6
CONTINUOUS
  0
ARC
  8
WHITE
 10
1.608000
 20
5.180580
 30
0.000000
 40
0.236327
 50
-7.830326
 51
75.472563
  6
CONTINUOUS
  0
LINE
  8
WHITE
 10
1.842124
 20
5.148383
 30
0.000000
 11
1.991888
 21
5.156796
 31
0.000000
  6
CONTINUOUS
  0
ARC
  8
WHITE
 10
1.609063
 20
5.183459
 30
0.000000
 40
0.383752
 50
-3.984079
 51
65.039313
  6
CONTINUOUS
  0
ARC
  8
WHITE
 10
1.369845
 20
4.619697
 30
0.000000
 40
0.996029
 50
66.249189
 51
92.819566
  6
CONTINUOUS
  0
LINE
  8
WHITE
 10
1.320849
 20
5.614520
 30
0.000000
 11
1.331798
 21
5.464920
 31
0.000000
  6
CONTINUOUS
  0
ARC
  8
WHITE
 10
3.310491
 20
9.177425
 30
0.000000
 40
0.321258
 50
-53.711073
 51
27.040860
  6
CONTINUOUS
  0
LINE
  8
WHITE
 10
3.596630
 20
9.323477
 30
0.000000
 11
3.494630
 21
9.365477
 31
0.000000
  6
CONTINUOUS
  0
ARC
  8
WHITE
 10
4.037067
 20
8.752445
 30
0.000000
 40
0.818563
 50
131.503787
 51
160.886436
  6
CONTINUOUS
  0
LINE
  8
WHITE
 10
3.263630
 20
9.020477
 30
0.000000
 11
3.308630
 21
8.939477
 31
0.000000
  6
CONTINUOUS
  0
LINE
  8
WHITE
 10
3.308630
 20
8.939477
 30
0.000000
 11
3.401630
 21
8.897477
 31
0.000000
  6
CONTINUOUS
  0
LINE
  8
WHITE
 10
3.401630
 20
8.897477
 30
0.000000
 11
3.500630
 21
8.918477
 31
0.000000
  6
CONTINUOUS
  0
ARC
  8
WHITE
 10
2.234277
 20
6.764604
 30
0.000000
 40
0.287094
 50
126.469521
 51
193.932727
  6
CONTINUOUS
  0
LINE
  8
WHITE
 10
1.955630
 20
6.695477
 30
0.000000
 11
2.015630
 21
6.656477
 31
0.000000
  6
CONTINUOUS
  0
ARC
  8
WHITE
 10
2.007420
 20
7.219788
 30
0.000000
 40
0.563371
 50
-89.165007
 51
-46.301817
  6
CONTINUOUS
  0
LINE
  8
WHITE
 10
2.396630
 20
6.812477
 30
0.000000
 11
2.354630
 21
6.920477
 31
0.000000
  6
CONTINUOUS
  0
ARC
  8
WHITE
 10
2.120765
 20
6.615122
 30
0.000000
 40
0.384623
 50
52.552303
 51
98.542840
  6
CONTINUOUS
  0
ARC
  8
WHITE
 10
1.932352
 20
7.545238
 30
0.000000
 40
0.451296
 50
-128.790058
 51
-78.201408
  6
CONTINUOUS
  0
ARC
  8
WHITE
 10
1.807038
 20
7.287013
 30
0.000000
 40
0.284661
 50
-40.147285
 51
29.567122
  6
CONTINUOUS
  0
LINE
  8
WHITE
 10
2.054630
 20
7.427477
 30
0.000000
 11
1.904630
 21
7.463477
 31
0.000000
  6
CONTINUOUS
  0
ARC
  8
WHITE
 10
2.485795
 20
6.659182
 30
0.000000
 40
0.992292
 50
125.851014
 51
147.422140
  6
CONTINUOUS
  0
ARC
  8
WHITE
 10
1.871710
 20
7.418855
 30
0.000000
 40
0.470739
 50
96.596892
 51
134.523038
  6
CONTINUOUS
  0
LINE
  8
WHITE
 10
1.541630
 20
7.754477
 30
0.000000
 11
1.526630
 21
7.694477
 31
0.000000
  6
CONTINUOUS
  0
ARC
  8
WHITE
 10
1.811707
 20
8.051379
 30
0.000000
 40
0.456780
 50
-128.616227
 51
-100.834849
  6
CONTINUOUS
  0
ARC
  8
WHITE
 10
1.849078
 20
7.803811
 30
0.000000
 40
0.235830
 50
-121.504264
 51
-67.156790
  6
CONTINUOUS
  0
LINE
  8
WHITE
 10
1.940630
 20
7.586477
 30
0.000000
 11
2.012630
 21
7.682477
 31
0.000000
  6
CONTINUOUS
  0
ARC
  8
WHITE
 10
1.626532
 20
7.508612
 30
0.000000
 40
0.423439
 50
24.242716
 51
63.172950
  6
CONTINUOUS
  0
ARC
  8
WHITE
 10
11.870352
 20
8.430351
 30
0.000000
 40
0.679576
 50
127.502439
 51
153.603504
  6
CONTINUOUS
  0
LINE
  8
WHITE
 10
11.261630
 20
8.732477
 30
0.000000
 11
11.279630
 21
8.672477
 31
0.000000
  6
CONTINUOUS
  0
LINE
  8
WHITE
 10
11.279630
 20
8.672477
 30
0.000000
 11
11.363630
 21
8.627477
 31
0.000000
  6
CONTINUOUS
  0
ARC
  8
WHITE
 10
11.382529
 20
8.959879
 30
0.000000
 40
0.332938
 50
-93.254087
 51
-19.365778
  6
CONTINUOUS
  0
LINE
  8
WHITE
 10
11.696630
 20
8.849477
 30
0.000000
 11
11.675630
 21
8.909477
 31
0.000000
  6
CONTINUOUS
  0
LINE
  8
WHITE
 10
11.675630
 20
8.909477
 30
0.000000
 11
11.456630
 21
8.969477
 31
0.000000
  6
CONTINUOUS
  0
ARC
  8
WHITE
 10
3.205109
 20
9.138849
 30
0.000000
 40
0.385949
 50
148.330906
 51
190.505823
  6
CONTINUOUS
  0
ARC
  8
WHITE
 10
3.174035
 20
9.313039
 30
0.000000
 40
0.425672
 50
-144.933202
 51
-108.547922
  6
CONTINUOUS
  0
LINE
  8
WHITE
 10
3.038630
 20
8.909477
 30
0.000000
 11
3.119630
 21
8.963477
 31
0.000000
  6
CONTINUOUS
  0
LINE
  8
WHITE
 10
3.119630
 20
8.963477
 30
0.000000
 11
3.152630
 21
9.047477
 31
0.000000
  6
CONTINUOUS
  0
ARC
  8
WHITE
 10
2.261665
 20
8.675336
 30
0.000000
 40
0.965561
 50
22.669469
 51
46.392182
  6
CONTINUOUS
  0
LINE
  8
WHITE
 10
2.927630
 20
9.374477
 30
0.000000
 11
2.876630
 21
9.341477
 31
0.000000
  6
CONTINUOUS
  0
ARC
  8
WHITE
 10
1.682389
 20
7.193034
 30
0.000000
 40
1.634316
 50
70.697184
 51
81.759616
  6
CONTINUOUS
  0
LINE
  8
WHITE
 10
1.916630
 20
8.810477
 30
0.000000
 11
1.892630
 21
8.708477
 31
0.000000
  6
CONTINUOUS
  0
LINE
  8
WHITE
 10
1.892630
 20
8.708477
 30
0.000000
 11
2.039630
 21
8.501477
 31
0.000000
  6
CONTINUOUS
  0
ARC
  8
WHITE
 10
2.173068
 20
8.718423
 30
0.000000
 40
0.254698
 50
-121.594735
 51
-71.085649
  6
CONTINUOUS
  0
LINE
  8
WHITE
 10
2.255630
 20
8.477477
 30
0.000000
 11
2.297630
 21
8.543477
 31
0.000000
  6
CONTINUOUS
  0
LINE
  8
WHITE
 10
2.297630
 20
8.543477
 30
0.000000
 11
2.285630
 21
8.663477
 31
0.000000
  6
CONTINUOUS
  0
LINE
  8
WHITE
 10
2.285630
 20
8.663477
 30
0.000000
 11
2.222630
 21
8.735477
 31
0.000000
  6
CONTINUOUS
  0
ARC
  8
WHITE
 10
3.271488
 20
6.442574
 30
0.000000
 40
0.859822
 50
162.685105
 51
186.752414
  6
CONTINUOUS
  0
LINE
  8
WHITE
 10
2.417630
 20
6.341477
 30
0.000000
 11
2.468630
 21
6.317477
 31
0.000000
  6
CONTINUOUS
  0
ARC
  8
WHITE
 10
2.365572
 20
6.766978
 30
0.000000
 40
0.461164
 50
-77.086906
 51
-42.490449
  6
CONTINUOUS
  0
ARC
  8
WHITE
 10
2.429968
 20
6.510735
 30
0.000000
 40
0.281145
 50
-11.335066
 51
34.871643
  6
CONTINUOUS
  0
LINE
  8
WHITE
 10
2.660630
 20
6.671477
 30
0.000000
 11
2.519630
 21
6.740477
 31
0.000000
  6
CONTINUOUS
  0
LINE
  8
WHITE
 10
2.519630
 20
6.740477
 30
0.000000
 11
2.450630
 21
6.698477
 31
0.000000
  6
CONTINUOUS
  0
ARC
  8
WHITE
 10
4.758246
 20
7.870111
 30
0.000000
 40
0.270827
 50
-158.868979
 51
-112.265553
  6
CONTINUOUS
  0
ARC
  8
WHITE
 10
4.619858
 20
8.252453
 30
0.000000
 40
0.633987
 50
-86.765447
 51
-57.378714
  6
CONTINUOUS
  0
LINE
  8
WHITE
 10
4.961630
 20
7.718477
 30
0.000000
 11
4.982630
 21
7.766477
 31
0.000000
  6
CONTINUOUS
  0
LINE
  8
WHITE
 10
4.982630
 20
7.766477
 30
0.000000
 11
4.919630
 21
7.820477
 31
0.000000
  6
CONTINUOUS
  0
LINE
  8
WHITE
 10
4.919630
 20
7.820477
 30
0.000000
 11
4.631630
 21
7.904477
 31
0.000000
  6
CONTINUOUS
  0
LINE
  8
WHITE
 10
4.631630
 20
7.904477
 30
0.000000
 11
4.535630
 21
7.844477
 31
0.000000
  6
CONTINUOUS
  0
LINE
  8
WHITE
 10
4.535630
 20
7.844477
 30
0.000000
 11
4.505630
 21
7.772477
 31
0.000000
  6
CONTINUOUS
  0
LINE
  8
WHITE
 10
12.659630
 20
11.153477
 30
0.000000
 11
12.383630
 21
11.048477
 31
0.000000
  6
CONTINUOUS
  0
LINE
  8
WHITE
 10
12.383630
 20
11.048477
 30
0.000000
 11
12.089630
 21
11.042477
 31
0.000000
  6
CONTINUOUS
  0
LINE
  8
WHITE
 10
12.089630
 20
11.042477
 30
0.000000
 11
12.098630
 21
11.015477
 31
0.000000
  6
CONTINUOUS
  0
LINE
  8
WHITE
 10
12.098630
 20
11.015477
 30
0.000000
 11
12.623630
 21
10.823477
 31
0.000000
  6
CONTINUOUS
  0
LINE
  8
WHITE
 10
12.623630
 20
10.823477
 30
0.000000
 11
12.653630
 21
10.865477
 31
0.000000
  6
CONTINUOUS
  0
LINE
  8
WHITE
 10
12.653630
 20
10.865477
 30
0.000000
 11
12.659630
 21
11.153477
 31
0.000000
  6
CONTINUOUS
  0
ARC
  8
WHITE
 10
4.707950
 20
7.655106
 30
0.000000
 40
0.974779
 50
-118.379411
 51
-96.439194
  6
CONTINUOUS
  0
LINE
  8
WHITE
 10
4.598630
 20
6.686477
 30
0.000000
 11
4.613630
 21
6.728477
 31
0.000000
  6
CONTINUOUS
  0
ARC
  8
WHITE
 10
4.214577
 20
6.619031
 30
0.000000
 40
0.413789
 50
15.337006
 51
66.491760
  6
CONTINUOUS
  0
LINE
  8
WHITE
 10
4.379630
 20
6.998477
 30
0.000000
 11
4.235630
 21
6.974477
 31
0.000000
  6
CONTINUOUS
  0
LINE
  8
WHITE
 10
4.235630
 20
6.974477
 30
0.000000
 11
4.205630
 21
6.920477
 31
0.000000
  6
CONTINUOUS
  0
LINE
  8
WHITE
 10
4.205630
 20
6.920477
 30
0.000000
 11
4.244630
 21
6.797477
 31
0.000000
  6
CONTINUOUS
  0
ARC
  8
WHITE
 10
7.091467
 20
11.711047
 30
0.000000
 40
0.401515
 50
-164.460045
 51
-99.871733
  6
CONTINUOUS
  0
LINE
  8
WHITE
 10
7.022630
 20
11.315477
 30
0.000000
 11
7.049630
 21
11.339477
 31
0.000000
  6
CONTINUOUS
  0
LINE
  8
WHITE
 10
7.049630
 20
11.339477
 30
0.000000
 11
7.034630
 21
11.543477
 31
0.000000
  6
CONTINUOUS
  0
LINE
  8
WHITE
 10
7.034630
 20
11.543477
 30
0.000000
 11
6.971630
 21
11.615477
 31
0.000000
  6
CONTINUOUS
  0
LINE
  8
WHITE
 10
6.971630
 20
11.615477
 30
0.000000
 11
6.737630
 21
11.678477
 31
0.000000
  6
CONTINUOUS
  0
LINE
  8
WHITE
 10
6.737630
 20
11.678477
 30
0.000000
 11
6.704630
 21
11.603477
 31
0.000000
  6
CONTINUOUS
  0
ARC
  8
WHITE
 10
3.907264
 20
6.550239
 30
0.000000
 40
0.524994
 50
-175.875265
 51
-127.093641
  6
CONTINUOUS
  0
ARC
  8
WHITE
 10
3.371773
 20
6.335945
 30
0.000000
 40
0.299509
 50
-43.053266
 51
17.995650
  6
CONTINUOUS
  0
LINE
  8
WHITE
 10
3.656630
 20
6.428477
 30
0.000000
 11
3.443630
 21
6.563477
 31
0.000000
  6
CONTINUOUS
  0
LINE
  8
WHITE
 10
3.443630
 20
6.563477
 30
0.000000
 11
3.383630
 21
6.512477
 31
0.000000
  6
CONTINUOUS
  0
ARC
  8
WHITE
 10
8.862478
 20
7.963405
 30
0.000000
 40
0.328326
 50
57.553398
 51
112.161073
  6
CONTINUOUS
  0
LINE
  8
WHITE
 10
8.738630
 20
8.267477
 30
0.000000
 11
8.738630
 21
8.222477
 31
0.000000
  6
CONTINUOUS
  0
LINE
  8
WHITE
 10
8.738630
 20
8.222477
 30
0.000000
 11
8.993630
 21
7.931477
 31
0.000000
  6
CONTINUOUS
  0
LINE
  8
WHITE
 10
8.993630
 20
7.931477
 30
0.000000
 11
9.032630
 21
7.928477
 31
0.000000
  6
CONTINUOUS
  0
ARC
  8
WHITE
 10
7.763508
 20
8.108941
 30
0.000000
 40
1.281888
 50
-8.092967
 51
5.889555
  6
CONTINUOUS
  0
ARC
  8
WHITE
 10
8.549262
 20
8.605528
 30
0.000000
 40
0.265376
 50
9.970700
 51
69.556657
  6
CONTINUOUS
  0
LINE
  8
WHITE
 10
8.641953
 20
8.854190
 30
0.000000
 11
8.384630
 21
8.966477
 31
0.000000
  6
CONTINUOUS
  0
LINE
  8
WHITE
 10
8.384630
 20
8.966477
 30
0.000000
 11
8.369630
 21
8.903477
 31
0.000000
  6
CONTINUOUS
  0
LINE
  8
WHITE
 10
8.369630
 20
8.903477
 30
0.000000
 11
8.414630
 21
8.804477
 31
0.000000
  6
CONTINUOUS
  0
LINE
  8
WHITE
 10
8.414630
 20
8.804477
 30
0.000000
 11
8.525630
 21
8.720477
 31
0.000000
  6
CONTINUOUS
  0
LINE
  8
WHITE
 10
8.525630
 20
8.720477
 30
0.000000
 11
8.756630
 21
8.636477
 31
0.000000
  6
CONTINUOUS
  0
LINE
  8
WHITE
 10
8.756630
 20
8.636477
 30
0.000000
 11
8.810630
 21
8.651477
 31
0.000000
  6
CONTINUOUS
  0
ARC
  8
WHITE
 10
16.470805
 20
9.834658
 30
0.000000
 40
2.037869
 50
-138.580726
 51
-132.553806
  6
CONTINUOUS
  0
LINE
  8
WHITE
 10
15.092630
 20
8.333477
 30
0.000000
 11
15.143630
 21
8.153477
 31
0.000000
  6
CONTINUOUS
  0
LINE
  8
WHITE
 10
15.143630
 20
8.153477
 30
0.000000
 11
15.212630
 21
8.138477
 31
0.000000
  6
CONTINUOUS
  0
LINE
  8
WHITE
 10
15.212630
 20
8.138477
 30
0.000000
 11
15.254630
 21
8.183477
 31
0.000000
  6
CONTINUOUS
  0
ARC
  8
WHITE
 10
14.533383
 20
8.131219
 30
0.000000
 40
0.723138
 50
4.144100
 51
33.322623
  6
CONTINUOUS
  0
LINE
  8
WHITE
 10
15.137630
 20
8.528477
 30
0.000000
 11
14.972630
 21
8.519477
 31
0.000000
  6
CONTINUOUS
  0
LINE
  8
WHITE
 10
14.972630
 20
8.519477
 30
0.000000
 11
14.942630
 21
8.486477
 31
0.000000
  6
CONTINUOUS
  0
ARC
  8
WHITE
 10
12.172179
 20
16.737510
 30
0.000000
 40
3.989729
 50
-178.606389
 51
-169.237537
  6
CONTINUOUS
  0
LINE
  8
WHITE
 10
8.183630
 20
16.640477
 30
0.000000
 11
8.138630
 21
16.667477
 31
0.000000
  6
CONTINUOUS
  0
LINE
  8
WHITE
 10
8.138630
 20
16.667477
 30
0.000000
 11
8.102630
 21
16.622477
 31
0.000000
  6
CONTINUOUS
  0
ARC
  8
WHITE
 10
9.356768
 20
16.507750
 30
0.000000
 40
1.259374
 50
174.773197
 51
204.151447
  6
CONTINUOUS
  0
LINE
  8
WHITE
 10
8.207630
 20
15.992477
 30
0.000000
 11
8.252630
 21
15.992477
 31
0.000000
  6
CONTINUOUS
  0
ARC
  8
WHITE
 10
5.534624
 20
11.472225
 30
0.000000
 40
0.372641
 50
-79.797422
 51
-3.345841
  6
CONTINUOUS
  0
LINE
  8
WHITE
 10
5.906630
 20
11.450477
 30
0.000000
 11
5.831630
 21
11.444477
 31
0.000000
  6
CONTINUOUS
  0
LINE
  8
WHITE
 10
5.831630
 20
11.444477
 30
0.000000
 11
5.768630
 21
11.321477
 31
0.000000
  6
CONTINUOUS
  0
ARC
  8
WHITE
 10
5.830116
 20
9.991116
 30
0.000000
 40
1.331781
 50
92.646179
 51
99.006505
  6
CONTINUOUS
  0
LINE
  8
WHITE
 10
5.621630
 20
11.306477
 30
0.000000
 11
5.582630
 21
11.231477
 31
0.000000
  6
CONTINUOUS
  0
LINE
  8
WHITE
 10
5.582630
 20
11.231477
 30
0.000000
 11
5.600630
 21
11.105477
 31
0.000000
  6
CONTINUOUS
  0
ARC
  8
WHITE
 10
2.296749
 20
8.765764
 30
0.000000
 40
0.318940
 50
104.548737
 51
143.723143
  6
CONTINUOUS
  0
LINE
  8
WHITE
 10
2.039630
 20
8.954477
 30
0.000000
 11
2.042630
 21
8.894477
 31
0.000000
  6
CONTINUOUS
  0
ARC
  8
WHITE
 10
2.254909
 20
9.109563
 30
0.000000
 40
0.302200
 50
-134.623693
 51
-91.569951
  6
CONTINUOUS
  0
LINE
  8
WHITE
 10
2.246630
 20
8.807477
 30
0.000000
 11
2.276630
 21
8.849477
 31
0.000000
  6
CONTINUOUS
  0
ARC
  8
WHITE
 10
1.559576
 20
8.778763
 30
0.000000
 40
0.720532
 50
5.632175
 51
24.230659
  6
CONTINUOUS
  0
ARC
  8
WHITE
 10
20.263490
 20
9.027652
 30
0.000000
 40
0.200818
 50
-154.903777
 51
-37.114235
  6
CONTINUOUS
  0
LINE
  8
WHITE
 10
20.423630
 20
8.906477
 30
0.000000
 11
20.363630
 21
8.957477
 31
0.000000
  6
CONTINUOUS
  0
LINE
  8
WHITE
 10
20.363630
 20
8.957477
 30
0.000000
 11
20.108630
 21
9.026477
 31
0.000000
  6
CONTINUOUS
  0
LINE
  8
WHITE
 10
20.108630
 20
9.026477
 30
0.000000
 11
20.081630
 21
8.942477
 31
0.000000
  6
CONTINUOUS
  0
ARC
  8
WHITE
 10
4.645946
 20
6.616490
 30
0.000000
 40
0.399607
 50
169.038279
 51
202.824776
  6
CONTINUOUS
  0
LINE
  8
WHITE
 10
4.277630
 20
6.461477
 30
0.000000
 11
4.322630
 21
6.431477
 31
0.000000
  6
CONTINUOUS
  0
LINE
  8
WHITE
 10
4.322630
 20
6.431477
 30
0.000000
 11
4.466630
 21
6.530477
 31
0.000000
  6
CONTINUOUS
  0
LINE
  8
WHITE
 10
4.466630
 20
6.530477
 30
0.000000
 11
4.481630
 21
6.584477
 31
0.000000
  6
CONTINUOUS
  0
ARC
  8
WHITE
 10
4.223086
 20
6.333328
 30
0.000000
 40
0.360445
 50
44.168712
 51
85.138937
  6
CONTINUOUS
  0
LINE
  8
WHITE
 10
4.949630
 20
7.598477
 30
0.000000
 11
4.808630
 21
7.589477
 31
0.000000
  6
CONTINUOUS
  0
LINE
  8
WHITE
 10
4.808630
 20
7.589477
 30
0.000000
 11
4.748630
 21
7.544477
 31
0.000000
  6
CONTINUOUS
  0
LINE
  8
WHITE
 10
4.748630
 20
7.544477
 30
0.000000
 11
4.757630
 21
7.481477
 31
0.000000
  6
CONTINUOUS
  0
LINE
  8
WHITE
 10
4.757630
 20
7.481477
 30
0.000000
 11
4.919630
 21
7.367477
 31
0.000000
  6
CONTINUOUS
  0
LINE
  8
WHITE
 10
4.919630
 20
7.367477
 30
0.000000
 11
4.961630
 21
7.388477
 31
0.000000
  6
CONTINUOUS
  0
LINE
  8
WHITE
 10
4.961630
 20
7.388477
 30
0.000000
 11
4.985630
 21
7.550477
 31
0.000000
  6
CONTINUOUS
  0
LINE
  8
WHITE
 10
4.985630
 20
7.550477
 30
0.000000
 11
4.949630
 21
7.598477
 31
0.000000
  6
CONTINUOUS
  0
ARC
  8
WHITE
 10
3.075968
 20
9.368894
 30
0.000000
 40
0.256923
 50
-58.651565
 51
2.583860
  6
CONTINUOUS
  0
LINE
  8
WHITE
 10
3.332630
 20
9.380477
 30
0.000000
 11
3.197630
 21
9.401477
 31
0.000000
  6
CONTINUOUS
  0
LINE
  8
WHITE
 10
3.197630
 20
9.401477
 30
0.000000
 11
3.110630
 21
9.344477
 31
0.000000
  6
CONTINUOUS
  0
ARC
  8
WHITE
 10
3.374284
 20
9.355701
 30
0.000000
 40
0.263893
 50
-177.562256
 51
-128.604634
  6
CONTINUOUS
  0
ARC
  8
WHITE
 10
3.471565
 20
6.119222
 30
0.000000
 40
0.281565
 50
126.868827
 51
173.831446
  6
CONTINUOUS
  0
LINE
  8
WHITE
 10
3.191630
 20
6.149477
 30
0.000000
 11
3.227630
 21
6.104477
 31
0.000000
  6
CONTINUOUS
  0
ARC
  8
WHITE
 10
3.288609
 20
6.364638
 30
0.000000
 40
0.267212
 50
-103.191454
 51
-62.103788
  6
CONTINUOUS
  0
LINE
  8
WHITE
 10
3.413630
 20
6.128477
 30
0.000000
 11
3.413630
 21
6.197477
 31
0.000000
  6
CONTINUOUS
  0
LINE
  8
WHITE
 10
3.413630
 20
6.197477
 30
0.000000
 11
3.302630
 21
6.344477
 31
0.000000
  6
CONTINUOUS
  0
ARC
  8
WHITE
 10
1.808437
 20
7.974410
 30
0.000000
 40
0.274760
 50
147.143584
 51
190.895116
  6
CONTINUOUS
  0
LINE
  8
WHITE
 10
1.538630
 20
7.922477
 30
0.000000
 11
1.598630
 21
7.895477
 31
0.000000
  6
CONTINUOUS
  0
LINE
  8
WHITE
 10
1.598630
 20
7.895477
 30
0.000000
 11
1.751630
 21
7.952477
 31
0.000000
  6
CONTINUOUS
  0
LINE
  8
WHITE
 10
1.751630
 20
7.952477
 30
0.000000
 11
1.742630
 21
8.012477
 31
0.000000
  6
CONTINUOUS
  0
LINE
  8
WHITE
 10
1.742630
 20
8.012477
 30
0.000000
 11
1.652630
 21
8.105477
 31
0.000000
  6
CONTINUOUS
  0
LINE
  8
WHITE
 10
1.652630
 20
8.105477
 30
0.000000
 11
1.577630
 21
8.123477
 31
0.000000
  6
CONTINUOUS
  0
LINE
  8
WHITE
 10
2.318630
 20
6.659477
 30
0.000000
 11
2.183630
 21
6.614477
 31
0.000000
  6
CONTINUOUS
  0
LINE
  8
WHITE
 10
2.183630
 20
6.614477
 30
0.000000
 11
2.135630
 21
6.554477
 31
0.000000
  6
CONTINUOUS
  0
LINE
  8
WHITE
 10
2.135630
 20
6.554477
 30
0.000000
 11
2.156630
 21
6.494477
 31
0.000000
  6
CONTINUOUS
  0
LINE
  8
WHITE
 10
2.156630
 20
6.494477
 30
0.000000
 11
2.273630
 21
6.428477
 31
0.000000
  6
CONTINUOUS
  0
LINE
  8
WHITE
 10
2.273630
 20
6.428477
 30
0.000000
 11
2.324630
 21
6.470477
 31
0.000000
  6
CONTINUOUS
  0
LINE
  8
WHITE
 10
2.324630
 20
6.470477
 30
0.000000
 11
2.354630
 21
6.590477
 31
0.000000
  6
CONTINUOUS
  0
LINE
  8
WHITE
 10
2.354630
 20
6.590477
 30
0.000000
 11
2.318630
 21
6.659477
 31
0.000000
  6
CONTINUOUS
  0
ARC
  8
WHITE
 10
7.902181
 20
11.035998
 30
0.000000
 40
0.351888
 50
-166.772046
 51
-124.349975
  6
CONTINUOUS
  0
LINE
  8
WHITE
 10
7.703630
 20
10.745477
 30
0.000000
 11
7.790630
 21
10.940477
 31
0.000000
  6
CONTINUOUS
  0
LINE
  8
WHITE
 10
7.790630
 20
10.940477
 30
0.000000
 11
7.586630
 21
10.994477
 31
0.000000
  6
CONTINUOUS
  0
LINE
  8
WHITE
 10
7.586630
 20
10.994477
 30
0.000000
 11
7.559630
 21
10.955477
 31
0.000000
  6
CONTINUOUS
  0
ARC
  8
WHITE
 10
4.862346
 20
8.227473
 30
0.000000
 40
0.299874
 50
-110.438476
 51
-71.271718
  6
CONTINUOUS
  0
LINE
  8
WHITE
 10
4.958630
 20
7.943477
 30
0.000000
 11
4.970630
 21
8.009477
 31
0.000000
  6
CONTINUOUS
  0
LINE
  8
WHITE
 10
4.970630
 20
8.009477
 30
0.000000
 11
4.901630
 21
8.120477
 31
0.000000
  6
CONTINUOUS
  0
ARC
  8
WHITE
 10
4.973232
 20
7.847725
 30
0.000000
 40
0.281994
 50
104.709318
 51
149.351461
  6
CONTINUOUS
  0
LINE
  8
WHITE
 10
4.730630
 20
7.991477
 30
0.000000
 11
4.757630
 21
7.946477
 31
0.000000
  6
CONTINUOUS
  0
ARC
  8
WHITE
 10
16.930984
 20
6.263405
 30
0.000000
 40
0.228391
 50
103.509722
 51
158.401307
  6
CONTINUOUS
  0
LINE
  8
WHITE
 10
16.718630
 20
6.347477
 30
0.000000
 11
16.730630
 21
6.311477
 31
0.000000
  6
CONTINUOUS
  0
LINE
  8
WHITE
 10
16.730630
 20
6.311477
 30
0.000000
 11
16.922630
 21
6.311477
 31
0.000000
  6
CONTINUOUS
  0
LINE
  8
WHITE
 10
16.922630
 20
6.311477
 30
0.000000
 11
16.970630
 21
6.347477
 31
0.000000
  6
CONTINUOUS
  0
LINE
  8
WHITE
 10
16.970630
 20
6.347477
 30
0.000000
 11
16.955630
 21
6.416477
 31
0.000000
  6
CONTINUOUS
  0
LINE
  8
WHITE
 10
16.955630
 20
6.416477
 30
0.000000
 11
16.877630
 21
6.485477
 31
0.000000
  6
CONTINUOUS
  0
ARC
  8
WHITE
 10
1.725642
 20
8.411539
 30
0.000000
 40
0.225983
 50
24.284022
 51
75.655459
  6
CONTINUOUS
  0
LINE
  8
WHITE
 10
1.781630
 20
8.630477
 30
0.000000
 11
1.703630
 21
8.534477
 31
0.000000
  6
CONTINUOUS
  0
LINE
  8
WHITE
 10
1.703630
 20
8.534477
 30
0.000000
 11
1.700630
 21
8.474477
 31
0.000000
  6
CONTINUOUS
  0
LINE
  8
WHITE
 10
1.700630
 20
8.474477
 30
0.000000
 11
1.769630
 21
8.441477
 31
0.000000
  6
CONTINUOUS
  0
LINE
  8
WHITE
 10
1.769630
 20
8.441477
 30
0.000000
 11
1.919630
 21
8.459477
 31
0.000000
  6
CONTINUOUS
  0
LINE
  8
WHITE
 10
1.919630
 20
8.459477
 30
0.000000
 11
1.931630
 21
8.504477
 31
0.000000
  6
CONTINUOUS
  0
LINE
  8
WHITE
 10
1.565630
 20
7.529477
 30
0.000000
 11
1.556630
 21
7.430477
 31
0.000000
  6
CONTINUOUS
  0
LINE
  8
WHITE
 10
1.556630
 20
7.430477
 30
0.000000
 11
1.592630
 21
7.361477
 31
0.000000
  6
CONTINUOUS
  0
LINE
  8
WHITE
 10
1.592630
 20
7.361477
 30
0.000000
 11
1.652630
 21
7.358477
 31
0.000000
  6
CONTINUOUS
  0
LINE
  8
WHITE
 10
1.652630
 20
7.358477
 30
0.000000
 11
1.763630
 21
7.445477
 31
0.000000
  6
CONTINUOUS
  0
LINE
  8
WHITE
 10
1.763630
 20
7.445477
 30
0.000000
 11
1.775630
 21
7.499477
 31
0.000000
  6
CONTINUOUS
  0
LINE
  8
WHITE
 10
1.775630
 20
7.499477
 30
0.000000
 11
1.712630
 21
7.541477
 31
0.000000
  6
CONTINUOUS
  0
LINE
  8
WHITE
 10
1.712630
 20
7.541477
 30
0.000000
 11
1.565630
 21
7.529477
 31
0.000000
  6
CONTINUOUS
  0
ARC
  8
WHITE
 10
2.766091
 20
9.346026
 30
0.000000
 40
0.234608
 50
-152.163976
 51
-101.920973
  6
CONTINUOUS
  0
LINE
  8
WHITE
 10
2.717630
 20
9.116477
 30
0.000000
 11
2.753630
 21
9.152477
 31
0.000000
  6
CONTINUOUS
  0
LINE
  8
WHITE
 10
2.753630
 20
9.152477
 30
0.000000
 11
2.750630
 21
9.263477
 31
0.000000
  6
CONTINUOUS
  0
LINE
  8
WHITE
 10
2.750630
 20
9.263477
 30
0.000000
 11
2.696630
 21
9.320477
 31
0.000000
  6
CONTINUOUS
  0
LINE
  8
WHITE
 10
2.696630
 20
9.320477
 30
0.000000
 11
2.576630
 21
9.284477
 31
0.000000
  6
CONTINUOUS
  0
LINE
  8
WHITE
 10
2.576630
 20
9.284477
 30
0.000000
 11
2.558630
 21
9.236477
 31
0.000000
  6
CONTINUOUS
  0
ARC
  8
WHITE
 10
15.553585
 20
7.433102
 30
0.000000
 40
0.407266
 50
165.876988
 51
201.101663
  6
CONTINUOUS
  0
LINE
  8
WHITE
 10
15.173630
 20
7.286477
 30
0.000000
 11
15.221630
 21
7.253477
 31
0.000000
  6
CONTINUOUS
  0
LINE
  8
WHITE
 10
15.221630
 20
7.253477
 30
0.000000
 11
15.284630
 21
7.292477
 31
0.000000
  6
CONTINUOUS
  0
LINE
  8
WHITE
 10
15.284630
 20
7.292477
 30
0.000000
 11
15.290630
 21
7.373477
 31
0.000000
  6
CONTINUOUS
  0
LINE
  8
WHITE
 10
15.290630
 20
7.373477
 30
0.000000
 11
15.224630
 21
7.493477
 31
0.000000
  6
CONTINUOUS
  0
LINE
  8
WHITE
 10
15.224630
 20
7.493477
 30
0.000000
 11
15.158630
 21
7.532477
 31
0.000000
  6
CONTINUOUS
  0
LINE
  8
WHITE
 10
4.607630
 20
7.016477
 30
0.000000
 11
4.574630
 21
6.986477
 31
0.000000
  6
CONTINUOUS
  0
LINE
  8
WHITE
 10
4.574630
 20
6.986477
 30
0.000000
 11
4.604630
 21
6.905477
 31
0.000000
  6
CONTINUOUS
  0
LINE
  8
WHITE
 10
4.604630
 20
6.905477
 30
0.000000
 11
4.679630
 21
6.845477
 31
0.000000
  6
CONTINUOUS
  0
LINE
  8
WHITE
 10
4.679630
 20
6.845477
 30
0.000000
 11
4.736630
 21
6.857477
 31
0.000000
  6
CONTINUOUS
  0
LINE
  8
WHITE
 10
4.736630
 20
6.857477
 30
0.000000
 11
4.805630
 21
6.956477
 31
0.000000
  6
CONTINUOUS
  0
LINE
  8
WHITE
 10
4.805630
 20
6.956477
 30
0.000000
 11
4.790630
 21
7.001477
 31
0.000000
  6
CONTINUOUS
  0
LINE
  8
WHITE
 10
4.790630
 20
7.001477
 30
0.000000
 11
4.607630
 21
7.016477
 31
0.000000
  6
CONTINUOUS
  0
ARC
  8
WHITE
 10
5.673262
 20
7.429048
 30
0.000000
 40
1.222794
 50
132.089852
 51
151.502037
  6
CONTINUOUS
  0
LINE
  8
WHITE
 10
4.598630
 20
8.012477
 30
0.000000
 11
4.637630
 21
8.012477
 31
0.000000
  6
CONTINUOUS
  0
ARC
  8
WHITE
 10
4.302398
 20
8.561966
 30
0.000000
 40
0.643676
 50
-58.613491
 51
-27.828909
  6
CONTINUOUS
  0
LINE
  8
WHITE
 10
4.871630
 20
8.261477
 30
0.000000
 11
4.853630
 21
8.336477
 31
0.000000
  6
CONTINUOUS
  0
LINE
  8
WHITE
 10
1.805630
 20
7.031477
 30
0.000000
 11
1.757630
 21
7.001477
 31
0.000000
  6
CONTINUOUS
  0
LINE
  8
WHITE
 10
1.757630
 20
7.001477
 30
0.000000
 11
1.763630
 21
6.926477
 31
0.000000
  6
CONTINUOUS
  0
LINE
  8
WHITE
 10
1.763630
 20
6.926477
 30
0.000000
 11
1.823630
 21
6.857477
 31
0.000000
  6
CONTINUOUS
  0
LINE
  8
WHITE
 10
1.823630
 20
6.857477
 30
0.000000
 11
1.880630
 21
6.860477
 31
0.000000
  6
CONTINUOUS
  0
LINE
  8
WHITE
 10
1.880630
 20
6.860477
 30
0.000000
 11
1.952630
 21
6.950477
 31
0.000000
  6
CONTINUOUS
  0
LINE
  8
WHITE
 10
1.952630
 20
6.950477
 30
0.000000
 11
1.943630
 21
7.004477
 31
0.000000
  6
CONTINUOUS
  0
LINE
  8
WHITE
 10
1.943630
 20
7.004477
 30
0.000000
 11
1.805630
 21
7.031477
 31
0.000000
  6
CONTINUOUS
  0
LINE
  8
WHITE
 10
20.552630
 20
8.783477
 30
0.000000
 11
20.471630
 21
8.744477
 31
0.000000
  6
CONTINUOUS
  0
LINE
  8
WHITE
 10
20.471630
 20
8.744477
 30
0.000000
 11
20.471630
 21
8.696477
 31
0.000000
  6
CONTINUOUS
  0
LINE
  8
WHITE
 10
20.471630
 20
8.696477
 30
0.000000
 11
20.552630
 21
8.633477
 31
0.000000
  6
CONTINUOUS
  0
LINE
  8
WHITE
 10
20.552630
 20
8.633477
 30
0.000000
 11
20.645630
 21
8.621477
 31
0.000000
  6
CONTINUOUS
  0
LINE
  8
WHITE
 10
20.645630
 20
8.621477
 30
0.000000
 11
20.681630
 21
8.684477
 31
0.000000
  6
CONTINUOUS
  0
LINE
  8
WHITE
 10
20.681630
 20
8.684477
 30
0.000000
 11
20.636630
 21
8.759477
 31
0.000000
  6
CONTINUOUS
  0
LINE
  8
WHITE
 10
20.636630
 20
8.759477
 30
0.000000
 11
20.552630
 21
8.783477
 31
0.000000
  6
CONTINUOUS
  0
ARC
  8
WHITE
 10
7.974511
 20
15.152089
 30
0.000000
 40
0.631567
 50
120.640769
 51
152.830641
  6
CONTINUOUS
  0
LINE
  8
WHITE
 10
7.412630
 20
15.440477
 30
0.000000
 11
7.439630
 21
15.422477
 31
0.000000
  6
CONTINUOUS
  0
LINE
  8
WHITE
 10
7.439630
 20
15.422477
 30
0.000000
 11
7.739630
 21
15.695477
 31
0.000000
  6
CONTINUOUS
  0
LINE
  8
WHITE
 10
7.739630
 20
15.695477
 30
0.000000
 11
7.652630
 21
15.695477
 31
0.000000
  6
CONTINUOUS
  0
LINE
  8
WHITE
 10
3.770630
 20
6.356477
 30
0.000000
 11
3.740630
 21
6.281477
 31
0.000000
  6
CONTINUOUS
  0
LINE
  8
WHITE
 10
3.740630
 20
6.281477
 30
0.000000
 11
3.758630
 21
6.194477
 31
0.000000
  6
CONTINUOUS
  0
LINE
  8
WHITE
 10
3.758630
 20
6.194477
 30
0.000000
 11
3.812630
 21
6.170477
 31
0.000000
  6
CONTINUOUS
  0
LINE
  8
WHITE
 10
3.812630
 20
6.170477
 30
0.000000
 11
3.926630
 21
6.230477
 31
0.000000
  6
CONTINUOUS
  0
LINE
  8
WHITE
 10
3.926630
 20
6.230477
 30
0.000000
 11
3.899630
 21
6.296477
 31
0.000000
  6
CONTINUOUS
  0
LINE
  8
WHITE
 10
3.899630
 20
6.296477
 30
0.000000
 11
3.770630
 21
6.356477
 31
0.000000
  6
CONTINUOUS
  0
LINE
  8
WHITE
 10
2.714630
 20
6.365477
 30
0.000000
 11
2.642630
 21
6.323477
 31
0.000000
  6
CONTINUOUS
  0
LINE
  8
WHITE
 10
2.642630
 20
6.323477
 30
0.000000
 11
2.627630
 21
6.257477
 31
0.000000
  6
CONTINUOUS
  0
LINE
  8
WHITE
 10
2.627630
 20
6.257477
 30
0.000000
 11
2.672630
 21
6.200477
 31
0.000000
  6
CONTINUOUS
  0
LINE
  8
WHITE
 10
2.672630
 20
6.200477
 30
0.000000
 11
2.753630
 21
6.191477
 31
0.000000
  6
CONTINUOUS
  0
LINE
  8
WHITE
 10
2.753630
 20
6.191477
 30
0.000000
 11
2.786630
 21
6.227477
 31
0.000000
  6
CONTINUOUS
  0
LINE
  8
WHITE
 10
2.786630
 20
6.227477
 30
0.000000
 11
2.774630
 21
6.320477
 31
0.000000
  6
CONTINUOUS
  0
LINE
  8
WHITE
 10
2.774630
 20
6.320477
 30
0.000000
 11
2.714630
 21
6.365477
 31
0.000000
  6
CONTINUOUS
  0
ARC
  8
WHITE
 10
21.261526
 20
8.742741
 30
0.000000
 40
0.515810
 50
-156.186416
 51
-122.863121
  6
CONTINUOUS
  0
ARC
  8
WHITE
 10
20.590519
 20
8.243756
 30
0.000000
 40
0.396594
 50
9.538665
 51
54.711331
  6
CONTINUOUS
  0
LINE
  8
WHITE
 10
20.819630
 20
8.567477
 30
0.000000
 11
20.789630
 21
8.534477
 31
0.000000
  6
CONTINUOUS
  0
LINE
  8
WHITE
 10
4.280630
 20
7.196477
 30
0.000000
 11
4.220630
 21
7.133477
 31
0.000000
  6
CONTINUOUS
  0
LINE
  8
WHITE
 10
4.220630
 20
7.133477
 30
0.000000
 11
4.217630
 21
7.073477
 31
0.000000
  6
CONTINUOUS
  0
LINE
  8
WHITE
 10
4.217630
 20
7.073477
 30
0.000000
 11
4.280630
 21
7.052477
 31
0.000000
  6
CONTINUOUS
  0
LINE
  8
WHITE
 10
4.280630
 20
7.052477
 30
0.000000
 11
4.367630
 21
7.079477
 31
0.000000
  6
CONTINUOUS
  0
LINE
  8
WHITE
 10
4.367630
 20
7.079477
 30
0.000000
 11
4.364630
 21
7.133477
 31
0.000000
  6
CONTINUOUS
  0
LINE
  8
WHITE
 10
4.364630
 20
7.133477
 30
0.000000
 11
4.280630
 21
7.196477
 31
0.000000
  6
CONTINUOUS
  0
LINE
  8
WHITE
 10
16.526630
 20
8.699477
 30
0.000000
 11
16.463630
 21
8.672477
 31
0.000000
  6
CONTINUOUS
  0
LINE
  8
WHITE
 10
16.463630
 20
8.672477
 30
0.000000
 11
16.445630
 21
8.600477
 31
0.000000
  6
CONTINUOUS
  0
LINE
  8
WHITE
 10
16.445630
 20
8.600477
 30
0.000000
 11
16.475630
 21
8.528477
 31
0.000000
  6
CONTINUOUS
  0
LINE
  8
WHITE
 10
16.475630
 20
8.528477
 30
0.000000
 11
16.514630
 21
8.531477
 31
0.000000
  6
CONTINUOUS
  0
LINE
  8
WHITE
 10
16.514630
 20
8.531477
 30
0.000000
 11
16.559630
 21
8.633477
 31
0.000000
  6
CONTINUOUS
  0
LINE
  8
WHITE
 10
16.559630
 20
8.633477
 30
0.000000
 11
16.526630
 21
8.699477
 31
0.000000
  6
CONTINUOUS
  0
ARC
  8
WHITE
 10
15.357984
 20
5.346939
 30
0.000000
 40
1.116933
 50
84.366392
 51
100.125094
  6
CONTINUOUS
  0
LINE
  8
WHITE
 10
15.161630
 20
6.446477
 30
0.000000
 11
15.167630
 21
6.410477
 31
0.000000
  6
CONTINUOUS
  0
ARC
  8
WHITE
 10
15.231909
 20
6.970233
 30
0.000000
 40
0.563434
 50
-96.550820
 51
-65.268627
  6
CONTINUOUS
  0
LINE
  8
WHITE
 10
2.375630
 20
8.651477
 30
0.000000
 11
2.354630
 21
8.588477
 31
0.000000
  6
CONTINUOUS
  0
LINE
  8
WHITE
 10
2.354630
 20
8.588477
 30
0.000000
 11
2.381630
 21
8.522477
 31
0.000000
  6
CONTINUOUS
  0
LINE
  8
WHITE
 10
2.381630
 20
8.522477
 30
0.000000
 11
2.429630
 21
8.525477
 31
0.000000
  6
CONTINUOUS
  0
LINE
  8
WHITE
 10
2.429630
 20
8.525477
 30
0.000000
 11
2.480630
 21
8.591477
 31
0.000000
  6
CONTINUOUS
  0
LINE
  8
WHITE
 10
2.480630
 20
8.591477
 30
0.000000
 11
2.453630
 21
8.642477
 31
0.000000
  6
CONTINUOUS
  0
LINE
  8
WHITE
 10
2.453630
 20
8.642477
 30
0.000000
 11
2.375630
 21
8.651477
 31
0.000000
  6
CONTINUOUS
  0
LINE
  8
WHITE
 10
2.807630
 20
8.942477
 30
0.000000
 11
2.774630
 21
8.846477
 31
0.000000
  6
CONTINUOUS
  0
LINE
  8
WHITE
 10
2.774630
 20
8.846477
 30
0.000000
 11
2.798630
 21
8.810477
 31
0.000000
  6
CONTINUOUS
  0
LINE
  8
WHITE
 10
2.798630
 20
8.810477
 30
0.000000
 11
2.915630
 21
8.855477
 31
0.000000
  6
CONTINUOUS
  0
LINE
  8
WHITE
 10
2.915630
 20
8.855477
 30
0.000000
 11
2.906630
 21
8.903477
 31
0.000000
  6
CONTINUOUS
  0
LINE
  8
WHITE
 10
2.906630
 20
8.903477
 30
0.000000
 11
2.807630
 21
8.942477
 31
0.000000
  6
CONTINUOUS
  0
LINE
  8
WHITE
 10
3.692630
 20
6.653477
 30
0.000000
 11
3.623630
 21
6.623477
 31
0.000000
  6
CONTINUOUS
  0
LINE
  8
WHITE
 10
3.623630
 20
6.623477
 30
0.000000
 11
3.605630
 21
6.566477
 31
0.000000
  6
CONTINUOUS
  0
LINE
  8
WHITE
 10
3.605630
 20
6.566477
 30
0.000000
 11
3.647630
 21
6.527477
 31
0.000000
  6
CONTINUOUS
  0
LINE
  8
WHITE
 10
3.647630
 20
6.527477
 30
0.000000
 11
3.707630
 21
6.539477
 31
0.000000
  6
CONTINUOUS
  0
LINE
  8
WHITE
 10
3.707630
 20
6.539477
 30
0.000000
 11
3.725630
 21
6.620477
 31
0.000000
  6
CONTINUOUS
  0
LINE
  8
WHITE
 10
3.725630
 20
6.620477
 30
0.000000
 11
3.692630
 21
6.653477
 31
0.000000
  6
CONTINUOUS
  0
LINE
  8
WHITE
 10
4.463630
 20
7.673477
 30
0.000000
 11
4.424630
 21
7.586477
 31
0.000000
  6
CONTINUOUS
  0
LINE
  8
WHITE
 10
4.424630
 20
7.586477
 30
0.000000
 11
4.442630
 21
7.538477
 31
0.000000
  6
CONTINUOUS
  0
LINE
  8
WHITE
 10
4.442630
 20
7.538477
 30
0.000000
 11
4.541630
 21
7.568477
 31
0.000000
  6
CONTINUOUS
  0
LINE
  8
WHITE
 10
4.541630
 20
7.568477
 30
0.000000
 11
4.538630
 21
7.628477
 31
0.000000
  6
CONTINUOUS
  0
LINE
  8
WHITE
 10
4.538630
 20
7.628477
 30
0.000000
 11
4.463630
 21
7.673477
 31
0.000000
  6
CONTINUOUS
  0
ARC
  8
WHITE
 10
19.837352
 20
9.140373
 30
0.000000
 40
0.183190
 50
-117.900849
 51
-66.421310
  6
CONTINUOUS
  0
LINE
  8
WHITE
 10
19.910630
 20
8.972477
 30
0.000000
 11
19.823630
 21
9.047477
 31
0.000000
  6
CONTINUOUS
  0
LINE
  8
WHITE
 10
19.823630
 20
9.047477
 30
0.000000
 11
19.745630
 21
9.014477
 31
0.000000
  6
CONTINUOUS
  0
LINE
  8
WHITE
 10
19.745630
 20
9.014477
 30
0.000000
 11
19.751630
 21
8.978477
 31
0.000000
  6
CONTINUOUS
  0
LINE
  8
WHITE
 10
2.213630
 20
8.408477
 30
0.000000
 11
2.138630
 21
8.381477
 31
0.000000
  6
CONTINUOUS
  0
LINE
  8
WHITE
 10
2.138630
 20
8.381477
 30
0.000000
 11
2.144630
 21
8.336477
 31
0.000000
  6
CONTINUOUS
  0
LINE
  8
WHITE
 10
2.144630
 20
8.336477
 30
0.000000
 11
2.231630
 21
8.300477
 31
0.000000
  6
CONTINUOUS
  0
LINE
  8
WHITE
 10
2.231630
 20
8.300477
 30
0.000000
 11
2.273630
 21
8.351477
 31
0.000000
  6
CONTINUOUS
  0
LINE
  8
WHITE
 10
2.273630
 20
8.351477
 30
0.000000
 11
2.213630
 21
8.408477
 31
0.000000
  6
CONTINUOUS
  0
LINE
  8
WHITE
 10
2.036630
 20
7.955477
 30
0.000000
 11
1.964630
 21
7.943477
 31
0.000000
  6
CONTINUOUS
  0
LINE
  8
WHITE
 10
1.964630
 20
7.943477
 30
0.000000
 11
1.955630
 21
7.889477
 31
0.000000
  6
CONTINUOUS
  0
LINE
  8
WHITE
 10
1.955630
 20
7.889477
 30
0.000000
 11
2.000630
 21
7.832477
 31
0.000000
  6
CONTINUOUS
  0
LINE
  8
WHITE
 10
2.000630
 20
7.832477
 30
0.000000
 11
2.042630
 21
7.841477
 31
0.000000
  6
CONTINUOUS
  0
LINE
  8
WHITE
 10
2.042630
 20
7.841477
 30
0.000000
 11
2.036630
 21
7.955477
 31
0.000000
  6
CONTINUOUS
  0
LINE
  8
WHITE
 10
2.144630
 20
7.157477
 30
0.000000
 11
2.102630
 21
7.127477
 31
0.000000
  6
CONTINUOUS
  0
LINE
  8
WHITE
 10
2.102630
 20
7.127477
 30
0.000000
 11
2.129630
 21
7.073477
 31
0.000000
  6
CONTINUOUS
  0
LINE
  8
WHITE
 10
2.129630
 20
7.073477
 30
0.000000
 11
2.192630
 21
7.052477
 31
0.000000
  6
CONTINUOUS
  0
LINE
  8
WHITE
 10
2.192630
 20
7.052477
 30
0.000000
 11
2.201630
 21
7.109477
 31
0.000000
  6
CONTINUOUS
  0
LINE
  8
WHITE
 10
2.201630
 20
7.109477
 30
0.000000
 11
2.144630
 21
7.157477
 31
0.000000
  6
CONTINUOUS
  0
LINE
  8
WHITE
 10
2.774630
 20
6.623477
 30
0.000000
 11
2.759630
 21
6.584477
 31
0.000000
  6
CONTINUOUS
  0
LINE
  8
WHITE
 10
2.759630
 20
6.584477
 30
0.000000
 11
2.798630
 21
6.536477
 31
0.000000
  6
CONTINUOUS
  0
LINE
  8
WHITE
 10
2.798630
 20
6.536477
 30
0.000000
 11
2.861630
 21
6.557477
 31
0.000000
  6
CONTINUOUS
  0
LINE
  8
WHITE
 10
2.861630
 20
6.557477
 30
0.000000
 11
2.861630
 21
6.602477
 31
0.000000
  6
CONTINUOUS
  0
LINE
  8
WHITE
 10
2.861630
 20
6.602477
 30
0.000000
 11
2.774630
 21
6.623477
 31
0.000000
  6
CONTINUOUS
  0
LINE
  8
WHITE
 10
4.109630
 20
6.947477
 30
0.000000
 11
4.061630
 21
6.911477
 31
0.000000
  6
CONTINUOUS
  0
LINE
  8
WHITE
 10
4.061630
 20
6.911477
 30
0.000000
 11
4.079630
 21
6.857477
 31
0.000000
  6
CONTINUOUS
  0
LINE
  8
WHITE
 10
4.079630
 20
6.857477
 30
0.000000
 11
4.127630
 21
6.842477
 31
0.000000
  6
CONTINUOUS
  0
LINE
  8
WHITE
 10
4.127630
 20
6.842477
 30
0.000000
 11
4.148630
 21
6.905477
 31
0.000000
  6
CONTINUOUS
  0
LINE
  8
WHITE
 10
4.148630
 20
6.905477
 30
0.000000
 11
4.109630
 21
6.947477
 31
0.000000
  6
CONTINUOUS
  0
LINE
  8
WHITE
 10
14.681630
 20
8.504477
 30
0.000000
 11
14.687630
 21
8.480477
 31
0.000000
  6
CONTINUOUS
  0
LINE
  8
WHITE
 10
14.687630
 20
8.480477
 30
0.000000
 11
14.774630
 21
8.462477
 31
0.000000
  6
CONTINUOUS
  0
LINE
  8
WHITE
 10
14.774630
 20
8.462477
 30
0.000000
 11
14.798630
 21
8.495477
 31
0.000000
  6
CONTINUOUS
  0
LINE
  8
WHITE
 10
14.798630
 20
8.495477
 30
0.000000
 11
14.681630
 21
8.504477
 31
0.000000
  6
CONTINUOUS
  0
ENDSEC
  0
EOF
