  0
SECTION
  2
HEADER
  9
$ACADVER
  1
AC1009
  9
$DWGCODEPAGE
  3
ansi_1252
  9
$INSBASE
 10
0.0
 20
0.0
 30
0.0
  9
$EXTMIN
 10
0.3867120927407963
 20
-12.49996887300663
 30
0.0
  9
$EXTMAX
 10
353.0403962080856
 20
268.5005631585075
 30
0.0
  9
$LIMMIN
 10
0.0
 20
0.0
  9
$LIMMAX
 10
741.0
 20
721.0
  9
$ORTHOMODE
 70
     0
  9
$REGENMODE
 70
     1
  9
$FILLMODE
 70
     1
  9
$QTEXTMODE
 70
     0
  9
$MIRRTEXT
 70
     1
  9
$DRAGMODE
 70
     2
  9
$LTSCALE
 40
1.0
  9
$OSMODE
 70
    37
  9
$ATTMODE
 70
     1
  9
$TEXTSIZE
 40
0.2
  9
$TRACEWID
 40
0.05
  9
$TEXTSTYLE
  7
STANDARD
  9
$CLAYER
  8
0
  9
$CELTYPE
  6
BYBLOCK
  9
$CECOLOR
 62
   256
  9
$DIMSCALE
 40
1.0
  9
$DIMASZ
 40
0.18
  9
$DIMEXO
 40
0.0625
  9
$DIMDLI
 40
0.38
  9
$DIMRND
 40
0.0
  9
$DIMDLE
 40
0.0
  9
$DIMEXE
 40
0.18
  9
$DIMTP
 40
0.0
  9
$DIMTM
 40
0.0
  9
$DIMTXT
 40
0.18
  9
$DIMCEN
 40
0.09
  9
$DIMTSZ
 40
0.0
  9
$DIMTOL
 70
     0
  9
$DIMLIM
 70
     0
  9
$DIMTIH
 70
     1
  9
$DIMTOH
 70
     1
  9
$DIMSE1
 70
     0
  9
$DIMSE2
 70
     0
  9
$DIMTAD
 70
     0
  9
$DIMZIN
 70
     0
  9
$DIMBLK
  1

  9
$DIMASO
 70
     1
  9
$DIMSHO
 70
     1
  9
$DIMPOST
  1

  9
$DIMAPOST
  1

  9
$DIMALT
 70
     0
  9
$DIMALTD
 70
     2
  9
$DIMALTF
 40
25.4
  9
$DIMLFAC
 40
1.0
  9
$DIMTOFL
 70
     0
  9
$DIMTVP
 40
0.0
  9
$DIMTIX
 70
     0
  9
$DIMSOXD
 70
     0
  9
$DIMSAH
 70
     0
  9
$DIMBLK1
  1

  9
$DIMBLK2
  1

  9
$DIMSTYLE
  2
STANDARD
  9
$DIMCLRD
 70
     0
  9
$DIMCLRE
 70
     0
  9
$DIMCLRT
 70
     0
  9
$DIMTFAC
 40
1.0
  9
$DIMGAP
 40
0.09
  9
$LUNITS
 70
     2
  9
$LUPREC
 70
     3
  9
$SKETCHINC
 40
0.1
  9
$FILLETRAD
 40
0.5
  9
$AUNITS
 70
     0
  9
$AUPREC
 70
     0
  9
$MENU
  1
.
  9
$ELEVATION
 40
0.0
  9
$PELEVATION
 40
0.0
  9
$THICKNESS
 40
0.0
  9
$LIMCHECK
 70
     0
  9
$CHAMFERA
 40
0.5
  9
$CHAMFERB
 40
0.5
  9
$SKPOLY
 70
     0
  9
$TDCREATE
 40
2453353.508792488
  9
$TDUPDATE
 40
2440787.85386963
  9
$TDINDWG
 40
2440852.080755556
  9
$TDUSRTIMER
 40
2440852.080755556
  9
$USRTIMER
 70
     1
  9
$ANGBASE
 50
0.0
  9
$ANGDIR
 70
     0
  9
$PDMODE
 70
     0
  9
$PDSIZE
 40
0.0
  9
$PLINEWID
 40
0.0
  9
$COORDS
 70
     1
  9
$SPLFRAME
 70
     0
  9
$SPLINETYPE
 70
     6
  9
$SPLINESEGS
 70
     8
  9
$ATTDIA
 70
     0
  9
$ATTREQ
 70
     1
  9
$HANDLING
 70
     1
  9
$HANDSEED
  5
797
  9
$SURFTAB1
 70
     6
  9
$SURFTAB2
 70
     6
  9
$SURFTYPE
 70
     6
  9
$SURFU
 70
     6
  9
$SURFV
 70
     6
  9
$UCSNAME
  2

  9
$UCSORG
 10
0.0
 20
0.0
 30
0.0
  9
$UCSXDIR
 10
1.0
 20
0.0
 30
0.0
  9
$UCSYDIR
 10
0.0
 20
1.0
 30
0.0
  9
$PUCSNAME
  2

  9
$PUCSORG
 10
0.0
 20
0.0
 30
0.0
  9
$PUCSXDIR
 10
1.0
 20
0.0
 30
0.0
  9
$PUCSYDIR
 10
0.0
 20
1.0
 30
0.0
  9
$USERI1
 70
     0
  9
$USERI2
 70
     0
  9
$USERI3
 70
     0
  9
$USERI4
 70
     0
  9
$USERI5
 70
     0
  9
$USERR1
 40
0.0
  9
$USERR2
 40
0.0
  9
$USERR3
 40
0.0
  9
$USERR4
 40
0.0
  9
$USERR5
 40
0.0
  9
$WORLDVIEW
 70
     1
  9
$SHADEDGE
 70
     3
  9
$SHADEDIF
 70
    70
  9
$TILEMODE
 70
     1
  9
$MAXACTVP
 70
    64
  9
$PLIMCHECK
 70
     0
  9
$PEXTMIN
 10
0.0
 20
0.0
 30
0.0
  9
$PEXTMAX
 10
0.0
 20
0.0
 30
0.0
  9
$PLIMMIN
 10
0.0
 20
0.0
  9
$PLIMMAX
 10
0.0
 20
0.0
  9
$UNITMODE
 70
     0
  9
$VISRETAIN
 70
     1
  9
$PLINEGEN
 70
     0
  9
$PSLTSCALE
 70
     1
  0
ENDSEC
  0
SECTION
  2
TABLES
  0
TABLE
  2
VPORT
 70
     1
  0
VPORT
  2
*ACTIVE
 70
     0
 10
0.0
 20
0.0
 11
1.0
 21
1.0
 12
202.953435939665
 22
110.7008699212518
 13
0.0
 23
0.0
 14
1.0
 24
1.0
 15
0.0
 25
0.0
 16
0.0
 26
0.0
 36
1.0
 17
0.0
 27
0.0
 37
0.0
 40
446.1351954113346
 41
0.9729999999999999
 42
50.0
 43
0.0
 44
0.0
 50
0.0
 51
0.0
 71
    16
 72
   100
 73
     1
 74
     1
 75
     0
 76
     0
 77
     0
 78
     0
  0
ENDTAB
  0
TABLE
  2
LTYPE
 70
     1
  0
LTYPE
  2
CONTINUOUS
 70
     0
  3
Solid line
 72
    65
 73
     0
 40
0.0
  0
ENDTAB
  0
TABLE
  2
LAYER
 70
     1
  0
LAYER
  2
0
 70
     0
 62
     7
  6
CONTINUOUS
  0
ENDTAB
  0
TABLE
  2
STYLE
 70
     1
  0
STYLE
  2
STANDARD
 70
     0
 40
0.0
 41
1.0
 50
0.0
 71
     0
 42
0.2
  3
txt
  4

  0
ENDTAB
  0
TABLE
  2
VIEW
 70
     0
  0
ENDTAB
  0
TABLE
  2
UCS
 70
     0
  0
ENDTAB
  0
TABLE
  2
APPID
 70
     1
  0
APPID
  2
ACAD
 70
     0
  0
ENDTAB
  0
TABLE
  2
DIMSTYLE
 70
     1
  0
DIMSTYLE
  2
STANDARD
 70
     0
  3

  4

  5

  6

  7

 40
1.0
 41
0.18
 42
0.0625
 43
0.38
 44
0.18
 45
0.0
 46
0.0
 47
0.0
 48
0.0
140
0.18
141
0.09
142
0.0
143
25.4
144
1.0
145
0.0
146
1.0
147
0.09
 71
     0
 72
     0
 73
     1
 74
     1
 75
     0
 76
     0
 77
     0
 78
     0
170
     0
171
     2
172
     0
173
     0
174
     0
175
     0
176
     0
177
     0
178
     0
  0
ENDTAB
  0
ENDSEC
  0
SECTION
  2
BLOCKS
  0
BLOCK
  8
0
  2
$MODEL_SPACE
 70
     0
 10
0.0
 20
0.0
 30
0.0
  3
$MODEL_SPACE
  1

  0
ENDBLK
  5
21
  8
0
  0
BLOCK
 67
     1
  8
0
  2
$PAPER_SPACE
 70
     0
 10
0.0
 20
0.0
 30
0.0
  3
$PAPER_SPACE
  1

  0
ENDBLK
  5
76
 67
     1
  8
0
  0
ENDSEC
  0
SECTION
  2
ENTITIES
  0
POLYLINE
  5
4E7
  8
0
  6
CONTINUOUS
 62
     7
 66
     1
 10
0.0
 20
0.0
 30
0.0
  0
VERTEX
  5
67A
  8
0
  6
CONTINUOUS
 62
     7
 10
60.93767066287768
 20
3.258089125288578
 30
0.0
  0
VERTEX
  5
67B
  8
0
  6
CONTINUOUS
 62
     7
 10
79.99373855085335
 20
3.258089125288578
 30
0.0
  0
VERTEX
  5
67C
  8
0
  6
CONTINUOUS
 62
     7
 10
80.41255322970996
 20
5.98038453785653
 30
0.0
  0
VERTEX
  5
67D
  8
0
  6
CONTINUOUS
 62
     7
 10
81.66899726627979
 20
8.912087289852789
 30
0.0
  0
VERTEX
  5
67E
  8
0
  6
CONTINUOUS
 62
     7
 10
83.61147516330799
 20
21.1791178452587
 30
0.0
  0
VERTEX
  5
67F
  8
0
  6
CONTINUOUS
 62
     7
 10
100.0788572295166
 20
58.54740791857821
 30
0.0
  0
SEQEND
  5
679
  8
0
  6
CONTINUOUS
 62
     7
  0
POLYLINE
  5
4E8
  8
0
  6
CONTINUOUS
 62
     7
 66
     1
 10
0.0
 20
0.0
 30
0.0
  0
VERTEX
  5
681
  8
0
  6
CONTINUOUS
 62
     7
 10
210.8123522513967
 20
0.220072752476888
 30
0.0
  0
VERTEX
  5
682
  8
0
  6
CONTINUOUS
 62
     7
 10
210.4952288135702
 20
2.122813379435435
 30
0.0
  0
VERTEX
  5
683
  8
0
  6
CONTINUOUS
 62
     7
 10
209.492719335683
 20
11.22303074922193
 30
0.0
  0
VERTEX
  5
684
  8
0
  6
CONTINUOUS
 62
     7
 10
202.4970321164113
 20
57.49459003721935
 30
0.0
  0
SEQEND
  5
680
  8
0
  6
CONTINUOUS
 62
     7
  0
POLYLINE
  5
4E9
  8
0
  6
CONTINUOUS
 62
     7
 66
     1
 10
0.0
 20
0.0
 30
0.0
  0
VERTEX
  5
686
  8
0
  6
CONTINUOUS
 62
     7
 10
243.3314633049306
 20
0.7452010521489285
 30
0.0
  0
VERTEX
  5
687
  8
0
  6
CONTINUOUS
 62
     7
 10
260.3823195202285
 20
0.8003077076920988
 30
0.0
  0
VERTEX
  5
688
  8
0
  6
CONTINUOUS
 62
     7
 10
277.0460449528874
 20
56.86636801893444
 30
0.0
  0
SEQEND
  5
685
  8
0
  6
CONTINUOUS
 62
     7
  0
POLYLINE
  5
4EA
  8
0
  6
CONTINUOUS
 62
     7
 66
     1
 10
0.0
 20
0.0
 30
0.0
  0
VERTEX
  5
68A
  8
0
  6
CONTINUOUS
 62
     7
 10
154.1642634841051
 20
258.7052976120818
 30
0.0
  0
VERTEX
  5
68B
  8
0
  6
CONTINUOUS
 62
     7
 10
153.1393073574657
 20
261.2676879286803
 30
0.0
  0
SEQEND
  5
689
  8
0
  6
CONTINUOUS
 62
     7
  0
POLYLINE
  5
4EB
  8
0
  6
CONTINUOUS
 62
     7
 66
     1
 10
0.0
 20
0.0
 30
0.0
  0
VERTEX
  5
68D
  8
0
  6
CONTINUOUS
 62
     7
 10
13.80155997701294
 20
213.3269200927419
 30
0.0
  0
VERTEX
  5
68E
  8
0
  6
CONTINUOUS
 62
     7
 10
14.05297595922829
 20
213.7459467297672
 30
0.0
  0
SEQEND
  5
68C
  8
0
  6
CONTINUOUS
 62
     7
  0
POLYLINE
  5
4ED
  8
0
  6
CONTINUOUS
 62
     7
 66
     1
 10
0.0
 20
0.0
 30
0.0
  0
VERTEX
  5
690
  8
0
  6
CONTINUOUS
 62
     7
 10
71.38671209274079
 20
213.5005631585075
 30
0.0
  0
VERTEX
  5
691
  8
0
  6
CONTINUOUS
 62
     7
 10
72.58671209274061
 20
217.4005631585075
 30
0.0
  0
VERTEX
  5
692
  8
0
  6
CONTINUOUS
 62
     7
 10
83.03377109274069
 20
239.5887981585075
 30
0.0
  0
VERTEX
  5
693
  8
0
  6
CONTINUOUS
 62
     7
 10
84.38671209274079
 20
243.5005631585075
 30
0.0
  0
VERTEX
  5
694
  8
0
  6
CONTINUOUS
 62
     7
 10
83.73965309274067
 20
249.5887981585075
 30
0.0
  0
VERTEX
  5
695
  8
0
  6
CONTINUOUS
 62
     7
 10
83.38671209274079
 20
252.5005631585075
 30
0.0
  0
VERTEX
  5
696
  8
0
  6
CONTINUOUS
 62
     7
 10
82.38671209274079
 20
253.5005631585075
 30
0.0
  0
VERTEX
  5
697
  8
0
  6
CONTINUOUS
 62
     7
 10
79.38671209274079
 20
252.0005631585075
 30
0.0
  0
VERTEX
  5
698
  8
0
  6
CONTINUOUS
 62
     7
 10
75.4867120927407
 20
253.7005631585075
 30
0.0
  0
VERTEX
  5
699
  8
0
  6
CONTINUOUS
 62
     7
 10
74.38671209274079
 20
254.5005631585075
 30
0.0
  0
VERTEX
  5
69A
  8
0
  6
CONTINUOUS
 62
     7
 10
71.38671209274079
 20
248.5005631585075
 30
0.0
  0
VERTEX
  5
69B
  8
0
  6
CONTINUOUS
 62
     7
 10
69.38671209274079
 20
247.5005631585075
 30
0.0
  0
VERTEX
  5
69C
  8
0
  6
CONTINUOUS
 62
     7
 10
68.38671209274079
 20
249.5005631585075
 30
0.0
  0
VERTEX
  5
69D
  8
0
  6
CONTINUOUS
 62
     7
 10
64.38671209274079
 20
253.5005631585075
 30
0.0
  0
VERTEX
  5
69E
  8
0
  6
CONTINUOUS
 62
     7
 10
63.15594309274056
 20
251.6544091585075
 30
0.0
  0
VERTEX
  5
69F
  8
0
  6
CONTINUOUS
 62
     7
 10
55.38671209274079
 20
241.5005631585075
 30
0.0
  0
VERTEX
  5
6A0
  8
0
  6
CONTINUOUS
 62
     7
 10
52.18671209274052
 20
246.4005631585075
 30
0.0
  0
VERTEX
  5
6A1
  8
0
  6
CONTINUOUS
 62
     7
 10
51.38671209274079
 20
248.5005631585075
 30
0.0
  0
VERTEX
  5
6A2
  8
0
  6
CONTINUOUS
 62
     7
 10
49.38671209274079
 20
250.5005631585075
 30
0.0
  0
VERTEX
  5
6A3
  8
0
  6
CONTINUOUS
 62
     7
 10
47.38671209274079
 20
249.5005631585075
 30
0.0
  0
VERTEX
  5
6A4
  8
0
  6
CONTINUOUS
 62
     7
 10
45.80671209274064
 20
241.4405631585075
 30
0.0
  0
VERTEX
  5
6A5
  8
0
  6
CONTINUOUS
 62
     7
 10
45.38671209274079
 20
235.5005631585075
 30
0.0
  0
VERTEX
  5
6A6
  8
0
  6
CONTINUOUS
 62
     7
 10
44.38671209274079
 20
234.5005631585075
 30
0.0
  0
VERTEX
  5
6A7
  8
0
  6
CONTINUOUS
 62
     7
 10
41.15594309274056
 20
238.3467171585075
 30
0.0
  0
VERTEX
  5
6A8
  8
0
  6
CONTINUOUS
 62
     7
 10
37.38671209274079
 20
243.5005631585075
 30
0.0
  0
VERTEX
  5
6A9
  8
0
  6
CONTINUOUS
 62
     7
 10
36.38671209274079
 20
242.5005631585075
 30
0.0
  0
VERTEX
  5
6AA
  8
0
  6
CONTINUOUS
 62
     7
 10
35.86052709274063
 20
236.4768721585075
 30
0.0
  0
VERTEX
  5
6AB
  8
0
  6
CONTINUOUS
 62
     7
 10
34.91289709274074
 20
217.5242541585075
 30
0.0
  0
VERTEX
  5
6AC
  8
0
  6
CONTINUOUS
 62
     7
 10
32.38671209274079
 20
212.5005631585075
 30
0.0
  0
VERTEX
  5
6AD
  8
0
  6
CONTINUOUS
 62
     7
 10
29.38671209274079
 20
214.5005631585075
 30
0.0
  0
VERTEX
  5
6AE
  8
0
  6
CONTINUOUS
 62
     7
 10
25.15718184040051
 20
219.6542223118254
 30
0.0
  0
VERTEX
  5
6AF
  8
0
  6
CONTINUOUS
 62
     7
 10
22.55921669084305
 20
222.503603443598
 30
0.0
  0
VERTEX
  5
6B0
  8
0
  6
CONTINUOUS
 62
     7
 10
20.96691547014653
 20
223.8863913457818
 30
0.0
  0
VERTEX
  5
6B1
  8
0
  6
CONTINUOUS
 62
     7
 10
19.41651691315278
 20
224.1378073279969
 30
0.0
  0
VERTEX
  5
6B2
  8
0
  6
CONTINUOUS
 62
     7
 10
18.49465831169673
 20
223.5511700361615
 30
0.0
  0
VERTEX
  5
6B3
  8
0
  6
CONTINUOUS
 62
     7
 10
18.36895032058929
 20
222.1683821339777
 30
0.0
  0
VERTEX
  5
6B4
  8
0
  6
CONTINUOUS
 62
     7
 10
19.24890625834254
 20
219.4447089933126
 30
0.0
  0
VERTEX
  5
6B5
  8
0
  6
CONTINUOUS
 62
     7
 10
22.38671209274079
 20
212.5005631585075
 30
0.0
  0
VERTEX
  5
6B6
  8
0
  6
CONTINUOUS
 62
     7
 10
22.38671209274079
 20
210.5005631585075
 30
0.0
  0
VERTEX
  5
6B7
  8
0
  6
CONTINUOUS
 62
     7
 10
20.38671209274079
 20
208.5005631585075
 30
0.0
  0
VERTEX
  5
6B8
  8
0
  6
CONTINUOUS
 62
     7
 10
14.05297595922829
 20
213.7459467297672
 30
0.0
  0
SEQEND
  5
68F
  8
0
  6
CONTINUOUS
 62
     7
  0
POLYLINE
  5
4EE
  8
0
  6
CONTINUOUS
 62
     7
 66
     1
 10
0.0
 20
0.0
 30
0.0
  0
VERTEX
  5
6BA
  8
0
  6
CONTINUOUS
 62
     7
 10
97.38671209274079
 20
200.5005631585075
 30
0.0
  0
VERTEX
  5
6BB
  8
0
  6
CONTINUOUS
 62
     7
 10
98.38671209274079
 20
200.5005631585075
 30
0.0
  0
VERTEX
  5
6BC
  8
0
  6
CONTINUOUS
 62
     7
 10
101.6867120927408
 20
207.4005631585075
 30
0.0
  0
VERTEX
  5
6BD
  8
0
  6
CONTINUOUS
 62
     7
 10
102.3867120927408
 20
208.5005631585075
 30
0.0
  0
VERTEX
  5
6BE
  8
0
  6
CONTINUOUS
 62
     7
 10
97.68671209274075
 20
221.6005631585076
 30
0.0
  0
VERTEX
  5
6BF
  8
0
  6
CONTINUOUS
 62
     7
 10
94.08671209274061
 20
231.4005631585075
 30
0.0
  0
VERTEX
  5
6C0
  8
0
  6
CONTINUOUS
 62
     7
 10
93.74891588367197
 20
233.0082027695946
 30
0.0
  0
VERTEX
  5
6C1
  8
0
  6
CONTINUOUS
 62
     7
 10
94.14828400576678
 20
234.4725525506089
 30
0.0
  0
VERTEX
  5
6C2
  8
0
  6
CONTINUOUS
 62
     7
 10
95.4867120927407
 20
234.7005631585075
 30
0.0
  0
VERTEX
  5
6C3
  8
0
  6
CONTINUOUS
 62
     7
 10
96.38671209274079
 20
234.5005631585075
 30
0.0
  0
VERTEX
  5
6C4
  8
0
  6
CONTINUOUS
 62
     7
 10
106.6267120927406
 20
222.6805631585075
 30
0.0
  0
VERTEX
  5
6C5
  8
0
  6
CONTINUOUS
 62
     7
 10
110.1867120927408
 20
217.4005631585075
 30
0.0
  0
VERTEX
  5
6C6
  8
0
  6
CONTINUOUS
 62
     7
 10
110.3867120927408
 20
216.5005631585075
 30
0.0
  0
VERTEX
  5
6C7
  8
0
  6
CONTINUOUS
 62
     7
 10
112.3867120927408
 20
214.5005631585075
 30
0.0
  0
VERTEX
  5
6C8
  8
0
  6
CONTINUOUS
 62
     7
 10
115.3867120927408
 20
217.5005631585075
 30
0.0
  0
VERTEX
  5
6C9
  8
0
  6
CONTINUOUS
 62
     7
 10
117.3867120927408
 20
224.5005631585075
 30
0.0
  0
VERTEX
  5
6CA
  8
0
  6
CONTINUOUS
 62
     7
 10
116.7713270927407
 20
231.5774861585076
 30
0.0
  0
VERTEX
  5
6CB
  8
0
  6
CONTINUOUS
 62
     7
 10
114.0337710927407
 20
243.4123281585075
 30
0.0
  0
VERTEX
  5
6CC
  8
0
  6
CONTINUOUS
 62
     7
 10
112.318686767912
 20
253.0973884610222
 30
0.0
  0
VERTEX
  5
6CD
  8
0
  6
CONTINUOUS
 62
     7
 10
113.3802966221218
 20
254.0882243249513
 30
0.0
  0
VERTEX
  5
6CE
  8
0
  6
CONTINUOUS
 62
     7
 10
114.6174810927406
 20
253.6544091585075
 30
0.0
  0
VERTEX
  5
6CF
  8
0
  6
CONTINUOUS
 62
     7
 10
116.6174810927406
 20
250.6544091585075
 30
0.0
  0
VERTEX
  5
6D0
  8
0
  6
CONTINUOUS
 62
     7
 10
125.3867120927408
 20
236.5005631585075
 30
0.0
  0
VERTEX
  5
6D1
  8
0
  6
CONTINUOUS
 62
     7
 10
127.3867120927408
 20
236.5005631585075
 30
0.0
  0
VERTEX
  5
6D2
  8
0
  6
CONTINUOUS
 62
     7
 10
128.3867120927408
 20
237.5005631585075
 30
0.0
  0
VERTEX
  5
6D3
  8
0
  6
CONTINUOUS
 62
     7
 10
128.9221100927408
 20
244.5315361585074
 30
0.0
  0
VERTEX
  5
6D4
  8
0
  6
CONTINUOUS
 62
     7
 10
129.3867120927408
 20
258.5005631585075
 30
0.0
  0
VERTEX
  5
6D5
  8
0
  6
CONTINUOUS
 62
     7
 10
130.4368282797596
 20
258.6177597029132
 30
0.0
  0
VERTEX
  5
6D6
  8
0
  6
CONTINUOUS
 62
     7
 10
135.3867120927408
 20
251.5005631585075
 30
0.0
  0
VERTEX
  5
6D7
  8
0
  6
CONTINUOUS
 62
     7
 10
136.3867120927408
 20
251.5005631585075
 30
0.0
  0
VERTEX
  5
6D8
  8
0
  6
CONTINUOUS
 62
     7
 10
138.3867120927408
 20
253.5005631585075
 30
0.0
  0
VERTEX
  5
6D9
  8
0
  6
CONTINUOUS
 62
     7
 10
138.7396530927407
 20
256.4123281585075
 30
0.0
  0
VERTEX
  5
6DA
  8
0
  6
CONTINUOUS
 62
     7
 10
140.3867120927408
 20
260.5005631585075
 30
0.0
  0
VERTEX
  5
6DB
  8
0
  6
CONTINUOUS
 62
     7
 10
144.3867120927408
 20
258.5005631585075
 30
0.0
  0
VERTEX
  5
6DC
  8
0
  6
CONTINUOUS
 62
     7
 10
145.9559430927407
 20
261.5544091585076
 30
0.0
  0
VERTEX
  5
6DD
  8
0
  6
CONTINUOUS
 62
     7
 10
146.3867120927408
 20
268.5005631585075
 30
0.0
  0
VERTEX
  5
6DE
  8
0
  6
CONTINUOUS
 62
     7
 10
148.8930605471026
 20
267.8566915999334
 30
0.0
  0
VERTEX
  5
6DF
  8
0
  6
CONTINUOUS
 62
     7
 10
151.0527895282356
 20
265.1112734035779
 30
0.0
  0
VERTEX
  5
6E0
  8
0
  6
CONTINUOUS
 62
     7
 10
152.0045345029722
 20
263.6104447895702
 30
0.0
  0
VERTEX
  5
6E1
  8
0
  6
CONTINUOUS
 62
     7
 10
153.1393073574657
 20
261.2676879286803
 30
0.0
  0
SEQEND
  5
6B9
  8
0
  6
CONTINUOUS
 62
     7
  0
POLYLINE
  5
4EF
  8
0
  6
CONTINUOUS
 62
     7
 66
     1
 10
0.0
 20
0.0
 30
0.0
  0
VERTEX
  5
6E3
  8
0
  6
CONTINUOUS
 62
     7
 10
97.38671209274079
 20
200.5005631585075
 30
0.0
  0
VERTEX
  5
6E4
  8
0
  6
CONTINUOUS
 62
     7
 10
96.68671209274075
 20
204.6005631585076
 30
0.0
  0
VERTEX
  5
6E5
  8
0
  6
CONTINUOUS
 62
     7
 10
95.38671209274079
 20
209.5005631585075
 30
0.0
  0
VERTEX
  5
6E6
  8
0
  6
CONTINUOUS
 62
     7
 10
93.38671209274079
 20
211.5005631585075
 30
0.0
  0
VERTEX
  5
6E7
  8
0
  6
CONTINUOUS
 62
     7
 10
87.38671209274079
 20
205.5005631585075
 30
0.0
  0
VERTEX
  5
6E8
  8
0
  6
CONTINUOUS
 62
     7
 10
86.38671209274079
 20
205.5005631585075
 30
0.0
  0
VERTEX
  5
6E9
  8
0
  6
CONTINUOUS
 62
     7
 10
83.38671209274079
 20
212.5005631585075
 30
0.0
  0
VERTEX
  5
6EA
  8
0
  6
CONTINUOUS
 62
     7
 10
82.38671209274079
 20
213.5005631585075
 30
0.0
  0
VERTEX
  5
6EB
  8
0
  6
CONTINUOUS
 62
     7
 10
80.38671209274079
 20
213.5005631585075
 30
0.0
  0
VERTEX
  5
6EC
  8
0
  6
CONTINUOUS
 62
     7
 10
78.38671209274079
 20
211.5005631585075
 30
0.0
  0
VERTEX
  5
6ED
  8
0
  6
CONTINUOUS
 62
     7
 10
76.38671209274079
 20
213.5005631585075
 30
0.0
  0
VERTEX
  5
6EE
  8
0
  6
CONTINUOUS
 62
     7
 10
76.38671209274079
 20
215.5005631585075
 30
0.0
  0
VERTEX
  5
6EF
  8
0
  6
CONTINUOUS
 62
     7
 10
75.38671209274079
 20
216.5005631585075
 30
0.0
  0
VERTEX
  5
6F0
  8
0
  6
CONTINUOUS
 62
     7
 10
71.38671209274079
 20
213.5005631585075
 30
0.0
  0
SEQEND
  5
6E2
  8
0
  6
CONTINUOUS
 62
     7
  0
POLYLINE
  5
4F1
  8
0
  6
CONTINUOUS
 62
     7
 66
     1
 10
0.0
 20
0.0
 30
0.0
  0
VERTEX
  5
6F2
  8
0
  6
CONTINUOUS
 62
     7
 10
75.23930181289583
 20
177.2788692177223
 30
0.0
  0
VERTEX
  5
6F3
  8
0
  6
CONTINUOUS
 62
     7
 10
73.23930181289583
 20
179.2788692177223
 30
0.0
  0
VERTEX
  5
6F4
  8
0
  6
CONTINUOUS
 62
     7
 10
74.48930181289583
 20
183.0288692177223
 30
0.0
  0
VERTEX
  5
6F5
  8
0
  6
CONTINUOUS
 62
     7
 10
81.23930181289583
 20
184.2788692177223
 30
0.0
  0
VERTEX
  5
6F6
  8
0
  6
CONTINUOUS
 62
     7
 10
83.23930181289583
 20
182.2788692177223
 30
0.0
  0
VERTEX
  5
6F7
  8
0
  6
CONTINUOUS
 62
     7
 10
83.23930181289583
 20
180.2788692177223
 30
0.0
  0
VERTEX
  5
6F8
  8
0
  6
CONTINUOUS
 62
     7
 10
80.23930181289583
 20
177.2788692177223
 30
0.0
  0
VERTEX
  5
6F9
  8
0
  6
CONTINUOUS
 62
     7
 10
75.23930181289583
 20
177.2788692177223
 30
0.0
  0
SEQEND
  5
6F1
  8
0
  6
CONTINUOUS
 62
     7
  0
POLYLINE
  5
4F2
  8
0
  6
CONTINUOUS
 62
     7
 66
     1
 10
0.0
 20
0.0
 30
0.0
  0
VERTEX
  5
6FB
  8
0
  6
CONTINUOUS
 62
     7
 10
332.5506483907595
 20
0.8003077076920988
 30
0.0
  0
VERTEX
  5
6FC
  8
0
  6
CONTINUOUS
 62
     7
 10
351.3771689656808
 20
0.8003077076920988
 30
0.0
  0
VERTEX
  5
6FD
  8
0
  6
CONTINUOUS
 62
     7
 10
350.4148913356831
 20
18.45524940259626
 30
0.0
  0
VERTEX
  5
6FE
  8
0
  6
CONTINUOUS
 62
     7
 10
341.2003205370227
 20
71.01730537991224
 30
0.0
  0
SEQEND
  5
6FA
  8
0
  6
CONTINUOUS
 62
     7
  0
POLYLINE
  5
4F3
  8
0
  6
CONTINUOUS
 62
     7
 66
     1
 10
0.0
 20
0.0
 30
0.0
  0
VERTEX
  5
700
  8
0
  6
CONTINUOUS
 62
     7
 10
60.93767066287768
 20
3.258089125288578
 30
0.0
  0
VERTEX
  5
701
  8
0
  6
CONTINUOUS
 62
     7
 10
62.0850780586511
 20
5.490789135516792
 30
0.0
  0
VERTEX
  5
702
  8
0
  6
CONTINUOUS
 62
     7
 10
64.38608900418454
 20
6.118337575207725
 30
0.0
  0
VERTEX
  5
703
  8
0
  6
CONTINUOUS
 62
     7
 10
68.77892808202111
 20
23.68969388655399
 30
0.0
  0
VERTEX
  5
704
  8
0
  6
CONTINUOUS
 62
     7
 10
85.51355314044612
 20
77.03131126028374
 30
0.0
  0
SEQEND
  5
6FF
  8
0
  6
CONTINUOUS
 62
     7
  0
POLYLINE
  5
502
  8
0
  6
CONTINUOUS
 62
     7
 66
     1
 10
0.0
 20
0.0
 30
0.0
  0
VERTEX
  5
706
  8
0
  6
CONTINUOUS
 62
     7
 10
323.7573069340737
 20
64.25836669266286
 30
0.0
  0
VERTEX
  5
707
  8
0
  6
CONTINUOUS
 62
     7
 10
333.261950335683
 20
30.46701440259626
 30
0.0
  0
VERTEX
  5
708
  8
0
  6
CONTINUOUS
 62
     7
 10
336.061950335683
 20
21.36701440259626
 30
0.0
  0
VERTEX
  5
709
  8
0
  6
CONTINUOUS
 62
     7
 10
337.9296542693085
 20
4.834562116603777
 30
0.0
  0
VERTEX
  5
70A
  8
0
  6
CONTINUOUS
 62
     7
 10
332.9988988806387
 20
3.489810646966554
 30
0.0
  0
VERTEX
  5
70B
  8
0
  6
CONTINUOUS
 62
     7
 10
332.5506483907595
 20
0.8003077076920988
 30
0.0
  0
SEQEND
  5
705
  8
0
  6
CONTINUOUS
 62
     7
  0
POLYLINE
  5
503
  8
0
  6
CONTINUOUS
 62
     7
 66
     1
 10
0.0
 20
0.0
 30
0.0
  0
VERTEX
  5
70D
  8
0
  6
CONTINUOUS
 62
     7
 10
341.2003205370227
 20
71.01730537991224
 30
0.0
  0
VERTEX
  5
70E
  8
0
  6
CONTINUOUS
 62
     7
 10
339.5867120927406
 20
89.60056315850748
 30
0.0
  0
VERTEX
  5
70F
  8
0
  6
CONTINUOUS
 62
     7
 10
334.2054370684776
 20
102.9266567034304
 30
0.0
  0
VERTEX
  5
710
  8
0
  6
CONTINUOUS
 62
     7
 10
323.8956758012589
 20
124.4426802176261
 30
0.0
  0
VERTEX
  5
711
  8
0
  6
CONTINUOUS
 62
     7
 10
319.4131709024682
 20
134.7524414848448
 30
0.0
  0
VERTEX
  5
712
  8
0
  6
CONTINUOUS
 62
     7
 10
314.4824155137984
 20
146.4069542217007
 30
0.0
  0
VERTEX
  5
713
  8
0
  6
CONTINUOUS
 62
     7
 10
304.779338208983
 20
161.7503198471219
 30
0.0
  0
VERTEX
  5
714
  8
0
  6
CONTINUOUS
 62
     7
 10
318.4491582695886
 20
147.7312167709628
 30
0.0
  0
VERTEX
  5
715
  8
0
  6
CONTINUOUS
 62
     7
 10
321.6279320473735
 20
150.3801949191168
 30
0.0
  0
VERTEX
  5
716
  8
0
  6
CONTINUOUS
 62
     7
 10
309.2128641498853
 20
168.0839283341252
 30
0.0
  0
VERTEX
  5
717
  8
0
  6
CONTINUOUS
 62
     7
 10
298.4457297219797
 20
176.9509802159299
 30
0.0
  0
VERTEX
  5
718
  8
0
  6
CONTINUOUS
 62
     7
 10
288.3119561427744
 20
182.0178670055325
 30
0.0
  0
VERTEX
  5
719
  8
0
  6
CONTINUOUS
 62
     7
 10
283.2450693531718
 20
183.2845887029332
 30
0.0
  0
VERTEX
  5
71A
  8
0
  6
CONTINUOUS
 62
     7
 10
277.3782420927407
 20
184.0093301585075
 30
0.0
  0
VERTEX
  5
71B
  8
0
  6
CONTINUOUS
 62
     7
 10
220.3951820927407
 20
184.9917961585076
 30
0.0
  0
VERTEX
  5
71C
  8
0
  6
CONTINUOUS
 62
     7
 10
200.4104030927407
 20
185.9743781585075
 30
0.0
  0
VERTEX
  5
71D
  8
0
  6
CONTINUOUS
 62
     7
 10
191.4867120927407
 20
189.7005631585075
 30
0.0
  0
VERTEX
  5
71E
  8
0
  6
CONTINUOUS
 62
     7
 10
179.4867120927407
 20
195.7005631585075
 30
0.0
  0
VERTEX
  5
71F
  8
0
  6
CONTINUOUS
 62
     7
 10
169.4749470927407
 20
199.8535041585075
 30
0.0
  0
VERTEX
  5
720
  8
0
  6
CONTINUOUS
 62
     7
 10
165.4749470927407
 20
200.8535041585075
 30
0.0
  0
VERTEX
  5
721
  8
0
  6
CONTINUOUS
 62
     7
 10
164.3867120927408
 20
201.5005631585075
 30
0.0
  0
VERTEX
  5
722
  8
0
  6
CONTINUOUS
 62
     7
 10
149.3867120927408
 20
201.5005631585075
 30
0.0
  0
VERTEX
  5
723
  8
0
  6
CONTINUOUS
 62
     7
 10
143.4542800927407
 20
200.0951581585076
 30
0.0
  0
VERTEX
  5
724
  8
0
  6
CONTINUOUS
 62
     7
 10
129.3867120927408
 20
198.5005631585075
 30
0.0
  0
VERTEX
  5
725
  8
0
  6
CONTINUOUS
 62
     7
 10
128.3867120927408
 20
199.5005631585075
 30
0.0
  0
VERTEX
  5
726
  8
0
  6
CONTINUOUS
 62
     7
 10
133.3867120927408
 20
205.5005631585075
 30
0.0
  0
VERTEX
  5
727
  8
0
  6
CONTINUOUS
 62
     7
 10
134.3867120927408
 20
205.5005631585075
 30
0.0
  0
VERTEX
  5
728
  8
0
  6
CONTINUOUS
 62
     7
 10
147.6267120927406
 20
219.3205631585075
 30
0.0
  0
VERTEX
  5
729
  8
0
  6
CONTINUOUS
 62
     7
 10
150.1467120927405
 20
222.6805631585075
 30
0.0
  0
VERTEX
  5
72A
  8
0
  6
CONTINUOUS
 62
     7
 10
152.0337710927407
 20
226.5887981585075
 30
0.0
  0
VERTEX
  5
72B
  8
0
  6
CONTINUOUS
 62
     7
 10
152.7396530927407
 20
229.4123281585075
 30
0.0
  0
VERTEX
  5
72C
  8
0
  6
CONTINUOUS
 62
     7
 10
154.8257360927406
 20
242.4517831585075
 30
0.0
  0
VERTEX
  5
72D
  8
0
  6
CONTINUOUS
 62
     7
 10
154.1642634841051
 20
258.7052976120818
 30
0.0
  0
SEQEND
  5
70C
  8
0
  6
CONTINUOUS
 62
     7
  0
POLYLINE
  5
504
  8
0
  6
CONTINUOUS
 62
     7
 66
     1
 10
0.0
 20
0.0
 30
0.0
  0
VERTEX
  5
72F
  8
0
  6
CONTINUOUS
 62
     7
 10
258.4087917437685
 20
53.30644324865327
 30
0.0
  0
VERTEX
  5
730
  8
0
  6
CONTINUOUS
 62
     7
 10
252.1265715609194
 20
28.59637719611338
 30
0.0
  0
VERTEX
  5
731
  8
0
  6
CONTINUOUS
 62
     7
 10
249.823090827208
 20
18.33541756412648
 30
0.0
  0
VERTEX
  5
732
  8
0
  6
CONTINUOUS
 62
     7
 10
246.8913880752117
 20
5.352162519571622
 30
0.0
  0
VERTEX
  5
733
  8
0
  6
CONTINUOUS
 62
     7
 10
245.0619503356831
 20
4.169184749221934
 30
0.0
  0
VERTEX
  5
734
  8
0
  6
CONTINUOUS
 62
     7
 10
243.6085498069027
 20
3.325063471269381
 30
0.0
  0
VERTEX
  5
735
  8
0
  6
CONTINUOUS
 62
     7
 10
243.3314633049306
 20
0.7452010521489285
 30
0.0
  0
SEQEND
  5
72E
  8
0
  6
CONTINUOUS
 62
     7
  0
POLYLINE
  5
505
  8
0
  6
CONTINUOUS
 62
     7
 66
     1
 10
0.0
 20
0.0
 30
0.0
  0
VERTEX
  5
737
  8
0
  6
CONTINUOUS
 62
     7
 10
277.0460449528874
 20
56.86636801893444
 30
0.0
  0
VERTEX
  5
738
  8
0
  6
CONTINUOUS
 62
     7
 10
278.6284243947808
 20
62.33480919930982
 30
0.0
  0
VERTEX
  5
739
  8
0
  6
CONTINUOUS
 62
     7
 10
278.6284243947808
 20
68.33480919930983
 30
0.0
  0
VERTEX
  5
73A
  8
0
  6
CONTINUOUS
 62
     7
 10
276.3284243947807
 20
76.23480919930984
 30
0.0
  0
VERTEX
  5
73B
  8
0
  6
CONTINUOUS
 62
     7
 10
275.9284243947808
 20
77.43480919930981
 30
0.0
  0
VERTEX
  5
73C
  8
0
  6
CONTINUOUS
 62
     7
 10
271.4284243947808
 20
88.23480919930982
 30
0.0
  0
VERTEX
  5
73D
  8
0
  6
CONTINUOUS
 62
     7
 10
270.6284243947808
 20
89.33480919930982
 30
0.0
  0
VERTEX
  5
73E
  8
0
  6
CONTINUOUS
 62
     7
 10
270.6284243947808
 20
93.33480919930982
 30
0.0
  0
VERTEX
  5
73F
  8
0
  6
CONTINUOUS
 62
     7
 10
272.6284243947808
 20
95.33480919930982
 30
0.0
  0
VERTEX
  5
740
  8
0
  6
CONTINUOUS
 62
     7
 10
279.5515013947808
 20
93.95019419930982
 30
0.0
  0
VERTEX
  5
741
  8
0
  6
CONTINUOUS
 62
     7
 10
285.5284243947807
 20
91.13480919930983
 30
0.0
  0
VERTEX
  5
742
  8
0
  6
CONTINUOUS
 62
     7
 10
287.5284243947807
 20
90.13480919930983
 30
0.0
  0
VERTEX
  5
743
  8
0
  6
CONTINUOUS
 62
     7
 10
311.4235063947808
 20
75.08890719930983
 30
0.0
  0
VERTEX
  5
744
  8
0
  6
CONTINUOUS
 62
     7
 10
317.6284243947808
 20
70.33480919930983
 30
0.0
  0
VERTEX
  5
745
  8
0
  6
CONTINUOUS
 62
     7
 10
323.7573069340737
 20
64.25836669266286
 30
0.0
  0
SEQEND
  5
736
  8
0
  6
CONTINUOUS
 62
     7
  0
POLYLINE
  5
506
  8
0
  6
CONTINUOUS
 62
     7
 66
     1
 10
0.0
 20
0.0
 30
0.0
  0
VERTEX
  5
747
  8
0
  6
CONTINUOUS
 62
     7
 10
202.4970321164113
 20
57.49459003721935
 30
0.0
  0
VERTEX
  5
748
  8
0
  6
CONTINUOUS
 62
     7
 10
198.6284243947808
 20
87.13697954593549
 30
0.0
  0
VERTEX
  5
749
  8
0
  6
CONTINUOUS
 62
     7
 10
200.7650043663114
 20
94.93291058229794
 30
0.0
  0
VERTEX
  5
74A
  8
0
  6
CONTINUOUS
 62
     7
 10
215.5572705323209
 20
94.03640960253979
 30
0.0
  0
VERTEX
  5
74B
  8
0
  6
CONTINUOUS
 62
     7
 10
230.6284243947808
 20
96.13697954593549
 30
0.0
  0
VERTEX
  5
74C
  8
0
  6
CONTINUOUS
 62
     7
 10
260.2934577986232
 20
60.007478110359
 30
0.0
  0
VERTEX
  5
74D
  8
0
  6
CONTINUOUS
 62
     7
 10
258.4087917437685
 20
53.30644324865327
 30
0.0
  0
SEQEND
  5
746
  8
0
  6
CONTINUOUS
 62
     7
  0
POLYLINE
  5
507
  8
0
  6
CONTINUOUS
 62
     7
 66
     1
 10
0.0
 20
0.0
 30
0.0
  0
VERTEX
  5
74F
  8
0
  6
CONTINUOUS
 62
     7
 10
185.5350376227187
 20
53.51585058808157
 30
0.0
  0
VERTEX
  5
750
  8
0
  6
CONTINUOUS
 62
     7
 10
187.2102963381451
 20
47.44303774466075
 30
0.0
  0
VERTEX
  5
751
  8
0
  6
CONTINUOUS
 62
     7
 10
194.0619503356831
 20
15.16918474922194
 30
0.0
  0
VERTEX
  5
752
  8
0
  6
CONTINUOUS
 62
     7
 10
194.0619503356831
 20
3.169184749221934
 30
0.0
  0
VERTEX
  5
753
  8
0
  6
CONTINUOUS
 62
     7
 10
193.0619503356831
 20
1.169184749221934
 30
0.0
  0
VERTEX
  5
754
  8
0
  6
CONTINUOUS
 62
     7
 10
192.0619503356831
 20
0.1691847492219338
 30
0.0
  0
VERTEX
  5
755
  8
0
  6
CONTINUOUS
 62
     7
 10
210.8123522513967
 20
0.220072752476888
 30
0.0
  0
SEQEND
  5
74E
  8
0
  6
CONTINUOUS
 62
     7
  0
POLYLINE
  5
508
  8
0
  6
CONTINUOUS
 62
     7
 66
     1
 10
0.0
 20
0.0
 30
0.0
  0
VERTEX
  5
757
  8
0
  6
CONTINUOUS
 62
     7
 10
85.51355314044612
 20
77.03131126028374
 30
0.0
  0
VERTEX
  5
758
  8
0
  6
CONTINUOUS
 62
     7
 10
91.58671209274061
 20
89.4005631585075
 30
0.0
  0
VERTEX
  5
759
  8
0
  6
CONTINUOUS
 62
     7
 10
98.15594309274056
 20
99.65440915850748
 30
0.0
  0
VERTEX
  5
75A
  8
0
  6
CONTINUOUS
 62
     7
 10
106.6326140927407
 20
112.2956451585075
 30
0.0
  0
VERTEX
  5
75B
  8
0
  6
CONTINUOUS
 62
     7
 10
111.6306140927407
 20
118.3054411585075
 30
0.0
  0
VERTEX
  5
75C
  8
0
  6
CONTINUOUS
 62
     7
 10
117.3867120927408
 20
125.5005631585075
 30
0.0
  0
VERTEX
  5
75D
  8
0
  6
CONTINUOUS
 62
     7
 10
117.3867120927408
 20
128.5005631585075
 30
0.0
  0
VERTEX
  5
75E
  8
0
  6
CONTINUOUS
 62
     7
 10
112.3867120927408
 20
133.5005631585075
 30
0.0
  0
VERTEX
  5
75F
  8
0
  6
CONTINUOUS
 62
     7
 10
108.2867120927407
 20
135.3005631585075
 30
0.0
  0
VERTEX
  5
760
  8
0
  6
CONTINUOUS
 62
     7
 10
105.2328660927406
 20
137.2697941585075
 30
0.0
  0
VERTEX
  5
761
  8
0
  6
CONTINUOUS
 62
     7
 10
95.28671209274066
 20
141.3005631585075
 30
0.0
  0
VERTEX
  5
762
  8
0
  6
CONTINUOUS
 62
     7
 10
94.38671209274079
 20
141.5005631585075
 30
0.0
  0
VERTEX
  5
763
  8
0
  6
CONTINUOUS
 62
     7
 10
93.38671209274079
 20
140.5005631585075
 30
0.0
  0
VERTEX
  5
764
  8
0
  6
CONTINUOUS
 62
     7
 10
92.73965309274067
 20
138.4123281585075
 30
0.0
  0
VERTEX
  5
765
  8
0
  6
CONTINUOUS
 62
     7
 10
89.13327600643274
 20
129.8112404470961
 30
0.0
  0
VERTEX
  5
766
  8
0
  6
CONTINUOUS
 62
     7
 10
86.38671209274079
 20
124.5005631585075
 30
0.0
  0
VERTEX
  5
767
  8
0
  6
CONTINUOUS
 62
     7
 10
82.38671209274079
 20
124.5005631585075
 30
0.0
  0
VERTEX
  5
768
  8
0
  6
CONTINUOUS
 62
     7
 10
79.15369565627643
 20
134.3020516046664
 30
0.0
  0
VERTEX
  5
769
  8
0
  6
CONTINUOUS
 62
     7
 10
79.15369565627643
 20
139.7908207972523
 30
0.0
  0
VERTEX
  5
76A
  8
0
  6
CONTINUOUS
 62
     7
 10
77.65675860375299
 20
144.2816319548226
 30
0.0
  0
VERTEX
  5
76B
  8
0
  6
CONTINUOUS
 62
     7
 10
60.38671209274079
 20
143.5005631585075
 30
0.0
  0
VERTEX
  5
76C
  8
0
  6
CONTINUOUS
 62
     7
 10
56.28671209274066
 20
142.8005631585075
 30
0.0
  0
VERTEX
  5
76D
  8
0
  6
CONTINUOUS
 62
     7
 10
47.47494709274074
 20
140.1476221585075
 30
0.0
  0
VERTEX
  5
76E
  8
0
  6
CONTINUOUS
 62
     7
 10
46.38671209274079
 20
139.5005631585075
 30
0.0
  0
VERTEX
  5
76F
  8
0
  6
CONTINUOUS
 62
     7
 10
37.3450061430481
 20
140.3266981016416
 30
0.0
  0
VERTEX
  5
770
  8
0
  6
CONTINUOUS
 62
     7
 10
45.34052324814438
 20
147.3431722959098
 30
0.0
  0
VERTEX
  5
771
  8
0
  6
CONTINUOUS
 62
     7
 10
35.38692032139188
 20
141.5505017401767
 30
0.0
  0
VERTEX
  5
772
  8
0
  6
CONTINUOUS
 62
     7
 10
31.38671209274079
 20
153.5005631585075
 30
0.0
  0
VERTEX
  5
773
  8
0
  6
CONTINUOUS
 62
     7
 10
35.58671209274061
 20
162.4005631585075
 30
0.0
  0
VERTEX
  5
774
  8
0
  6
CONTINUOUS
 62
     7
 10
36.18671209274052
 20
163.6005631585076
 30
0.0
  0
VERTEX
  5
775
  8
0
  6
CONTINUOUS
 62
     7
 10
51.38671209274079
 20
178.5005631585075
 30
0.0
  0
VERTEX
  5
776
  8
0
  6
CONTINUOUS
 62
     7
 10
50.38671209274079
 20
182.5005631585075
 30
0.0
  0
VERTEX
  5
777
  8
0
  6
CONTINUOUS
 62
     7
 10
49.38671209274079
 20
183.5005631585075
 30
0.0
  0
VERTEX
  5
778
  8
0
  6
CONTINUOUS
 62
     7
 10
43.37061909274061
 20
184.0177661585075
 30
0.0
  0
VERTEX
  5
779
  8
0
  6
CONTINUOUS
 62
     7
 10
14.40280509274052
 20
184.9833601585075
 30
0.0
  0
VERTEX
  5
77A
  8
0
  6
CONTINUOUS
 62
     7
 10
9.463635092740653
 20
185.8851781585075
 30
0.0
  0
VERTEX
  5
77B
  8
0
  6
CONTINUOUS
 62
     7
 10
8.286712092740661
 20
186.3005631585075
 30
0.0
  0
VERTEX
  5
77C
  8
0
  6
CONTINUOUS
 62
     7
 10
3.386712092740797
 20
189.5005631585075
 30
0.0
  0
VERTEX
  5
77D
  8
0
  6
CONTINUOUS
 62
     7
 10
0.3867120927407963
 20
195.5005631585075
 30
0.0
  0
VERTEX
  5
77E
  8
0
  6
CONTINUOUS
 62
     7
 10
1.386712092740796
 20
196.5005631585075
 30
0.0
  0
VERTEX
  5
77F
  8
0
  6
CONTINUOUS
 62
     7
 10
5.386712092740797
 20
196.5005631585075
 30
0.0
  0
VERTEX
  5
780
  8
0
  6
CONTINUOUS
 62
     7
 10
6.386712092740797
 20
197.5005631585075
 30
0.0
  0
VERTEX
  5
781
  8
0
  6
CONTINUOUS
 62
     7
 10
5.73965309274067
 20
203.5887981585075
 30
0.0
  0
VERTEX
  5
782
  8
0
  6
CONTINUOUS
 62
     7
 10
4.386712092740797
 20
207.5005631585075
 30
0.0
  0
VERTEX
  5
783
  8
0
  6
CONTINUOUS
 62
     7
 10
4.386712092740797
 20
209.5005631585075
 30
0.0
  0
VERTEX
  5
784
  8
0
  6
CONTINUOUS
 62
     7
 10
5.386712092740797
 20
210.5005631585075
 30
0.0
  0
VERTEX
  5
785
  8
0
  6
CONTINUOUS
 62
     7
 10
8.386712092740797
 20
205.5005631585075
 30
0.0
  0
VERTEX
  5
786
  8
0
  6
CONTINUOUS
 62
     7
 10
11.38671209274079
 20
203.5005631585075
 30
0.0
  0
VERTEX
  5
787
  8
0
  6
CONTINUOUS
 62
     7
 10
12.38671209274079
 20
203.5005631585075
 30
0.0
  0
VERTEX
  5
788
  8
0
  6
CONTINUOUS
 62
     7
 10
14.00209709274063
 20
208.5774861585076
 30
0.0
  0
VERTEX
  5
789
  8
0
  6
CONTINUOUS
 62
     7
 10
13.80155997701294
 20
213.3269200927419
 30
0.0
  0
SEQEND
  5
756
  8
0
  6
CONTINUOUS
 62
     7
  0
POLYLINE
  5
509
  8
0
  6
CONTINUOUS
 62
     7
 66
     1
 10
0.0
 20
0.0
 30
0.0
  0
VERTEX
  5
78B
  8
0
  6
CONTINUOUS
 62
     7
 10
100.0788572295166
 20
58.54740791857821
 30
0.0
  0
VERTEX
  5
78C
  8
0
  6
CONTINUOUS
 62
     7
 10
106.6284243947809
 20
66.1369795459355
 30
0.0
  0
VERTEX
  5
78D
  8
0
  6
CONTINUOUS
 62
     7
 10
110.6284243947809
 20
70.1369795459355
 30
0.0
  0
VERTEX
  5
78E
  8
0
  6
CONTINUOUS
 62
     7
 10
139.7822703947808
 20
88.90621054593548
 30
0.0
  0
VERTEX
  5
78F
  8
0
  6
CONTINUOUS
 62
     7
 10
152.7166593947808
 20
94.7840385459355
 30
0.0
  0
VERTEX
  5
790
  8
0
  6
CONTINUOUS
 62
     7
 10
158.6284243947809
 20
96.13697954593549
 30
0.0
  0
VERTEX
  5
791
  8
0
  6
CONTINUOUS
 62
     7
 10
160.4484243947808
 20
94.89697954593548
 30
0.0
  0
VERTEX
  5
792
  8
0
  6
CONTINUOUS
 62
     7
 10
164.6284243947809
 20
92.13697954593549
 30
0.0
  0
VERTEX
  5
793
  8
0
  6
CONTINUOUS
 62
     7
 10
174.8284243947807
 20
79.23697954593548
 30
0.0
  0
VERTEX
  5
794
  8
0
  6
CONTINUOUS
 62
     7
 10
177.8284243947807
 20
73.2369795459355
 30
0.0
  0
VERTEX
  5
795
  8
0
  6
CONTINUOUS
 62
     7
 10
183.2754833947808
 20
61.0487445459355
 30
0.0
  0
VERTEX
  5
796
  8
0
  6
CONTINUOUS
 62
     7
 10
185.5350376227187
 20
53.51585058808157
 30
0.0
  0
SEQEND
  5
78A
  8
0
  6
CONTINUOUS
 62
     7
  0
ENDSEC
  0
EOF
