  0
SECTION
  2
HEADER
  9
$ACADVER
  1
AC1009
  9
$EXTMIN
 10
1.30402867
 20
0.29310643
 30
0.0
  9
$EXTMAX
 10
8.69597133
 20
9.70689357
 30
0.0
  0
ENDSEC
  0
SECTION
  2
TABLES
  0
TABLE
  2
LAYER
 70
1
 0
LAYER
 2
Default_Layer
 70
0
 62
1
 6
CONTINUOUS
 0
ENDTAB
 0
ENDSEC
  0
SECTION
  2
ENTITIES
  0
POLYLINE
  8
Default_Layer
 66
   1
 39
0.000000
 70
    1
  0
VERTEX
  8
0
 10
8.02404842
 20
6.05756833
  0
VERTEX
  8
0
 10
7.82655104
 20
6.18823914
  0
VERTEX
  8
0
 10
7.66789783
 20
6.32204801
  0
VERTEX
  8
0
 10
7.43156077
 20
6.57629909
  0
VERTEX
  8
0
 10
7.24391096
 20
6.77475989
  0
VERTEX
  8
0
 10
7.14611680
 20
6.83883092
  0
VERTEX
  8
0
 10
7.03382208
 20
6.87186874
  0
VERTEX
  8
0
 10
7.39750521
 20
6.98709508
  0
VERTEX
  8
0
 10
7.56050308
 20
6.91994330
  0
VERTEX
  8
0
 10
7.83474801
 20
6.82197162
  0
VERTEX
  8
0
 10
7.91543615
 20
6.81405627
  0
VERTEX
  8
0
 10
7.91830652
 20
6.83308475
  0
VERTEX
  8
0
 10
7.88721715
 20
6.87186874
  0
VERTEX
  8
0
 10
7.77400823
 20
6.96388568
  0
VERTEX
  8
0
 10
7.70614719
 20
7.01075763
  0
VERTEX
  8
0
 10
7.84743334
 20
7.04879915
  0
VERTEX
  8
0
 10
8.12281385
 20
7.15324734
  0
VERTEX
  8
0
 10
8.29201699
 20
7.26157282
  0
VERTEX
  8
0
 10
8.45508581
 20
7.41031996
  0
VERTEX
  8
0
 10
8.59090753
 20
7.58009355
  0
VERTEX
  8
0
 10
8.67836941
 20
7.75149837
  0
VERTEX
  8
0
 10
8.69576201
 20
7.81961874
  0
VERTEX
  8
0
 10
8.68726744
 20
7.84506212
  0
VERTEX
  8
0
 10
8.65529093
 20
7.83208267
  0
VERTEX
  8
0
 10
8.60223772
 20
7.78493458
  0
VERTEX
  8
0
 10
8.37050123
 20
7.55950365
  0
VERTEX
  8
0
 10
8.15007723
 20
7.37958479
  0
VERTEX
  8
0
 10
8.01432668
 20
7.32072428
  0
VERTEX
  8
0
 10
7.95614719
 20
7.30756833
  0
VERTEX
  8
0
 10
7.99352452
 20
7.44327043
  0
VERTEX
  8
0
 10
8.03279328
 20
7.62238314
  0
VERTEX
  8
0
 10
8.21909134
 20
7.89644115
  0
VERTEX
  8
0
 10
8.34054539
 20
8.12027211
  0
VERTEX
  8
0
 10
8.41048963
 20
8.29847649
  0
VERTEX
  8
0
 10
8.44225830
 20
8.43565475
  0
VERTEX
  8
0
 10
8.45058074
 20
8.51932680
  0
VERTEX
  8
0
 10
8.44406904
 20
8.57103500
  0
VERTEX
  8
0
 10
8.43281139
 20
8.57554664
  0
VERTEX
  8
0
 10
8.41491843
 20
8.56084011
  0
VERTEX
  8
0
 10
8.35532414
 20
8.45880290
  0
VERTEX
  8
0
 10
8.27510739
 20
8.29809313
  0
VERTEX
  8
0
 10
8.15784531
 20
8.08997481
  0
VERTEX
  8
0
 10
8.00943582
 20
7.87761313
  0
VERTEX
  8
0
 10
7.92539389
 20
7.78333014
  0
VERTEX
  8
0
 10
7.83577682
 20
7.70417327
  0
VERTEX
  8
0
 10
7.72649089
 20
7.63500255
  0
VERTEX
  8
0
 10
7.67847099
 20
7.61897855
  0
VERTEX
  8
0
 10
7.64081797
 20
7.62238314
  0
VERTEX
  8
0
 10
7.64974247
 20
7.67758085
  0
VERTEX
  8
0
 10
7.62943039
 20
7.70090222
  0
VERTEX
  8
0
 10
7.58664852
 20
7.68496405
  0
VERTEX
  8
0
 10
7.52816365
 20
7.62238314
  0
VERTEX
  8
0
 10
7.46523806
 20
7.65366723
  0
VERTEX
  8
0
 10
7.41634045
 20
7.69543593
  0
VERTEX
  8
0
 10
7.39107563
 20
7.76253523
  0
VERTEX
  8
0
 10
7.39904842
 20
7.86981113
  0
VERTEX
  8
0
 10
7.45347912
 20
8.11826706
  0
VERTEX
  8
0
 10
7.52660274
 20
8.34379577
  0
VERTEX
  8
0
 10
7.64596200
 20
8.65942018
  0
VERTEX
  8
0
 10
7.65804983
 20
8.71186874
  0
VERTEX
  8
0
 10
7.65165346
 20
8.73009433
  0
VERTEX
  8
0
 10
7.59092085
 20
8.67639549
  0
VERTEX
  8
0
 10
7.50189227
 20
8.53184762
  0
VERTEX
  8
0
 10
7.40779328
 20
8.35797985
  0
VERTEX
  8
0
 10
7.34292642
 20
8.26347568
  0
VERTEX
  8
0
 10
7.28587394
 20
8.22050701
  0
VERTEX
  8
0
 10
7.23049614
 20
8.22762763
  0
VERTEX
  8
0
 10
7.17065336
 20
8.28339137
  0
VERTEX
  8
0
 10
7.04497952
 20
8.49191919
  0
VERTEX
  8
0
 10
6.98855459
 20
8.61518150
  0
VERTEX
  8
0
 10
7.02147641
 20
8.76384405
  0
VERTEX
  8
0
 10
7.02190290
 20
8.82018826
  0
VERTEX
  8
0
 10
7.01027913
 20
8.85038123
  0
VERTEX
  8
0
 10
6.98496387
 20
8.84785088
  0
VERTEX
  8
0
 10
6.94431591
 20
8.80602512
  0
VERTEX
  8
0
 10
6.90007723
 20
8.74121030
  0
VERTEX
  8
0
 10
6.86193123
 20
8.98704978
  0
VERTEX
  8
0
 10
6.77610604
 20
9.38370002
  0
VERTEX
  8
0
 10
6.74825266
 20
9.45364252
  0
VERTEX
  8
0
 10
6.72380798
 20
9.47803345
  0
VERTEX
  8
0
 10
6.70570780
 20
9.45268565
  0
VERTEX
  8
0
 10
6.69688793
 20
9.37341195
  0
VERTEX
  8
0
 10
6.69709049
 20
9.16104910
  0
VERTEX
  8
0
 10
6.68762867
 20
8.95468767
  0
VERTEX
  8
0
 10
6.66726170
 20
8.88043174
  0
VERTEX
  8
0
 10
6.63615262
 20
8.86211236
  0
VERTEX
  8
0
 10
6.59207272
 20
8.88622261
  0
VERTEX
  8
0
 10
6.53279328
 20
8.93925557
  0
VERTEX
  8
0
 10
6.46898937
 20
9.01119965
  0
VERTEX
  8
0
 10
6.41837358
 20
9.09289922
  0
VERTEX
  8
0
 10
6.34827100
 20
9.27171694
  0
VERTEX
  8
0
 10
6.27353402
 20
9.59409096
  0
VERTEX
  8
0
 10
6.23422736
 20
9.69847909
  0
VERTEX
  8
0
 10
6.20871920
 20
9.57814446
  0
VERTEX
  8
0
 10
6.20559141
 20
9.36844245
  0
VERTEX
  8
0
 10
6.23402000
 20
9.14997905
  0
VERTEX
  8
0
 10
6.30491262
 20
8.86878232
  0
VERTEX
  8
0
 10
6.36806992
 20
8.70401063
  0
VERTEX
  8
0
 10
6.43458093
 20
8.58014309
  0
VERTEX
  8
0
 10
6.64338999
 20
8.27516092
  0
VERTEX
  8
0
 10
6.52456283
 20
8.04985228
  0
VERTEX
  8
0
 10
6.48497865
 20
8.00169534
  0
VERTEX
  8
0
 10
6.43881632
 20
7.97075260
  0
VERTEX
  8
0
 10
6.38791920
 20
7.95593036
  0
VERTEX
  8
0
 10
6.33413064
 20
7.95613488
  0
VERTEX
  8
0
 10
6.22525261
 20
7.99724931
  0
VERTEX
  8
0
 10
6.12692908
 20
8.08534611
  0
VERTEX
  8
0
 10
5.96553093
 20
8.32257981
  0
VERTEX
  8
0
 10
5.88255722
 20
8.51781633
  0
VERTEX
  8
0
 10
5.85142478
 20
8.67132906
  0
VERTEX
  8
0
 10
5.84555048
 20
8.78339137
  0
VERTEX
  8
0
 10
5.83722593
 20
8.84595710
  0
VERTEX
  8
0
 10
5.81909032
 20
8.86868855
  0
VERTEX
  8
0
 10
5.79656648
 20
8.84787121
  0
VERTEX
  8
0
 10
5.77507723
 20
8.77979055
  0
VERTEX
  8
0
 10
5.72775213
 20
8.53236257
  0
VERTEX
  8
0
 10
5.71037809
 20
8.48550863
  0
VERTEX
  8
0
 10
5.69298246
 20
8.47289550
  0
VERTEX
  8
0
 10
5.66190850
 20
8.52670413
  0
VERTEX
  8
0
 10
5.63840344
 20
8.65975267
  0
VERTEX
  8
0
 10
5.62898669
 20
8.76744487
  0
VERTEX
  8
0
 10
5.61589846
 20
8.82454099
  0
VERTEX
  8
0
 10
5.59186124
 20
8.84992021
  0
VERTEX
  8
0
 10
5.56645361
 20
8.83881999
  0
VERTEX
  8
0
 10
5.54925418
 20
8.78647779
  0
VERTEX
  8
0
 10
5.53485089
 20
8.66456421
  0
VERTEX
  8
0
 10
5.50674921
 20
8.61948611
  0
VERTEX
  8
0
 10
5.47775213
 20
8.65684816
  0
VERTEX
  8
0
 10
5.44908599
 20
8.79842432
  0
VERTEX
  8
0
 10
5.42631180
 20
8.93411154
  0
VERTEX
  8
0
 10
5.40409074
 20
9.00000489
  0
VERTEX
  8
0
 10
5.37739396
 20
9.03743562
  0
VERTEX
  8
0
 10
5.36445676
 20
9.03730336
  0
VERTEX
  8
0
 10
5.35290815
 20
9.02024649
  0
VERTEX
  8
0
 10
5.33732003
 20
8.92228026
  0
VERTEX
  8
0
 10
5.31983032
 20
8.79470825
  0
VERTEX
  8
0
 10
5.30267822
 20
8.75719529
  0
VERTEX
  8
0
 10
5.28277417
 20
8.75141632
  0
VERTEX
  8
0
 10
5.23546818
 20
8.80036668
  0
VERTEX
  8
0
 10
5.14074217
 20
8.97451612
  0
VERTEX
  8
0
 10
5.05895758
 20
9.19007432
  0
VERTEX
  8
0
 10
4.93711427
 20
9.58225969
  0
VERTEX
  8
0
 10
4.88733185
 20
9.70627612
  0
VERTEX
  8
0
 10
4.87015808
 20
9.68055894
  0
VERTEX
  8
0
 10
4.85326653
 20
9.57454364
  0
VERTEX
  8
0
 10
4.84966571
 20
9.26230084
  0
VERTEX
  8
0
 10
4.87962223
 20
9.05664327
  0
VERTEX
  8
0
 10
4.93454225
 20
8.85386463
  0
VERTEX
  8
0
 10
5.03827875
 20
8.59933791
  0
VERTEX
  8
0
 10
5.15539906
 20
8.39081472
  0
VERTEX
  8
0
 10
5.29557861
 20
8.19390908
  0
VERTEX
  8
0
 10
5.46849287
 20
7.97423500
  0
VERTEX
  8
0
 10
5.83881102
 20
7.55438613
  0
VERTEX
  8
0
 10
6.23855459
 20
7.12649837
  0
VERTEX
  8
0
 10
6.23546818
 20
7.01075763
  0
VERTEX
  8
0
 10
6.04776115
 20
7.24487305
  0
VERTEX
  8
0
 10
5.95974445
 20
7.35208455
  0
VERTEX
  8
0
 10
5.88515953
 20
7.41867944
  0
VERTEX
  8
0
 10
5.74455938
 20
7.48509461
  0
VERTEX
  8
0
 10
5.58974728
 20
7.53357223
  0
VERTEX
  8
0
 10
5.21334883
 20
7.60695105
  0
VERTEX
  8
0
 10
5.10520644
 20
7.62456087
  0
VERTEX
  8
0
 10
5.04510648
 20
7.62523214
  0
VERTEX
  8
0
 10
5.02527481
 20
7.59785854
  0
VERTEX
  8
0
 10
5.03793731
 20
7.53133376
  0
VERTEX
  8
0
 10
5.13043786
 20
7.31981239
  0
VERTEX
  8
0
 10
5.24926095
 20
7.08864227
  0
VERTEX
  8
0
 10
5.39544760
 20
6.82608685
  0
VERTEX
  8
0
 10
5.05182620
 20
6.90067533
  0
VERTEX
  8
0
 10
4.79350516
 20
6.93364093
  0
VERTEX
  8
0
 10
4.59404064
 20
6.93277699
  0
VERTEX
  8
0
 10
4.50517530
 20
6.91283696
  0
VERTEX
  8
0
 10
4.41757897
 20
6.87625317
  0
VERTEX
  8
0
 10
4.22826653
 20
6.74223911
  0
VERTEX
  8
0
 10
4.08423828
 20
6.58935251
  0
VERTEX
  8
0
 10
4.00531868
 20
6.50405985
  0
VERTEX
  8
0
 10
3.90933649
 20
6.41867944
  0
VERTEX
  8
0
 10
3.79436910
 20
6.33995746
  0
VERTEX
  8
0
 10
3.68431243
 20
6.29092398
  0
VERTEX
  8
0
 10
3.56896943
 20
6.26988861
  0
VERTEX
  8
0
 10
3.43814307
 20
6.27516092
  0
VERTEX
  8
0
 10
3.16042477
 20
6.32258968
  0
VERTEX
  8
0
 10
2.85603538
 20
6.38653880
  0
VERTEX
  8
0
 10
2.59424304
 20
6.44122389
  0
VERTEX
  8
0
 10
2.44431591
 20
6.46086051
  0
VERTEX
  8
0
 10
2.29499158
 20
6.42498577
  0
VERTEX
  8
0
 10
2.10583855
 20
6.35643664
  0
VERTEX
  8
0
 10
1.89460148
 20
6.27230111
  0
VERTEX
  8
0
 10
1.68432314
 20
6.17539982
  0
VERTEX
  8
0
 10
1.50128912
 20
6.05829163
  0
VERTEX
  8
0
 10
1.42820299
 20
5.98983459
  0
VERTEX
  8
0
 10
1.37178505
 20
5.91353541
  0
VERTEX
  8
0
 10
1.33493599
 20
5.79658994
  0
VERTEX
  8
0
 10
1.31323360
 20
5.61515471
  0
VERTEX
  8
0
 10
1.30603208
 20
5.14677952
  0
VERTEX
  8
0
 10
1.33170704
 20
4.68433885
  0
VERTEX
  8
0
 10
1.37178505
 20
4.40376175
  0
VERTEX
  8
0
 10
1.46516673
 20
4.17167190
  0
VERTEX
  8
0
 10
1.55594143
 20
3.93874117
  0
VERTEX
  8
0
 10
1.59025607
 20
3.76887903
  0
VERTEX
  8
0
 10
1.61411821
 20
3.55364382
  0
VERTEX
  8
0
 10
1.62136623
 20
3.34487191
  0
VERTEX
  8
0
 10
1.60583855
 20
3.19439961
  0
VERTEX
  8
0
 10
1.52301962
 20
2.98709508
  0
VERTEX
  8
0
 10
1.49412141
 20
2.89558343
  0
VERTEX
  8
0
 10
1.50604431
 20
2.78236257
  0
VERTEX
  8
0
 10
1.63978532
 20
2.33067216
  0
VERTEX
  8
0
 10
1.72176734
 20
2.02859440
  0
VERTEX
  8
0
 10
1.78845171
 20
1.71497574
  0
VERTEX
  8
0
 10
1.83011838
 20
1.35592224
  0
VERTEX
  8
0
 10
1.83624795
 20
1.20441294
  0
VERTEX
  8
0
 10
1.82764586
 20
0.99472142
  0
VERTEX
  8
0
 10
1.81262867
 20
0.62855598
  0
VERTEX
  8
0
 10
1.82332368
 20
0.58347478
  0
VERTEX
  8
0
 10
1.83771527
 20
0.58741333
  0
VERTEX
  8
0
 10
1.86098258
 20
0.62444076
  0
VERTEX
  8
0
 10
1.89338999
 20
0.67793870
  0
VERTEX
  8
0
 10
1.90712465
 20
0.56636978
  0
VERTEX
  8
0
 10
1.91644442
 20
0.46723667
  0
VERTEX
  8
0
 10
1.93659986
 20
0.37392635
  0
VERTEX
  8
0
 10
1.96419550
 20
0.32128028
  0
VERTEX
  8
0
 10
2.00604431
 20
0.30088109
  0
VERTEX
  8
0
 10
2.41602373
 20
0.29522265
  0
VERTEX
  8
0
 10
2.50680679
 20
0.29716177
  0
VERTEX
  8
0
 10
2.51526498
 20
0.30851031
  0
VERTEX
  8
0
 10
2.49472743
 20
0.33843253
  0
VERTEX
  8
0
 10
2.49935706
 20
0.33997574
  0
VERTEX
  8
0
 10
2.56653037
 20
0.29436623
  0
VERTEX
  8
0
 10
2.61664101
 20
0.29882347
  0
VERTEX
  8
0
 10
2.65645722
 20
0.31056330
  0
VERTEX
  8
0
 10
2.62950110
 20
0.34151895
  0
VERTEX
  8
0
 10
2.48787977
 20
0.47930646
  0
VERTEX
  8
0
 10
2.37252517
 20
0.62114272
  0
VERTEX
  8
0
 10
2.22620892
 20
0.83020207
  0
VERTEX
  8
0
 10
2.15511092
 20
0.94514734
  0
VERTEX
  8
0
 10
2.10223772
 20
1.12135434
  0
VERTEX
  8
0
 10
2.05722410
 20
1.42590174
  0
VERTEX
  8
0
 10
2.02119423
 20
1.76645776
  0
VERTEX
  8
0
 10
1.98855459
 20
2.18719796
  0
VERTEX
  8
0
 10
2.01992734
 20
2.30161349
  0
VERTEX
  8
0
 10
2.06571509
 20
2.43102512
  0
VERTEX
  8
0
 10
2.09409025
 20
2.64470646
  0
VERTEX
  8
0
 10
2.12795789
 20
2.90736257
  0
VERTEX
  8
0
 10
2.24319238
 20
3.29811758
  0
VERTEX
  8
0
 10
2.31983032
 20
3.50561360
  0
VERTEX
  8
0
 10
2.35770467
 20
3.34417655
  0
VERTEX
  8
0
 10
2.37010679
 20
3.17006173
  0
VERTEX
  8
0
 10
2.34709369
 20
2.95828849
  0
VERTEX
  8
0
 10
2.30999170
 20
2.77010478
  0
VERTEX
  8
0
 10
2.29565336
 20
2.62083993
  0
VERTEX
  8
0
 10
2.32847137
 20
2.52251222
  0
VERTEX
  8
0
 10
2.39620075
 20
2.41970195
  0
VERTEX
  8
0
 10
2.58063278
 20
2.18976998
  0
VERTEX
  8
0
 10
2.81365748
 20
1.80962594
  0
VERTEX
  8
0
 10
2.91184215
 20
1.61993365
  0
VERTEX
  8
0
 10
2.98546818
 20
1.44902923
  0
VERTEX
  8
0
 10
3.14390439
 20
0.93771236
  0
VERTEX
  8
0
 10
3.15345539
 20
0.76762508
  0
VERTEX
  8
0
 10
3.15007723
 20
0.63575763
  0
VERTEX
  8
0
 10
3.16854601
 20
0.60012988
  0
VERTEX
  8
0
 10
3.20357517
 20
0.63164240
  0
VERTEX
  8
0
 10
3.23701139
 20
0.68771236
  0
VERTEX
  8
0
 10
3.25079515
 20
0.57798285
  0
VERTEX
  8
0
 10
3.27919246
 20
0.38678644
  0
VERTEX
  8
0
 10
3.30722874
 20
0.33207461
  0
VERTEX
  8
0
 10
3.35018011
 20
0.31065475
  0
VERTEX
  8
0
 10
3.75964513
 20
0.30499631
  0
VERTEX
  8
0
 10
3.85154770
 20
0.30729355
  0
VERTEX
  8
0
 10
3.85866737
 20
0.31978724
  0
VERTEX
  8
0
 10
3.83526241
 20
0.35232142
  0
VERTEX
  8
0
 10
3.84555048
 20
0.35232142
  0
VERTEX
  8
0
 10
3.90944119
 20
0.30521637
  0
VERTEX
  8
0
 10
3.95151756
 20
0.30705393
  0
VERTEX
  8
0
 10
3.99603203
 20
0.31349864
  0
VERTEX
  8
0
 10
3.99933584
 20
0.32222360
  0
VERTEX
  8
0
 10
3.97775213
 20
0.34100454
  0
VERTEX
  8
0
 10
3.91695142
 20
0.38913214
  0
VERTEX
  8
0
 10
3.81988997
 20
0.48819611
  0
VERTEX
  8
0
 10
3.68434704
 20
0.65949764
  0
VERTEX
  8
0
 10
3.50810192
 20
0.92433788
  0
VERTEX
  8
0
 10
3.26581797
 20
1.45674528
  0
VERTEX
  8
0
 10
3.13001550
 20
1.81734199
  0
VERTEX
  8
0
 10
2.96780294
 20
2.22776686
  0
VERTEX
  8
0
 10
2.91073853
 20
2.42304776
  0
VERTEX
  8
0
 10
2.89853402
 20
2.59872059
  0
VERTEX
  8
0
 10
2.94024214
 20
2.86812691
  0
VERTEX
  8
0
 10
3.00062277
 20
3.17292653
  0
VERTEX
  8
0
 10
3.07857517
 20
3.52567533
  0
VERTEX
  8
0
 10
3.13937371
 20
3.51024779
  0
VERTEX
  8
0
 10
3.29359575
 20
3.49378232
  0
VERTEX
  8
0
 10
3.87367551
 20
3.53013563
  0
VERTEX
  8
0
 10
4.29153813
 20
3.56837080
  0
VERTEX
  8
0
 10
4.30332227
 20
3.35810888
  0
VERTEX
  8
0
 10
4.32114367
 20
3.17138054
  0
VERTEX
  8
0
 10
4.34966571
 20
2.99789755
  0
VERTEX
  8
0
 10
4.39707803
 20
2.83994717
  0
VERTEX
  8
0
 10
4.42682620
 20
2.71343253
  0
VERTEX
  8
0
 10
4.41705254
 20
2.51693047
  0
VERTEX
  8
0
 10
4.43111128
 20
2.42574828
  0
VERTEX
  8
0
 10
4.45970913
 20
2.32866908
  0
VERTEX
  8
0
 10
4.52353402
 20
2.12238314
  0
VERTEX
  8
0
 10
4.54827860
 20
1.95714749
  0
VERTEX
  8
0
 10
4.56725830
 20
1.79007862
  0
VERTEX
  8
0
 10
4.56777270
 20
1.74686874
  0
VERTEX
  8
0
 10
4.29411015
 20
0.76230084
  0
VERTEX
  8
0
 10
4.29633168
 20
0.71623590
  0
VERTEX
  8
0
 10
4.31917881
 20
0.71467339
  0
VERTEX
  8
0
 10
4.37435706
 20
0.77721854
  0
VERTEX
  8
0
 10
4.39904842
 20
0.78184816
  0
VERTEX
  8
0
 10
4.37249029
 20
0.69076360
  0
VERTEX
  8
0
 10
4.36803869
 20
0.64710259
  0
VERTEX
  8
0
 10
4.37637419
 20
0.64234855
  0
VERTEX
  8
0
 10
4.39493320
 20
0.65530496
  0
VERTEX
  8
0
 10
4.40367805
 20
0.47114858
  0
VERTEX
  8
0
 10
4.43543930
 20
0.44412482
  0
VERTEX
  8
0
 10
4.47826653
 20
0.42382347
  0
VERTEX
  8
0
 10
4.50149863
 20
0.35926574
  0
VERTEX
  8
0
 10
4.52970686
 20
0.33328849
  0
VERTEX
  8
0
 10
5.06211427
 20
0.30088109
  0
VERTEX
  8
0
 10
5.09663219
 20
0.30102478
  0
VERTEX
  8
0
 10
5.08371920
 20
0.32711565
  0
VERTEX
  8
0
 10
5.06622949
 20
0.34100454
  0
VERTEX
  8
0
 10
5.05797210
 20
0.35273068
  0
VERTEX
  8
0
 10
5.07806077
 20
0.34254775
  0
VERTEX
  8
0
 10
5.19216414
 20
0.29918539
  0
VERTEX
  8
0
 10
5.22818800
 20
0.29691187
  0
VERTEX
  8
0
 10
5.23032414
 20
0.31065475
  0
VERTEX
  8
0
 10
5.14140912
 20
0.39751014
  0
VERTEX
  8
0
 10
5.02655712
 20
0.54146011
  0
VERTEX
  8
0
 10
4.91739521
 20
0.72844360
  0
VERTEX
  8
0
 10
4.87483151
 20
0.83367885
  0
VERTEX
  8
0
 10
4.84555048
 20
0.94439961
  0
VERTEX
  8
0
 10
4.81765387
 20
1.16078592
  0
VERTEX
  8
0
 10
4.79873978
 20
1.37546956
  0
VERTEX
  8
0
 10
4.81103019
 20
1.61481993
  0
VERTEX
  8
0
 10
4.84503608
 20
1.91096339
  0
VERTEX
  8
0
 10
4.87332826
 20
2.01332965
  0
VERTEX
  8
0
 10
5.00014746
 20
2.27660107
  0
VERTEX
  8
0
 10
5.09606488
 20
2.49583993
  0
VERTEX
  8
0
 10
5.11357208
 20
2.56593065
  0
VERTEX
  8
0
 10
5.12590027
 20
2.69439961
  0
VERTEX
  8
0
 10
5.15078656
 20
2.88295632
  0
VERTEX
  8
0
 10
5.21248232
 20
3.09073160
  0
VERTEX
  8
0
 10
5.30779035
 20
3.29079871
  0
VERTEX
  8
0
 10
5.43351344
 20
3.45623088
  0
VERTEX
  8
0
 10
5.51900219
 20
3.55567140
  0
VERTEX
  8
0
 10
5.59707996
 20
3.67219253
  0
VERTEX
  8
0
 10
5.72901382
 20
3.92964570
  0
VERTEX
  8
0
 10
5.82533741
 20
4.17492849
  0
VERTEX
  8
0
 10
5.88207311
 20
4.35437903
  0
VERTEX
  8
0
 10
5.89655072
 20
4.30221316
  0
VERTEX
  8
0
 10
5.91756694
 20
4.26538726
  0
VERTEX
  8
0
 10
5.95038275
 20
4.35208974
  0
VERTEX
  8
0
 10
6.01890439
 20
4.44337080
  0
VERTEX
  8
0
 10
6.04391193
 20
4.35576475
  0
VERTEX
  8
0
 10
6.08989204
 20
4.27104570
  0
VERTEX
  8
0
 10
6.10763710
 20
4.36448079
  0
VERTEX
  8
0
 10
6.16520401
 20
4.46458385
  0
VERTEX
  8
0
 10
6.28330768
 20
4.63781524
  0
VERTEX
  8
0
 10
6.27161110
 20
4.55165183
  0
VERTEX
  8
0
 10
6.29102373
 20
4.49686874
  0
VERTEX
  8
0
 10
6.32672926
 20
4.57545481
  0
VERTEX
  8
0
 10
6.38001550
 20
4.63524323
  0
VERTEX
  8
0
 10
6.36325581
 20
4.58143074
  0
VERTEX
  8
0
 10
6.36869863
 20
4.51127203
  0
VERTEX
  8
0
 10
6.40461553
 20
4.56217265
  0
VERTEX
  8
0
 10
6.46746406
 20
4.61775351
  0
VERTEX
  8
0
 10
6.45378098
 20
4.54304133
  0
VERTEX
  8
0
 10
6.41946577
 20
4.46948134
  0
VERTEX
  8
0
 10
6.35120892
 20
4.35437903
  0
VERTEX
  8
0
 10
6.28885044
 20
4.22524415
  0
VERTEX
  8
0
 10
6.26698549
 20
4.16792089
  0
VERTEX
  8
0
 10
6.26427476
 20
4.12855598
  0
VERTEX
  8
0
 10
6.29603003
 20
4.17865654
  0
VERTEX
  8
0
 10
6.32960398
 20
4.20211565
  0
VERTEX
  8
0
 10
6.29929427
 20
4.10739800
  0
VERTEX
  8
0
 10
6.29161356
 20
4.03976356
  0
VERTEX
  8
0
 10
6.30182620
 20
3.97835022
  0
VERTEX
  8
0
 10
6.32983240
 20
4.04874246
  0
VERTEX
  8
0
 10
6.35779416
 20
4.08644407
  0
VERTEX
  8
0
 10
6.39853402
 20
4.11466709
  0
VERTEX
  8
0
 10
6.37915994
 20
4.00870242
  0
VERTEX
  8
0
 10
6.38094135
 20
3.94038687
  0
VERTEX
  8
0
 10
6.39853402
 20
3.86363829
  0
VERTEX
  8
0
 10
6.42609381
 20
3.94025961
  0
VERTEX
  8
0
 10
6.48752579
 20
4.02773294
  0
VERTEX
  8
0
 10
6.47692558
 20
3.91386203
  0
VERTEX
  8
0
 10
6.45820480
 20
3.76075763
  0
VERTEX
  8
0
 10
6.45524821
 20
3.70835457
  0
VERTEX
  8
0
 10
6.46898264
 20
3.64404055
  0
VERTEX
  8
0
 10
6.51067394
 20
3.51281524
  0
VERTEX
  8
0
 10
6.52030490
 20
3.44490957
  0
VERTEX
  8
0
 10
6.50295789
 20
3.37958479
  0
VERTEX
  8
0
 10
6.47570398
 20
3.34329602
  0
VERTEX
  8
0
 10
6.41859575
 20
3.30448191
  0
VERTEX
  8
0
 10
6.49729945
 20
3.29162183
  0
VERTEX
  8
0
 10
6.47681860
 20
3.24935853
  0
VERTEX
  8
0
 10
6.44122949
 20
3.20777409
  0
VERTEX
  8
0
 10
6.53603719
 20
3.25194143
  0
VERTEX
  8
0
 10
6.61406900
 20
3.30756833
  0
VERTEX
  8
0
 10
6.59400727
 20
3.23040784
  0
VERTEX
  8
0
 10
6.67503547
 20
3.27974156
  0
VERTEX
  8
0
 10
6.74472743
 20
3.36518150
  0
VERTEX
  8
0
 10
6.74523957
 20
3.32842351
  0
VERTEX
  8
0
 10
6.73238176
 20
3.28596339
  0
VERTEX
  8
0
 10
6.78158315
 20
3.33617850
  0
VERTEX
  8
0
 10
6.80711002
 20
3.40382572
  0
VERTEX
  8
0
 10
6.81391988
 20
3.48365804
  0
VERTEX
  8
0
 10
6.80697023
 20
3.57042841
  0
VERTEX
  8
0
 10
6.76170274
 20
3.79265063
  0
VERTEX
  8
0
 10
6.69387304
 20
4.17328696
  0
VERTEX
  8
0
 10
6.68242448
 20
4.41406613
  0
VERTEX
  8
0
 10
6.69454026
 20
4.49436564
  0
VERTEX
  8
0
 10
6.71678789
 20
4.55452850
  0
VERTEX
  8
0
 10
6.78639410
 20
4.63421442
  0
VERTEX
  8
0
 10
6.79539900
 20
4.58245281
  0
VERTEX
  8
0
 10
6.82034472
 20
4.53750660
  0
VERTEX
  8
0
 10
6.87198426
 20
4.64207419
  0
VERTEX
  8
0
 10
6.92682620
 20
4.70520207
  0
VERTEX
  8
0
 10
6.91997320
 20
4.66077408
  0
VERTEX
  8
0
 10
6.93042702
 20
4.61723911
  0
VERTEX
  8
0
 10
6.95747241
 20
4.68116785
  0
VERTEX
  8
0
 10
6.99832826
 20
4.73452306
  0
VERTEX
  8
0
 10
7.00964513
 20
4.66096339
  0
VERTEX
  8
0
 10
7.04417607
 20
4.74414533
  0
VERTEX
  8
0
 10
7.09143525
 20
4.80088109
  0
VERTEX
  8
0
 10
7.09449453
 20
4.74976075
  0
VERTEX
  8
0
 10
7.11149698
 20
4.71909096
  0
VERTEX
  8
0
 10
7.13027373
 20
4.76923268
  0
VERTEX
  8
0
 10
7.16293309
 20
4.81608412
  0
VERTEX
  8
0
 10
7.22209369
 20
4.87392635
  0
VERTEX
  8
0
 10
7.23855459
 20
4.80705393
  0
VERTEX
  8
0
 10
7.26710897
 20
4.87179911
  0
VERTEX
  8
0
 10
7.31880151
 20
4.94337080
  0
VERTEX
  8
0
 10
7.31531018
 20
4.89041899
  0
VERTEX
  8
0
 10
7.33011838
 20
4.84666298
  0
VERTEX
  8
0
 10
7.36246542
 20
4.90077145
  0
VERTEX
  8
0
 10
7.42492521
 20
4.96892904
  0
VERTEX
  8
0
 10
7.51684678
 20
5.05293870
  0
VERTEX
  8
0
 10
7.56166165
 20
5.04099429
  0
VERTEX
  8
0
 10
7.64085067
 20
4.99378960
  0
VERTEX
  8
0
 10
7.73519824
 20
4.90890123
  0
VERTEX
  8
0
 10
7.82548875
 20
4.78390578
  0
VERTEX
  8
0
 10
7.85164868
 20
4.76031732
  0
VERTEX
  8
0
 10
7.89191707
 20
4.75017239
  0
VERTEX
  8
0
 10
7.99648886
 20
4.75849539
  0
VERTEX
  8
0
 10
8.17373978
 20
4.80756833
  0
VERTEX
  8
0
 10
8.23475859
 20
4.77863971
  0
VERTEX
  8
0
 10
8.30661767
 20
4.76936606
  0
VERTEX
  8
0
 10
8.45871920
 20
4.77567533
  0
VERTEX
  8
0
 10
8.57679583
 20
4.80736676
  0
VERTEX
  8
0
 10
8.62316107
 20
4.84161474
  0
VERTEX
  8
0
 10
8.64904842
 20
4.88678644
  0
VERTEX
  8
0
 10
8.66934319
 20
5.02835062
  0
VERTEX
  8
0
 10
8.67954660
 20
5.22337781
  0
VERTEX
  8
0
 10
8.67462951
 20
5.41214635
  0
VERTEX
  8
0
 10
8.64956283
 20
5.53493458
  0
VERTEX
  8
0
 10
8.63858255
 20
5.56633878
  0
VERTEX
  8
0
 10
8.56815589
 20
5.66223192
  0
VERTEX
  8
0
 10
8.38205410
 20
5.82513482
  0
VERTEX
  8
0
 10
8.02404842
 20
6.05756833
  0
SEQEND
  0
POLYLINE
  8
Default_Layer
 66
   1
 39
0.000000
 70
    1
  0
VERTEX
  8
0
 10
2.35429534
 20
0.59203335
  0
VERTEX
  8
0
 10
2.46358969
 20
0.45814819
  0
VERTEX
  8
0
 10
2.55027234
 20
0.37631320
  0
VERTEX
  8
0
 10
2.59143563
 20
0.33842367
  0
VERTEX
  8
0
 10
2.56417188
 20
0.33637491
  0
VERTEX
  8
0
 10
2.45769008
 20
0.41547453
  0
VERTEX
  8
0
 10
2.30594143
 20
0.57711565
  0
VERTEX
  8
0
 10
2.31102146
 20
0.60072979
  0
VERTEX
  8
0
 10
2.32791815
 20
0.60349294
  0
VERTEX
  8
0
 10
2.35429534
 20
0.59203335
  0
SEQEND
  0
POLYLINE
  8
Default_Layer
 66
   1
 39
0.000000
 70
    1
  0
VERTEX
  8
0
 10
2.04822538
 20
0.33174528
  0
VERTEX
  8
0
 10
2.11747321
 20
0.38362351
  0
VERTEX
  8
0
 10
2.18232412
 20
0.46403632
  0
VERTEX
  8
0
 10
2.23709582
 20
0.53591678
  0
VERTEX
  8
0
 10
2.27610604
 20
0.56219796
  0
VERTEX
  8
0
 10
2.38343623
 20
0.42310846
  0
VERTEX
  8
0
 10
2.46180562
 20
0.34357656
  0
VERTEX
  8
0
 10
2.46334883
 20
0.33071648
  0
VERTEX
  8
0
 10
2.04668217
 20
0.32300043
  0
VERTEX
  8
0
 10
2.03294197
 20
0.32688975
  0
VERTEX
  8
0
 10
2.04822538
 20
0.33174528
  0
SEQEND
  0
POLYLINE
  8
Default_Layer
 66
   1
 39
0.000000
 70
    1
  0
VERTEX
  8
0
 10
3.69791673
 20
0.60180701
  0
VERTEX
  8
0
 10
3.80734361
 20
0.46800076
  0
VERTEX
  8
0
 10
3.89412272
 20
0.38624435
  0
VERTEX
  8
0
 10
3.93539657
 20
0.34848326
  0
VERTEX
  8
0
 10
3.90830768
 20
0.34666298
  0
VERTEX
  8
0
 10
3.80160268
 20
0.42540568
  0
VERTEX
  8
0
 10
3.65007723
 20
0.58688932
  0
VERTEX
  8
0
 10
3.65495104
 20
0.61055441
  0
VERTEX
  8
0
 10
3.67168489
 20
0.61331190
  0
VERTEX
  8
0
 10
3.69791673
 20
0.60180701
  0
SEQEND
  0
POLYLINE
  8
Default_Layer
 66
   1
 39
0.000000
 70
    1
  0
VERTEX
  8
0
 10
3.38567394
 20
0.33997574
  0
VERTEX
  8
0
 10
3.45653117
 20
0.38858165
  0
VERTEX
  8
0
 10
3.52330810
 20
0.47001496
  0
VERTEX
  8
0
 10
3.57990992
 20
0.54442763
  0
VERTEX
  8
0
 10
3.62024184
 20
0.57197162
  0
VERTEX
  8
0
 10
3.72224380
 20
0.43836027
  0
VERTEX
  8
0
 10
3.80182620
 20
0.35797985
  0
VERTEX
  8
0
 10
3.80697023
 20
0.34049014
  0
VERTEX
  8
0
 10
3.38515953
 20
0.33277409
  0
VERTEX
  8
0
 10
3.37324052
 20
0.33628141
  0
VERTEX
  8
0
 10
3.38567394
 20
0.33997574
  0
SEQEND
  0
POLYLINE
  8
Default_Layer
 66
   1
 39
0.000000
 70
    1
  0
VERTEX
  8
0
 10
2.62127064
 20
5.70623088
  0
VERTEX
  8
0
 10
2.62590027
 20
5.70623088
  0
VERTEX
  8
0
 10
2.48641769
 20
5.41167420
  0
VERTEX
  8
0
 10
2.40821570
 20
5.14485224
  0
VERTEX
  8
0
 10
2.38008542
 20
4.89946033
  0
VERTEX
  8
0
 10
2.39081797
 20
4.66919384
  0
VERTEX
  8
0
 10
2.42898059
 20
4.38926167
  0
VERTEX
  8
0
 10
2.44459175
 20
4.24937676
  0
VERTEX
  8
0
 10
2.44637352
 20
4.10952306
  0
VERTEX
  8
0
 10
2.44174390
 20
4.10695105
  0
VERTEX
  8
0
 10
2.38319297
 20
4.45922509
  0
VERTEX
  8
0
 10
2.35100315
 20
4.65625907
  0
VERTEX
  8
0
 10
2.33221576
 20
4.86241876
  0
VERTEX
  8
0
 10
2.33833981
 20
5.07409998
  0
VERTEX
  8
0
 10
2.38088430
 20
5.28769854
  0
VERTEX
  8
0
 10
2.47135825
 20
5.49961023
  0
VERTEX
  8
0
 10
2.62127064
 20
5.70623088
  0
SEQEND
  0
POLYLINE
  8
Default_Layer
 66
   1
 39
0.000000
 70
    1
  0
VERTEX
  8
0
 10
3.00810192
 20
3.54933788
  0
VERTEX
  8
0
 10
2.86921303
 20
3.61260948
  0
VERTEX
  8
0
 10
2.63873051
 20
3.73650368
  0
VERTEX
  8
0
 10
2.47569451
 20
3.83688932
  0
VERTEX
  8
0
 10
2.42404477
 20
3.86062889
  0
VERTEX
  8
0
 10
2.39441879
 20
3.82814446
  0
VERTEX
  8
0
 10
2.33114719
 20
3.66713623
  0
VERTEX
  8
0
 10
2.31572259
 20
3.64994576
  0
VERTEX
  8
0
 10
2.31983032
 20
3.67176586
  0
VERTEX
  8
0
 10
2.37744348
 20
3.88421442
  0
VERTEX
  8
0
 10
2.40345410
 20
3.90993187
  0
VERTEX
  8
0
 10
2.45203196
 20
3.88524323
  0
VERTEX
  8
0
 10
3.01838999
 20
3.55911154
  0
VERTEX
  8
0
 10
3.02980876
 20
3.54511470
  0
VERTEX
  8
0
 10
3.00810192
 20
3.54933788
  0
SEQEND
  0
POLYLINE
  8
Default_Layer
 66
   1
 39
0.000000
 70
    1
  0
VERTEX
  8
0
 10
4.12847229
 20
4.24532553
  0
VERTEX
  8
0
 10
3.99483263
 20
4.45447457
  0
VERTEX
  8
0
 10
3.92075221
 20
4.61871836
  0
VERTEX
  8
0
 10
3.89613368
 20
4.76846224
  0
VERTEX
  8
0
 10
3.91087970
 20
4.93411154
  0
VERTEX
  8
0
 10
3.91345171
 20
4.93514035
  0
VERTEX
  8
0
 10
3.92435083
 20
4.76728109
  0
VERTEX
  8
0
 10
3.96618430
 20
4.62052775
  0
VERTEX
  8
0
 10
4.02888157
 20
4.48821799
  0
VERTEX
  8
0
 10
4.10237207
 20
4.36368944
  0
VERTEX
  8
0
 10
4.24145048
 20
4.11132658
  0
VERTEX
  8
0
 10
4.28689727
 20
3.97016756
  0
VERTEX
  8
0
 10
4.30285501
 20
3.81014035
  0
VERTEX
  8
0
 10
4.22884860
 20
4.04516519
  0
VERTEX
  8
0
 10
4.18394806
 20
4.15021271
  0
VERTEX
  8
0
 10
4.12847229
 20
4.24532553
  0
SEQEND
  0
POLYLINE
  8
Default_Layer
 66
   1
 39
0.000000
 70
    1
  0
VERTEX
  8
0
 10
4.46283443
 20
0.46754775
  0
VERTEX
  8
0
 10
4.43693463
 20
0.54852552
  0
VERTEX
  8
0
 10
4.43307356
 20
0.63602984
  0
VERTEX
  8
0
 10
4.45151756
 20
0.74121030
  0
VERTEX
  8
0
 10
4.46291721
 20
0.75499982
  0
VERTEX
  8
0
 10
4.45923361
 20
0.73709508
  0
VERTEX
  8
0
 10
4.45428368
 20
0.59735801
  0
VERTEX
  8
0
 10
4.46797846
 20
0.47063417
  0
VERTEX
  8
0
 10
4.46283443
 20
0.46754775
  0
SEQEND
  0
POLYLINE
  8
Default_Layer
 66
   1
 39
0.000000
 70
    1
  0
VERTEX
  8
0
 10
4.49781385
 20
1.11826792
  0
VERTEX
  8
0
 10
4.47698257
 20
1.05752574
  0
VERTEX
  8
0
 10
4.46573231
 20
0.97383792
  0
VERTEX
  8
0
 10
4.45460398
 20
0.81065475
  0
VERTEX
  8
0
 10
4.45018617
 20
0.79159838
  0
VERTEX
  8
0
 10
4.44534472
 20
0.80756833
  0
VERTEX
  8
0
 10
4.44122949
 20
0.94131319
  0
VERTEX
  8
0
 10
4.45873658
 20
1.06429327
  0
VERTEX
  8
0
 10
4.51478916
 20
1.17485228
  0
VERTEX
  8
0
 10
4.54103340
 20
1.24267001
  0
VERTEX
  8
0
 10
4.56159986
 20
1.35386463
  0
VERTEX
  8
0
 10
4.58577682
 20
1.55190989
  0
VERTEX
  8
0
 10
4.59589719
 20
1.59726819
  0
VERTEX
  8
0
 10
4.59812250
 20
1.55396751
  0
VERTEX
  8
0
 10
4.57316484
 20
1.30546086
  0
VERTEX
  8
0
 10
4.54344732
 20
1.20511911
  0
VERTEX
  8
0
 10
4.49781385
 20
1.11826792
  0
SEQEND
  0
POLYLINE
  8
Default_Layer
 66
   1
 39
0.000000
 70
    1
  0
VERTEX
  8
0
 10
4.97672332
 20
0.56425557
  0
VERTEX
  8
0
 10
5.08990389
 20
0.41969490
  0
VERTEX
  8
0
 10
5.17888381
 20
0.33586051
  0
VERTEX
  8
0
 10
5.19247380
 20
0.31918228
  0
VERTEX
  8
0
 10
5.17065336
 20
0.32300043
  0
VERTEX
  8
0
 10
5.01840598
 20
0.40494338
  0
VERTEX
  8
0
 10
4.94703886
 20
0.47198344
  0
VERTEX
  8
0
 10
4.90162044
 20
0.55242430
  0
VERTEX
  8
0
 10
4.91805956
 20
0.58901972
  0
VERTEX
  8
0
 10
4.94335348
 20
0.58922597
  0
VERTEX
  8
0
 10
4.97672332
 20
0.56425557
  0
SEQEND
  0
POLYLINE
  8
Default_Layer
 66
   1
 39
0.000000
 70
    1
  0
VERTEX
  8
0
 10
4.85223772
 20
0.57351483
  0
VERTEX
  8
0
 10
4.89821140
 20
0.48605941
  0
VERTEX
  8
0
 10
4.96197497
 20
0.40692767
  0
VERTEX
  8
0
 10
5.03587970
 20
0.32763006
  0
VERTEX
  8
0
 10
4.59709369
 20
0.35026380
  0
VERTEX
  8
0
 10
4.68572948
 20
0.40645385
  0
VERTEX
  8
0
 10
4.75065537
 20
0.47817720
  0
VERTEX
  8
0
 10
4.80258643
 20
0.54175661
  0
VERTEX
  8
0
 10
4.85223772
 20
0.57351483
  0
SEQEND
  0
POLYLINE
  8
Default_Layer
 66
   1
 39
0.000000
 70
    1
  0
VERTEX
  8
0
 10
7.99678505
 20
7.60746545
  0
VERTEX
  8
0
 10
7.96906462
 20
7.46772230
  0
VERTEX
  8
0
 10
7.91962455
 20
7.28544899
  0
VERTEX
  8
0
 10
7.92243565
 20
7.25212749
  0
VERTEX
  8
0
 10
7.95666159
 20
7.24481113
  0
VERTEX
  8
0
 10
8.12883617
 20
7.31933021
  0
VERTEX
  8
0
 10
8.27662044
 20
7.41970825
  0
VERTEX
  8
0
 10
8.46411522
 20
7.59657349
  0
VERTEX
  8
0
 10
8.61406900
 20
7.74378232
  0
VERTEX
  8
0
 10
8.64839001
 20
7.76549980
  0
VERTEX
  8
0
 10
8.63876036
 20
7.72886463
  0
VERTEX
  8
0
 10
8.56146439
 20
7.60659438
  0
VERTEX
  8
0
 10
8.46440449
 20
7.49067276
  0
VERTEX
  8
0
 10
8.27713484
 20
7.30242430
  0
VERTEX
  8
0
 10
8.19545204
 20
7.23427456
  0
VERTEX
  8
0
 10
8.10532414
 20
7.18771236
  0
VERTEX
  8
0
 10
7.63464513
 20
7.02310331
  0
VERTEX
  8
0
 10
7.80542702
 20
6.90324734
  0
VERTEX
  8
0
 10
7.86185293
 20
6.84758167
  0
VERTEX
  8
0
 10
7.80079739
 20
6.85900866
  0
VERTEX
  8
0
 10
7.42373978
 20
6.99635434
  0
VERTEX
  8
0
 10
7.61046818
 20
7.09357656
  0
VERTEX
  8
0
 10
7.69901768
 20
7.15932820
  0
VERTEX
  8
0
 10
7.77764925
 20
7.24789755
  0
VERTEX
  8
0
 10
7.82469423
 20
7.30016598
  0
VERTEX
  8
0
 10
7.85480974
 20
7.36106627
  0
VERTEX
  8
0
 10
7.95820480
 20
7.61621030
  0
VERTEX
  8
0
 10
7.98767982
 20
7.66990004
  0
VERTEX
  8
0
 10
8.00137100
 20
7.67506018
  0
VERTEX
  8
0
 10
7.99678505
 20
7.60746545
  0
SEQEND
  0
POLYLINE
  8
Default_Layer
 66
   1
 39
0.000000
 70
    1
  0
VERTEX
  8
0
 10
7.59966571
 20
7.25972882
  0
VERTEX
  8
0
 10
7.63498086
 20
7.31070613
  0
VERTEX
  8
0
 10
7.68865748
 20
7.37289755
  0
VERTEX
  8
0
 10
7.84863690
 20
7.47989343
  0
VERTEX
  8
0
 10
7.81517886
 20
7.37224206
  0
VERTEX
  8
0
 10
7.79471184
 20
7.32138496
  0
VERTEX
  8
0
 10
7.77199081
 20
7.29470825
  0
VERTEX
  8
0
 10
7.59966571
 20
7.25972882
  0
SEQEND
  0
POLYLINE
  8
Default_Layer
 66
   1
 39
0.000000
 70
    1
  0
VERTEX
  8
0
 10
7.62590027
 20
7.23709508
  0
VERTEX
  8
0
 10
7.62590027
 20
7.23452306
  0
VERTEX
  8
0
 10
7.43505665
 20
7.17330907
  0
VERTEX
  8
0
 10
7.45460398
 20
7.21291812
  0
VERTEX
  8
0
 10
7.62590027
 20
7.23709508
  0
SEQEND
  0
POLYLINE
  8
Default_Layer
 66
   1
 39
0.000000
 70
    1
  0
VERTEX
  8
0
 10
7.64699081
 20
7.58637491
  0
VERTEX
  8
0
 10
7.69190609
 20
7.59062978
  0
VERTEX
  8
0
 10
7.76917659
 20
7.61955165
  0
VERTEX
  8
0
 10
7.87254556
 20
7.68589750
  0
VERTEX
  8
0
 10
7.99575624
 20
7.80242430
  0
VERTEX
  8
0
 10
8.10482887
 20
7.94368484
  0
VERTEX
  8
0
 10
8.20129826
 20
8.09964933
  0
VERTEX
  8
0
 10
8.34812250
 20
8.37752718
  0
VERTEX
  8
0
 10
8.41117123
 20
8.48589489
  0
VERTEX
  8
0
 10
8.39338999
 20
8.36826792
  0
VERTEX
  8
0
 10
8.31079070
 20
8.15539279
  0
VERTEX
  8
0
 10
8.18770960
 20
7.92883125
  0
VERTEX
  8
0
 10
8.02713484
 20
7.67536668
  0
VERTEX
  8
0
 10
8.01775797
 20
7.70511076
  0
VERTEX
  8
0
 10
8.00031408
 20
7.71244653
  0
VERTEX
  8
0
 10
7.95125363
 20
7.67713115
  0
VERTEX
  8
0
 10
7.90001033
 20
7.60389650
  0
VERTEX
  8
0
 10
7.86664101
 20
7.52721854
  0
VERTEX
  8
0
 10
7.75268146
 20
7.46458006
  0
VERTEX
  8
0
 10
7.64699081
 20
7.38472882
  0
VERTEX
  8
0
 10
7.58245742
 20
7.29710269
  0
VERTEX
  8
0
 10
7.55799904
 20
7.25407039
  0
VERTEX
  8
0
 10
7.47466571
 20
7.24223911
  0
VERTEX
  8
0
 10
7.64699081
 20
7.58637491
  0
SEQEND
  0
POLYLINE
  8
Default_Layer
 66
   1
 39
0.000000
 70
    1
  0
VERTEX
  8
0
 10
7.13773155
 20
8.26230084
  0
VERTEX
  8
0
 10
7.19207805
 20
8.20392037
  0
VERTEX
  8
0
 10
7.25856050
 20
8.18033900
  0
VERTEX
  8
0
 10
7.29622604
 20
8.18899533
  0
VERTEX
  8
0
 10
7.33677354
 20
8.21522826
  0
VERTEX
  8
0
 10
7.42631180
 20
8.33225969
  0
VERTEX
  8
0
 10
7.57703196
 20
8.62135434
  0
VERTEX
  8
0
 10
7.62000561
 20
8.67297747
  0
VERTEX
  8
0
 10
7.60480974
 20
8.60592224
  0
VERTEX
  8
0
 10
7.49492925
 20
8.33238509
  0
VERTEX
  8
0
 10
7.39390439
 20
8.03647779
  0
VERTEX
  8
0
 10
7.35848704
 20
7.83216203
  0
VERTEX
  8
0
 10
7.36424445
 20
7.72166692
  0
VERTEX
  8
0
 10
7.38059436
 20
7.67912092
  0
VERTEX
  8
0
 10
7.40882208
 20
7.65067533
  0
VERTEX
  8
0
 10
7.52250521
 20
7.59820619
  0
VERTEX
  8
0
 10
7.33217599
 20
7.25407039
  0
VERTEX
  8
0
 10
7.21952167
 20
7.25407039
  0
VERTEX
  8
0
 10
7.21232003
 20
7.47166298
  0
VERTEX
  8
0
 10
7.14528683
 20
7.60899455
  0
VERTEX
  8
0
 10
7.00635865
 20
7.84525012
  0
VERTEX
  8
0
 10
6.80697023
 20
8.16816504
  0
VERTEX
  8
0
 10
6.97415130
 20
8.56116915
  0
VERTEX
  8
0
 10
7.13773155
 20
8.26230084
  0
SEQEND
  0
POLYLINE
  8
Default_Layer
 66
   1
 39
0.000000
 70
    1
  0
VERTEX
  8
0
 10
6.88155871
 20
7.20777409
  0
VERTEX
  8
0
 10
6.87255122
 20
7.46275325
  0
VERTEX
  8
0
 10
6.84709369
 20
7.69800043
  0
VERTEX
  8
0
 10
6.82973172
 20
7.75804182
  0
VERTEX
  8
0
 10
6.76170274
 20
7.71909096
  0
VERTEX
  8
0
 10
6.51324595
 20
7.49378232
  0
VERTEX
  8
0
 10
6.78382208
 20
8.11363829
  0
VERTEX
  8
0
 10
6.90109605
 20
7.93943816
  0
VERTEX
  8
0
 10
7.09297846
 20
7.63575763
  0
VERTEX
  8
0
 10
7.14339148
 20
7.52721151
  0
VERTEX
  8
0
 10
7.17727066
 20
7.41117628
  0
VERTEX
  8
0
 10
7.18765086
 20
7.30789469
  0
VERTEX
  8
0
 10
7.16756694
 20
7.23760948
  0
VERTEX
  8
0
 10
7.10336582
 20
7.19913603
  0
VERTEX
  8
0
 10
6.98341056
 20
7.13318561
  0
VERTEX
  8
0
 10
6.81622949
 20
7.00046956
  0
VERTEX
  8
0
 10
6.88155871
 20
7.20777409
  0
SEQEND
  0
POLYLINE
  8
Default_Layer
 66
   1
 39
0.000000
 70
    1
  0
VERTEX
  8
0
 10
6.63258752
 20
7.07865886
  0
VERTEX
  8
0
 10
6.57358805
 20
7.12518254
  0
VERTEX
  8
0
 10
6.51156383
 20
7.20066337
  0
VERTEX
  8
0
 10
6.47648663
 20
7.30130450
  0
VERTEX
  8
0
 10
6.47841936
 20
7.35987366
  0
VERTEX
  8
0
 10
6.49832826
 20
7.42330907
  0
VERTEX
  8
0
 10
6.61031275
 20
7.54646326
  0
VERTEX
  8
0
 10
6.76427476
 20
7.67639549
  0
VERTEX
  8
0
 10
6.80207721
 20
7.69571811
  0
VERTEX
  8
0
 10
6.81674390
 20
7.66353541
  0
VERTEX
  8
0
 10
6.85172332
 20
7.36569590
  0
VERTEX
  8
0
 10
6.84764797
 20
7.24303060
  0
VERTEX
  8
0
 10
6.82034472
 20
7.09357656
  0
VERTEX
  8
0
 10
6.79199905
 20
7.04024273
  0
VERTEX
  8
0
 10
6.75426693
 20
7.02325201
  0
VERTEX
  8
0
 10
6.70263440
 20
7.03769414
  0
VERTEX
  8
0
 10
6.63258752
 20
7.07865886
  0
SEQEND
  0
POLYLINE
  8
Default_Layer
 66
   1
 39
0.000000
 70
    1
  0
VERTEX
  8
0
 10
7.13515953
 20
7.17536668
  0
VERTEX
  8
0
 10
7.24678363
 20
7.21310843
  0
VERTEX
  8
0
 10
7.30851344
 20
7.21857656
  0
VERTEX
  8
0
 10
7.27141146
 20
7.16355367
  0
VERTEX
  8
0
 10
7.18968628
 20
7.08174528
  0
VERTEX
  8
0
 10
7.09596943
 20
7.04290298
  0
VERTEX
  8
0
 10
7.00755983
 20
7.02808584
  0
VERTEX
  8
0
 10
6.91602373
 20
7.02876175
  0
VERTEX
  8
0
 10
7.13515953
 20
7.17536668
  0
SEQEND
  0
POLYLINE
  8
Default_Layer
 66
   1
 39
0.000000
 70
    1
  0
VERTEX
  8
0
 10
6.48546818
 20
8.56322677
  0
VERTEX
  8
0
 10
6.42049733
 20
8.67133813
  0
VERTEX
  8
0
 10
6.36673498
 20
8.79069909
  0
VERTEX
  8
0
 10
6.28965106
 20
9.04396468
  0
VERTEX
  8
0
 10
6.24784710
 20
9.28461337
  0
VERTEX
  8
0
 10
6.23495377
 20
9.47423500
  0
VERTEX
  8
0
 10
6.24713273
 20
9.55919134
  0
VERTEX
  8
0
 10
6.27353402
 20
9.48349426
  0
VERTEX
  8
0
 10
6.32651756
 20
9.21806216
  0
VERTEX
  8
0
 10
6.37353938
 20
9.09995894
  0
VERTEX
  8
0
 10
6.43026639
 20
8.99627743
  0
VERTEX
  8
0
 10
6.49234635
 20
8.91128150
  0
VERTEX
  8
0
 10
6.55542702
 20
8.84923500
  0
VERTEX
  8
0
 10
6.61025854
 20
8.81336038
  0
VERTEX
  8
0
 10
6.65376082
 20
8.80473450
  0
VERTEX
  8
0
 10
6.68667644
 20
8.82851834
  0
VERTEX
  8
0
 10
6.70974801
 20
8.88987286
  0
VERTEX
  8
0
 10
6.72866102
 20
9.10685384
  0
VERTEX
  8
0
 10
6.72929534
 20
9.31785640
  0
VERTEX
  8
0
 10
6.73758922
 20
9.39723948
  0
VERTEX
  8
0
 10
6.76170274
 20
9.31939961
  0
VERTEX
  8
0
 10
6.79810340
 20
9.12690939
  0
VERTEX
  8
0
 10
6.82188793
 20
8.95211565
  0
VERTEX
  8
0
 10
6.87487147
 20
8.68514035
  0
VERTEX
  8
0
 10
6.67013896
 20
8.32711565
  0
VERTEX
  8
0
 10
6.48546818
 20
8.56322677
  0
SEQEND
  0
POLYLINE
  8
Default_Layer
 66
   1
 39
0.000000
 70
    1
  0
VERTEX
  8
0
 10
4.88155871
 20
9.50870002
  0
VERTEX
  8
0
 10
4.89120998
 20
9.61733898
  0
VERTEX
  8
0
 10
4.93248464
 20
9.51487286
  0
VERTEX
  8
0
 10
5.04797664
 20
9.11977122
  0
VERTEX
  8
0
 10
5.12903731
 20
8.91402023
  0
VERTEX
  8
0
 10
5.17777688
 20
8.82591698
  0
VERTEX
  8
0
 10
5.23289616
 20
8.75407039
  0
VERTEX
  8
0
 10
5.29052726
 20
8.71322188
  0
VERTEX
  8
0
 10
5.31147299
 20
8.71924339
  0
VERTEX
  8
0
 10
5.32908957
 20
8.74378232
  0
VERTEX
  8
0
 10
5.35305635
 20
8.83279154
  0
VERTEX
  8
0
 10
5.36561221
 20
8.92382347
  0
VERTEX
  8
0
 10
5.37591537
 20
8.97211753
  0
VERTEX
  8
0
 10
5.38367194
 20
8.97175524
  0
VERTEX
  8
0
 10
5.39544760
 20
8.91867944
  0
VERTEX
  8
0
 10
5.42339710
 20
8.76245481
  0
VERTEX
  8
0
 10
5.45717599
 20
8.63009919
  0
VERTEX
  8
0
 10
5.48307207
 20
8.59505835
  0
VERTEX
  8
0
 10
5.50829427
 20
8.58644818
  0
VERTEX
  8
0
 10
5.53097688
 20
8.59953492
  0
VERTEX
  8
0
 10
5.54925418
 20
8.62958479
  0
VERTEX
  8
0
 10
5.56931591
 20
8.74944076
  0
VERTEX
  8
0
 10
5.58401118
 20
8.81287377
  0
VERTEX
  8
0
 10
5.60429534
 20
8.74686874
  0
VERTEX
  8
0
 10
5.61702096
 20
8.62087635
  0
VERTEX
  8
0
 10
5.64338999
 20
8.48812389
  0
VERTEX
  8
0
 10
5.66678075
 20
8.45400034
  0
VERTEX
  8
0
 10
5.69631097
 20
8.44393305
  0
VERTEX
  8
0
 10
5.72587246
 20
8.45557537
  0
VERTEX
  8
0
 10
5.74935706
 20
8.48658068
  0
VERTEX
  8
0
 10
5.77739748
 20
8.61094864
  0
VERTEX
  8
0
 10
5.79102373
 20
8.74481113
  0
VERTEX
  8
0
 10
5.81283113
 20
8.82138653
  0
VERTEX
  8
0
 10
5.82548875
 20
8.73966709
  0
VERTEX
  8
0
 10
5.83822839
 20
8.56320316
  0
VERTEX
  8
0
 10
5.86644855
 20
8.45326945
  0
VERTEX
  8
0
 10
5.91911015
 20
8.33483170
  0
VERTEX
  8
0
 10
6.00443941
 20
8.18878985
  0
VERTEX
  8
0
 10
6.11509780
 20
8.04985228
  0
VERTEX
  8
0
 10
6.22805764
 20
7.96256243
  0
VERTEX
  8
0
 10
6.34647567
 20
7.92121769
  0
VERTEX
  8
0
 10
6.45015641
 20
7.92631472
  0
VERTEX
  8
0
 10
6.49015921
 20
7.94643412
  0
VERTEX
  8
0
 10
6.51890439
 20
7.97835022
  0
VERTEX
  8
0
 10
6.72964474
 20
8.35092381
  0
VERTEX
  8
0
 10
6.92322538
 20
8.72526380
  0
VERTEX
  8
0
 10
6.96267292
 20
8.79363348
  0
VERTEX
  8
0
 10
6.98864162
 20
8.80974655
  0
VERTEX
  8
0
 10
6.99540528
 20
8.77500199
  0
VERTEX
  8
0
 10
6.97723772
 20
8.69079878
  0
VERTEX
  8
0
 10
6.85626056
 20
8.36737439
  0
VERTEX
  8
0
 10
6.68320270
 20
7.96380998
  0
VERTEX
  8
0
 10
6.46077682
 20
7.47372059
  0
VERTEX
  8
0
 10
6.45408957
 20
7.44902923
  0
VERTEX
  8
0
 10
6.42918043
 20
7.36553891
  0
VERTEX
  8
0
 10
6.42557115
 20
7.29554296
  0
VERTEX
  8
0
 10
6.44856677
 20
7.22461525
  0
VERTEX
  8
0
 10
6.50347229
 20
7.13832965
  0
VERTEX
  8
0
 10
6.57680567
 20
7.05392520
  0
VERTEX
  8
0
 10
6.65419908
 20
7.00884860
  0
VERTEX
  8
0
 10
6.75808095
 20
6.99211849
  0
VERTEX
  8
0
 10
6.91087970
 20
6.99275351
  0
VERTEX
  8
0
 10
7.05035577
 20
7.00596540
  0
VERTEX
  8
0
 10
7.19585912
 20
7.05190989
  0
VERTEX
  8
0
 10
7.24183108
 20
7.07094379
  0
VERTEX
  8
0
 10
7.29668217
 20
7.12958479
  0
VERTEX
  8
0
 10
7.39058609
 20
7.31133468
  0
VERTEX
  8
0
 10
7.55491262
 20
7.60386463
  0
VERTEX
  8
0
 10
7.59731359
 20
7.66133624
  0
VERTEX
  8
0
 10
7.61746260
 20
7.67048050
  0
VERTEX
  8
0
 10
7.59812250
 20
7.58380290
  0
VERTEX
  8
0
 10
7.41036529
 20
7.18925557
  0
VERTEX
  8
0
 10
7.39832918
 20
7.14197860
  0
VERTEX
  8
0
 10
7.45306077
 20
7.14295928
  0
VERTEX
  8
0
 10
7.63876036
 20
7.21343253
  0
VERTEX
  8
0
 10
7.71204143
 20
7.22987017
  0
VERTEX
  8
0
 10
7.70823849
 20
7.21665107
  0
VERTEX
  8
0
 10
7.65882208
 20
7.18051072
  0
VERTEX
  8
0
 10
7.51067394
 20
7.08843253
  0
VERTEX
  8
0
 10
7.27402650
 20
6.98012664
  0
VERTEX
  8
0
 10
7.05079739
 20
6.90170413
  0
VERTEX
  8
0
 10
6.87690834
 20
6.88415448
  0
VERTEX
  8
0
 10
6.74729945
 20
6.85695105
  0
VERTEX
  8
0
 10
6.70559945
 20
6.82902772
  0
VERTEX
  8
0
 10
6.68248464
 20
6.79316504
  0
VERTEX
  8
0
 10
6.69577887
 20
6.73189131
  0
VERTEX
  8
0
 10
6.71180562
 20
6.67125146
  0
VERTEX
  8
0
 10
6.69997880
 20
6.64729284
  0
VERTEX
  8
0
 10
6.67219657
 20
6.63318561
  0
VERTEX
  8
0
 10
6.56349716
 20
6.62466820
  0
VERTEX
  8
0
 10
6.45871920
 20
6.66302100
  0
VERTEX
  8
0
 10
6.41052042
 20
6.69487474
  0
VERTEX
  8
0
 10
6.40496874
 20
6.72519386
  0
VERTEX
  8
0
 10
6.45871920
 20
6.83843253
  0
VERTEX
  8
0
 10
6.46334883
 20
6.87958479
  0
VERTEX
  8
0
 10
6.38697851
 20
7.00353752
  0
VERTEX
  8
0
 10
6.25450110
 20
7.16559302
  0
VERTEX
  8
0
 10
5.65643527
 20
7.81023802
  0
VERTEX
  8
0
 10
5.41867317
 20
8.09865855
  0
VERTEX
  8
0
 10
5.22305787
 20
8.37470973
  0
VERTEX
  8
0
 10
5.07056408
 20
8.64606551
  0
VERTEX
  8
0
 10
4.96216649
 20
8.92039984
  0
VERTEX
  8
0
 10
4.89883980
 20
9.20538669
  0
VERTEX
  8
0
 10
4.88155871
 20
9.50870002
  0
SEQEND
  0
POLYLINE
  8
Default_Layer
 66
   1
 39
0.000000
 70
    1
  0
VERTEX
  8
0
 10
6.40213484
 20
6.92176586
  0
VERTEX
  8
0
 10
6.33770867
 20
6.93306297
  0
VERTEX
  8
0
 10
6.26941879
 20
6.98812389
  0
VERTEX
  8
0
 10
6.27096200
 20
7.08174528
  0
VERTEX
  8
0
 10
6.40213484
 20
6.92176586
  0
SEQEND
  0
POLYLINE
  8
Default_Layer
 66
   1
 39
0.000000
 70
    1
  0
VERTEX
  8
0
 10
5.12024184
 20
7.47937903
  0
VERTEX
  8
0
 10
5.09360177
 20
7.54647082
  0
VERTEX
  8
0
 10
5.08916996
 20
7.58142390
  0
VERTEX
  8
0
 10
5.12715165
 20
7.58888849
  0
VERTEX
  8
0
 10
5.22775213
 20
7.57351483
  0
VERTEX
  8
0
 10
5.61972743
 20
7.47423500
  0
VERTEX
  8
0
 10
5.69924349
 20
7.42060553
  0
VERTEX
  8
0
 10
5.74595568
 20
7.36703385
  0
VERTEX
  8
0
 10
5.79153813
 20
7.29007862
  0
VERTEX
  8
0
 10
5.85608871
 20
7.08471875
  0
VERTEX
  8
0
 10
5.88837347
 20
6.97320177
  0
VERTEX
  8
0
 10
5.93145583
 20
6.87444076
  0
VERTEX
  8
0
 10
5.96408541
 20
6.82777524
  0
VERTEX
  8
0
 10
6.00022272
 20
6.80019509
  0
VERTEX
  8
0
 10
6.13310192
 20
6.75355598
  0
VERTEX
  8
0
 10
6.15793557
 20
6.74213779
  0
VERTEX
  8
0
 10
6.12590027
 20
6.74378232
  0
VERTEX
  8
0
 10
5.85523714
 20
6.78793249
  0
VERTEX
  8
0
 10
5.72307928
 20
6.79438726
  0
VERTEX
  8
0
 10
5.55542702
 20
6.77927615
  0
VERTEX
  8
0
 10
5.55723367
 20
6.75235559
  0
VERTEX
  8
0
 10
5.58727853
 20
6.71962286
  0
VERTEX
  8
0
 10
5.66808134
 20
6.67228026
  0
VERTEX
  8
0
 10
5.80893684
 20
6.65850368
  0
VERTEX
  8
0
 10
5.91911015
 20
6.65221854
  0
VERTEX
  8
0
 10
5.98534134
 20
6.61982915
  0
VERTEX
  8
0
 10
6.06520069
 20
6.52464652
  0
VERTEX
  8
0
 10
5.94945994
 20
6.62032553
  0
VERTEX
  8
0
 10
5.86195729
 20
6.64243272
  0
VERTEX
  8
0
 10
5.74164101
 20
6.64758891
  0
VERTEX
  8
0
 10
5.65752185
 20
6.65690553
  0
VERTEX
  8
0
 10
5.58680562
 20
6.70005804
  0
VERTEX
  8
0
 10
5.46079297
 20
6.85373485
  0
VERTEX
  8
0
 10
5.32484956
 20
7.06704701
  0
VERTEX
  8
0
 10
5.20324323
 20
7.29169493
  0
VERTEX
  8
0
 10
5.12024184
 20
7.47937903
  0
SEQEND
  0
POLYLINE
  8
Default_Layer
 66
   1
 39
0.000000
 70
    1
  0
VERTEX
  8
0
 10
5.57343114
 20
3.87444076
  0
VERTEX
  8
0
 10
5.51376036
 20
3.79625146
  0
VERTEX
  8
0
 10
5.42959828
 20
3.71139925
  0
VERTEX
  8
0
 10
5.35943937
 20
3.65942018
  0
VERTEX
  8
0
 10
5.26317185
 20
3.58998682
  0
VERTEX
  8
0
 10
5.15116881
 20
3.53575355
  0
VERTEX
  8
0
 10
5.04967965
 20
3.48895545
  0
VERTEX
  8
0
 10
4.98495377
 20
3.44182759
  0
VERTEX
  8
0
 10
4.93692366
 20
3.15212892
  0
VERTEX
  8
0
 10
4.90933649
 20
2.84151895
  0
VERTEX
  8
0
 10
4.95219510
 20
2.65349238
  0
VERTEX
  8
0
 10
4.96608985
 20
2.54559168
  0
VERTEX
  8
0
 10
4.95923361
 20
2.42588109
  0
VERTEX
  8
0
 10
4.90747320
 20
2.24576554
  0
VERTEX
  8
0
 10
4.87641468
 20
2.18822677
  0
VERTEX
  8
0
 10
4.91506131
 20
2.38180924
  0
VERTEX
  8
0
 10
4.91911015
 20
2.56271236
  0
VERTEX
  8
0
 10
4.89424937
 20
2.68600818
  0
VERTEX
  8
0
 10
4.86972743
 20
2.82557244
  0
VERTEX
  8
0
 10
4.88610111
 20
3.02392825
  0
VERTEX
  8
0
 10
4.93202129
 20
3.34813929
  0
VERTEX
  8
0
 10
5.00192908
 20
3.78442018
  0
VERTEX
  8
0
 10
5.02096200
 20
3.97423500
  0
VERTEX
  8
0
 10
5.03887186
 20
3.87812303
  0
VERTEX
  8
0
 10
5.03641616
 20
3.78122634
  0
VERTEX
  8
0
 10
5.00913073
 20
3.61209508
  0
VERTEX
  8
0
 10
4.97775213
 20
3.49738314
  0
VERTEX
  8
0
 10
5.22878093
 20
3.61826792
  0
VERTEX
  8
0
 10
5.33767227
 20
3.67868373
  0
VERTEX
  8
0
 10
5.43401416
 20
3.75010179
  0
VERTEX
  8
0
 10
5.56725830
 20
3.87444076
  0
VERTEX
  8
0
 10
5.58195116
 20
3.88758694
  0
VERTEX
  8
0
 10
5.57343114
 20
3.87444076
  0
SEQEND
  0
POLYLINE
  8
Default_Layer
 66
   1
 39
0.000000
 70
    1
  0
VERTEX
  8
0
 10
5.67425418
 20
4.11672471
  0
VERTEX
  8
0
 10
5.65933649
 20
4.25046956
  0
VERTEX
  8
0
 10
5.59410938
 20
4.13756847
  0
VERTEX
  8
0
 10
5.58400953
 20
4.07248144
  0
VERTEX
  8
0
 10
5.59709369
 20
3.99789755
  0
VERTEX
  8
0
 10
5.52024423
 20
4.08992440
  0
VERTEX
  8
0
 10
5.49590463
 20
4.18332149
  0
VERTEX
  8
0
 10
5.50604431
 20
4.34820619
  0
VERTEX
  8
0
 10
5.39445790
 20
4.28352966
  0
VERTEX
  8
0
 10
5.30799904
 20
4.19800043
  0
VERTEX
  8
0
 10
5.29167963
 20
4.27230501
  0
VERTEX
  8
0
 10
5.29399231
 20
4.37036432
  0
VERTEX
  8
0
 10
5.33269040
 20
4.55602512
  0
VERTEX
  8
0
 10
5.25046711
 20
4.49453666
  0
VERTEX
  8
0
 10
5.18145583
 20
4.40170413
  0
VERTEX
  8
0
 10
5.15015129
 20
4.48367493
  0
VERTEX
  8
0
 10
5.14695290
 20
4.57322625
  0
VERTEX
  8
0
 10
5.18145583
 20
4.72835022
  0
VERTEX
  8
0
 10
5.12357853
 20
4.69236481
  0
VERTEX
  8
0
 10
5.06571509
 20
4.63935845
  0
VERTEX
  8
0
 10
5.05284551
 20
4.72518241
  0
VERTEX
  8
0
 10
5.06751408
 20
4.79850741
  0
VERTEX
  8
0
 10
5.08269776
 20
4.87019004
  0
VERTEX
  8
0
 10
5.07137352
 20
4.95108685
  0
VERTEX
  8
0
 10
5.09823128
 20
4.90035137
  0
VERTEX
  8
0
 10
5.09565302
 20
4.82463867
  0
VERTEX
  8
0
 10
5.07445994
 20
4.68668356
  0
VERTEX
  8
0
 10
5.12182215
 20
4.72716934
  0
VERTEX
  8
0
 10
5.16504912
 20
4.74931196
  0
VERTEX
  8
0
 10
5.20820480
 20
4.75818561
  0
VERTEX
  8
0
 10
5.18296722
 20
4.61408211
  0
VERTEX
  8
0
 10
5.18454225
 20
4.47011977
  0
VERTEX
  8
0
 10
5.22817808
 20
4.52000842
  0
VERTEX
  8
0
 10
5.28241867
 20
4.55991412
  0
VERTEX
  8
0
 10
5.33890418
 20
4.58540104
  0
VERTEX
  8
0
 10
5.38927476
 20
4.59203335
  0
VERTEX
  8
0
 10
5.34929337
 20
4.52110664
  0
VERTEX
  8
0
 10
5.32546660
 20
4.42406515
  0
VERTEX
  8
0
 10
5.31520069
 20
4.25612800
  0
VERTEX
  8
0
 10
5.43236635
 20
4.34576538
  0
VERTEX
  8
0
 10
5.49632456
 20
4.37540354
  0
VERTEX
  8
0
 10
5.54976859
 20
4.38421442
  0
VERTEX
  8
0
 10
5.52585089
 20
4.23931574
  0
VERTEX
  8
0
 10
5.52951277
 20
4.16115751
  0
VERTEX
  8
0
 10
5.55542702
 20
4.09923500
  0
VERTEX
  8
0
 10
5.61041355
 20
4.22592290
  0
VERTEX
  8
0
 10
5.64645910
 20
4.26762802
  0
VERTEX
  8
0
 10
5.68299904
 20
4.28596339
  0
VERTEX
  8
0
 10
5.69225830
 20
4.17896751
  0
VERTEX
  8
0
 10
5.74404000
 20
4.25186928
  0
VERTEX
  8
0
 10
5.78690850
 20
4.34254775
  0
VERTEX
  8
0
 10
5.77953716
 20
4.28457946
  0
VERTEX
  8
0
 10
5.75155511
 20
4.22136549
  0
VERTEX
  8
0
 10
5.67425418
 20
4.11672471
  0
SEQEND
  0
POLYLINE
  8
Default_Layer
 66
   1
 39
0.000000
 70
    1
  0
VERTEX
  8
0
 10
5.75141468
 20
4.38009919
  0
VERTEX
  8
0
 10
5.74497709
 20
4.43302981
  0
VERTEX
  8
0
 10
5.75503581
 20
4.50352819
  0
VERTEX
  8
0
 10
5.79976859
 20
4.62238314
  0
VERTEX
  8
0
 10
5.74767278
 20
4.60781561
  0
VERTEX
  8
0
 10
5.70722606
 20
4.58162300
  0
VERTEX
  8
0
 10
5.65264925
 20
4.53442018
  0
VERTEX
  8
0
 10
5.66268728
 20
4.66163900
  0
VERTEX
  8
0
 10
5.69225830
 20
4.74481113
  0
VERTEX
  8
0
 10
5.65509759
 20
4.73141647
  0
VERTEX
  8
0
 10
5.62598197
 20
4.70628476
  0
VERTEX
  8
0
 10
5.58937764
 20
4.64913212
  0
VERTEX
  8
0
 10
5.57116838
 20
4.69122099
  0
VERTEX
  8
0
 10
5.56519482
 20
4.74551734
  0
VERTEX
  8
0
 10
5.57272728
 20
4.80216120
  0
VERTEX
  8
0
 10
5.59503608
 20
4.85129261
  0
VERTEX
  8
0
 10
5.52833266
 20
4.80622248
  0
VERTEX
  8
0
 10
5.48649698
 20
4.76384405
  0
VERTEX
  8
0
 10
5.48175854
 20
4.86686755
  0
VERTEX
  8
0
 10
5.50347229
 20
4.93411154
  0
VERTEX
  8
0
 10
5.42738233
 20
4.91282016
  0
VERTEX
  8
0
 10
5.37127064
 20
4.87083993
  0
VERTEX
  8
0
 10
5.36997447
 20
4.91043989
  0
VERTEX
  8
0
 10
5.38688295
 20
4.96789619
  0
VERTEX
  8
0
 10
5.42373978
 20
5.05345310
  0
VERTEX
  8
0
 10
5.36679136
 20
5.04211634
  0
VERTEX
  8
0
 10
5.31557150
 20
5.01813274
  0
VERTEX
  8
0
 10
5.22826653
 20
4.95211565
  0
VERTEX
  8
0
 10
5.23576010
 20
5.01454535
  0
VERTEX
  8
0
 10
5.26250011
 20
5.07504904
  0
VERTEX
  8
0
 10
5.32343114
 20
5.16302100
  0
VERTEX
  8
0
 10
5.22813739
 20
5.14936825
  0
VERTEX
  8
0
 10
5.15573566
 20
5.11415269
  0
VERTEX
  8
0
 10
5.18867095
 20
5.23477864
  0
VERTEX
  8
0
 10
5.21790477
 20
5.28721716
  0
VERTEX
  8
0
 10
5.25295789
 20
5.31837080
  0
VERTEX
  8
0
 10
5.17376173
 20
5.30895113
  0
VERTEX
  8
0
 10
5.12229945
 20
5.27876175
  0
VERTEX
  8
0
 10
5.14599325
 20
5.35742839
  0
VERTEX
  8
0
 10
5.17341243
 20
5.41658642
  0
VERTEX
  8
0
 10
5.19649426
 20
5.47550495
  0
VERTEX
  8
0
 10
5.20717599
 20
5.55345310
  0
VERTEX
  8
0
 10
5.25038587
 20
5.99378232
  0
VERTEX
  8
0
 10
5.25639404
 20
6.03355486
  0
VERTEX
  8
0
 10
5.25552990
 20
5.99429672
  0
VERTEX
  8
0
 10
5.23341056
 20
5.54522265
  0
VERTEX
  8
0
 10
5.22172062
 20
5.47964620
  0
VERTEX
  8
0
 10
5.19571326
 20
5.40854312
  0
VERTEX
  8
0
 10
5.15779328
 20
5.32814446
  0
VERTEX
  8
0
 10
5.21661468
 20
5.33566686
  0
VERTEX
  8
0
 10
5.26288518
 20
5.33544976
  0
VERTEX
  8
0
 10
5.29616776
 20
5.32402923
  0
VERTEX
  8
0
 10
5.22626193
 20
5.25305375
  0
VERTEX
  8
0
 10
5.19643474
 20
5.20129110
  0
VERTEX
  8
0
 10
5.18762867
 20
5.15376175
  0
VERTEX
  8
0
 10
5.27009405
 20
5.18013731
  0
VERTEX
  8
0
 10
5.36561221
 20
5.17588109
  0
VERTEX
  8
0
 10
5.30245683
 20
5.10541099
  0
VERTEX
  8
0
 10
5.26784477
 20
5.04872728
  0
VERTEX
  8
0
 10
5.24678505
 20
4.98760948
  0
VERTEX
  8
0
 10
5.27792370
 20
5.02259817
  0
VERTEX
  8
0
 10
5.33024764
 20
5.05172287
  0
VERTEX
  8
0
 10
5.39176622
 20
5.06962421
  0
VERTEX
  8
0
 10
5.45048875
 20
5.07094282
  0
VERTEX
  8
0
 10
5.42441711
 20
5.01310776
  0
VERTEX
  8
0
 10
5.39699081
 20
4.92228026
  0
VERTEX
  8
0
 10
5.46605879
 20
4.94583865
  0
VERTEX
  8
0
 10
5.53948052
 20
4.95417327
  0
VERTEX
  8
0
 10
5.50674587
 20
4.87925852
  0
VERTEX
  8
0
 10
5.50192908
 20
4.81322677
  0
VERTEX
  8
0
 10
5.56260195
 20
4.86447909
  0
VERTEX
  8
0
 10
5.63258752
 20
4.87701277
  0
VERTEX
  8
0
 10
5.59776592
 20
4.79845016
  0
VERTEX
  8
0
 10
5.58366324
 20
4.74181927
  0
VERTEX
  8
0
 10
5.58732003
 20
4.68874117
  0
VERTEX
  8
0
 10
5.64127156
 20
4.74069667
  0
VERTEX
  8
0
 10
5.67923235
 20
4.75838582
  0
VERTEX
  8
0
 10
5.71797846
 20
4.76024323
  0
VERTEX
  8
0
 10
5.68750561
 20
4.67807957
  0
VERTEX
  8
0
 10
5.67219657
 20
4.57968767
  0
VERTEX
  8
0
 10
5.73515276
 20
4.62142081
  0
VERTEX
  8
0
 10
5.83680562
 20
4.65684816
  0
VERTEX
  8
0
 10
5.76981449
 20
4.46967576
  0
VERTEX
  8
0
 10
5.75141468
 20
4.38009919
  0
SEQEND
  0
POLYLINE
  8
Default_Layer
 66
   1
 39
0.000000
 70
    1
  0
VERTEX
  8
0
 10
6.21540645
 20
4.73452306
  0
VERTEX
  8
0
 10
6.17166557
 20
4.68227585
  0
VERTEX
  8
0
 10
6.11972743
 20
4.59511977
  0
VERTEX
  8
0
 10
6.10962069
 20
4.63726588
  0
VERTEX
  8
0
 10
6.11557334
 20
4.69221090
  0
VERTEX
  8
0
 10
6.13310192
 20
4.76024323
  0
VERTEX
  8
0
 10
6.09197986
 20
4.72362329
  0
VERTEX
  8
0
 10
6.03022126
 20
4.65118973
  0
VERTEX
  8
0
 10
6.03142223
 20
4.76856655
  0
VERTEX
  8
0
 10
6.04565336
 20
4.85540784
  0
VERTEX
  8
0
 10
6.00244098
 20
4.83232857
  0
VERTEX
  8
0
 10
5.97055048
 20
4.79316504
  0
VERTEX
  8
0
 10
5.94834891
 20
4.84296661
  0
VERTEX
  8
0
 10
5.94246587
 20
4.89476175
  0
VERTEX
  8
0
 10
5.95306077
 20
4.97783582
  0
VERTEX
  8
0
 10
5.92371505
 20
4.96468442
  0
VERTEX
  8
0
 10
5.89901052
 20
4.93599397
  0
VERTEX
  8
0
 10
5.86664101
 20
4.88421442
  0
VERTEX
  8
0
 10
5.87125587
 20
4.98001238
  0
VERTEX
  8
0
 10
5.87950110
 20
5.02773294
  0
VERTEX
  8
0
 10
5.81828711
 20
4.96034611
  0
VERTEX
  8
0
 10
5.82138113
 20
5.03087693
  0
VERTEX
  8
0
 10
5.83989204
 20
5.11260948
  0
VERTEX
  8
0
 10
5.78892387
 20
5.08106830
  0
VERTEX
  8
0
 10
5.75192908
 20
5.03853541
  0
VERTEX
  8
0
 10
5.76870087
 20
5.13562925
  0
VERTEX
  8
0
 10
5.80028299
 20
5.20160125
  0
VERTEX
  8
0
 10
5.74682862
 20
5.19396841
  0
VERTEX
  8
0
 10
5.69483032
 20
5.16713623
  0
VERTEX
  8
0
 10
5.68754701
 20
5.23719316
  0
VERTEX
  8
0
 10
5.69923008
 20
5.27176384
  0
VERTEX
  8
0
 10
5.72518011
 20
5.29676586
  0
VERTEX
  8
0
 10
5.68122101
 20
5.32412265
  0
VERTEX
  8
0
 10
5.62847229
 20
5.33225969
  0
VERTEX
  8
0
 10
5.63761610
 20
5.40477242
  0
VERTEX
  8
0
 10
5.63207311
 20
5.43719796
  0
VERTEX
  8
0
 10
5.59499241
 20
5.55684886
  0
VERTEX
  8
0
 10
5.55697023
 20
5.75767121
  0
VERTEX
  8
0
 10
5.56500033
 20
5.97425493
  0
VERTEX
  8
0
 10
5.58793903
 20
6.15192735
  0
VERTEX
  8
0
 10
5.61635527
 20
6.27689043
  0
VERTEX
  8
0
 10
5.64081797
 20
6.33534611
  0
VERTEX
  8
0
 10
5.59887250
 20
6.07446468
  0
VERTEX
  8
0
 10
5.57848713
 20
5.88481920
  0
VERTEX
  8
0
 10
5.57754636
 20
5.72577821
  0
VERTEX
  8
0
 10
5.60091782
 20
5.61483581
  0
VERTEX
  8
0
 10
5.63367323
 20
5.51450378
  0
VERTEX
  8
0
 10
5.65598352
 20
5.42644477
  0
VERTEX
  8
0
 10
5.64801962
 20
5.35232142
  0
VERTEX
  8
0
 10
5.71285106
 20
5.33108349
  0
VERTEX
  8
0
 10
5.76273155
 20
5.29676586
  0
VERTEX
  8
0
 10
5.71950290
 20
5.26077533
  0
VERTEX
  8
0
 10
5.70717599
 20
5.19954364
  0
VERTEX
  8
0
 10
5.77096819
 20
5.22437664
  0
VERTEX
  8
0
 10
5.84194966
 20
5.22526380
  0
VERTEX
  8
0
 10
5.80562036
 20
5.16994807
  0
VERTEX
  8
0
 10
5.78845171
 20
5.10849426
  0
VERTEX
  8
0
 10
5.81777001
 20
5.12816116
  0
VERTEX
  8
0
 10
5.87384266
 20
5.15221854
  0
VERTEX
  8
0
 10
5.85714292
 20
5.10118911
  0
VERTEX
  8
0
 10
5.84812250
 20
5.02927615
  0
VERTEX
  8
0
 10
5.88480275
 20
5.07123685
  0
VERTEX
  8
0
 10
5.92888381
 20
5.09666298
  0
VERTEX
  8
0
 10
5.90059565
 20
5.02696774
  0
VERTEX
  8
0
 10
5.89133237
 20
4.95417327
  0
VERTEX
  8
0
 10
5.92483767
 20
4.99134455
  0
VERTEX
  8
0
 10
5.98032414
 20
5.01950249
  0
VERTEX
  8
0
 10
5.97053332
 20
4.93234689
  0
VERTEX
  8
0
 10
5.97878093
 20
4.83534611
  0
VERTEX
  8
0
 10
6.02457707
 20
4.87025623
  0
VERTEX
  8
0
 10
6.08166159
 20
4.88318561
  0
VERTEX
  8
0
 10
6.06241075
 20
4.83697956
  0
VERTEX
  8
0
 10
6.05303282
 20
4.77988506
  0
VERTEX
  8
0
 10
6.04976859
 20
4.71086051
  0
VERTEX
  8
0
 10
6.09038951
 20
4.75436692
  0
VERTEX
  8
0
 10
6.13004467
 20
4.78425545
  0
VERTEX
  8
0
 10
6.17271097
 20
4.79779467
  0
VERTEX
  8
0
 10
6.14745775
 20
4.73872661
  0
VERTEX
  8
0
 10
6.13876036
 20
4.67536668
  0
VERTEX
  8
0
 10
6.21026241
 20
4.73863829
  0
VERTEX
  8
0
 10
6.22313609
 20
4.74628233
  0
VERTEX
  8
0
 10
6.21540645
 20
4.73452306
  0
SEQEND
  0
POLYLINE
  8
Default_Layer
 66
   1
 39
0.000000
 70
    1
  0
VERTEX
  8
0
 10
7.14493320
 20
5.23143664
  0
VERTEX
  8
0
 10
6.98752732
 20
5.29986188
  0
VERTEX
  8
0
 10
6.82648608
 20
5.34330281
  0
VERTEX
  8
0
 10
6.50815276
 20
5.39858112
  0
VERTEX
  8
0
 10
6.35818826
 20
5.43209318
  0
VERTEX
  8
0
 10
6.21924360
 20
5.48397032
  0
VERTEX
  8
0
 10
6.09498258
 20
5.56504986
  0
VERTEX
  8
0
 10
5.98906900
 20
5.68616915
  0
VERTEX
  8
0
 10
5.97245909
 20
5.73408704
  0
VERTEX
  8
0
 10
5.96733720
 20
5.80410973
  0
VERTEX
  8
0
 10
5.98299640
 20
5.98719543
  0
VERTEX
  8
0
 10
6.05799904
 20
6.36260948
  0
VERTEX
  8
0
 10
6.07167929
 20
6.41144034
  0
VERTEX
  8
0
 10
6.06468628
 20
6.36209508
  0
VERTEX
  8
0
 10
6.00617302
 20
5.98898218
  0
VERTEX
  8
0
 10
5.99210096
 20
5.81333922
  0
VERTEX
  8
0
 10
6.00501550
 20
5.70983170
  0
VERTEX
  8
0
 10
6.10713429
 20
5.58567884
  0
VERTEX
  8
0
 10
6.23067589
 20
5.50592640
  0
VERTEX
  8
0
 10
6.37075129
 20
5.45763184
  0
VERTEX
  8
0
 10
6.52247145
 20
5.42785258
  0
VERTEX
  8
0
 10
6.84129007
 20
5.37206976
  0
VERTEX
  8
0
 10
6.99861048
 20
5.32018108
  0
VERTEX
  8
0
 10
7.14801962
 20
5.23503747
  0
VERTEX
  8
0
 10
7.15382262
 20
5.22860372
  0
VERTEX
  8
0
 10
7.14493320
 20
5.23143664
  0
SEQEND
  0
POLYLINE
  8
Default_Layer
 66
   1
 39
0.000000
 70
    1
  0
VERTEX
  8
0
 10
7.14596200
 20
6.27464652
  0
VERTEX
  8
0
 10
7.11716750
 20
6.21186324
  0
VERTEX
  8
0
 10
7.06576463
 20
6.16881685
  0
VERTEX
  8
0
 10
6.96077682
 20
6.13575763
  0
VERTEX
  8
0
 10
6.84649518
 20
6.15584508
  0
VERTEX
  8
0
 10
6.77481709
 20
6.20158442
  0
VERTEX
  8
0
 10
6.71818677
 20
6.24398855
  0
VERTEX
  8
0
 10
6.64904842
 20
6.25407039
  0
VERTEX
  8
0
 10
6.68845115
 20
6.26650654
  0
VERTEX
  8
0
 10
6.72333280
 20
6.26406876
  0
VERTEX
  8
0
 10
6.78703950
 20
6.23085631
  0
VERTEX
  8
0
 10
6.85518173
 20
6.18700296
  0
VERTEX
  8
0
 10
6.94277270
 20
6.16507862
  0
VERTEX
  8
0
 10
7.02499820
 20
6.17791245
  0
VERTEX
  8
0
 10
7.07720250
 20
6.20931557
  0
VERTEX
  8
0
 10
7.10643059
 20
6.24895001
  0
VERTEX
  8
0
 10
7.11972743
 20
6.28647779
  0
VERTEX
  8
0
 10
7.12474938
 20
6.35697037
  0
VERTEX
  8
0
 10
7.11298884
 20
6.36788138
  0
VERTEX
  8
0
 10
7.09143525
 20
6.35900866
  0
VERTEX
  8
0
 10
7.04739383
 20
6.32828948
  0
VERTEX
  8
0
 10
6.94894554
 20
6.30190989
  0
VERTEX
  8
0
 10
6.88079067
 20
6.30981542
  0
VERTEX
  8
0
 10
6.83453469
 20
6.33624392
  0
VERTEX
  8
0
 10
6.79790184
 20
6.35823689
  0
VERTEX
  8
0
 10
6.75861632
 20
6.35283582
  0
VERTEX
  8
0
 10
6.70209794
 20
6.32912694
  0
VERTEX
  8
0
 10
6.54792745
 20
6.28598306
  0
VERTEX
  8
0
 10
6.44919265
 20
6.28208161
  0
VERTEX
  8
0
 10
6.34400881
 20
6.30327174
  0
VERTEX
  8
0
 10
6.23836391
 20
6.35953689
  0
VERTEX
  8
0
 10
6.13824595
 20
6.46086051
  0
VERTEX
  8
0
 10
6.13207833
 20
6.47095069
  0
VERTEX
  8
0
 10
6.14338999
 20
6.46188932
  0
VERTEX
  8
0
 10
6.22765378
 20
6.39335925
  0
VERTEX
  8
0
 10
6.36632331
 20
6.32952182
  0
VERTEX
  8
0
 10
6.45417848
 20
6.31423854
  0
VERTEX
  8
0
 10
6.55337699
 20
6.31797925
  0
VERTEX
  8
0
 10
6.66316616
 20
6.34669424
  0
VERTEX
  8
0
 10
6.78279328
 20
6.40633376
  0
VERTEX
  8
0
 10
6.86577427
 20
6.46442365
  0
VERTEX
  8
0
 10
6.94277270
 20
6.49738314
  0
VERTEX
  8
0
 10
6.99508356
 20
6.49131159
  0
VERTEX
  8
0
 10
7.03791038
 20
6.47207628
  0
VERTEX
  8
0
 10
7.10635295
 20
6.41765063
  0
VERTEX
  8
0
 10
7.12679346
 20
6.42800542
  0
VERTEX
  8
0
 10
7.13883826
 20
6.45298333
  0
VERTEX
  8
0
 10
7.13892423
 20
6.48877224
  0
VERTEX
  8
0
 10
7.12348826
 20
6.53156002
  0
VERTEX
  8
0
 10
7.08896721
 20
6.57753454
  0
VERTEX
  8
0
 10
7.03179796
 20
6.62288366
  0
VERTEX
  8
0
 10
6.94841741
 20
6.66379527
  0
VERTEX
  8
0
 10
6.83526241
 20
6.69645722
  0
VERTEX
  8
0
 10
6.83783443
 20
6.69851483
  0
VERTEX
  8
0
 10
6.96366741
 20
6.67304322
  0
VERTEX
  8
0
 10
7.05519394
 20
6.63429950
  0
VERTEX
  8
0
 10
7.11691886
 20
6.58691846
  0
VERTEX
  8
0
 10
7.15334699
 20
6.53553490
  0
VERTEX
  8
0
 10
7.16898318
 20
6.48478360
  0
VERTEX
  8
0
 10
7.16833225
 20
6.43929936
  0
VERTEX
  8
0
 10
7.13618834
 20
6.38267121
  0
VERTEX
  8
0
 10
7.13670274
 20
6.37649837
  0
VERTEX
  8
0
 10
7.16472144
 20
6.34909839
  0
VERTEX
  8
0
 10
7.18226808
 20
6.29622028
  0
VERTEX
  8
0
 10
7.20726605
 20
6.14342232
  0
VERTEX
  8
0
 10
7.25433833
 20
5.97688975
  0
VERTEX
  8
0
 10
7.29947786
 20
5.90684338
  0
VERTEX
  8
0
 10
7.36612661
 20
5.85540784
  0
VERTEX
  8
0
 10
7.30943118
 20
5.87342772
  0
VERTEX
  8
0
 10
7.26509433
 20
5.90981706
  0
VERTEX
  8
0
 10
7.20545054
 20
6.02061375
  0
VERTEX
  8
0
 10
7.14596200
 20
6.27464652
  0
SEQEND
  0
POLYLINE
  8
Default_Layer
 66
   1
 39
0.000000
 70
    1
  0
VERTEX
  8
0
 10
8.09194966
 20
4.86003747
  0
VERTEX
  8
0
 10
7.96437764
 20
4.99429672
  0
VERTEX
  8
0
 10
7.86170200
 20
5.08754338
  0
VERTEX
  8
0
 10
7.77688460
 20
5.14341873
  0
VERTEX
  8
0
 10
7.67991262
 20
5.18256833
  0
VERTEX
  8
0
 10
7.56159986
 20
5.22577821
  0
VERTEX
  8
0
 10
7.55766430
 20
5.23565550
  0
VERTEX
  8
0
 10
7.56983032
 20
5.23760948
  0
VERTEX
  8
0
 10
7.69122949
 20
5.21909096
  0
VERTEX
  8
0
 10
7.77126320
 20
5.19046751
  0
VERTEX
  8
0
 10
7.84796302
 20
5.14912916
  0
VERTEX
  8
0
 10
7.92836941
 20
5.08483170
  0
VERTEX
  8
0
 10
8.01905679
 20
4.97432960
  0
VERTEX
  8
0
 10
8.10738176
 20
4.87341195
  0
VERTEX
  8
0
 10
8.13841214
 20
4.82958449
  0
VERTEX
  8
0
 10
8.09194966
 20
4.86003747
  0
SEQEND
  0
POLYLINE
  8
Default_Layer
 66
   1
 39
0.000000
 70
    1
  0
VERTEX
  8
0
 10
8.21437764
 20
4.89141607
  0
VERTEX
  8
0
 10
8.17044729
 20
4.91220186
  0
VERTEX
  8
0
 10
8.13599795
 20
4.94691016
  0
VERTEX
  8
0
 10
8.11681871
 20
4.99425207
  0
VERTEX
  8
0
 10
8.11869863
 20
5.05293870
  0
VERTEX
  8
0
 10
8.11092277
 20
5.10408443
  0
VERTEX
  8
0
 10
8.07893253
 20
5.14712740
  0
VERTEX
  8
0
 10
8.03125007
 20
5.18771236
  0
VERTEX
  8
0
 10
8.09314671
 20
5.17647810
  0
VERTEX
  8
0
 10
8.13626466
 20
5.15618291
  0
VERTEX
  8
0
 10
8.19377859
 20
5.09704141
  0
VERTEX
  8
0
 10
8.25902003
 20
5.02755123
  0
VERTEX
  8
0
 10
8.31179737
 20
4.99432019
  0
VERTEX
  8
0
 10
8.38721715
 20
4.96497574
  0
VERTEX
  8
0
 10
8.42135367
 20
4.93566066
  0
VERTEX
  8
0
 10
8.41164350
 20
4.89638979
  0
VERTEX
  8
0
 10
8.34651027
 20
4.87302197
  0
VERTEX
  8
0
 10
8.21437764
 20
4.89141607
  0
SEQEND
  0
POLYLINE
  8
Default_Layer
 66
   1
 39
0.000000
 70
    1
  0
VERTEX
  8
0
 10
7.78587970
 20
5.63884405
  0
VERTEX
  8
0
 10
8.03520951
 20
5.61368701
  0
VERTEX
  8
0
 10
8.25404524
 20
5.61008167
  0
VERTEX
  8
0
 10
8.34900950
 20
5.59989363
  0
VERTEX
  8
0
 10
8.43272824
 20
5.57533282
  0
VERTEX
  8
0
 10
8.50399414
 20
5.52981234
  0
VERTEX
  8
0
 10
8.56159986
 20
5.45674528
  0
VERTEX
  8
0
 10
8.45148127
 20
5.52976432
  0
VERTEX
  8
0
 10
8.34733488
 20
5.56760724
  0
VERTEX
  8
0
 10
8.24805369
 20
5.58068257
  0
VERTEX
  8
0
 10
8.15253066
 20
5.57939885
  0
VERTEX
  8
0
 10
7.96833099
 20
5.57538838
  0
VERTEX
  8
0
 10
7.87744031
 20
5.59347868
  0
VERTEX
  8
0
 10
7.78587970
 20
5.63884405
  0
SEQEND
  0
POLYLINE
  8
Default_Layer
 66
   1
 39
0.000000
 70
    1
  0
VERTEX
  8
0
 10
5.70974801
 20
6.86003747
  0
VERTEX
  8
0
 10
5.82857517
 20
6.85643664
  0
VERTEX
  8
0
 10
5.75935611
 20
6.91272450
  0
VERTEX
  8
0
 10
5.71694966
 20
6.96240372
  0
VERTEX
  8
0
 10
5.75677529
 20
6.95428168
  0
VERTEX
  8
0
 10
5.78896612
 20
6.97217738
  0
VERTEX
  8
0
 10
5.74047828
 20
7.00991945
  0
VERTEX
  8
0
 10
5.72701325
 20
7.02086284
  0
VERTEX
  8
0
 10
5.70203196
 20
7.02156010
  0
VERTEX
  8
0
 10
5.71721268
 20
7.03974535
  0
VERTEX
  8
0
 10
5.73393723
 20
7.04171709
  0
VERTEX
  8
0
 10
5.76890439
 20
7.03802100
  0
VERTEX
  8
0
 10
5.73082964
 20
7.08353799
  0
VERTEX
  8
0
 10
5.67322538
 20
7.10952306
  0
VERTEX
  8
0
 10
5.72570103
 20
7.11404018
  0
VERTEX
  8
0
 10
5.76221715
 20
7.10695105
  0
VERTEX
  8
0
 10
5.72042633
 20
7.15405969
  0
VERTEX
  8
0
 10
5.66036529
 20
7.17536668
  0
VERTEX
  8
0
 10
5.70032561
 20
7.18989685
  0
VERTEX
  8
0
 10
5.73701139
 20
7.18616915
  0
VERTEX
  8
0
 10
5.69782984
 20
7.22657991
  0
VERTEX
  8
0
 10
5.64699081
 20
7.24121030
  0
VERTEX
  8
0
 10
5.67665306
 20
7.25877345
  0
VERTEX
  8
0
 10
5.70614719
 20
7.26230084
  0
VERTEX
  8
0
 10
5.67419489
 20
7.29829876
  0
VERTEX
  8
0
 10
5.63155871
 20
7.31168356
  0
VERTEX
  8
0
 10
5.66512635
 20
7.32871927
  0
VERTEX
  8
0
 10
5.69534472
 20
7.32917327
  0
VERTEX
  8
0
 10
5.65494060
 20
7.35901258
  0
VERTEX
  8
0
 10
5.60943937
 20
7.36929672
  0
VERTEX
  8
0
 10
5.66036529
 20
7.38421442
  0
VERTEX
  8
0
 10
5.50783005
 20
7.43681803
  0
VERTEX
  8
0
 10
5.38084729
 20
7.45792893
  0
VERTEX
  8
0
 10
5.25450110
 20
7.46343253
  0
VERTEX
  8
0
 10
5.37160640
 20
7.32946872
  0
VERTEX
  8
0
 10
5.50450110
 20
7.20777409
  0
VERTEX
  8
0
 10
5.49987147
 20
7.19902923
  0
VERTEX
  8
0
 10
5.45254636
 20
7.20931730
  0
VERTEX
  8
0
 10
5.49199814
 20
7.18136380
  0
VERTEX
  8
0
 10
5.52507723
 20
7.16970825
  0
VERTEX
  8
0
 10
5.46849460
 20
7.13727414
  0
VERTEX
  8
0
 10
5.39647641
 20
7.13370002
  0
VERTEX
  8
0
 10
5.46191456
 20
7.10911251
  0
VERTEX
  8
0
 10
5.51530357
 20
7.09614858
  0
VERTEX
  8
0
 10
5.44565645
 20
7.09081034
  0
VERTEX
  8
0
 10
5.40933649
 20
7.09409096
  0
VERTEX
  8
0
 10
5.44656644
 20
7.05470002
  0
VERTEX
  8
0
 10
5.49524184
 20
7.03442018
  0
VERTEX
  8
0
 10
5.53644722
 20
7.02463655
  0
VERTEX
  8
0
 10
5.59863690
 20
6.97937903
  0
VERTEX
  8
0
 10
5.55747846
 20
6.99127158
  0
VERTEX
  8
0
 10
5.53125007
 20
6.98966709
  0
VERTEX
  8
0
 10
5.51261175
 20
6.96714458
  0
VERTEX
  8
0
 10
5.49832826
 20
6.93565475
  0
VERTEX
  8
0
 10
5.52767848
 20
6.94876922
  0
VERTEX
  8
0
 10
5.55425858
 20
6.95116498
  0
VERTEX
  8
0
 10
5.57754636
 20
6.93256833
  0
VERTEX
  8
0
 10
5.55051738
 20
6.93071167
  0
VERTEX
  8
0
 10
5.53176447
 20
6.90581936
  0
VERTEX
  8
0
 10
5.57060305
 20
6.86807334
  0
VERTEX
  8
0
 10
5.61102331
 20
6.85484739
  0
VERTEX
  8
0
 10
5.70974801
 20
6.86003747
  0
SEQEND
  0
POLYLINE
  8
Default_Layer
 66
   1
 39
0.000000
 70
    1
  0
VERTEX
  8
0
 10
5.42939822
 20
8.22629261
  0
VERTEX
  8
0
 10
5.14133237
 20
8.71857656
  0
VERTEX
  8
0
 10
5.16728112
 20
8.62490557
  0
VERTEX
  8
0
 10
5.24565110
 20
8.47098279
  0
VERTEX
  8
0
 10
5.34387818
 20
8.31778591
  0
VERTEX
  8
0
 10
5.42939822
 20
8.22629261
  0
SEQEND
  0
POLYLINE
  8
Default_Layer
 66
   1
 39
0.000000
 70
    1
  0
VERTEX
  8
0
 10
5.70871920
 20
7.95623088
  0
VERTEX
  8
0
 10
5.49678505
 20
8.48606627
  0
VERTEX
  8
0
 10
5.51115308
 20
8.38357585
  0
VERTEX
  8
0
 10
5.56338791
 20
8.22213160
  0
VERTEX
  8
0
 10
5.63530485
 20
8.06019584
  0
VERTEX
  8
0
 10
5.70871920
 20
7.95623088
  0
SEQEND
  0
POLYLINE
  8
Default_Layer
 66
   1
 39
0.000000
 70
    1
  0
VERTEX
  8
0
 10
5.98855459
 20
7.88267121
  0
VERTEX
  8
0
 10
5.80748464
 20
8.42382347
  0
VERTEX
  8
0
 10
5.81717826
 20
8.32938186
  0
VERTEX
  8
0
 10
5.85834072
 20
8.16698650
  0
VERTEX
  8
0
 10
5.91934262
 20
7.99772156
  0
VERTEX
  8
0
 10
5.98855459
 20
7.88267121
  0
SEQEND
  0
POLYLINE
  8
Default_Layer
 66
   1
 39
0.000000
 70
    1
  0
VERTEX
  8
0
 10
6.63104431
 20
8.07608685
  0
VERTEX
  8
0
 10
6.37229945
 20
7.56734199
  0
VERTEX
  8
0
 10
6.46184607
 20
7.67498640
  0
VERTEX
  8
0
 10
6.54670587
 20
7.82917098
  0
VERTEX
  8
0
 10
6.60904867
 20
7.97962728
  0
VERTEX
  8
0
 10
6.63104431
 20
8.07608685
  0
SEQEND
  0
POLYLINE
  8
Default_Layer
 66
   1
 39
0.000000
 70
    1
  0
VERTEX
  8
0
 10
6.99112661
 20
8.26950249
  0
VERTEX
  8
0
 10
7.00673572
 20
8.16899442
  0
VERTEX
  8
0
 10
7.05580351
 20
8.01504690
  0
VERTEX
  8
0
 10
7.12551639
 20
7.85586833
  0
VERTEX
  8
0
 10
7.20306077
 20
7.73966709
  0
VERTEX
  8
0
 10
6.99112661
 20
8.26950249
  0
SEQEND
  0
POLYLINE
  8
Default_Layer
 66
   1
 39
0.000000
 70
    1
  0
VERTEX
  8
0
 10
6.37384266
 20
8.97783582
  0
VERTEX
  8
0
 10
6.40085185
 20
8.87911673
  0
VERTEX
  8
0
 10
6.47647624
 20
8.73176287
  0
VERTEX
  8
0
 10
6.57627252
 20
8.58643211
  0
VERTEX
  8
0
 10
6.67579739
 20
8.49378232
  0
VERTEX
  8
0
 10
6.37384266
 20
8.97783582
  0
SEQEND
  0
POLYLINE
  8
Default_Layer
 66
   1
 39
0.000000
 70
    1
  0
VERTEX
  8
0
 10
7.09606488
 20
6.39861771
  0
VERTEX
  8
0
 10
7.02455499
 20
6.45187639
  0
VERTEX
  8
0
 10
6.93917188
 20
6.47835022
  0
VERTEX
  8
0
 10
6.89716125
 20
6.46452553
  0
VERTEX
  8
0
 10
6.85737524
 20
6.43588437
  0
VERTEX
  8
0
 10
6.81777270
 20
6.38884405
  0
VERTEX
  8
0
 10
6.85816964
 20
6.34257372
  0
VERTEX
  8
0
 10
6.95408957
 20
6.31682759
  0
VERTEX
  8
0
 10
7.01014462
 20
6.32457115
  0
VERTEX
  8
0
 10
7.05279091
 20
6.34746457
  0
VERTEX
  8
0
 10
7.09349287
 20
6.38370002
  0
VERTEX
  8
0
 10
7.11057689
 20
6.37949824
  0
VERTEX
  8
0
 10
7.09606488
 20
6.39861771
  0
SEQEND
  0
POLYLINE
  8
Default_Layer
 66
   1
 39
0.000000
 70
    1
  0
VERTEX
  8
0
 10
6.92682620
 20
6.44542841
  0
VERTEX
  8
0
 10
6.94328711
 20
6.42793870
  0
VERTEX
  8
0
 10
6.92682620
 20
6.40993458
  0
VERTEX
  8
0
 10
6.90985089
 20
6.42793870
  0
VERTEX
  8
0
 10
6.92682620
 20
6.44542841
  0
SEQEND
  0
POLYLINE
  8
Default_Layer
 66
   1
 39
0.000000
 70
    1
  0
VERTEX
  8
0
 10
6.93197023
 20
6.32351483
  0
VERTEX
  8
0
 10
6.86061200
 20
6.34934167
  0
VERTEX
  8
0
 10
6.83011838
 20
6.38267121
  0
VERTEX
  8
0
 10
6.87281385
 20
6.42742430
  0
VERTEX
  8
0
 10
6.86910540
 20
6.38104230
  0
VERTEX
  8
0
 10
6.88585828
 20
6.34717742
  0
VERTEX
  8
0
 10
6.93402785
 20
6.32763006
  0
VERTEX
  8
0
 10
6.93197023
 20
6.32351483
  0
SEQEND
  0
POLYLINE
  8
Default_Layer
 66
   1
 39
0.000000
 70
    1
  0
VERTEX
  8
0
 10
7.04925418
 20
6.35900866
  0
VERTEX
  8
0
 10
7.05427331
 20
6.39400905
  0
VERTEX
  8
0
 10
7.04359575
 20
6.43205393
  0
VERTEX
  8
0
 10
7.07960398
 20
6.39450249
  0
VERTEX
  8
0
 10
7.07040740
 20
6.37734851
  0
VERTEX
  8
0
 10
7.04925418
 20
6.35900866
  0
SEQEND
  0
ENDSEC
  0
EOF
