  0
SECTION
  2
HEADER
  9
$ACADVER
  1
AC1009
  9
$DWGCODEPAGE
  3
ansi_1252
  9
$INSBASE
 10
0.0
 20
0.0
 30
0.0
  9
$EXTMIN
 10
-4.170272015372567
 20
6.606434221866859
 30
0.0
  9
$EXTMAX
 10
4.053449111278587
 20
9.47639595349378
 30
0.5
  9
$LIMMIN
 10
0.0
 20
0.0
  9
$LIMMAX
 10
12.0
 20
9.0
  9
$ORTHOMODE
 70
     0
  9
$REGENMODE
 70
     1
  9
$FILLMODE
 70
     1
  9
$QTEXTMODE
 70
     0
  9
$MIRRTEXT
 70
     1
  9
$DRAGMODE
 70
     2
  9
$LTSCALE
 40
1.0
  9
$OSMODE
 70
    37
  9
$ATTMODE
 70
     1
  9
$TEXTSIZE
 40
0.2
  9
$TRACEWID
 40
0.05
  9
$TEXTSTYLE
  7
STANDARD
  9
$CLAYER
  8
0
  9
$CELTYPE
  6
BYBLOCK
  9
$CECOLOR
 62
   256
  9
$DIMSCALE
 40
1.0
  9
$DIMASZ
 40
0.18
  9
$DIMEXO
 40
0.0625
  9
$DIMDLI
 40
0.38
  9
$DIMRND
 40
0.0
  9
$DIMDLE
 40
0.0
  9
$DIMEXE
 40
0.18
  9
$DIMTP
 40
0.0
  9
$DIMTM
 40
0.0
  9
$DIMTXT
 40
0.18
  9
$DIMCEN
 40
0.09
  9
$DIMTSZ
 40
0.0
  9
$DIMTOL
 70
     0
  9
$DIMLIM
 70
     0
  9
$DIMTIH
 70
     1
  9
$DIMTOH
 70
     1
  9
$DIMSE1
 70
     0
  9
$DIMSE2
 70
     0
  9
$DIMTAD
 70
     0
  9
$DIMZIN
 70
     0
  9
$DIMBLK
  1

  9
$DIMASO
 70
     1
  9
$DIMSHO
 70
     1
  9
$DIMPOST
  1

  9
$DIMAPOST
  1

  9
$DIMALT
 70
     0
  9
$DIMALTD
 70
     2
  9
$DIMALTF
 40
25.4
  9
$DIMLFAC
 40
1.0
  9
$DIMTOFL
 70
     0
  9
$DIMTVP
 40
0.0
  9
$DIMTIX
 70
     0
  9
$DIMSOXD
 70
     0
  9
$DIMSAH
 70
     0
  9
$DIMBLK1
  1

  9
$DIMBLK2
  1

  9
$DIMSTYLE
  2
STANDARD
  9
$DIMCLRD
 70
     0
  9
$DIMCLRE
 70
     0
  9
$DIMCLRT
 70
     0
  9
$DIMTFAC
 40
1.0
  9
$DIMGAP
 40
0.09
  9
$LUNITS
 70
     2
  9
$LUPREC
 70
     4
  9
$SKETCHINC
 40
0.1
  9
$FILLETRAD
 40
0.5
  9
$AUNITS
 70
     0
  9
$AUPREC
 70
     0
  9
$MENU
  1
.
  9
$ELEVATION
 40
0.0
  9
$PELEVATION
 40
0.0
  9
$THICKNESS
 40
0.0
  9
$LIMCHECK
 70
     0
  9
$CHAMFERA
 40
0.5
  9
$CHAMFERB
 40
0.5
  9
$SKPOLY
 70
     0
  9
$TDCREATE
 40
2453353.508792488
  9
$TDUPDATE
 40
9821047.872288888
  9
$TDINDWG
 40
9791572.06217926
  9
$TDUSRTIMER
 40
9791572.06217926
  9
$USRTIMER
 70
     1
  9
$ANGBASE
 50
0.0
  9
$ANGDIR
 70
     0
  9
$PDMODE
 70
     0
  9
$PDSIZE
 40
0.0
  9
$PLINEWID
 40
0.0
  9
$COORDS
 70
     1
  9
$SPLFRAME
 70
     0
  9
$SPLINETYPE
 70
     6
  9
$SPLINESEGS
 70
     8
  9
$ATTDIA
 70
     0
  9
$ATTREQ
 70
     1
  9
$HANDLING
 70
     1
  9
$HANDSEED
  5
422
  9
$SURFTAB1
 70
     6
  9
$SURFTAB2
 70
     6
  9
$SURFTYPE
 70
     6
  9
$SURFU
 70
     6
  9
$SURFV
 70
     6
  9
$UCSNAME
  2

  9
$UCSORG
 10
0.0
 20
0.0
 30
0.0
  9
$UCSXDIR
 10
1.0
 20
0.0
 30
0.0
  9
$UCSYDIR
 10
0.0
 20
1.0
 30
0.0
  9
$PUCSNAME
  2

  9
$PUCSORG
 10
0.0
 20
0.0
 30
0.0
  9
$PUCSXDIR
 10
1.0
 20
0.0
 30
0.0
  9
$PUCSYDIR
 10
0.0
 20
1.0
 30
0.0
  9
$USERI1
 70
     0
  9
$USERI2
 70
     0
  9
$USERI3
 70
     0
  9
$USERI4
 70
     0
  9
$USERI5
 70
     0
  9
$USERR1
 40
0.0
  9
$USERR2
 40
0.0
  9
$USERR3
 40
0.0
  9
$USERR4
 40
0.0
  9
$USERR5
 40
0.0
  9
$WORLDVIEW
 70
     1
  9
$SHADEDGE
 70
     3
  9
$SHADEDIF
 70
    70
  9
$TILEMODE
 70
     1
  9
$MAXACTVP
 70
    64
  9
$PLIMCHECK
 70
     0
  9
$PEXTMIN
 10
0.0
 20
0.0
 30
0.0
  9
$PEXTMAX
 10
0.0
 20
0.0
 30
0.0
  9
$PLIMMIN
 10
0.0
 20
0.0
  9
$PLIMMAX
 10
0.0
 20
0.0
  9
$UNITMODE
 70
     0
  9
$VISRETAIN
 70
     1
  9
$PLINEGEN
 70
     0
  9
$PSLTSCALE
 70
     1
  0
ENDSEC
  0
SECTION
  2
TABLES
  0
TABLE
  2
VPORT
 70
     1
  0
VPORT
  2
*ACTIVE
 70
     0
 10
0.0
 20
0.0
 11
1.0
 21
1.0
 12
-0.1448975378175077
 22
8.040413658650818
 13
0.0
 23
0.0
 14
0.5
 24
0.5
 15
0.5
 25
0.5
 16
0.0
 26
0.0
 36
1.0
 17
0.0
 27
0.0
 37
0.0
 40
4.415247714435392
 41
1.0
 42
50.0
 43
0.0
 44
0.0
 50
0.0
 51
0.0
 71
    16
 72
   100
 73
     1
 74
     3
 75
     0
 76
     0
 77
     0
 78
     0
  0
ENDTAB
  0
TABLE
  2
LTYPE
 70
     1
  0
LTYPE
  2
CONTINUOUS
 70
     0
  3
Solid line
 72
    65
 73
     0
 40
0.0
  0
ENDTAB
  0
TABLE
  2
LAYER
 70
     1
  0
LAYER
  2
0
 70
     0
 62
     7
  6
CONTINUOUS
  0
ENDTAB
  0
TABLE
  2
STYLE
 70
     1
  0
STYLE
  2
STANDARD
 70
     0
 40
0.0
 41
1.0
 50
0.0
 71
     0
 42
0.2
  3
txt
  4

  0
ENDTAB
  0
TABLE
  2
VIEW
 70
     0
  0
ENDTAB
  0
TABLE
  2
UCS
 70
     0
  0
ENDTAB
  0
TABLE
  2
APPID
 70
     1
  0
APPID
  2
ACAD
 70
     0
  0
ENDTAB
  0
TABLE
  2
DIMSTYLE
 70
     1
  0
DIMSTYLE
  2
STANDARD
 70
     0
  3

  4

  5

  6

  7

 40
1.0
 41
0.18
 42
0.0625
 43
0.38
 44
0.18
 45
0.0
 46
0.0
 47
0.0
 48
0.0
140
0.18
141
0.09
142
0.0
143
25.4
144
1.0
145
0.0
146
1.0
147
0.09
 71
     0
 72
     0
 73
     1
 74
     1
 75
     0
 76
     0
 77
     0
 78
     0
170
     0
171
     2
172
     0
173
     0
174
     0
175
     0
176
     0
177
     0
178
     0
  0
ENDTAB
  0
ENDSEC
  0
SECTION
  2
BLOCKS
  0
BLOCK
  8
0
  2
$MODEL_SPACE
 70
     0
 10
0.0
 20
0.0
 30
0.0
  3
$MODEL_SPACE
  1

  0
ENDBLK
  5
21
  8
0
  0
BLOCK
 67
     1
  8
0
  2
$PAPER_SPACE
 70
     0
 10
0.0
 20
0.0
 30
0.0
  3
$PAPER_SPACE
  1

  0
ENDBLK
  5
76
 67
     1
  8
0
  0
ENDSEC
  0
SECTION
  2
ENTITIES
  0
LINE
  5
23
  8
0
 62
     4
 10
-3.658294958769431
 20
8.237886129626089
 30
0.5
 11
-3.482149210377632
 21
8.304938140009769
 31
0.5
  0
LINE
  5
24
  8
0
 62
     4
 10
-3.482149210377632
 20
8.304938140009769
 30
0.5
 11
-3.0299959641671
 21
7.753967539350097
 31
0.5
  0
LINE
  5
25
  8
0
 62
     4
 10
-3.0299959641671
 20
7.753967539350097
 30
0.5
 11
-3.012400969894744
 21
7.732451905161078
 31
0.5
  0
LINE
  5
26
  8
0
 62
     4
 10
-3.012400969894744
 20
7.732451905161078
 30
0.5
 11
-2.996414404550668
 21
7.712414166902991
 31
0.5
  0
LINE
  5
3D5
  8
0
 62
     4
 10
-2.996414404550668
 20
7.712414166902991
 30
0.5
 11
-2.982383060522925
 21
7.694767166314362
 31
0.5
  0
LINE
  5
28
  8
0
 62
     4
 10
-2.982383060522925
 20
7.694767166314362
 30
0.5
 11
-2.969958145429316
 21
7.678598056817651
 31
0.5
  0
LINE
  5
29
  8
0
 62
     4
 10
-2.969958145429316
 20
7.678598056817651
 30
0.5
 11
-2.959836244037165
 21
7.665732529148425
 31
0.5
  0
LINE
  5
2A
  8
0
 62
     4
 10
-2.959836244037165
 20
7.665732529148425
 30
0.5
 11
-2.951321771576221
 21
7.654344894990629
 31
0.5
  0
LINE
  5
2B
  8
0
 62
     4
 10
-2.951321771576221
 20
7.654344894990629
 30
0.5
 11
-2.944414728046486
 21
7.644435154344258
 31
0.5
  0
LINE
  5
2C
  8
0
 62
     4
 10
-2.944414728046486
 20
7.644435154344258
 30
0.5
 11
-2.939809700640642
 21
7.637827993108792
 31
0.5
  0
LINE
  5
2D
  8
0
 62
     4
 10
-2.939809700640642
 20
7.637827993108792
 30
0.5
 11
-2.937072170583134
 21
7.638870372686604
 31
0.5
  0
LINE
  5
2E
  8
0
 62
     4
 10
-2.937072170583134
 20
7.638870372686604
 30
0.5
 11
-2.937372052877404
 21
7.653385140738818
 31
0.5
  0
LINE
  5
2F
  8
0
 62
     4
 10
-2.937372052877404
 20
7.653385140738818
 30
0.5
 11
-2.938715314746558
 21
7.670637441268049
 31
0.5
  0
LINE
  5
30
  8
0
 62
     4
 10
-2.938715314746558
 20
7.670637441268049
 30
0.5
 11
-2.93914473246061
 21
7.688237531762897
 31
0.5
  0
LINE
  5
31
  8
0
 62
     4
 10
-2.93914473246061
 20
7.688237531762897
 30
0.5
 11
-2.940269734944913
 21
7.707663310573804
 31
0.5
  0
LINE
  5
32
  8
0
 62
     4
 10
-2.940269734944913
 20
7.707663310573804
 30
0.5
 11
-2.940829688075818
 21
7.728348725930794
 31
0.5
  0
LINE
  5
33
  8
0
 62
     4
 10
-2.940829688075818
 20
7.728348725930794
 30
0.5
 11
-2.942084225979901
 21
7.750859827184337
 31
0.5
  0
LINE
  5
34
  8
0
 62
     4
 10
-2.942084225979901
 20
7.750859827184337
 30
0.5
 11
-2.942773714530587
 21
7.774630564983959
 31
0.5
  0
LINE
  5
35
  8
0
 62
     4
 10
-2.942773714530587
 20
7.774630564983959
 30
0.5
 11
-2.943809995469325
 21
7.799314144522107
 31
0.5
  0
LINE
  5
36
  8
0
 62
     4
 10
-2.943809995469325
 20
7.799314144522107
 30
0.5
 11
-2.967399617909289
 21
8.500881273274688
 31
0.5
  0
LINE
  5
37
  8
0
 62
     4
 10
-2.967399617909289
 20
8.500881273274688
 30
0.5
 11
-2.810419579911271
 21
8.560636633872218
 31
0.5
  0
LINE
  5
38
  8
0
 62
     4
 10
-2.810419579911271
 20
8.560636633872218
 30
0.5
 11
-2.470994021767452
 21
7.668952781375854
 31
0.5
  0
LINE
  5
39
  8
0
 62
     4
 10
-2.470994021767452
 20
7.668952781375854
 30
0.5
 11
-2.583252739549729
 21
7.626221267058211
 31
0.5
  0
LINE
  5
3A
  8
0
 62
     4
 10
-2.583252739549729
 20
7.626221267058211
 30
0.5
 11
-2.867439245375805
 21
8.372789043522188
 31
0.5
  0
LINE
  5
3B
  8
0
 62
     4
 10
-2.867439245375805
 20
8.372789043522188
 30
0.5
 11
-2.869264931272357
 21
8.372094458749009
 31
0.5
  0
LINE
  5
3C
  8
0
 62
     4
 10
-2.869264931272357
 20
8.372094458749009
 30
0.5
 11
-2.841539379944858
 21
7.527901905621119
 31
0.5
  0
LINE
  5
3D
  8
0
 62
     4
 10
-2.841539379944858
 20
7.527901905621119
 30
0.5
 11
-2.947410195873596
 21
7.487601942847149
 31
0.5
  0
LINE
  5
3E
  8
0
 62
     4
 10
-2.947410195873596
 20
7.487601942847149
 30
0.5
 11
-3.491662117897571
 21
8.148757699414549
 31
0.5
  0
LINE
  5
3F
  8
0
 62
     4
 10
-3.491662117897571
 20
8.148757699414549
 30
0.5
 11
-3.495313489690675
 21
8.147368529868192
 31
0.5
  0
LINE
  5
40
  8
0
 62
     4
 10
-3.495313489690675
 20
8.147368529868192
 30
0.5
 11
-3.206609680426754
 21
7.388934789024933
 31
0.5
  0
LINE
  5
41
  8
0
 62
     4
 10
-3.206609680426754
 20
7.388934789024933
 30
0.5
 11
-3.318868398209032
 21
7.346203274707289
 31
0.5
  0
LINE
  5
42
  8
0
 62
     4
 10
-3.318868398209032
 20
7.346203274707289
 30
0.5
 11
-3.658294958769431
 21
8.237886129626089
 31
0.5
  0
LINE
  5
43
  8
0
 62
     4
 10
-2.549872712475936
 20
8.647474493067586
 30
0.5
 11
-2.437111194664278
 21
8.679376759159682
 31
0.5
  0
LINE
  5
44
  8
0
 62
     4
 10
-2.437111194664278
 20
8.679376759159682
 30
0.5
 11
-2.40095529180283
 21
8.551580905638241
 31
0.5
  0
LINE
  5
45
  8
0
 62
     4
 10
-2.40095529180283
 20
8.551580905638241
 30
0.5
 11
-2.513716812033995
 21
8.519677639549071
 31
0.5
  0
LINE
  5
46
  8
0
 62
     4
 10
-2.513716812033995
 20
8.519677639549071
 30
0.5
 11
-2.549872712475936
 21
8.647474493067586
 31
0.5
  0
LINE
  5
47
  8
0
 62
     4
 10
-2.478091363772374
 20
8.393761074966971
 30
0.5
 11
-2.365329843541209
 21
8.425664341056141
 31
0.5
  0
LINE
  5
48
  8
0
 62
     4
 10
-2.365329843541209
 20
8.425664341056141
 30
0.5
 11
-2.177369699451892
 21
7.761311625596256
 31
0.5
  0
LINE
  5
49
  8
0
 62
     4
 10
-2.177369699451892
 20
7.761311625596256
 30
0.5
 11
-2.29013121726355
 21
7.729409359504157
 31
0.5
  0
LINE
  5
4A
  8
0
 62
     4
 10
-2.29013121726355
 20
7.729409359504157
 30
0.5
 11
-2.478091363772374
 21
8.393761074966971
 31
0.5
  0
LINE
  5
4B
  8
0
 62
     4
 10
-2.208902966327791
 20
8.736644775368751
 30
0.5
 11
-2.094426000594364
 21
8.761703870892484
 31
0.5
  0
LINE
  5
4C
  8
0
 62
     4
 10
-2.094426000594364
 20
8.761703870892484
 30
0.5
 11
-1.978319990201966
 21
8.231294399068348
 31
0.5
  0
LINE
  5
4D
  8
0
 62
     4
 10
-1.978319990201966
 20
8.231294399068348
 30
0.5
 11
-1.767114749772685
 21
8.563437358688463
 31
0.5
  0
LINE
  5
4E
  8
0
 62
     4
 10
-1.767114749772685
 20
8.563437358688463
 30
0.5
 11
-1.618295496252493
 21
8.596013384807266
 31
0.5
  0
LINE
  5
4F
  8
0
 62
     4
 10
-1.618295496252493
 20
8.596013384807266
 30
0.5
 11
-1.822109751007417
 21
8.289480617606607
 31
0.5
  0
LINE
  5
50
  8
0
 62
     4
 10
-1.822109751007417
 20
8.289480617606607
 30
0.5
 11
-1.444899207026088
 21
7.927191893616595
 31
0.5
  0
LINE
  5
51
  8
0
 62
     4
 10
-1.444899207026088
 20
7.927191893616595
 30
0.5
 11
-1.585132888599588
 21
7.896495100146559
 31
0.5
  0
LINE
  5
52
  8
0
 62
     4
 10
-1.585132888599588
 20
7.896495100146559
 30
0.5
 11
-1.88491095277859
 21
8.192759282451966
 31
0.5
  0
LINE
  5
53
  8
0
 62
     4
 10
-1.88491095277859
 20
8.192759282451966
 30
0.5
 11
-1.949084047038254
 21
8.097737271574799
 31
0.5
  0
LINE
  5
54
  8
0
 62
     4
 10
-1.949084047038254
 20
8.097737271574799
 30
0.5
 11
-1.890404464696206
 21
7.829670511277735
 31
0.5
  0
LINE
  5
55
  8
0
 62
     4
 10
-1.890404464696206
 20
7.829670511277735
 30
0.5
 11
-2.004881428010126
 21
7.804612415751073
 31
0.5
  0
LINE
  5
56
  8
0
 62
     4
 10
-2.004881428010126
 20
7.804612415751073
 30
0.5
 11
-2.208902966327791
 21
8.736644775368751
 31
0.5
  0
LINE
  5
57
  8
0
 62
     4
 10
-1.432131585795551
 20
8.386204345801843
 30
0.5
 11
-1.427755843023742
 21
8.421223861163924
 31
0.5
  0
LINE
  5
58
  8
0
 62
     4
 10
-1.427755843023742
 20
8.421223861163924
 30
0.5
 11
-1.420225879087403
 21
8.454677740283055
 31
0.5
  0
LINE
  5
3D6
  8
0
 62
     4
 10
-1.420225879087403
 20
8.454677740283055
 30
0.5
 11
-1.409541691567028
 21
8.48656698315631
 31
0.5
  0
LINE
  5
3D7
  8
0
 62
     4
 10
-1.409541691567028
 20
8.48656698315631
 30
0.5
 11
-1.395703282882124
 21
8.516890589786616
 31
0.5
  0
LINE
  5
5B
  8
0
 62
     4
 10
-1.395703282882124
 20
8.516890589786616
 30
0.5
 11
-1.379679952634796
 21
8.545525905042172
 31
0.5
  0
LINE
  5
5C
  8
0
 62
     4
 10
-1.379679952634796
 20
8.545525905042172
 30
0.5
 11
-1.360501403645373
 21
8.572594581638198
 31
0.5
  0
LINE
  5
5D
  8
0
 62
     4
 10
-1.360501403645373
 20
8.572594581638198
 30
0.5
 11
-1.338890617996763
 21
8.596038362810393
 31
0.5
  0
LINE
  5
3D8
  8
0
 62
     4
 10
-1.338890617996763
 20
8.596038362810393
 30
0.5
 11
-1.314000956057676
 21
8.616947203298523
 31
0.5
  0
LINE
  5
5F
  8
0
 62
     4
 10
-1.314000956057676
 20
8.616947203298523
 30
0.5
 11
-1.287647364322956
 21
8.634105490820293
 31
0.5
  0
LINE
  5
60
  8
0
 62
     4
 10
-1.287647364322956
 20
8.634105490820293
 30
0.5
 11
-1.258138549007127
 21
8.649699139676677
 31
0.5
  0
LINE
  5
61
  8
0
 62
     4
 10
-1.258138549007127
 20
8.649699139676677
 30
0.5
 11
-1.226197501871125
 21
8.661665893115089
 31
0.5
  0
LINE
  5
62
  8
0
 62
     4
 10
-1.226197501871125
 20
8.661665893115089
 30
0.5
 11
-1.191945878049679
 21
8.67097504831812
 31
0.5
  0
LINE
  5
63
  8
0
 62
     4
 10
-1.191945878049679
 20
8.67097504831812
 30
0.5
 11
-1.15526101999148
 21
8.676658305680743
 31
0.5
  0
LINE
  5
64
  8
0
 62
     4
 10
-1.15526101999148
 20
8.676658305680743
 30
0.5
 11
-1.136857264606233
 21
8.679014784562463
 31
0.5
  0
LINE
  5
65
  8
0
 62
     4
 10
-1.136857264606233
 20
8.679014784562463
 30
0.5
 11
-1.11723588968603
 21
8.679559312101546
 31
0.5
  0
LINE
  5
66
  8
0
 62
     4
 10
-1.11723588968603
 20
8.679559312101546
 30
0.5
 11
-1.099428466102612
 21
8.678886224944685
 31
0.5
  0
LINE
  5
67
  8
0
 62
     4
 10
-1.099428466102612
 20
8.678886224944685
 30
0.5
 11
-1.080651740497581
 21
8.678336792916699
 31
0.5
  0
LINE
  5
68
  8
0
 62
     4
 10
-1.080651740497581
 20
8.678336792916699
 30
0.5
 11
-1.061626699798714
 21
8.675850754420129
 31
0.5
  0
LINE
  5
69
  8
0
 62
     4
 10
-1.061626699798714
 20
8.675850754420129
 30
0.5
 11
-1.043447305992585
 21
8.67227175877307
 31
0.5
  0
LINE
  5
6A
  8
0
 62
     4
 10
-1.043447305992585
 20
8.67227175877307
 30
0.5
 11
-1.025142254643928
 21
8.667724456262453
 31
0.5
  0
LINE
  5
3D9
  8
0
 62
     4
 10
-1.025142254643928
 20
8.667724456262453
 30
0.5
 11
-1.006714548163469
 21
8.662207854149733
 31
0.5
  0
LINE
  5
3DA
  8
0
 62
     4
 10
-1.006714548163469
 20
8.662207854149733
 30
0.5
 11
-0.9881621841375563
 21
8.655722947592967
 31
0.5
  0
LINE
  5
6D
  8
0
 62
     4
 10
-0.9881621841375563
 20
8.655722947592967
 30
0.5
 11
-0.9703308094589266
 21
8.647176779441663
 31
0.5
  0
LINE
  5
6E
  8
0
 62
     4
 10
-0.9703308094589266
 20
8.647176779441663
 30
0.5
 11
-0.9533440816759622
 21
8.637537651720368
 31
0.5
  0
LINE
  5
6F
  8
0
 62
     4
 10
-0.9533440816759622
 20
8.637537651720368
 30
0.5
 11
-0.9370773432432086
 21
8.62583725998503
 31
0.5
  0
LINE
  5
70
  8
0
 62
     4
 10
-0.9370773432432086
 20
8.62583725998503
 30
0.5
 11
-0.920686947262073
 21
8.61316856622515
 31
0.5
  0
LINE
  5
71
  8
0
 62
     4
 10
-0.920686947262073
 20
8.61316856622515
 30
0.5
 11
-0.9050165430506552
 21
8.598437608454161
 31
0.5
  0
LINE
  5
72
  8
0
 62
     4
 10
-0.9050165430506552
 20
8.598437608454161
 30
0.5
 11
-0.8892224788713485
 21
8.5827393486557
 31
0.5
  0
LINE
  5
3DB
  8
0
 62
     4
 10
-0.8892224788713485
 20
8.5827393486557
 30
0.5
 11
-0.8742730640072143
 21
8.565947129290171
 31
0.5
  0
LINE
  5
3DC
  8
0
 62
     4
 10
-0.8742730640072143
 20
8.565947129290171
 30
0.5
 11
-0.8599199809449089
 21
8.546125343886063
 31
0.5
  0
LINE
  5
3DD
  8
0
 62
     4
 10
-0.8599199809449089
 20
8.546125343886063
 30
0.5
 11
-0.8471325341255523
 21
8.523149337317422
 31
0.5
  0
LINE
  5
3DE
  8
0
 62
     4
 10
-0.8471325341255523
 20
8.523149337317422
 30
0.5
 11
-0.8360333786809463
 21
8.497988409186361
 31
0.5
  0
LINE
  5
77
  8
0
 62
     4
 10
-0.8360333786809463
 20
8.497988409186361
 30
0.5
 11
-0.8255315550352421
 21
8.469797917436225
 31
0.5
  0
LINE
  5
78
  8
0
 62
     4
 10
-0.8255315550352421
 20
8.469797917436225
 30
0.5
 11
-0.8156260680303809
 21
8.438575859653358
 31
0.5
  0
LINE
  5
79
  8
0
 62
     4
 10
-0.8156260680303809
 20
8.438575859653358
 30
0.5
 11
-0.8074098699778362
 21
8.40516988272465
 31
0.5
  0
LINE
  5
7A
  8
0
 62
     4
 10
-0.8074098699778362
 20
8.40516988272465
 30
0.5
 11
-0.8007583105906744
 21
8.368608682214834
 31
0.5
  0
LINE
  5
7B
  8
0
 62
     4
 10
-0.8007583105906744
 20
8.368608682214834
 30
0.5
 11
-0.7947030830053414
 21
8.329017915666436
 31
0.5
  0
LINE
  5
7C
  8
0
 62
     4
 10
-0.7947030830053414
 20
8.329017915666436
 30
0.5
 11
-1.308088661147004
 21
8.263270863244667
 31
0.5
  0
LINE
  5
7D
  8
0
 62
     4
 10
-1.308088661147004
 20
8.263270863244667
 30
0.5
 11
-1.301709365529384
 21
8.236520350194954
 31
0.5
  0
LINE
  5
7E
  8
0
 62
     4
 10
-1.301709365529384
 20
8.236520350194954
 30
0.5
 11
-1.294485423016097
 21
8.210862796715231
 31
0.5
  0
LINE
  5
7F
  8
0
 62
     4
 10
-1.294485423016097
 20
8.210862796715231
 30
0.5
 11
-1.285572186711481
 21
8.1873911623755
 31
0.5
  0
LINE
  5
80
  8
0
 62
     4
 10
-1.285572186711481
 20
8.1873911623755
 30
0.5
 11
-1.275937961059581
 21
8.165980789630304
 31
0.5
  0
LINE
  5
81
  8
0
 62
     4
 10
-1.275937961059581
 20
8.165980789630304
 30
0.5
 11
-1.263522484462935
 21
8.145910691551867
 31
0.5
  0
LINE
  5
82
  8
0
 62
     4
 10
-1.263522484462935
 20
8.145910691551867
 30
0.5
 11
-1.251355320540619
 21
8.127778199939089
 31
0.5
  0
LINE
  5
83
  8
0
 62
     4
 10
-1.251355320540619
 20
8.127778199939089
 30
0.5
 11
-1.23652956080536
 21
8.11195528259517
 31
0.5
  0
LINE
  5
84
  8
0
 62
     4
 10
-1.23652956080536
 20
8.11195528259517
 30
0.5
 11
-1.220983811719889
 21
8.0981936292653
 31
0.5
  0
LINE
  5
85
  8
0
 62
     4
 10
-1.220983811719889
 20
8.0981936292653
 30
0.5
 11
-1.204593415738754
 21
8.085524935505422
 31
0.5
  0
LINE
  5
86
  8
0
 62
     4
 10
-1.204593415738754
 20
8.085524935505422
 30
0.5
 11
-1.186637385934177
 21
8.076009462913
 31
0.5
  0
LINE
  5
87
  8
0
 62
     4
 10
-1.186637385934177
 20
8.076009462913
 30
0.5
 11
-1.168806011255547
 21
8.067463294761696
 31
0.5
  0
LINE
  5
88
  8
0
 62
     4
 10
-1.168806011255547
 20
8.067463294761696
 30
0.5
 11
-1.150253647229634
 21
8.060978388204928
 31
0.5
  0
LINE
  5
89
  8
0
 62
     4
 10
-1.150253647229634
 20
8.060978388204928
 30
0.5
 11
-1.131104951401892
 21
8.057523047686745
 31
0.5
  0
LINE
  5
8A
  8
0
 62
     4
 10
-1.131104951401892
 20
8.057523047686745
 30
0.5
 11
-1.111111606258977
 21
8.055161666735625
 31
0.5
  0
LINE
  5
8B
  8
0
 62
     4
 10
-1.111111606258977
 20
8.055161666735625
 30
0.5
 11
-1.090397274188287
 21
8.054860547381971
 31
0.5
  0
LINE
  5
8C
  8
0
 62
     4
 10
-1.090397274188287
 20
8.054860547381971
 30
0.5
 11
-1.068962952767385
 21
8.056620692042356
 31
0.5
  0
LINE
  5
8D
  8
0
 62
     4
 10
-1.068962952767385
 20
8.056620692042356
 30
0.5
 11
-1.052620458976673
 21
8.059698160271362
 31
0.5
  0
LINE
  5
8E
  8
0
 62
     4
 10
-1.052620458976673
 20
8.059698160271362
 30
0.5
 11
-1.037246267210501
 21
8.062651970951984
 31
0.5
  0
LINE
  5
8F
  8
0
 62
     4
 10
-1.037246267210501
 20
8.062651970951984
 30
0.5
 11
-1.023088692562705
 21
8.067418730552813
 31
0.5
  0
LINE
  5
90
  8
0
 62
     4
 10
-1.023088692562705
 20
8.067418730552813
 30
0.5
 11
-1.009054775463291
 21
8.073153792178182
 31
0.5
  0
LINE
  5
91
  8
0
 62
     4
 10
-1.009054775463291
 20
8.073153792178182
 30
0.5
 11
-0.9961138155143647
 21
8.079734500696288
 31
0.5
  0
LINE
  5
3DF
  8
0
 62
     4
 10
-0.9961138155143647
 20
8.079734500696288
 30
0.5
 11
-0.9832975155304
 21
8.08728251366137
 31
0.5
  0
LINE
  5
3E0
  8
0
 62
     4
 10
-0.9832975155304
 20
8.08728251366137
 30
0.5
 11
-0.9726661322698448
 21
8.096520817995348
 31
0.5
  0
LINE
  5
94
  8
0
 62
     4
 10
-0.9726661322698448
 20
8.096520817995348
 30
0.5
 11
-0.9620347514287966
 21
8.105758122332251
 31
0.5
  0
LINE
  5
95
  8
0
 62
     4
 10
-0.9620347514287966
 20
8.105758122332251
 30
0.5
 11
-0.9516506808454978
 21
8.116934030712381
 31
0.5
  0
LINE
  5
96
  8
0
 62
     4
 10
-0.9516506808454978
 20
8.116934030712381
 30
0.5
 11
-0.9433288766928206
 21
8.128828930865156
 31
0.5
  0
LINE
  5
3E1
  8
0
 62
     4
 10
-0.9433288766928206
 20
8.128828930865156
 30
0.5
 11
-0.9351307276690182
 21
8.141693133039544
 31
0.5
  0
LINE
  5
3E2
  8
0
 62
     4
 10
-0.9351307276690182
 20
8.141693133039544
 30
0.5
 11
-0.9280255357957035
 21
8.15540298210667
 31
0.5
  0
LINE
  5
99
  8
0
 62
     4
 10
-0.9280255357957035
 20
8.15540298210667
 30
0.5
 11
-0.9210450038873504
 21
8.17008013562077
 31
0.5
  0
LINE
  5
9A
  8
0
 62
     4
 10
-0.9210450038873504
 20
8.17008013562077
 30
0.5
 11
-0.9152800866807939
 21
8.186571235632643
 31
0.5
  0
LINE
  5
9B
  8
0
 62
     4
 10
-0.9152800866807939
 20
8.186571235632643
 30
0.5
 11
-0.9104844739153573
 21
8.202937680518566
 31
0.5
  0
LINE
  5
9C
  8
0
 62
     4
 10
-0.9104844739153573
 20
8.202937680518566
 30
0.5
 11
-0.9059371738242501
 21
8.221241731870148
 31
0.5
  0
LINE
  5
9D
  8
0
 62
     4
 10
-0.9059371738242501
 20
8.221241731870148
 30
0.5
 11
-0.7849320552652206
 21
8.221970961268371
 31
0.5
  0
LINE
  5
9E
  8
0
 62
     4
 10
-0.7849320552652206
 20
8.221970961268371
 30
0.5
 11
-0.7893317491322415
 21
8.19482452690073
 31
0.5
  0
LINE
  5
9F
  8
0
 62
     4
 10
-0.7893317491322415
 20
8.19482452690073
 30
0.5
 11
-0.79579370459087
 21
8.168399084299884
 31
0.5
  0
LINE
  5
A0
  8
0
 62
     4
 10
-0.79579370459087
 20
8.168399084299884
 30
0.5
 11
-0.8045642367407965
 21
8.144631235095398
 31
0.5
  0
LINE
  5
A1
  8
0
 62
     4
 10
-0.8045642367407965
 20
8.144631235095398
 30
0.5
 11
-0.8144267284636449
 21
8.121708030367072
 31
0.5
  0
LINE
  5
A2
  8
0
 62
     4
 10
-0.8144267284636449
 20
8.121708030367072
 30
0.5
 11
-0.825383177334054
 21
8.099630474950992
 31
0.5
  0
LINE
  5
A3
  8
0
 62
     4
 10
-0.825383177334054
 20
8.099630474950992
 30
0.5
 11
-0.8386482053152682
 21
8.080209512934202
 31
0.5
  0
LINE
  5
A4
  8
0
 62
     4
 10
-0.8386482053152682
 20
8.080209512934202
 30
0.5
 11
-0.8538518373397082
 21
8.060541240659662
 31
0.5
  0
LINE
  5
A5
  8
0
 62
     4
 10
-0.8538518373397082
 20
8.060541240659662
 30
0.5
 11
-0.8703947440338334
 21
8.04365421691036
 31
0.5
  0
LINE
  5
A6
  8
0
 62
     4
 10
-0.8703947440338334
 20
8.04365421691036
 30
0.5
 11
-0.8889999123195663
 21
8.027488184927849
 31
0.5
  0
LINE
  5
A7
  8
0
 62
     4
 10
-0.8889999123195663
 20
8.027488184927849
 30
0.5
 11
-0.9088216977236755
 21
8.013135101865546
 31
0.5
  0
LINE
  5
A8
  8
0
 62
     4
 10
-0.9088216977236755
 20
8.013135101865546
 30
0.5
 11
-0.9298601002461613
 21
8.000594967723444
 31
0.5
  0
LINE
  5
A9
  8
0
 62
     4
 10
-0.9298601002461613
 20
8.000594967723444
 30
0.5
 11
-0.9519914599191347
 21
7.988900480474083
 31
0.5
  0
LINE
  5
AA
  8
0
 62
     4
 10
-0.9519914599191347
 20
7.988900480474083
 30
0.5
 11
-0.9764323986999863
 21
7.979862589043519
 31
0.5
  0
LINE
  5
AB
  8
0
 62
     4
 10
-0.9764323986999863
 20
7.979862589043519
 30
0.5
 11
-1.001965294634253
 21
7.971670342086185
 31
0.5
  0
LINE
  5
AC
  8
0
 62
     4
 10
-1.001965294634253
 20
7.971670342086185
 30
0.5
 11
-1.028714807686895
 21
7.965291044049057
 31
0.5
  0
LINE
  5
AD
  8
0
 62
     4
 10
-1.028714807686895
 20
7.965291044049057
 30
0.5
 11
-1.056681937854987
 21
7.960724697351641
 31
0.5
  0
LINE
  5
AE
  8
0
 62
     4
 10
-1.056681937854987
 20
7.960724697351641
 30
0.5
 11
-1.09470806815751
 21
7.957823693350346
 31
0.5
  0
LINE
  5
AF
  8
0
 62
     4
 10
-1.09470806815751
 20
7.957823693350346
 30
0.5
 11
-1.13007560264709
 21
7.957232263617913
 31
0.5
  0
LINE
  5
B0
  8
0
 62
     4
 10
-1.13007560264709
 20
7.957232263617913
 30
0.5
 11
-1.164970460463715
 21
7.960639701945675
 31
0.5
  0
LINE
  5
B1
  8
0
 62
     4
 10
-1.164970460463715
 20
7.960639701945675
 30
0.5
 11
-1.197332380009925
 21
7.967325021405855
 31
0.5
  0
LINE
  5
B2
  8
0
 62
     4
 10
-1.197332380009925
 20
7.967325021405855
 30
0.5
 11
-1.22800400576773
 21
7.976196257586519
 31
0.5
  0
LINE
  5
B3
  8
0
 62
     4
 10
-1.22800400576773
 20
7.976196257586519
 30
0.5
 11
-1.257235652825115
 21
7.989190021795265
 31
0.5
  0
LINE
  5
B4
  8
0
 62
     4
 10
-1.257235652825115
 20
7.989190021795265
 30
0.5
 11
-1.284901663639551
 21
8.00533800716854
 31
0.5
  0
LINE
  5
B5
  8
0
 62
     4
 10
-1.284901663639551
 20
8.00533800716854
 30
0.5
 11
-1.310033738606005
 21
8.024762871257652
 31
0.5
  0
LINE
  5
B6
  8
0
 62
     4
 10
-1.310033738606005
 20
8.024762871257652
 30
0.5
 11
-1.333600174910003
 21
8.047342956508368
 31
0.5
  0
LINE
  5
B7
  8
0
 62
     4
 10
-1.333600174910003
 20
8.047342956508368
 30
0.5
 11
-1.354385360269256
 21
8.071263316425842
 31
0.5
  0
LINE
  5
B8
  8
0
 62
     4
 10
-1.354385360269256
 20
8.071263316425842
 30
0.5
 11
-1.373605906963126
 21
8.098338899924427
 31
0.5
  0
LINE
  5
B9
  8
0
 62
     4
 10
-1.373605906963126
 20
8.098338899924427
 30
0.5
 11
-1.389323215787401
 21
8.128815017267723
 31
0.5
  0
LINE
  5
BA
  8
0
 62
     4
 10
-1.389323215787401
 20
8.128815017267723
 30
0.5
 11
-1.403227573271964
 21
8.16050875172647
 31
0.5
  0
LINE
  5
BB
  8
0
 62
     4
 10
-1.403227573271964
 20
8.16050875172647
 30
0.5
 11
-1.414597992489038
 21
8.195480364898124
 31
0.5
  0
LINE
  5
BC
  8
0
 62
     4
 10
-1.414597992489038
 20
8.195480364898124
 30
0.5
 11
-1.423310815890242
 21
8.232761554758154
 31
0.5
  0
LINE
  5
BD
  8
0
 62
     4
 10
-1.423310815890242
 20
8.232761554758154
 30
0.5
 11
-1.430334345500115
 21
8.272228663758169
 31
0.5
  0
LINE
  5
BE
  8
0
 62
     4
 10
-1.430334345500115
 20
8.272228663758169
 30
0.5
 11
-1.433482664598175
 21
8.312191398109773
 31
0.5
  0
LINE
  5
BF
  8
0
 62
     4
 10
-1.433482664598175
 20
8.312191398109773
 30
0.5
 11
-1.434446064553318
 21
8.350464841089551
 31
0.5
  0
LINE
  5
C0
  8
0
 62
     4
 10
-1.434446064553318
 20
8.350464841089551
 30
0.5
 11
-1.432131585795551
 21
8.386204345801843
 31
0.5
  0
LINE
  5
C1
  8
0
 62
     4
 10
-0.9261283629466331
 20
8.409656136085495
 30
0.5
 11
-1.313589554634955
 21
8.36003545592626
 31
0.5
  0
LINE
  5
C2
  8
0
 62
     4
 10
-1.313589554634955
 20
8.36003545592626
 30
0.5
 11
-1.313412092829681
 21
8.38171809002149
 31
0.5
  0
LINE
  5
C3
  8
0
 62
     4
 10
-1.313412092829681
 20
8.38171809002149
 30
0.5
 11
-1.312142671451485
 21
8.402556079640565
 31
0.5
  0
LINE
  5
C4
  8
0
 62
     4
 10
-1.312142671451485
 20
8.402556079640565
 30
0.5
 11
-1.308811988478754
 21
8.422673079912352
 31
0.5
  0
LINE
  5
C5
  8
0
 62
     4
 10
-1.308811988478754
 20
8.422673079912352
 30
0.5
 11
-1.304388345936028
 21
8.441945433288476
 31
0.5
  0
LINE
  5
C6
  8
0
 62
     4
 10
-1.304388345936028
 20
8.441945433288476
 30
0.5
 11
-1.29874808385542
 21
8.459405837741468
 31
0.5
  0
LINE
  5
C7
  8
0
 62
     4
 10
-1.29874808385542
 20
8.459405837741468
 30
0.5
 11
-1.291170220148165
 21
8.477112554874642
 31
0.5
  0
LINE
  5
C8
  8
0
 62
     4
 10
-1.291170220148165
 20
8.477112554874642
 30
0.5
 11
-1.281531090007361
 21
8.49410028265468
 31
0.5
  0
LINE
  5
C9
  8
0
 62
     4
 10
-1.281531090007361
 20
8.49410028265468
 30
0.5
 11
-1.270800002713143
 21
8.510242365961485
 31
0.5
  0
LINE
  5
CA
  8
0
 62
     4
 10
-1.270800002713143
 20
8.510242365961485
 30
0.5
 11
-1.258851298303475
 21
8.52457149792858
 31
0.5
  0
LINE
  5
CB
  8
0
 62
     4
 10
-1.258851298303475
 20
8.52457149792858
 30
0.5
 11
-1.245685976775431
 21
8.537087680975468
 31
0.5
  0
LINE
  5
CC
  8
0
 62
     4
 10
-1.245685976775431
 20
8.537087680975468
 30
0.5
 11
-1.231428695674465
 21
8.548759219546199
 31
0.5
  0
LINE
  5
CD
  8
0
 62
     4
 10
-1.231428695674465
 20
8.548759219546199
 30
0.5
 11
-1.215953799877557
 21
8.558616806780144
 31
0.5
  0
LINE
  5
CE
  8
0
 62
     4
 10
-1.215953799877557
 20
8.558616806780144
 30
0.5
 11
-1.199262284542766
 21
8.566662445090953
 31
0.5
  0
LINE
  5
CF
  8
0
 62
     4
 10
-1.199262284542766
 20
8.566662445090953
 30
0.5
 11
-1.181477812057486
 21
8.57386243650903
 31
0.5
  0
LINE
  5
D0
  8
0
 62
     4
 10
-1.181477812057486
 20
8.57386243650903
 30
0.5
 11
-1.162353067324956
 21
8.578280176985286
 31
0.5
  0
LINE
  5
D1
  8
0
 62
     4
 10
-1.162353067324956
 20
8.578280176985286
 30
0.5
 11
-1.143104662624537
 21
8.581730615434077
 31
0.5
  0
LINE
  5
D2
  8
0
 62
     4
 10
-1.143104662624537
 20
8.581730615434077
 30
0.5
 11
-1.125544554137882
 21
8.582994132326297
 31
0.5
  0
LINE
  5
D3
  8
0
 62
     4
 10
-1.125544554137882
 20
8.582994132326297
 30
0.5
 11
-1.108829090127386
 21
8.583165689645593
 31
0.5
  0
LINE
  5
D4
  8
0
 62
     4
 10
-1.108829090127386
 20
8.583165689645593
 30
0.5
 11
-1.091866311020126
 21
8.581400642915812
 31
0.5
  0
LINE
  5
D5
  8
0
 62
     4
 10
-1.091866311020126
 20
8.581400642915812
 30
0.5
 11
-1.075747181230966
 21
8.578541634199455
 31
0.5
  0
LINE
  5
D6
  8
0
 62
     4
 10
-1.075747181230966
 20
8.578541634199455
 30
0.5
 11
-1.059504391473917
 21
8.574715323455632
 31
0.5
  0
LINE
  5
D7
  8
0
 62
     4
 10
-1.059504391473917
 20
8.574715323455632
 30
0.5
 11
-1.042889633913664
 21
8.567982104224534
 31
0.5
  0
LINE
  5
D8
  8
0
 62
     4
 10
-1.042889633913664
 20
8.567982104224534
 30
0.5
 11
-1.02724317837795
 21
8.561125227445055
 31
0.5
  0
LINE
  5
D9
  8
0
 62
     4
 10
-1.02724317837795
 20
8.561125227445055
 30
0.5
 11
-1.010380108143368
 21
8.552454401748301
 31
0.5
  0
LINE
  5
DA
  8
0
 62
     4
 10
-1.010380108143368
 20
8.552454401748301
 30
0.5
 11
-0.9952063292806088
 21
8.541598656908628
 31
0.5
  0
LINE
  5
DB
  8
0
 62
     4
 10
-0.9952063292806088
 20
8.541598656908628
 30
0.5
 11
-0.9817218417896733
 21
8.528557992926036
 31
0.5
  0
LINE
  5
DC
  8
0
 62
     4
 10
-0.9817218417896733
 20
8.528557992926036
 30
0.5
 11
-0.9689583460655284
 21
8.51345506735184
 31
0.5
  0
LINE
  5
DD
  8
0
 62
     4
 10
-0.9689583460655284
 20
8.51345506735184
 30
0.5
 11
-0.9580067992645157
 21
8.497135522239761
 31
0.5
  0
LINE
  5
DE
  8
0
 62
     4
 10
-0.9580067992645157
 20
8.497135522239761
 30
0.5
 11
-0.947652584262405
 21
8.477786413508603
 31
0.5
  0
LINE
  5
DF
  8
0
 62
     4
 10
-0.947652584262405
 20
8.477786413508603
 30
0.5
 11
-0.9391123181775724
 21
8.457220690078581
 31
0.5
  0
LINE
  5
E0
  8
0
 62
     4
 10
-0.9391123181775724
 20
8.457220690078581
 30
0.5
 11
-0.9322603458869975
 21
8.43446904508906
 31
0.5
  0
LINE
  5
E1
  8
0
 62
     4
 10
-0.9322603458869975
 20
8.43446904508906
 30
0.5
 11
-0.9261283629466331
 21
8.409656136085495
 31
0.5
  0
LINE
  5
E2
  8
0
 62
     4
 10
-0.708237536911397
 20
8.71351483709582
 30
0.5
 11
-0.5823582077525996
 21
8.718458285642246
 31
0.5
  0
LINE
  5
E3
  8
0
 62
     4
 10
-0.5823582077525996
 20
8.718458285642246
 30
0.5
 11
-0.4016573309299771
 21
8.273056774903301
 31
0.5
  0
LINE
  5
E4
  8
0
 62
     4
 10
-0.4016573309299771
 20
8.273056774903301
 30
0.5
 11
-0.3973319178548179
 21
8.26247627856668
 31
0.5
  0
LINE
  5
E5
  8
0
 62
     4
 10
-0.3973319178548179
 20
8.26247627856668
 30
0.5
 11
-0.3939449626786358
 21
8.250881049865422
 31
0.5
  0
LINE
  5
E6
  8
0
 62
     4
 10
-0.3939449626786358
 20
8.250881049865422
 30
0.5
 11
-0.3895432702987999
 21
8.23834936325933
 31
0.5
  0
LINE
  5
E7
  8
0
 62
     4
 10
-0.3895432702987999
 20
8.23834936325933
 30
0.5
 11
-0.3851425803355439
 21
8.225816679075672
 31
0.5
  0
LINE
  5
E8
  8
0
 62
     4
 10
-0.3851425803355439
 20
8.225816679075672
 30
0.5
 11
-0.3807022495145865
 21
8.212308896126556
 31
0.5
  0
LINE
  5
E9
  8
0
 62
     4
 10
-0.3807022495145865
 20
8.212308896126556
 30
0.5
 11
-0.3762242802495808
 21
8.197825019253919
 31
0.5
  0
LINE
  5
EA
  8
0
 62
     4
 10
-0.3762242802495808
 20
8.197825019253919
 30
0.5
 11
-0.3717086725405266
 21
8.182365048457765
 31
0.5
  0
LINE
  5
EB
  8
0
 62
     4
 10
-0.3717086725405266
 20
8.182365048457765
 30
0.5
 11
-0.3671920648343995
 21
8.166905075242104
 31
0.5
  0
LINE
  5
EC
  8
0
 62
     4
 10
-0.3671920648343995
 20
8.166905075242104
 30
0.5
 11
-0.3642647782219031
 21
8.167019992987903
 31
0.5
  0
LINE
  5
ED
  8
0
 62
     4
 10
-0.3642647782219031
 20
8.167019992987903
 30
0.5
 11
-0.3610895377627846
 21
8.185714365189899
 31
0.5
  0
LINE
  5
EE
  8
0
 62
     4
 10
-0.3610895377627846
 20
8.185714365189899
 30
0.5
 11
-0.3569382033801478
 21
8.204446375835943
 31
0.5
  0
LINE
  5
EF
  8
0
 62
     4
 10
-0.3569382033801478
 20
8.204446375835943
 30
0.5
 11
-0.3527868689975109
 21
8.223178386481989
 31
0.5
  0
LINE
  5
F0
  8
0
 62
     4
 10
-0.3527868689975109
 20
8.223178386481989
 30
0.5
 11
-0.3485978961708257
 21
8.240934303204515
 31
0.5
  0
LINE
  5
F1
  8
0
 62
     4
 10
-0.3485978961708257
 20
8.240934303204515
 30
0.5
 11
-0.3444465617881887
 21
8.259666313850561
 31
0.5
  0
LINE
  5
F2
  8
0
 62
     4
 10
-0.3444465617881887
 20
8.259666313850561
 30
0.5
 11
-0.3392814926184779
 21
8.277460869014206
 31
0.5
  0
LINE
  5
F3
  8
0
 62
     4
 10
-0.3392814926184779
 20
8.277460869014206
 30
0.5
 11
-0.3341164234487672
 21
8.295255424177858
 31
0.5
  0
LINE
  5
F4
  8
0
 62
     4
 10
-0.3341164234487672
 20
8.295255424177858
 30
0.5
 11
-0.3279376194919826
 21
8.312112523859106
 31
0.5
  0
LINE
  5
F5
  8
0
 62
     4
 10
-0.3279376194919826
 20
8.312112523859106
 30
0.5
 11
-0.1930100786681631
 21
8.733746299851063
 31
0.5
  0
LINE
  5
F6
  8
0
 62
     4
 10
-0.1930100786681631
 20
8.733746299851063
 30
0.5
 11
-0.0739614190773841
 21
8.738421274464772
 31
0.5
  0
LINE
  5
F7
  8
0
 62
     4
 10
-0.0739614190773841
 20
8.738421274464772
 30
0.5
 11
-0.3108557819242029
 21
8.026429358034957
 31
0.5
  0
LINE
  5
F8
  8
0
 62
     4
 10
-0.3108557819242029
 20
8.026429358034957
 30
0.5
 11
-0.3108557819242029
 21
8.026429358034957
 31
0.5
  0
LINE
  5
F9
  8
0
 62
     4
 10
-0.3108557819242029
 20
8.026429358034957
 30
0.5
 11
-0.3108171434830816
 21
8.025453261691933
 31
0.5
  0
LINE
  5
FA
  8
0
 62
     4
 10
-0.3108171434830816
 20
8.025453261691933
 30
0.5
 11
-0.3107785026224532
 21
8.024478165345981
 31
0.5
  0
LINE
  5
FB
  8
0
 62
     4
 10
-0.3107785026224532
 20
8.024478165345981
 30
0.5
 11
-0.3117545989654787
 21
8.024439526904857
 31
0.5
  0
LINE
  5
FC
  8
0
 62
     4
 10
-0.3117545989654787
 20
8.024439526904857
 30
0.5
 11
-0.3117159605243572
 21
8.023463430561835
 31
0.5
  0
LINE
  5
FD
  8
0
 62
     4
 10
-0.3117159605243572
 20
8.023463430561835
 30
0.5
 11
-0.3116783196608018
 21
8.022488336635389
 31
0.5
  0
LINE
  5
FE
  8
0
 62
     4
 10
-0.3116783196608018
 20
8.022488336635389
 30
0.5
 11
-0.3116396812196805
 21
8.021512240292363
 31
0.5
  0
LINE
  5
FF
  8
0
 62
     4
 10
-0.3116396812196805
 20
8.021512240292363
 30
0.5
 11
-0.3202871032223487
 21
7.992830078837762
 31
0.5
  0
LINE
  5
100
  8
0
 62
     4
 10
-0.3202871032223487
 20
7.992830078837762
 30
0.5
 11
-0.3289721612495585
 21
7.965125011303752
 31
0.5
  0
LINE
  5
101
  8
0
 62
     4
 10
-0.3289721612495585
 20
7.965125011303752
 30
0.5
 11
-0.3387095949244704
 21
7.939332495598093
 31
0.5
  0
LINE
  5
102
  8
0
 62
     4
 10
-0.3387095949244704
 20
7.939332495598093
 30
0.5
 11
-0.3484856694600108
 21
7.914515076238386
 31
0.5
  0
LINE
  5
103
  8
0
 62
     4
 10
-0.3484856694600108
 20
7.914515076238386
 30
0.5
 11
-0.3582993800200925
 21
7.890674750799271
 31
0.5
  0
LINE
  5
104
  8
0
 62
     4
 10
-0.3582993800200925
 20
7.890674750799271
 30
0.5
 11
-0.3691664662249495
 21
7.868746979608011
 31
0.5
  0
LINE
  5
105
  8
0
 62
     4
 10
-0.3691664662249495
 20
7.868746979608011
 30
0.5
 11
-0.3810472872168804
 21
7.847756663899149
 31
0.5
  0
LINE
  5
106
  8
0
 62
     4
 10
-0.3810472872168804
 20
7.847756663899149
 30
0.5
 11
-0.3919906527264141
 21
7.827780082977361
 31
0.5
  0
LINE
  5
107
  8
0
 62
     4
 10
-0.3919906527264141
 20
7.827780082977361
 30
0.5
 11
-0.405001123828783
 21
7.810655511779973
 31
0.5
  0
LINE
  5
108
  8
0
 62
     4
 10
-0.405001123828783
 20
7.810655511779973
 30
0.5
 11
-0.4190629705817811
 21
7.795443489991427
 31
0.5
  0
LINE
  5
109
  8
0
 62
     4
 10
-0.4190629705817811
 20
7.795443489991427
 30
0.5
 11
-0.4341781905600475
 21
7.782145022447811
 31
0.5
  0
LINE
  5
10A
  8
0
 62
     4
 10
-0.4341781905600475
 20
7.782145022447811
 30
0.5
 11
-0.4513208801124616
 21
7.770721465868989
 31
0.5
  0
LINE
  5
10B
  8
0
 62
     4
 10
-0.4513208801124616
 20
7.770721465868989
 30
0.5
 11
-0.4695545837536994
 21
7.762186557461542
 31
0.5
  0
LINE
  5
10C
  8
0
 62
     4
 10
-0.4695545837536994
 20
7.762186557461542
 30
0.5
 11
-0.4888416606202053
 21
7.755565203299025
 31
0.5
  0
LINE
  5
10D
  8
0
 62
     4
 10
-0.4888416606202053
 20
7.755565203299025
 30
0.5
 11
-0.5101938455049074
 21
7.751794854024819
 31
0.5
  0
LINE
  5
10E
  8
0
 62
     4
 10
-0.5101938455049074
 20
7.751794854024819
 30
0.5
 11
-0.5325607651737565
 21
7.748961962652518
 31
0.5
  0
LINE
  5
10F
  8
0
 62
     4
 10
-0.5325607651737565
 20
7.748961962652518
 30
0.5
 11
-0.54138226344944
 21
7.749593308177656
 31
0.5
  0
LINE
  5
110
  8
0
 62
     4
 10
-0.54138226344944
 20
7.749593308177656
 30
0.5
 11
-0.5491880293634107
 21
7.749286193384309
 31
0.5
  0
LINE
  5
111
  8
0
 62
     4
 10
-0.5491880293634107
 20
7.749286193384309
 30
0.5
 11
-0.5580085276420213
 21
7.74991753648994
 31
0.5
  0
LINE
  5
112
  8
0
 62
     4
 10
-0.5580085276420213
 20
7.74991753648994
 30
0.5
 11
-0.5678437607047788
 21
7.751486337497475
 31
0.5
  0
LINE
  5
113
  8
0
 62
     4
 10
-0.5678437607047788
 20
7.751486337497475
 30
0.5
 11
-0.5776779961899703
 21
7.75305413608843
 31
0.5
  0
LINE
  5
114
  8
0
 62
     4
 10
-0.5776779961899703
 20
7.75305413608843
 30
0.5
 11
-0.5875132292527278
 21
7.754622937095965
 31
0.5
  0
LINE
  5
115
  8
0
 62
     4
 10
-0.5875132292527278
 20
7.754622937095965
 30
0.5
 11
-0.598362197102559
 21
7.757129193585898
 31
0.5
  0
LINE
  5
116
  8
0
 62
     4
 10
-0.598362197102559
 20
7.757129193585898
 30
0.5
 11
-0.6092111673718974
 21
7.759634450078758
 31
0.5
  0
LINE
  5
117
  8
0
 62
     4
 10
-0.6092111673718974
 20
7.759634450078758
 30
0.5
 11
-0.6252505351981963
 21
7.869441578848854
 31
0.5
  0
LINE
  5
118
  8
0
 62
     4
 10
-0.6252505351981963
 20
7.869441578848854
 30
0.5
 11
-0.6173674924019827
 21
7.86779650095615
 31
0.5
  0
LINE
  5
119
  8
0
 62
     4
 10
-0.6173674924019827
 20
7.86779650095615
 30
0.5
 11
-0.6084697148216223
 21
7.865213965161541
 31
0.5
  0
LINE
  5
11A
  8
0
 62
     4
 10
-0.6084697148216223
 20
7.865213965161541
 30
0.5
 11
-0.6006253104665302
 21
7.864544983611861
 31
0.5
  0
LINE
  5
11B
  8
0
 62
     4
 10
-0.6006253104665302
 20
7.864544983611861
 30
0.5
 11
-0.5917661737467983
 21
7.862937544163204
 31
0.5
  0
LINE
  5
11C
  8
0
 62
     4
 10
-0.5917661737467983
 20
7.862937544163204
 30
0.5
 11
-0.583921769391706
 21
7.862268562613525
 31
0.5
  0
LINE
  5
11D
  8
0
 62
     4
 10
-0.583921769391706
 20
7.862268562613525
 30
0.5
 11
-0.5751012711130955
 21
7.861637219507894
 31
0.5
  0
LINE
  5
11E
  8
0
 62
     4
 10
-0.5751012711130955
 20
7.861637219507894
 30
0.5
 11
-0.5672945052020518
 21
7.861944331881734
 31
0.5
  0
LINE
  5
11F
  8
0
 62
     4
 10
-0.5672945052020518
 20
7.861944331881734
 30
0.5
 11
-0.5584740069234413
 21
7.861312988776103
 31
0.5
  0
LINE
  5
120
  8
0
 62
     4
 10
-0.5584740069234413
 20
7.861312988776103
 30
0.5
 11
-0.542899115961982
 21
7.862902309869733
 31
0.5
  0
LINE
  5
121
  8
0
 62
     4
 10
-0.542899115961982
 20
7.862902309869733
 30
0.5
 11
-0.5293140561306223
 21
7.86539044800464
 31
0.5
  0
LINE
  5
122
  8
0
 62
     4
 10
-0.5293140561306223
 20
7.86539044800464
 30
0.5
 11
-0.5157676371598909
 21
7.868853682485499
 31
0.5
  0
LINE
  5
123
  8
0
 62
     4
 10
-0.5157676371598909
 20
7.868853682485499
 30
0.5
 11
-0.504212046896825
 21
7.873216736424213
 31
0.5
  0
LINE
  5
124
  8
0
 62
     4
 10
-0.504212046896825
 20
7.873216736424213
 30
0.5
 11
-0.4936691914237597
 21
7.878517243425818
 31
0.5
  0
LINE
  5
125
  8
0
 62
     4
 10
-0.4936691914237597
 20
7.878517243425818
 30
0.5
 11
-0.4841410707348415
 21
7.884755208329326
 31
0.5
  0
LINE
  5
126
  8
0
 62
     4
 10
-0.4841410707348415
 20
7.884755208329326
 30
0.5
 11
-0.4766027787565154
 21
7.891892990271184
 31
0.5
  0
LINE
  5
127
  8
0
 62
     4
 10
-0.4766027787565154
 20
7.891892990271184
 30
0.5
 11
-0.4701168624258917
 21
7.90094332404139
 31
0.5
  0
LINE
  5
128
  8
0
 62
     4
 10
-0.4701168624258917
 20
7.90094332404139
 30
0.5
 11
-0.4646456808794148
 21
7.910931115713502
 31
0.5
  0
LINE
  5
129
  8
0
 62
     4
 10
-0.4646456808794148
 20
7.910931115713502
 30
0.5
 11
-0.4582746798750822
 21
7.922909736093279
 31
0.5
  0
LINE
  5
12A
  8
0
 62
     4
 10
-0.4582746798750822
 20
7.922909736093279
 30
0.5
 11
-0.4519799605949335
 21
7.936838546745453
 31
0.5
  0
LINE
  5
12B
  8
0
 62
     4
 10
-0.4519799605949335
 20
7.936838546745453
 30
0.5
 11
-0.4457625157775204
 21
7.95272055008075
 31
0.5
  0
LINE
  5
12C
  8
0
 62
     4
 10
-0.4457625157775204
 20
7.95272055008075
 30
0.5
 11
-0.4395837142402428
 21
7.969576649764928
 31
0.5
  0
LINE
  5
12D
  8
0
 62
     4
 10
-0.4395837142402428
 20
7.969576649764928
 30
0.5
 11
-0.4325050932451095
 21
7.988423578156771
 31
0.5
  0
LINE
  5
12E
  8
0
 62
     4
 10
-0.4325050932451095
 20
7.988423578156771
 30
0.5
 11
-0.4255413875762674
 21
8.010198793158185
 31
0.5
  0
LINE
  5
12F
  8
0
 62
     4
 10
-0.4255413875762674
 20
8.010198793158185
 30
0.5
 11
-0.4186163251875607
 21
8.032948104508474
 31
0.5
  0
LINE
  5
130
  8
0
 62
     4
 10
-0.4186163251875607
 20
8.032948104508474
 30
0.5
 11
-0.708237536911397
 21
8.71351483709582
 31
0.5
  0
LINE
  5
131
  8
0
 62
     4
 10
-0.3108171434830816
 20
8.025453261691933
 30
0.5
 11
-0.3108171434830816
 21
8.025453261691933
 31
0.5
  0
LINE
  5
132
  8
0
 62
     4
 10
0.0382765059551679
 20
8.846541030482751
 30
0.5
 11
0.0411331368392589
 21
9.001788573255549
 31
0.5
  0
LINE
  5
133
  8
0
 62
     4
 10
0.0411331368392589
 20
9.001788573255549
 30
0.5
 11
0.1748995699615254
 21
8.999325917220657
 31
0.5
  0
LINE
  5
134
  8
0
 62
     4
 10
0.1748995699615254
 20
8.999325917220657
 30
0.5
 11
0.1720429414969415
 21
8.844079374444931
 31
0.5
  0
LINE
  5
135
  8
0
 62
     4
 10
0.1720429414969415
 20
8.844079374444931
 30
0.5
 11
0.1393903806426458
 21
8.662031844690592
 31
0.5
  0
LINE
  5
136
  8
0
 62
     4
 10
0.1393903806426458
 20
8.662031844690592
 30
0.5
 11
0.0671363866703429
 21
8.663361667630094
 31
0.5
  0
LINE
  5
137
  8
0
 62
     4
 10
0.0671363866703429
 20
8.663361667630094
 30
0.5
 11
0.0382765059551679
 21
8.846541030482751
 31
0.5
  0
LINE
  5
138
  8
0
 62
     4
 10
0.3927730065552647
 20
8.255289593104129
 30
0.5
 11
0.3943580652181561
 21
8.237539706089413
 31
0.5
  0
LINE
  5
139
  8
0
 62
     4
 10
0.3943580652181561
 20
8.237539706089413
 30
0.5
 11
0.3970666596009291
 21
8.221663106155246
 31
0.5
  0
LINE
  5
13A
  8
0
 62
     4
 10
0.3970666596009291
 20
8.221663106155246
 30
0.5
 11
0.400748076931213
 21
8.205712152251472
 31
0.5
  0
LINE
  5
13B
  8
0
 62
     4
 10
0.400748076931213
 20
8.205712152251472
 30
0.5
 11
0.4065248529318163
 21
8.191560133878152
 31
0.5
  0
LINE
  5
13C
  8
0
 62
     4
 10
0.4065248529318163
 20
8.191560133878152
 30
0.5
 11
0.4123026313489997
 21
8.177409113082394
 31
0.5
  0
LINE
  5
13D
  8
0
 62
     4
 10
0.4123026313489997
 20
8.177409113082394
 30
0.5
 11
0.4201757660169955
 21
8.165056027820016
 31
0.5
  0
LINE
  5
13E
  8
0
 62
     4
 10
0.4201757660169955
 20
8.165056027820016
 30
0.5
 11
0.4281232570741035
 21
8.153676765502221
 31
0.5
  0
LINE
  5
13F
  8
0
 62
     4
 10
0.4281232570741035
 20
8.153676765502221
 30
0.5
 11
0.4381671092181109
 21
8.144097436292441
 31
0.5
  0
LINE
  5
140
  8
0
 62
     4
 10
0.4381671092181109
 20
8.144097436292441
 30
0.5
 11
0.4491837843096294
 21
8.134443753113057
 31
0.5
  0
LINE
  5
141
  8
0
 62
     4
 10
0.4491837843096294
 20
8.134443753113057
 30
0.5
 11
0.4613229927044493
 21
8.126662359436656
 31
0.5
  0
LINE
  5
142
  8
0
 62
     4
 10
0.4613229927044493
 20
8.126662359436656
 30
0.5
 11
0.4754098494079442
 21
8.118733252979103
 31
0.5
  0
LINE
  5
143
  8
0
 62
     4
 10
0.4754098494079442
 20
8.118733252979103
 30
0.5
 11
0.4896444188925905
 21
8.112751794830228
 31
0.5
  0
LINE
  5
144
  8
0
 62
     4
 10
0.4896444188925905
 20
8.112751794830228
 30
0.5
 11
0.5059019906525901
 21
8.107595444428203
 31
0.5
  0
LINE
  5
145
  8
0
 62
     4
 10
0.5059019906525901
 20
8.107595444428203
 30
0.5
 11
0.522232918804629
 21
8.103412919390268
 31
0.5
  0
LINE
  5
146
  8
0
 62
     4
 10
0.522232918804629
 20
8.103412919390268
 30
0.5
 11
0.5406592056269872
 21
8.101029329882783
 31
0.5
  0
LINE
  5
147
  8
0
 62
     4
 10
0.5406592056269872
 20
8.101029329882783
 30
0.5
 11
0.5600603153910023
 21
8.098571381566682
 31
0.5
  0
LINE
  5
148
  8
0
 62
     4
 10
0.5600603153910023
 20
8.098571381566682
 30
0.5
 11
0.578560958602473
 21
8.097161615003783
 31
0.5
  0
LINE
  5
149
  8
0
 62
     4
 10
0.578560958602473
 20
8.097161615003783
 30
0.5
 11
0.5962364916475841
 21
8.097773850719161
 31
0.5
  0
LINE
  5
14A
  8
0
 62
     4
 10
0.5962364916475841
 20
8.097773850719161
 30
0.5
 11
0.6130125581372233
 21
8.099434265768238
 31
0.5
  0
LINE
  5
14B
  8
0
 62
     4
 10
0.6130125581372233
 20
8.099434265768238
 30
0.5
 11
0.6278419763152606
 21
8.101242391178957
 31
0.5
  0
LINE
  5
14C
  8
0
 62
     4
 10
0.6278419763152606
 20
8.101242391178957
 30
0.5
 11
0.6428191072744496
 21
8.104998164898356
 31
0.5
  0
LINE
  5
14D
  8
0
 62
     4
 10
0.6428191072744496
 20
8.104998164898356
 30
0.5
 11
0.6559229463140756
 21
8.109875474343486
 31
0.5
  0
LINE
  5
14E
  8
0
 62
     4
 10
0.6559229463140756
 20
8.109875474343486
 30
0.5
 11
0.6680529648286249
 21
8.114828140174803
 31
0.5
  0
LINE
  5
14F
  8
0
 62
     4
 10
0.6680529648286249
 20
8.114828140174803
 30
0.5
 11
0.6803306937048186
 21
8.121727454317723
 31
0.5
  0
LINE
  5
150
  8
0
 62
     4
 10
0.6803306937048186
 20
8.121727454317723
 30
0.5
 11
0.6896879537443333
 21
8.128849835208472
 31
0.5
  0
LINE
  5
151
  8
0
 62
     4
 10
0.6896879537443333
 20
8.128849835208472
 30
0.5
 11
0.6991195677534533
 21
8.136945039046731
 31
0.5
  0
LINE
  5
152
  8
0
 62
     4
 10
0.6991195677534533
 20
8.136945039046731
 30
0.5
 11
0.7066778946820246
 21
8.146163778604873
 31
0.5
  0
LINE
  5
153
  8
0
 62
     4
 10
0.7066778946820246
 20
8.146163778604873
 30
0.5
 11
0.7132623962465049
 21
8.155455874555052
 31
0.5
  0
LINE
  5
154
  8
0
 62
     4
 10
0.7132623962465049
 20
8.155455874555052
 30
0.5
 11
0.7188730748664013
 21
8.164822326894344
 31
0.5
  0
LINE
  5
155
  8
0
 62
     4
 10
0.7188730748664013
 20
8.164822326894344
 30
0.5
 11
0.7226104615667349
 21
8.175310314959372
 31
0.5
  0
LINE
  5
156
  8
0
 62
     4
 10
0.7226104615667349
 20
8.175310314959372
 30
0.5
 11
0.7253740277419916
 21
8.185873659410587
 31
0.5
  0
LINE
  5
157
  8
0
 62
     4
 10
0.7253740277419916
 20
8.185873659410587
 30
0.5
 11
0.7271637685531573
 21
8.196510360253837
 31
0.5
  0
LINE
  5
158
  8
0
 62
     4
 10
0.7271637685531573
 20
8.196510360253837
 30
0.5
 11
0.7267837943048913
 21
8.204374302622057
 31
0.5
  0
LINE
  5
159
  8
0
 62
     4
 10
0.7267837943048913
 20
8.204374302622057
 30
0.5
 11
0.7263294636675131
 21
8.211264422045691
 31
0.5
  0
LINE
  5
15A
  8
0
 62
     4
 10
0.7263294636675131
 20
8.211264422045691
 30
0.5
 11
0.7258751354496419
 21
8.218155541466398
 31
0.5
  0
LINE
  5
15B
  8
0
 62
     4
 10
0.7258751354496419
 20
8.218155541466398
 30
0.5
 11
0.7244469818676796
 21
8.225120017279144
 31
0.5
  0
LINE
  5
15C
  8
0
 62
     4
 10
0.7244469818676796
 20
8.225120017279144
 30
0.5
 11
0.7219706489520212
 21
8.231185026536419
 31
0.5
  0
LINE
  5
15D
  8
0
 62
     4
 10
0.7219706489520212
 20
8.231185026536419
 30
0.5
 11
0.7194953160334358
 21
8.237250033374185
 31
0.5
  0
LINE
  5
15E
  8
0
 62
     4
 10
0.7194953160334358
 20
8.237250033374185
 30
0.5
 11
0.7160451601731935
 21
8.243389399020574
 31
0.5
  0
LINE
  5
15F
  8
0
 62
     4
 10
0.7160451601731935
 20
8.243389399020574
 30
0.5
 11
0.7115478225568207
 21
8.248628295694909
 31
0.5
  0
LINE
  5
160
  8
0
 62
     4
 10
0.7115478225568207
 20
8.248628295694909
 30
0.5
 11
0.7069751309737699
 21
8.25289437184124
 31
0.5
  0
LINE
  5
161
  8
0
 62
     4
 10
0.7069751309737699
 20
8.25289437184124
 30
0.5
 11
0.7024777957769043
 21
8.258134268512647
 31
0.5
  0
LINE
  5
162
  8
0
 62
     4
 10
0.7024777957769043
 20
8.258134268512647
 30
0.5
 11
0.6969322812463423
 21
8.262474698628584
 31
0.5
  0
LINE
  5
163
  8
0
 62
     4
 10
0.6969322812463423
 20
8.262474698628584
 30
0.5
 11
0.6913867642962734
 21
8.266814128747447
 31
0.5
  0
LINE
  5
164
  8
0
 62
     4
 10
0.6913867642962734
 20
8.266814128747447
 30
0.5
 11
0.6857668933765995
 21
8.270180735918801
 31
0.5
  0
LINE
  5
165
  8
0
 62
     4
 10
0.6857668933765995
 20
8.270180735918801
 30
0.5
 11
0.6801470224569254
 21
8.273547343090153
 31
0.5
  0
LINE
  5
166
  8
0
 62
     4
 10
0.6801470224569254
 20
8.273547343090153
 30
0.5
 11
0.6735533285926673
 21
8.276988306650617
 31
0.5
  0
LINE
  5
167
  8
0
 62
     4
 10
0.6735533285926673
 20
8.276988306650617
 30
0.5
 11
0.6669596323089021
 21
8.280428270214008
 31
0.5
  0
LINE
  5
168
  8
0
 62
     4
 10
0.6669596323089021
 20
8.280428270214008
 30
0.5
 11
0.6593177591109479
 21
8.282969767219001
 31
0.5
  0
LINE
  5
169
  8
0
 62
     4
 10
0.6593177591109479
 20
8.282969767219001
 30
0.5
 11
0.6488297710459199
 21
8.286707153919334
 31
0.5
  0
LINE
  5
16A
  8
0
 62
     4
 10
0.6488297710459199
 20
8.286707153919334
 30
0.5
 11
0.6364674910642563
 21
8.291566078764912
 31
0.5
  0
LINE
  5
16B
  8
0
 62
     4
 10
0.6364674910642563
 20
8.291566078764912
 30
0.5
 11
0.6221585676100047
 21
8.296574713966278
 31
0.5
  0
LINE
  5
16C
  8
0
 62
     4
 10
0.6221585676100047
 20
8.296574713966278
 30
0.5
 11
0.6050025268720994
 21
8.302778241285418
 31
0.5
  0
LINE
  5
16D
  8
0
 62
     4
 10
0.6050025268720994
 20
8.302778241285418
 30
0.5
 11
0.5868716656120441
 21
8.309057127410251
 31
0.5
  0
LINE
  5
16E
  8
0
 62
     4
 10
0.5868716656120441
 20
8.309057127410251
 30
0.5
 11
0.5658203330958028
 21
8.315558080285843
 31
0.5
  0
LINE
  5
16F
  8
0
 62
     4
 10
0.5658203330958028
 20
8.315558080285843
 30
0.5
 11
0.5428957110795061
 21
8.323181568884241
 31
0.5
  0
LINE
  5
170
  8
0
 62
     4
 10
0.5428957110795061
 20
8.323181568884241
 30
0.5
 11
0.5085092756340902
 21
8.334615800575012
 31
0.5
  0
LINE
  5
171
  8
0
 62
     4
 10
0.5085092756340902
 20
8.334615800575012
 30
0.5
 11
0.4771176678339726
 21
8.346801788459613
 31
0.5
  0
LINE
  5
172
  8
0
 62
     4
 10
0.4771176678339726
 20
8.346801788459613
 30
0.5
 11
0.4486475312871138
 21
8.358765707173948
 31
0.5
  0
LINE
  5
173
  8
0
 62
     4
 10
0.4486475312871138
 20
8.358765707173948
 30
0.5
 11
0.4241470429077031
 21
8.371406023276418
 31
0.5
  0
LINE
  5
174
  8
0
 62
     4
 10
0.4241470429077031
 20
8.371406023276418
 30
0.5
 11
0.4015932004203875
 21
8.38389762902017
 31
0.5
  0
LINE
  5
175
  8
0
 62
     4
 10
0.4015932004203875
 20
8.38389762902017
 30
0.5
 11
0.3830090085200271
 21
8.39706663214913
 31
0.5
  0
LINE
  5
176
  8
0
 62
     4
 10
0.3830090085200271
 20
8.39706663214913
 30
0.5
 11
0.3673452854563454
 21
8.410012568530261
 31
0.5
  0
LINE
  5
177
  8
0
 62
     4
 10
0.3673452854563454
 20
8.410012568530261
 30
0.5
 11
0.3555768565905067
 21
8.422662079352016
 31
0.5
  0
LINE
  5
178
  8
0
 62
     4
 10
0.3555768565905067
 20
8.422662079352016
 30
0.5
 11
0.3448566070583642
 21
8.436211056729242
 31
0.5
  0
LINE
  5
179
  8
0
 62
     4
 10
0.3448566070583642
 20
8.436211056729242
 30
0.5
 11
0.336158359804502
 21
8.45058514427283
 31
0.5
  0
LINE
  5
17A
  8
0
 62
     4
 10
0.336158359804502
 20
8.45058514427283
 30
0.5
 11
0.329481117251354
 21
8.465785344399356
 31
0.5
  0
LINE
  5
17B
  8
0
 62
     4
 10
0.329481117251354
 20
8.465785344399356
 30
0.5
 11
0.3237776952232828
 21
8.480910188139697
 31
0.5
  0
LINE
  5
17C
  8
0
 62
     4
 10
0.3237776952232828
 20
8.480910188139697
 30
0.5
 11
0.3200219215038867
 21
8.495887319098884
 31
0.5
  0
LINE
  5
17D
  8
0
 62
     4
 10
0.3200219215038867
 20
8.495887319098884
 30
0.5
 11
0.3173143271181868
 21
8.511763916613544
 31
0.5
  0
LINE
  5
17E
  8
0
 62
     4
 10
0.3173143271181868
 20
8.511763916613544
 30
0.5
 11
0.3166287350107671
 21
8.528465624294563
 31
0.5
  0
LINE
  5
17F
  8
0
 62
     4
 10
0.3166287350107671
 20
8.528465624294563
 30
0.5
 11
0.3169903246594775
 21
8.546067800947636
 31
0.5
  0
LINE
  5
180
  8
0
 62
     4
 10
0.3169903246594775
 20
8.546067800947636
 30
0.5
 11
0.319595983337225
 21
8.567415559023255
 31
0.5
  0
LINE
  5
181
  8
0
 62
     4
 10
0.319595983337225
 20
8.567415559023255
 30
0.5
 11
0.3249754004870799
 21
8.586593599619933
 31
0.5
  0
LINE
  5
182
  8
0
 62
     4
 10
0.3249754004870799
 20
8.586593599619933
 30
0.5
 11
0.3313276405844457
 21
8.605697286247006
 31
0.5
  0
LINE
  5
183
  8
0
 62
     4
 10
0.3313276405844457
 20
8.605697286247006
 30
0.5
 11
0.3405269955459583
 21
8.623605080759232
 31
0.5
  0
LINE
  5
184
  8
0
 62
     4
 10
0.3405269955459583
 20
8.623605080759232
 30
0.5
 11
0.3515262836154872
 21
8.639416514184557
 31
0.5
  0
LINE
  5
185
  8
0
 62
     4
 10
0.3515262836154872
 20
8.639416514184557
 30
0.5
 11
0.3644722199966181
 21
8.655080237248239
 31
0.5
  0
LINE
  5
186
  8
0
 62
     4
 10
0.3644722199966181
 20
8.655080237248239
 30
0.5
 11
0.3792914434582977
 21
8.669620424592038
 31
0.5
  0
LINE
  5
187
  8
0
 62
     4
 10
0.3792914434582977
 20
8.669620424592038
 30
0.5
 11
0.3969587842007041
 21
8.682965717398558
 31
0.5
  0
LINE
  5
188
  8
0
 62
     4
 10
0.3969587842007041
 20
8.682965717398558
 30
0.5
 11
0.4154502351123968
 21
8.694289010346303
 31
0.5
  0
LINE
  5
189
  8
0
 62
     4
 10
0.4154502351123968
 20
8.694289010346303
 30
0.5
 11
0.4358149755241453
 21
8.704489767571239
 31
0.5
  0
LINE
  5
18A
  8
0
 62
     4
 10
0.4358149755241453
 20
8.704489767571239
 30
0.5
 11
0.4579796514634171
 21
8.71259516370635
 31
0.5
  0
LINE
  5
18B
  8
0
 62
     4
 10
0.4579796514634171
 20
8.71259516370635
 30
0.5
 11
0.4809694351495416
 21
8.718677557566107
 31
0.5
  0
LINE
  5
18C
  8
0
 62
     4
 10
0.4809694351495416
 20
8.718677557566107
 30
0.5
 11
0.5047843338410394
 21
8.72273994914173
 31
0.5
  0
LINE
  5
18D
  8
0
 62
     4
 10
0.5047843338410394
 20
8.72273994914173
 30
0.5
 11
0.530472522032593
 21
8.725679804994542
 31
0.5
  0
LINE
  5
18E
  8
0
 62
     4
 10
0.530472522032593
 20
8.725679804994542
 30
0.5
 11
0.5578852869459776
 21
8.725549479235381
 31
0.5
  0
LINE
  5
18F
  8
0
 62
     4
 10
0.5578852869459776
 20
8.725549479235381
 30
0.5
 11
0.5861985184119072
 21
8.724370971723017
 31
0.5
  0
LINE
  5
190
  8
0
 62
     4
 10
0.5861985184119072
 20
8.724370971723017
 30
0.5
 11
0.6163096854112141
 21
8.721097107959839
 31
0.5
  0
LINE
  5
191
  8
0
 62
     4
 10
0.6163096854112141
 20
8.721097107959839
 30
0.5
 11
0.644399850129314
 21
8.716998131610795
 31
0.5
  0
LINE
  5
192
  8
0
 62
     4
 10
0.644399850129314
 20
8.716998131610795
 30
0.5
 11
0.6703946561770942
 21
8.711100219731298
 31
0.5
  0
LINE
  5
193
  8
0
 62
     4
 10
0.6703946561770942
 20
8.711100219731298
 30
0.5
 11
0.6943664575300145
 21
8.704376200107882
 31
0.5
  0
LINE
  5
194
  8
0
 62
     4
 10
0.6943664575300145
 20
8.704376200107882
 30
0.5
 11
0.717216725576706
 21
8.695779888561972
 31
0.5
  0
LINE
  5
195
  8
0
 62
     4
 10
0.717216725576706
 20
8.695779888561972
 30
0.5
 11
0.7379716325335712
 21
8.685383641488539
 31
0.5
  0
LINE
  5
196
  8
0
 62
     4
 10
0.7379716325335712
 20
8.685383641488539
 30
0.5
 11
0.7567045372121563
 21
8.674162284248743
 31
0.5
  0
LINE
  5
197
  8
0
 62
     4
 10
0.7567045372121563
 20
8.674162284248743
 30
0.5
 11
0.7743892625570451
 21
8.662041460453478
 31
0.5
  0
LINE
  5
198
  8
0
 62
     4
 10
0.7743892625570451
 20
8.662041460453478
 30
0.5
 11
0.7899042728425021
 21
8.64714787818318
 31
0.5
  0
LINE
  5
199
  8
0
 62
     4
 10
0.7899042728425021
 20
8.64714787818318
 30
0.5
 11
0.8034716348192842
 21
8.632402008694033
 31
0.5
  0
LINE
  5
19A
  8
0
 62
     4
 10
0.8034716348192842
 20
8.632402008694033
 30
0.5
 11
0.8148682841590688
 21
8.61488438314643
 31
0.5
  0
LINE
  5
19B
  8
0
 62
     4
 10
0.8148682841590688
 20
8.61488438314643
 30
0.5
 11
0.8243182851872511
 21
8.597514467960474
 31
0.5
  0
LINE
  5
19C
  8
0
 62
     4
 10
0.8243182851872511
 20
8.597514467960474
 30
0.5
 11
0.8325723941005859
 21
8.577297437910371
 31
0.5
  0
LINE
  5
19D
  8
0
 62
     4
 10
0.8325723941005859
 20
8.577297437910371
 30
0.5
 11
0.8388035007385675
 21
8.556255300113412
 31
0.5
  0
LINE
  5
19E
  8
0
 62
     4
 10
0.8388035007385675
 20
8.556255300113412
 30
0.5
 11
0.8430136050953418
 21
8.534388049730591
 31
0.5
  0
LINE
  5
19F
  8
0
 62
     4
 10
0.8430136050953418
 20
8.534388049730591
 30
0.5
 11
0.8451283507817968
 21
8.510721863817318
 31
0.5
  0
LINE
  5
1A0
  8
0
 62
     4
 10
0.8451283507817968
 20
8.510721863817318
 30
0.5
 11
0.7300133204534258
 21
8.503822365248711
 31
0.5
  0
LINE
  5
1A1
  8
0
 62
     4
 10
0.7300133204534258
 20
8.503822365248711
 30
0.5
 11
0.7281308386535924
 21
8.517677960482164
 31
0.5
  0
LINE
  5
1A2
  8
0
 62
     4
 10
0.7281308386535924
 20
8.517677960482164
 30
0.5
 11
0.7261739980451397
 21
8.53055873277396
 31
0.5
  0
LINE
  5
1A3
  8
0
 62
     4
 10
0.7261739980451397
 20
8.53055873277396
 30
0.5
 11
0.7232433344921029
 21
8.543513861454867
 31
0.5
  0
LINE
  5
1A4
  8
0
 62
     4
 10
0.7232433344921029
 20
8.543513861454867
 30
0.5
 11
0.7182173122687469
 21
8.554670054605325
 31
0.5
  0
LINE
  5
1A5
  8
0
 62
     4
 10
0.7182173122687469
 20
8.554670054605325
 30
0.5
 11
0.7131169360757856
 21
8.564853424808275
 31
0.5
  0
LINE
  5
1A6
  8
0
 62
     4
 10
0.7131169360757856
 20
8.564853424808275
 30
0.5
 11
0.7060689115741493
 21
8.575184507792372
 31
0.5
  0
LINE
  5
1A7
  8
0
 62
     4
 10
0.7060689115741493
 20
8.575184507792372
 30
0.5
 11
0.6988731742913614
 21
8.583567942467795
 31
0.5
  0
LINE
  5
1A8
  8
0
 62
     4
 10
0.6988731742913614
 20
8.583567942467795
 30
0.5
 11
0.6907026140669167
 21
8.592025735951838
 31
0.5
  0
LINE
  5
1A9
  8
0
 62
     4
 10
0.6907026140669167
 20
8.592025735951838
 30
0.5
 11
0.6814848720863417
 21
8.59958306046383
 31
0.5
  0
LINE
  5
1AA
  8
0
 62
     4
 10
0.6814848720863417
 20
8.59958306046383
 30
0.5
 11
0.6712189531915773
 21
8.606241918417423
 31
0.5
  0
LINE
  5
1AB
  8
0
 62
     4
 10
0.6712189531915773
 20
8.606241918417423
 30
0.5
 11
0.6589310320185331
 21
8.612075666204655
 31
0.5
  0
LINE
  5
1AC
  8
0
 62
     4
 10
0.6589310320185331
 20
8.612075666204655
 30
0.5
 11
0.6465697520339422
 21
8.616934588630723
 31
0.5
  0
LINE
  5
1AD
  8
0
 62
     4
 10
0.6465697520339422
 20
8.616934588630723
 30
0.5
 11
0.6331592951380894
 21
8.620895046917902
 31
0.5
  0
LINE
  5
1AE
  8
0
 62
     4
 10
0.6331592951380894
 20
8.620895046917902
 30
0.5
 11
0.6187016564861064
 21
8.623955036233031
 31
0.5
  0
LINE
  5
1AF
  8
0
 62
     4
 10
0.6187016564861064
 20
8.623955036233031
 30
0.5
 11
0.6032701973090464
 21
8.627090381934341
 31
0.5
  0
LINE
  5
1B0
  8
0
 62
     4
 10
0.6032701973090464
 20
8.627090381934341
 30
0.5
 11
0.5876910229313277
 21
8.628277079329902
 31
0.5
  0
LINE
  5
1B1
  8
0
 62
     4
 10
0.5876910229313277
 20
8.628277079329902
 30
0.5
 11
0.5711370256119521
 21
8.629538135534084
 31
0.5
  0
LINE
  5
1B2
  8
0
 62
     4
 10
0.5711370256119521
 20
8.629538135534084
 30
0.5
 11
0.5554824972675553
 21
8.629752012401642
 31
0.5
  0
LINE
  5
1B3
  8
0
 62
     4
 10
0.5554824972675553
 20
8.629752012401642
 30
0.5
 11
0.5407284354757033
 21
8.628917707515999
 31
0.5
  0
LINE
  5
1B4
  8
0
 62
     4
 10
0.5407284354757033
 20
8.628917707515999
 30
0.5
 11
0.5268738402393227
 21
8.627035223296659
 31
0.5
  0
LINE
  5
1B5
  8
0
 62
     4
 10
0.5268738402393227
 20
8.627035223296659
 30
0.5
 11
0.5130182450058693
 21
8.625152741496825
 31
0.5
  0
LINE
  5
1B6
  8
0
 62
     4
 10
0.5130182450058693
 20
8.625152741496825
 30
0.5
 11
0.5000631163249607
 21
8.622222077943787
 31
0.5
  0
LINE
  5
1B7
  8
0
 62
     4
 10
0.5000631163249607
 20
8.622222077943787
 30
0.5
 11
0.4889812795636149
 21
8.618169878665016
 31
0.5
  0
LINE
  5
1B8
  8
0
 62
     4
 10
0.4889812795636149
 20
8.618169878665016
 30
0.5
 11
0.4778984403856889
 21
8.614116681808678
 31
0.5
  0
LINE
  5
1B9
  8
0
 62
     4
 10
0.4778984403856889
 20
8.614116681808678
 30
0.5
 11
0.4677160701798147
 21
8.60901630319621
 31
0.5
  0
LINE
  5
1BA
  8
0
 62
     4
 10
0.4677160701798147
 20
8.60901630319621
 30
0.5
 11
0.4584331665294121
 21
8.602867745250046
 31
0.5
  0
LINE
  5
1BB
  8
0
 62
     4
 10
0.4584331665294121
 20
8.602867745250046
 30
0.5
 11
0.4510235547985723
 21
8.595597651578144
 31
0.5
  0
LINE
  5
1BC
  8
0
 62
     4
 10
0.4510235547985723
 20
8.595597651578144
 30
0.5
 11
0.4445877660123165
 21
8.588253201517134
 31
0.5
  0
LINE
  5
1BD
  8
0
 62
     4
 10
0.4445877660123165
 20
8.588253201517134
 30
0.5
 11
0.4390514437815324
 21
8.579860572122424
 31
0.5
  0
LINE
  5
1BE
  8
0
 62
     4
 10
0.4390514437815324
 20
8.579860572122424
 30
0.5
 11
0.4354617674428432
 21
8.571319232368998
 31
0.5
  0
LINE
  5
1BF
  8
0
 62
     4
 10
0.4354617674428432
 20
8.571319232368998
 30
0.5
 11
0.4327725576566988
 21
8.56172971086237
 31
0.5
  0
LINE
  5
1C0
  8
0
 62
     4
 10
0.4327725576566988
 20
8.56172971086237
 30
0.5
 11
0.430982816845533
 21
8.551093010019116
 31
0.5
  0
LINE
  5
1C1
  8
0
 62
     4
 10
0.430982816845533
 20
8.551093010019116
 30
0.5
 11
0.4312140783155745
 21
8.541281421761731
 31
0.5
  0
LINE
  5
1C2
  8
0
 62
     4
 10
0.4312140783155745
 20
8.541281421761731
 30
0.5
 11
0.431446339782689
 21
8.531469831084838
 31
0.5
  0
LINE
  5
1C3
  8
0
 62
     4
 10
0.431446339782689
 20
8.531469831084838
 30
0.5
 11
0.4337739599201229
 21
8.523457175938395
 31
0.5
  0
LINE
  5
1C4
  8
0
 62
     4
 10
0.4337739599201229
 20
8.523457175938395
 30
0.5
 11
0.4370754054216479
 21
8.515371164399914
 31
0.5
  0
LINE
  5
1C5
  8
0
 62
     4
 10
0.4370754054216479
 20
8.515371164399914
 30
0.5
 11
0.440451204892778
 21
8.508257975808942
 31
0.5
  0
LINE
  5
1C6
  8
0
 62
     4
 10
0.440451204892778
 20
8.508257975808942
 30
0.5
 11
0.4457736502560031
 21
8.500996076859254
 31
0.5
  0
LINE
  5
1C7
  8
0
 62
     4
 10
0.4457736502560031
 20
8.500996076859254
 30
0.5
 11
0.4522186337615438
 21
8.495608467406694
 31
0.5
  0
LINE
  5
1C8
  8
0
 62
     4
 10
0.4522186337615438
 20
8.495608467406694
 30
0.5
 11
0.4596384402087413
 21
8.490146499145515
 31
0.5
  0
LINE
  5
1C9
  8
0
 62
     4
 10
0.4596384402087413
 20
8.490146499145515
 30
0.5
 11
0.4680310671839427
 21
8.484609176917658
 31
0.5
  0
LINE
  5
1CA
  8
0
 62
     4
 10
0.4680310671839427
 20
8.484609176917658
 30
0.5
 11
0.4793441678348373
 21
8.478850787936118
 31
0.5
  0
LINE
  5
1CB
  8
0
 62
     4
 10
0.4793441678348373
 20
8.478850787936118
 30
0.5
 11
0.4916320890078816
 21
8.473017040148884
 31
0.5
  0
LINE
  5
1CC
  8
0
 62
     4
 10
0.4916320890078816
 20
8.473017040148884
 30
0.5
 11
0.5068414814341851
 21
8.466961223191388
 31
0.5
  0
LINE
  5
1CD
  8
0
 62
     4
 10
0.5068414814341851
 20
8.466961223191388
 30
0.5
 11
0.523923163363471
 21
8.459782872930589
 31
0.5
  0
LINE
  5
1CE
  8
0
 62
     4
 10
0.523923163363471
 20
8.459782872930589
 30
0.5
 11
0.541978670656848
 21
8.452531166277751
 31
0.5
  0
LINE
  5
1CF
  8
0
 62
     4
 10
0.541978670656848
 20
8.452531166277751
 30
0.5
 11
0.5629566467810501
 21
8.445056388038072
 31
0.5
  0
LINE
  5
1D0
  8
0
 62
     4
 10
0.5629566467810501
 20
8.445056388038072
 30
0.5
 11
0.5858802688002738
 21
8.437432901859177
 31
0.5
  0
LINE
  5
1D1
  8
0
 62
     4
 10
0.5858802688002738
 20
8.437432901859177
 30
0.5
 11
0.6116520056807173
 21
8.42861352114593
 31
0.5
  0
LINE
  5
1D2
  8
0
 62
     4
 10
0.6116520056807173
 20
8.42861352114593
 30
0.5
 11
0.6354760966719929
 21
8.419942853210909
 31
0.5
  0
LINE
  5
1D3
  8
0
 62
     4
 10
0.6354760966719929
 20
8.419942853210909
 30
0.5
 11
0.6583263622991777
 21
8.411345541667926
 31
0.5
  0
LINE
  5
1D4
  8
0
 62
     4
 10
0.6583263622991777
 20
8.411345541667926
 30
0.5
 11
0.6793043384233796
 21
8.403870763428246
 31
0.5
  0
LINE
  5
1D5
  8
0
 62
     4
 10
0.6793043384233796
 20
8.403870763428246
 30
0.5
 11
0.6983336686613407
 21
8.396544700386297
 31
0.5
  0
LINE
  5
1D6
  8
0
 62
     4
 10
0.6983336686613407
 20
8.396544700386297
 30
0.5
 11
0.7154153505906266
 21
8.389366350125497
 31
0.5
  0
LINE
  5
1D7
  8
0
 62
     4
 10
0.7154153505906266
 20
8.389366350125497
 30
0.5
 11
0.7315242095724018
 21
8.382262353834303
 31
0.5
  0
LINE
  5
1D8
  8
0
 62
     4
 10
0.7315242095724018
 20
8.382262353834303
 30
0.5
 11
0.7456854226650088
 21
8.375307070321336
 31
0.5
  0
LINE
  5
1D9
  8
0
 62
     4
 10
0.7456854226650088
 20
8.375307070321336
 30
0.5
 11
0.757897989871375
 21
8.3685005020061
 31
0.5
  0
LINE
  5
1DA
  8
0
 62
     4
 10
0.757897989871375
 20
8.3685005020061
 30
0.5
 11
0.7701115546553072
 21
8.361692931274282
 31
0.5
  0
LINE
  5
1DB
  8
0
 62
     4
 10
0.7701115546553072
 20
8.361692931274282
 30
0.5
 11
0.7812769425250503
 21
8.353986893984066
 31
0.5
  0
LINE
  5
1DC
  8
0
 62
     4
 10
0.7812769425250503
 20
8.353986893984066
 30
0.5
 11
0.7914695050277751
 21
8.346354210666382
 31
0.5
  0
LINE
  5
1DD
  8
0
 62
     4
 10
0.7914695050277751
 20
8.346354210666382
 30
0.5
 11
0.8006128906192378
 21
8.337823063209807
 31
0.5
  0
LINE
  5
1DE
  8
0
 62
     4
 10
0.8006128906192378
 20
8.337823063209807
 30
0.5
 11
0.8096829173991544
 21
8.328317090392067
 31
0.5
  0
LINE
  5
1DF
  8
0
 62
     4
 10
0.8096829173991544
 20
8.328317090392067
 30
0.5
 11
0.8177781212374139
 21
8.318885476382947
 31
0.5
  0
LINE
  5
1E0
  8
0
 62
     4
 10
0.8177781212374139
 20
8.318885476382947
 30
0.5
 11
0.8249005021281625
 21
8.309528216343432
 31
0.5
  0
LINE
  5
1E1
  8
0
 62
     4
 10
0.8249005021281625
 20
8.309528216343432
 30
0.5
 11
0.8309003472961026
 21
8.298297666803864
 31
0.5
  0
LINE
  5
1E2
  8
0
 62
     4
 10
0.8309003472961026
 20
8.298297666803864
 30
0.5
 11
0.8369001924640427
 21
8.287067117264291
 31
0.5
  0
LINE
  5
1E3
  8
0
 62
     4
 10
0.8369001924640427
 20
8.287067117264291
 30
0.5
 11
0.8408046789616633
 21
8.274037632194272
 31
0.5
  0
LINE
  5
1E4
  8
0
 62
     4
 10
0.8408046789616633
 20
8.274037632194272
 30
0.5
 11
0.8437353425147
 21
8.261082503513364
 31
0.5
  0
LINE
  5
1E5
  8
0
 62
     4
 10
0.8437353425147
 20
8.261082503513364
 30
0.5
 11
0.8465916496786244
 21
8.24715355188787
 31
0.5
  0
LINE
  5
1E6
  8
0
 62
     4
 10
0.8465916496786244
 20
8.24715355188787
 30
0.5
 11
0.8474259521447616
 21
8.232398490098944
 31
0.5
  0
LINE
  5
1E7
  8
0
 62
     4
 10
0.8474259521447616
 20
8.232398490098944
 30
0.5
 11
0.8481115442521814
 21
8.215696782417925
 31
0.5
  0
LINE
  5
1E8
  8
0
 62
     4
 10
0.8481115442521814
 20
8.215696782417925
 30
0.5
 11
0.846850488047999
 21
8.19914278509855
 31
0.5
  0
LINE
  5
1E9
  8
0
 62
     4
 10
0.846850488047999
 20
8.19914278509855
 30
0.5
 11
0.8441704729811395
 21
8.176821204078347
 31
0.5
  0
LINE
  5
1EA
  8
0
 62
     4
 10
0.8441704729811395
 20
8.176821204078347
 30
0.5
 11
0.838643343050133
 21
8.155695515172994
 31
0.5
  0
LINE
  5
1EB
  8
0
 62
     4
 10
0.838643343050133
 20
8.155695515172994
 30
0.5
 11
0.8312419236219979
 21
8.135692364409957
 31
0.5
  0
LINE
  5
1EC
  8
0
 62
     4
 10
0.8312419236219979
 20
8.135692364409957
 30
0.5
 11
0.8218948582988411
 21
8.115837921586129
 31
0.5
  0
LINE
  5
1ED
  8
0
 62
     4
 10
0.8218948582988411
 20
8.115837921586129
 30
0.5
 11
0.8097730320869966
 21
8.098152198663675
 31
0.5
  0
LINE
  5
1EE
  8
0
 62
     4
 10
0.8097730320869966
 20
8.098152198663675
 30
0.5
 11
0.7957055623996373
 21
8.080616183677504
 31
0.5
  0
LINE
  5
1EF
  8
0
 62
     4
 10
0.7957055623996373
 20
8.080616183677504
 30
0.5
 11
0.7788643342401703
 21
8.065249886170269
 31
0.5
  0
LINE
  5
1F0
  8
0
 62
     4
 10
0.7788643342401703
 20
8.065249886170269
 30
0.5
 11
0.7600754577720286
 21
8.050031301444189
 31
0.5
  0
LINE
  5
1F1
  8
0
 62
     4
 10
0.7600754577720286
 20
8.050031301444189
 30
0.5
 11
0.7394876481929434
 21
8.036909075385502
 31
0.5
  0
LINE
  5
1F2
  8
0
 62
     4
 10
0.7394876481929434
 20
8.036909075385502
 30
0.5
 11
0.7171009055029148
 21
8.025883207994205
 31
0.5
  0
LINE
  5
1F3
  8
0
 62
     4
 10
0.7171009055029148
 20
8.025883207994205
 30
0.5
 11
0.6938880502299467
 21
8.016878345303622
 31
0.5
  0
LINE
  5
1F4
  8
0
 62
     4
 10
0.6938880502299467
 20
8.016878345303622
 30
0.5
 11
0.668877261843108
 21
8.009969838860926
 31
0.5
  0
LINE
  5
1F5
  8
0
 62
     4
 10
0.668877261843108
 20
8.009969838860926
 30
0.5
 11
0.6419921815396337
 21
8.004182870563472
 31
0.5
  0
LINE
  5
1F6
  8
0
 62
     4
 10
0.6419921815396337
 20
8.004182870563472
 30
0.5
 11
0.6143573474559853
 21
8.001391725069377
 31
0.5
  0
LINE
  5
1F7
  8
0
 62
     4
 10
0.6143573474559853
 20
8.001391725069377
 30
0.5
 11
0.5849225802643202
 21
8.000696940662177
 31
0.5
  0
LINE
  5
1F8
  8
0
 62
     4
 10
0.5849225802643202
 20
8.000696940662177
 30
0.5
 11
0.5536878775451318
 21
8.002097517344806
 31
0.5
  0
LINE
  5
1F9
  8
0
 62
     4
 10
0.5536878775451318
 20
8.002097517344806
 30
0.5
 11
0.522602887601241
 21
8.005445737497098
 31
0.5
  0
LINE
  5
1FA
  8
0
 62
     4
 10
0.522602887601241
 20
8.005445737497098
 30
0.5
 11
0.4926394309635785
 21
8.010666249571877
 31
0.5
  0
LINE
  5
1FB
  8
0
 62
     4
 10
0.4926394309635785
 20
8.010666249571877
 30
0.5
 11
0.4646979814432102
 21
8.016713871807163
 31
0.5
  0
LINE
  5
1FC
  8
0
 62
     4
 10
0.4646979814432102
 20
8.016713871807163
 30
0.5
 11
0.4379524216181827
 21
8.025607608909521
 31
0.5
  0
LINE
  5
1FD
  8
0
 62
     4
 10
0.4379524216181827
 20
8.025607608909521
 30
0.5
 11
0.4142026870160193
 21
8.035252099789126
 31
0.5
  0
LINE
  5
1FE
  8
0
 62
     4
 10
0.4142026870160193
 20
8.035252099789126
 30
0.5
 11
0.3915001317504792
 21
8.045796059643712
 31
0.5
  0
LINE
  5
1FF
  8
0
 62
     4
 10
0.3915001317504792
 20
8.045796059643712
 30
0.5
 11
0.3719421169055347
 21
8.059039419161785
 31
0.5
  0
LINE
  5
200
  8
0
 62
     4
 10
0.3719421169055347
 20
8.059039419161785
 30
0.5
 11
0.3534322813942864
 21
8.073182245235328
 31
0.5
  0
LINE
  5
201
  8
0
 62
     4
 10
0.3534322813942864
 20
8.073182245235328
 30
0.5
 11
0.3370178045533576
 21
8.089124006839322
 31
0.5
  0
LINE
  5
202
  8
0
 62
     4
 10
0.3370178045533576
 20
8.089124006839322
 30
0.5
 11
0.3226996863798213
 21
8.106864701554262
 31
0.5
  0
LINE
  5
203
  8
0
 62
     4
 10
0.3226996863798213
 20
8.106864701554262
 30
0.5
 11
0.3095031039320204
 21
8.126478688188763
 31
0.5
  0
LINE
  5
204
  8
0
 62
     4
 10
0.3095031039320204
 20
8.126478688188763
 30
0.5
 11
0.2993767030961959
 21
8.147817251545096
 31
0.5
  0
LINE
  5
205
  8
0
 62
     4
 10
0.2993767030961959
 20
8.147817251545096
 30
0.5
 11
0.2902974815969946
 21
8.170055283876406
 31
0.5
  0
LINE
  5
206
  8
0
 62
     4
 10
0.2902974815969946
 20
8.170055283876406
 30
0.5
 11
0.2833146211846928
 21
8.194093249315733
 31
0.5
  0
LINE
  5
207
  8
0
 62
     4
 10
0.2833146211846928
 20
8.194093249315733
 30
0.5
 11
0.2784271194427105
 21
8.219930150285514
 31
0.5
  0
LINE
  5
208
  8
0
 62
     4
 10
0.2784271194427105
 20
8.219930150285514
 30
0.5
 11
0.2755626199760813
 21
8.246592159002145
 31
0.5
  0
LINE
  5
209
  8
0
 62
     4
 10
0.2755626199760813
 20
8.246592159002145
 30
0.5
 11
0.3927730065552647
 21
8.255289593104129
 31
0.5
  0
LINE
  5
20A
  8
0
 62
     4
 10
1.606870620850663
 20
7.980465270965017
 30
0.5
 11
1.682835174374882
 21
8.29967540852469
 31
0.5
  0
LINE
  5
20B
  8
0
 62
     4
 10
1.682835174374882
 20
8.29967540852469
 30
0.5
 11
1.897542178996461
 21
8.248580773860866
 31
0.5
  0
LINE
  5
20C
  8
0
 62
     4
 10
1.897542178996461
 20
8.248580773860866
 30
0.5
 11
1.929617376490345
 21
8.239944142415199
 31
0.5
  0
LINE
  5
20D
  8
0
 62
     4
 10
1.929617376490345
 20
8.239944142415199
 30
0.5
 11
1.958615907945252
 21
8.231035954189821
 31
0.5
  0
LINE
  5
20E
  8
0
 62
     4
 10
1.958615907945252
 20
8.231035954189821
 30
0.5
 11
1.985488226188511
 21
8.221628908892118
 31
0.5
  0
LINE
  5
20F
  8
0
 62
     4
 10
1.985488226188511
 20
8.221628908892118
 30
0.5
 11
2.008109125264066
 21
8.211227147021475
 31
0.5
  0
LINE
  5
210
  8
0
 62
     4
 10
2.008109125264066
 20
8.211227147021475
 30
0.5
 11
2.028602811130899
 21
8.200326530498014
 31
0.5
  0
LINE
  5
211
  8
0
 62
     4
 10
2.028602811130899
 20
8.200326530498014
 30
0.5
 11
2.045795533076863
 21
8.188204897106067
 31
0.5
  0
LINE
  5
212
  8
0
 62
     4
 10
2.045795533076863
 20
8.188204897106067
 30
0.5
 11
2.060861044233612
 21
8.175585409058375
 31
0.5
  0
LINE
  5
213
  8
0
 62
     4
 10
2.060861044233612
 20
8.175585409058375
 30
0.5
 11
2.072850886928951
 21
8.162693361814391
 31
0.5
  0
LINE
  5
214
  8
0
 62
     4
 10
2.072850886928951
 20
8.162693361814391
 30
0.5
 11
2.081537765709274
 21
8.148580302540941
 31
0.5
  0
LINE
  5
215
  8
0
 62
     4
 10
2.081537765709274
 20
8.148580302540941
 30
0.5
 11
2.089048888944292
 21
8.133743085896692
 31
0.5
  0
LINE
  5
216
  8
0
 62
     4
 10
2.089048888944292
 20
8.133743085896692
 30
0.5
 11
2.095384256634002
 21
8.118181711881643
 31
0.5
  0
LINE
  5
217
  8
0
 62
     4
 10
2.095384256634002
 20
8.118181711881643
 30
0.5
 11
2.09886925858028
 21
8.103299236333724
 31
0.5
  0
LINE
  5
218
  8
0
 62
     4
 10
2.09886925858028
 20
8.103299236333724
 30
0.5
 11
2.100952204685707
 21
8.086742148168174
 31
0.5
  0
LINE
  5
219
  8
0
 62
     4
 10
2.100952204685707
 20
8.086742148168174
 30
0.5
 11
2.100682639703447
 21
8.06873674768053
 31
0.5
  0
LINE
  5
21A
  8
0
 62
     4
 10
2.100682639703447
 20
8.06873674768053
 30
0.5
 11
2.099463619471425
 21
8.050957645068928
 31
0.5
  0
LINE
  5
21B
  8
0
 62
     4
 10
2.099463619471425
 20
8.050957645068928
 30
0.5
 11
2.096118390866768
 21
8.032681685379144
 31
0.5
  0
LINE
  5
21C
  8
0
 62
     4
 10
2.096118390866768
 20
8.032681685379144
 30
0.5
 11
2.090872246929428
 21
8.014856326286305
 31
0.5
  0
LINE
  5
21D
  8
0
 62
     4
 10
2.090872246929428
 20
8.014856326286305
 30
0.5
 11
2.084902950457376
 21
7.998208720313411
 31
0.5
  0
LINE
  5
21E
  8
0
 62
     4
 10
2.084902950457376
 20
7.998208720313411
 30
0.5
 11
2.077259038948184
 21
7.982962170184292
 31
0.5
  0
LINE
  5
21F
  8
0
 62
     4
 10
2.077259038948184
 20
7.982962170184292
 30
0.5
 11
2.067942514815507
 21
7.969117671057014
 31
0.5
  0
LINE
  5
220
  8
0
 62
     4
 10
2.067942514815507
 20
7.969117671057014
 30
0.5
 11
2.057900835734464
 21
7.956449929891623
 31
0.5
  0
LINE
  5
221
  8
0
 62
     4
 10
2.057900835734464
 20
7.956449929891623
 30
0.5
 11
2.046185544032864
 21
7.945184242147575
 31
0.5
  0
LINE
  5
222
  8
0
 62
     4
 10
2.046185544032864
 20
7.945184242147575
 30
0.5
 11
2.033746097379972
 21
7.935095309945906
 31
0.5
  0
LINE
  5
223
  8
0
 62
     4
 10
2.033746097379972
 20
7.935095309945906
 30
0.5
 11
2.019858335985485
 21
7.927357888834852
 31
0.5
  0
LINE
  5
224
  8
0
 62
     4
 10
2.019858335985485
 20
7.927357888834852
 30
0.5
 11
2.004070661674893
 21
7.920072065898306
 31
0.5
  0
LINE
  5
225
  8
0
 62
     4
 10
2.004070661674893
 20
7.920072065898306
 30
0.5
 11
1.986835677458793
 21
7.915139751627012
 31
0.5
  0
LINE
  5
226
  8
0
 62
     4
 10
1.986835677458793
 20
7.915139751627012
 30
0.5
 11
1.966976622955792
 21
7.911834791075536
 31
0.5
  0
LINE
  5
227
  8
0
 62
     4
 10
1.966976622955792
 20
7.911834791075536
 30
0.5
 11
1.945669256130703
 21
7.910882341611745
 31
0.5
  0
LINE
  5
228
  8
0
 62
     4
 10
1.945669256130703
 20
7.910882341611745
 30
0.5
 11
1.921737821438218
 21
7.911558245864844
 31
0.5
  0
LINE
  5
229
  8
0
 62
     4
 10
1.921737821438218
 20
7.911558245864844
 30
0.5
 11
1.895408616754377
 21
7.914811959084592
 31
0.5
  0
LINE
  5
22A
  8
0
 62
     4
 10
1.895408616754377
 20
7.914811959084592
 30
0.5
 11
1.867405801869483
 21
7.919468725722759
 31
0.5
  0
LINE
  5
22B
  8
0
 62
     4
 10
1.867405801869483
 20
7.919468725722759
 30
0.5
 11
1.837729371944521
 21
7.925526545785196
 31
0.5
  0
LINE
  5
22C
  8
0
 62
     4
 10
1.837729371944521
 20
7.925526545785196
 30
0.5
 11
1.606870620850663
 21
7.980465270965017
 31
0.5
  0
LINE
  5
22D
  8
0
 62
     4
 10
1.812453113813288
 20
7.815097378642256
 30
0.5
 11
1.457141655051483
 21
7.899652304711401
 31
0.5
  0
LINE
  5
22E
  8
0
 62
     4
 10
1.457141655051483
 20
7.899652304711401
 30
0.5
 11
1.678024042743158
 21
8.827833595016601
 31
0.5
  0
LINE
  5
22F
  8
0
 62
     4
 10
1.678024042743158
 20
8.827833595016601
 30
0.5
 11
2.026685309929321
 21
8.744860763763601
 31
0.5
  0
LINE
  5
230
  8
0
 62
     4
 10
2.026685309929321
 20
8.744860763763601
 30
0.5
 11
2.067310609495444
 21
8.734189439330205
 31
0.5
  0
LINE
  5
231
  8
0
 62
     4
 10
2.067310609495444
 20
8.734189439330205
 30
0.5
 11
2.103458187178811
 21
8.721571943079962
 31
0.5
  0
LINE
  5
232
  8
0
 62
     4
 10
2.103458187178811
 20
8.721571943079962
 30
0.5
 11
2.137252256196927
 21
8.707507136924209
 31
0.5
  0
LINE
  5
233
  8
0
 62
     4
 10
2.137252256196927
 20
8.707507136924209
 30
0.5
 11
2.166794901208324
 21
8.69244561420137
 31
0.5
  0
LINE
  5
234
  8
0
 62
     4
 10
2.166794901208324
 20
8.69244561420137
 30
0.5
 11
2.191858826759399
 21
8.675438922078266
 31
0.5
  0
LINE
  5
235
  8
0
 62
     4
 10
2.191858826759399
 20
8.675438922078266
 30
0.5
 11
2.214570243642296
 21
8.656984917630142
 31
0.5
  0
LINE
  5
236
  8
0
 62
     4
 10
2.214570243642296
 20
8.656984917630142
 30
0.5
 11
2.232803938642437
 21
8.636584741365173
 31
0.5
  0
LINE
  5
237
  8
0
 62
     4
 10
2.232803938642437
 20
8.636584741365173
 30
0.5
 11
2.247735667305129
 21
8.614962550654155
 31
0.5
  0
LINE
  5
238
  8
0
 62
     4
 10
2.247735667305129
 20
8.614962550654155
 30
0.5
 11
2.2593644296333
 21
8.592118347916591
 31
0.5
  0
LINE
  5
239
  8
0
 62
     4
 10
2.2593644296333
 20
8.592118347916591
 30
0.5
 11
2.269093279045368
 21
8.569725743353537
 31
0.5
  0
LINE
  5
23A
  8
0
 62
     4
 10
2.269093279045368
 20
8.569725743353537
 30
0.5
 11
2.275745464837964
 21
8.547062582007845
 31
0.5
  0
LINE
  5
23B
  8
0
 62
     4
 10
2.275745464837964
 20
8.547062582007845
 30
0.5
 11
2.281448192961292
 21
8.524624718541121
 31
0.5
  0
LINE
  5
23C
  8
0
 62
     4
 10
2.281448192961292
 20
8.524624718541121
 30
0.5
 11
2.284074255045642
 21
8.501915298294685
 31
0.5
  0
LINE
  5
23D
  8
0
 62
     4
 10
2.284074255045642
 20
8.501915298294685
 30
0.5
 11
2.283850951383633
 21
8.479884774095872
 31
0.5
  0
LINE
  5
23E
  8
0
 62
     4
 10
2.283850951383633
 20
8.479884774095872
 30
0.5
 11
2.282450889759738
 21
8.457129094948696
 31
0.5
  0
LINE
  5
23F
  8
0
 62
     4
 10
2.282450889759738
 20
8.457129094948696
 30
0.5
 11
2.278201462389483
 21
8.435052311849134
 31
0.5
  0
LINE
  5
240
  8
0
 62
     4
 10
2.278201462389483
 20
8.435052311849134
 30
0.5
 11
2.273634219338775
 21
8.420078318496802
 31
0.5
  0
LINE
  5
241
  8
0
 62
     4
 10
2.273634219338775
 20
8.420078318496802
 30
0.5
 11
2.269066973868561
 21
8.405103325147394
 31
0.5
  0
LINE
  5
242
  8
0
 62
     4
 10
2.269066973868561
 20
8.405103325147394
 30
0.5
 11
2.262825118200221
 21
8.39153138763591
 31
0.5
  0
LINE
  5
243
  8
0
 62
     4
 10
2.262825118200221
 20
8.39153138763591
 30
0.5
 11
2.255633807282119
 21
8.378185748000465
 31
0.5
  0
LINE
  5
244
  8
0
 62
     4
 10
2.255633807282119
 20
8.378185748000465
 30
0.5
 11
2.248668794240054
 21
8.365789563614781
 31
0.5
  0
LINE
  5
245
  8
0
 62
     4
 10
2.248668794240054
 20
8.365789563614781
 30
0.5
 11
2.239577570405848
 21
8.352895522153844
 31
0.5
  0
LINE
  5
246
  8
0
 62
     4
 10
2.239577570405848
 20
8.352895522153844
 30
0.5
 11
2.229762189200844
 21
8.341177236238213
 31
0.5
  0
LINE
  5
247
  8
0
 62
     4
 10
2.229762189200844
 20
8.341177236238213
 30
0.5
 11
2.219222653044549
 21
8.330635705864964
 31
0.5
  0
LINE
  5
248
  8
0
 62
     4
 10
2.219222653044549
 20
8.330635705864964
 30
0.5
 11
2.207507361342948
 21
8.319370018120916
 31
0.5
  0
LINE
  5
249
  8
0
 62
     4
 10
2.207507361342948
 20
8.319370018120916
 30
0.5
 11
2.195294212566093
 21
8.310230541169007
 31
0.5
  0
LINE
  5
24A
  8
0
 62
     4
 10
2.195294212566093
 20
8.310230541169007
 30
0.5
 11
2.181904308246859
 21
8.300366909265813
 31
0.5
  0
LINE
  5
24B
  8
0
 62
     4
 10
2.181904308246859
 20
8.300366909265813
 30
0.5
 11
2.168017546849446
 21
8.292629485735253
 31
0.5
  0
LINE
  5
24C
  8
0
 62
     4
 10
2.168017546849446
 20
8.292629485735253
 30
0.5
 11
2.153180330205196
 21
8.285118362500233
 31
0.5
  0
LINE
  5
24D
  8
0
 62
     4
 10
2.153180330205196
 20
8.285118362500233
 30
0.5
 11
2.136668500943314
 21
8.279009295106068
 31
0.5
  0
LINE
  5
24E
  8
0
 62
     4
 10
2.136668500943314
 20
8.279009295106068
 30
0.5
 11
2.120157671678505
 21
8.272900225292396
 31
0.5
  0
LINE
  5
24F
  8
0
 62
     4
 10
2.120157671678505
 20
8.272900225292396
 30
0.5
 11
2.101972229796064
 21
8.268193211319574
 31
0.5
  0
LINE
  5
250
  8
0
 62
     4
 10
2.101972229796064
 20
8.268193211319574
 30
0.5
 11
2.122014317488387
 21
8.255392681880007
 31
0.5
  0
LINE
  5
251
  8
0
 62
     4
 10
2.122014317488387
 20
8.255392681880007
 30
0.5
 11
2.140156494684114
 21
8.243044750612025
 31
0.5
  0
LINE
  5
252
  8
0
 62
     4
 10
2.140156494684114
 20
8.243044750612025
 30
0.5
 11
2.155946160792154
 21
8.22924850702195
 31
0.5
  0
LINE
  5
253
  8
0
 62
     4
 10
2.155946160792154
 20
8.22924850702195
 30
0.5
 11
2.170559073777321
 21
8.214729108477661
 31
0.5
  0
LINE
  5
254
  8
0
 62
     4
 10
2.170559073777321
 20
8.214729108477661
 30
0.5
 11
2.18304677596742
 21
8.199711850438611
 31
0.5
  0
LINE
  5
255
  8
0
 62
     4
 10
2.18304677596742
 20
8.199711850438611
 30
0.5
 11
2.194358720192704
 21
8.183969435031692
 31
0.5
  0
LINE
  5
256
  8
0
 62
     4
 10
2.194358720192704
 20
8.183969435031692
 30
0.5
 11
2.204493911295116
 21
8.167503864670552
 31
0.5
  0
LINE
  5
257
  8
0
 62
     4
 10
2.204493911295116
 20
8.167503864670552
 30
0.5
 11
2.212502891605387
 21
8.150540437234163
 31
0.5
  0
LINE
  5
258
  8
0
 62
     4
 10
2.212502891605387
 20
8.150540437234163
 30
0.5
 11
2.21933611637035
 21
8.132852852426973
 31
0.5
  0
LINE
  5
259
  8
0
 62
     4
 10
2.21933611637035
 20
8.132852852426973
 30
0.5
 11
2.224043132762679
 21
8.114668410541606
 31
0.5
  0
LINE
  5
25A
  8
0
 62
     4
 10
2.224043132762679
 20
8.114668410541606
 30
0.5
 11
2.227799691488665
 21
8.096709268954706
 31
0.5
  0
LINE
  5
25B
  8
0
 62
     4
 10
2.227799691488665
 20
8.096709268954706
 30
0.5
 11
2.229430037003002
 21
8.078251270295485
 31
0.5
  0
LINE
  5
25C
  8
0
 62
     4
 10
2.229430037003002
 20
8.078251270295485
 30
0.5
 11
2.230110929687085
 21
8.060020569509373
 31
0.5
  0
LINE
  5
25D
  8
0
 62
     4
 10
2.230110929687085
 20
8.060020569509373
 30
0.5
 11
2.229616066825861
 21
8.041065711352461
 31
0.5
  0
LINE
  5
25E
  8
0
 62
     4
 10
2.229616066825861
 20
8.041065711352461
 30
0.5
 11
2.226993993175421
 21
8.021612998539807
 31
0.5
  0
LINE
  5
25F
  8
0
 62
     4
 10
2.226993993175421
 20
8.021612998539807
 30
0.5
 11
2.22342246427522
 21
8.002386583603188
 31
0.5
  0
LINE
  5
260
  8
0
 62
     4
 10
2.22342246427522
 20
8.002386583603188
 30
0.5
 11
2.217951022458915
 21
7.983611766841078
 31
0.5
  0
LINE
  5
261
  8
0
 62
     4
 10
2.217951022458915
 20
7.983611766841078
 30
0.5
 11
2.211529125395774
 21
7.965063250374513
 31
0.5
  0
LINE
  5
262
  8
0
 62
     4
 10
2.211529125395774
 20
7.965063250374513
 30
0.5
 11
2.204157773082871
 21
7.946741031783986
 31
0.5
  0
LINE
  5
263
  8
0
 62
     4
 10
2.204157773082871
 20
7.946741031783986
 30
0.5
 11
2.195111808152335
 21
7.929820869034312
 31
0.5
  0
LINE
  5
264
  8
0
 62
     4
 10
2.195111808152335
 20
7.929820869034312
 30
0.5
 11
2.186292141097837
 21
7.913850161534398
 31
0.5
  0
LINE
  5
265
  8
0
 62
     4
 10
2.186292141097837
 20
7.913850161534398
 30
0.5
 11
2.175346265670704
 21
7.897382596956303
 31
0.5
  0
LINE
  5
266
  8
0
 62
     4
 10
2.175346265670704
 20
7.897382596956303
 30
0.5
 11
2.162952075501976
 21
7.883266543468822
 31
0.5
  0
LINE
  5
267
  8
0
 62
     4
 10
2.162952075501976
 20
7.883266543468822
 30
0.5
 11
2.149383132204521
 21
7.86842733018811
 31
0.5
  0
LINE
  5
268
  8
0
 62
     4
 10
2.149383132204521
 20
7.86842733018811
 30
0.5
 11
2.136264784664995
 21
7.855487032245937
 31
0.5
  0
LINE
  5
269
  8
0
 62
     4
 10
2.136264784664995
 20
7.855487032245937
 30
0.5
 11
2.121247526625945
 21
7.842999330055839
 31
0.5
  0
LINE
  5
26A
  8
0
 62
     4
 10
2.121247526625945
 20
7.842999330055839
 30
0.5
 11
2.10573141151457
 21
7.832637841077389
 31
0.5
  0
LINE
  5
26B
  8
0
 62
     4
 10
2.10573141151457
 20
7.832637841077389
 30
0.5
 11
2.088542686199214
 21
7.82367940309785
 31
0.5
  0
LINE
  5
26C
  8
0
 62
     4
 10
2.088542686199214
 20
7.82367940309785
 30
0.5
 11
2.071579258762823
 21
7.815670422787579
 31
0.5
  0
LINE
  5
26D
  8
0
 62
     4
 10
2.071579258762823
 20
7.815670422787579
 30
0.5
 11
2.053891673955634
 21
7.808837198022616
 31
0.5
  0
LINE
  5
26E
  8
0
 62
     4
 10
2.053891673955634
 20
7.808837198022616
 30
0.5
 11
2.035479931777648
 21
7.80317972880296
 31
0.5
  0
LINE
  5
26F
  8
0
 62
     4
 10
2.035479931777648
 20
7.80317972880296
 30
0.5
 11
2.01539457939861
 21
7.798925313001719
 31
0.5
  0
LINE
  5
270
  8
0
 62
     4
 10
2.01539457939861
 20
7.798925313001719
 30
0.5
 11
1.994811369944318
 21
7.796797107992623
 31
0.5
  0
LINE
  5
271
  8
0
 62
     4
 10
1.994811369944318
 20
7.796797107992623
 30
0.5
 11
1.973278702820756
 21
7.794894200862489
 31
0.5
  0
LINE
  5
272
  8
0
 62
     4
 10
1.973278702820756
 20
7.794894200862489
 30
0.5
 11
1.950296723378034
 21
7.79534380723955
 31
0.5
  0
LINE
  5
273
  8
0
 62
     4
 10
1.950296723378034
 20
7.79534380723955
 30
0.5
 11
1.925415833435787
 21
7.796246009368686
 31
0.5
  0
LINE
  5
274
  8
0
 62
     4
 10
1.925415833435787
 20
7.796246009368686
 30
0.5
 11
1.899086628751946
 21
7.799499722588434
 31
0.5
  0
LINE
  5
275
  8
0
 62
     4
 10
1.899086628751946
 20
7.799499722588434
 30
0.5
 11
1.871807968818342
 21
7.802979733684221
 31
0.5
  0
LINE
  5
276
  8
0
 62
     4
 10
1.871807968818342
 20
7.802979733684221
 30
0.5
 11
1.84308099656265
 21
7.808812255867694
 31
0.5
  0
LINE
  5
277
  8
0
 62
     4
 10
1.84308099656265
 20
7.808812255867694
 30
0.5
 11
1.812453113813288
 21
7.815097378642256
 31
0.5
  0
LINE
  5
278
  8
0
 62
     4
 10
1.910467514065188
 20
8.361949832754204
 30
0.5
 11
1.709059890178312
 21
8.409879280208175
 31
0.5
  0
LINE
  5
279
  8
0
 62
     4
 10
1.709059890178312
 20
8.409879280208175
 30
0.5
 11
1.775302576938405
 21
8.688238820322761
 31
0.5
  0
LINE
  5
27A
  8
0
 62
     4
 10
1.775302576938405
 20
8.688238820322761
 30
0.5
 11
1.960558451933493
 21
8.644152463387714
 31
0.5
  0
LINE
  5
27B
  8
0
 62
     4
 10
1.960558451933493
 20
8.644152463387714
 30
0.5
 11
1.977659656075043
 21
8.640083074992754
 31
0.5
  0
LINE
  5
27C
  8
0
 62
     4
 10
1.977659656075043
 20
8.640083074992754
 30
0.5
 11
1.99475986021952
 21
8.6360136890173
 31
0.5
  0
LINE
  5
27D
  8
0
 62
     4
 10
1.99475986021952
 20
8.6360136890173
 30
0.5
 11
2.009733853571855
 21
8.631446445966592
 31
0.5
  0
LINE
  5
27E
  8
0
 62
     4
 10
2.009733853571855
 20
8.631446445966592
 30
0.5
 11
2.024708846921262
 21
8.626879200496379
 31
0.5
  0
LINE
  5
27F
  8
0
 62
     4
 10
2.024708846921262
 20
8.626879200496379
 30
0.5
 11
2.038733385023835
 21
8.622538255321707
 31
0.5
  0
LINE
  5
280
  8
0
 62
     4
 10
2.038733385023835
 20
8.622538255321707
 30
0.5
 11
2.051807465460065
 21
8.61842261044551
 31
0.5
  0
LINE
  5
281
  8
0
 62
     4
 10
2.051807465460065
 20
8.61842261044551
 30
0.5
 11
2.063932090646534
 21
8.614533263445349
 31
0.5
  0
LINE
  5
282
  8
0
 62
     4
 10
2.063932090646534
 20
8.614533263445349
 30
0.5
 11
2.074879962710129
 21
8.609920761490971
 31
0.5
  0
LINE
  5
283
  8
0
 62
     4
 10
2.074879962710129
 20
8.609920761490971
 30
0.5
 11
2.085827832354218
 21
8.605307259539522
 31
0.5
  0
LINE
  5
284
  8
0
 62
     4
 10
2.085827832354218
 20
8.605307259539522
 30
0.5
 11
2.095599948872507
 21
8.599970600214345
 31
0.5
  0
LINE
  5
285
  8
0
 62
     4
 10
2.095599948872507
 20
8.599970600214345
 30
0.5
 11
2.105146765092324
 21
8.593683483222828
 31
0.5
  0
LINE
  5
286
  8
0
 62
     4
 10
2.105146765092324
 20
8.593683483222828
 30
0.5
 11
2.114466283439031
 21
8.586446913401053
 31
0.5
  0
LINE
  5
287
  8
0
 62
     4
 10
2.114466283439031
 20
8.586446913401053
 30
0.5
 11
2.122836344116469
 21
8.579435641458245
 31
0.5
  0
LINE
  5
288
  8
0
 62
     4
 10
2.122836344116469
 20
8.579435641458245
 30
0.5
 11
2.129804351372562
 21
8.570750756894876
 31
0.5
  0
LINE
  5
289
  8
0
 62
     4
 10
2.129804351372562
 20
8.570750756894876
 30
0.5
 11
2.136771358631582
 21
8.562065874751015
 31
0.5
  0
LINE
  5
28A
  8
0
 62
     4
 10
2.136771358631582
 20
8.562065874751015
 30
0.5
 11
2.143513065592131
 21
8.552430534940811
 31
0.5
  0
LINE
  5
28B
  8
0
 62
     4
 10
2.143513065592131
 20
8.552430534940811
 30
0.5
 11
2.149305317302917
 21
8.543021493006647
 31
0.5
  0
LINE
  5
28C
  8
0
 62
     4
 10
2.149305317302917
 20
8.543021493006647
 30
0.5
 11
2.153694515595287
 21
8.53193884087143
 31
0.5
  0
LINE
  5
28D
  8
0
 62
     4
 10
2.153694515595287
 20
8.53193884087143
 30
0.5
 11
2.156907958342349
 21
8.520132031365412
 31
0.5
  0
LINE
  5
28E
  8
0
 62
     4
 10
2.156907958342349
 20
8.520132031365412
 30
0.5
 11
2.158718345251487
 21
8.50665061166127
 31
0.5
  0
LINE
  5
28F
  8
0
 62
     4
 10
2.158718345251487
 20
8.50665061166127
 30
0.5
 11
2.159579279330371
 21
8.493396489830241
 31
0.5
  0
LINE
  5
290
  8
0
 62
     4
 10
2.159579279330371
 20
8.493396489830241
 30
0.5
 11
2.158315000194678
 21
8.479643508507374
 31
0.5
  0
LINE
  5
291
  8
0
 62
     4
 10
2.158315000194678
 20
8.479643508507374
 30
0.5
 11
2.156597122890331
 21
8.46399061910742
 31
0.5
  0
LINE
  5
292
  8
0
 62
     4
 10
2.156597122890331
 20
8.46399061910742
 30
0.5
 11
2.15275403721042
 21
8.447840870209779
 31
0.5
  0
LINE
  5
293
  8
0
 62
     4
 10
2.15275403721042
 20
8.447840870209779
 30
0.5
 11
2.149136246989968
 21
8.432639578984333
 31
0.5
  0
LINE
  5
294
  8
0
 62
     4
 10
2.149136246989968
 20
8.432639578984333
 30
0.5
 11
2.143844846568463
 21
8.418841341177304
 31
0.5
  0
LINE
  5
295
  8
0
 62
     4
 10
2.143844846568463
 20
8.418841341177304
 30
0.5
 11
2.13900604431854
 21
8.406943013866876
 31
0.5
  0
LINE
  5
296
  8
0
 62
     4
 10
2.13900604431854
 20
8.406943013866876
 30
0.5
 11
2.13226733157202
 21
8.395497284728025
 31
0.5
  0
LINE
  5
297
  8
0
 62
     4
 10
2.13226733157202
 20
8.395497284728025
 30
0.5
 11
2.124803461457629
 21
8.38522731355399
 31
0.5
  0
LINE
  5
298
  8
0
 62
     4
 10
2.124803461457629
 20
8.38522731355399
 30
0.5
 11
2.116842734265059
 21
8.377083550752591
 31
0.5
  0
LINE
  5
299
  8
0
 62
     4
 10
2.116842734265059
 20
8.377083550752591
 30
0.5
 11
2.107931551825653
 21
8.369166088246734
 31
0.5
  0
LINE
  5
29A
  8
0
 62
     4
 10
2.107931551825653
 20
8.369166088246734
 30
0.5
 11
2.09947296755783
 21
8.363148536237476
 31
0.5
  0
LINE
  5
29B
  8
0
 62
     4
 10
2.09947296755783
 20
8.363148536237476
 30
0.5
 11
2.089113470376828
 21
8.357582584822236
 31
0.5
  0
LINE
  5
29C
  8
0
 62
     4
 10
2.089113470376828
 20
8.357582584822236
 30
0.5
 11
2.07920757378399
 21
8.353917541481158
 31
0.5
  0
LINE
  5
29D
  8
0
 62
     4
 10
2.07920757378399
 20
8.353917541481158
 30
0.5
 11
2.069300674774572
 21
8.350251500562511
 31
0.5
  0
LINE
  5
29E
  8
0
 62
     4
 10
2.069300674774572
 20
8.350251500562511
 30
0.5
 11
2.058669620813862
 21
8.347762215186247
 31
0.5
  0
LINE
  5
29F
  8
0
 62
     4
 10
2.058669620813862
 20
8.347762215186247
 30
0.5
 11
2.048038566853152
 21
8.345272929809982
 31
0.5
  0
LINE
  5
2A0
  8
0
 62
     4
 10
2.048038566853152
 20
8.345272929809982
 30
0.5
 11
2.037633813187988
 21
8.343734099680553
 31
0.5
  0
LINE
  5
2A1
  8
0
 62
     4
 10
2.037633813187988
 20
8.343734099680553
 30
0.5
 11
2.026505899729592
 21
8.343370022679848
 31
0.5
  0
LINE
  5
2A2
  8
0
 62
     4
 10
2.026505899729592
 20
8.343370022679848
 30
0.5
 11
2.015603288989174
 21
8.343957403342561
 31
0.5
  0
LINE
  5
2A3
  8
0
 62
     4
 10
2.015603288989174
 20
8.343957403342561
 30
0.5
 11
2.004700675829249
 21
8.344543784008199
 31
0.5
  0
LINE
  5
2A4
  8
0
 62
     4
 10
2.004700675829249
 20
8.344543784008199
 30
0.5
 11
1.993073907718034
 21
8.346306920216218
 31
0.5
  0
LINE
  5
2A5
  8
0
 62
     4
 10
1.993073907718034
 20
8.346306920216218
 30
0.5
 11
1.980497684357056
 21
8.348296354300276
 31
0.5
  0
LINE
  5
2A6
  8
0
 62
     4
 10
1.980497684357056
 20
8.348296354300276
 30
0.5
 11
1.967921458576572
 21
8.35028478838726
 31
0.5
  0
LINE
  5
2A7
  8
0
 62
     4
 10
1.967921458576572
 20
8.35028478838726
 30
0.5
 11
1.954394779968759
 21
8.352500522766858
 31
0.5
  0
LINE
  5
2A8
  8
0
 62
     4
 10
1.954394779968759
 20
8.352500522766858
 30
0.5
 11
1.939917643694605
 21
8.354941557444931
 31
0.5
  0
LINE
  5
2A9
  8
0
 62
     4
 10
1.939917643694605
 20
8.354941557444931
 30
0.5
 11
1.925667807713067
 21
8.358333044950333
 31
0.5
  0
LINE
  5
2AA
  8
0
 62
     4
 10
1.925667807713067
 20
8.358333044950333
 30
0.5
 11
1.910467514065188
 21
8.361949832754204
 31
0.5
  0
LINE
  5
2AB
  8
0
 62
     4
 10
2.325391868504763
 20
7.770978190576763
 30
0.5
 11
2.322883022500388
 21
7.790470317801013
 31
0.5
  0
LINE
  5
2AC
  8
0
 62
     4
 10
2.322883022500388
 20
7.790470317801013
 30
0.5
 11
2.322540857296106
 21
7.810241203541742
 31
0.5
  0
LINE
  5
2AD
  8
0
 62
     4
 10
2.322540857296106
 20
7.810241203541742
 30
0.5
 11
2.324685605166124
 21
7.831213075694082
 31
0.5
  0
LINE
  5
2AE
  8
0
 62
     4
 10
2.324685605166124
 20
7.831213075694082
 30
0.5
 11
2.328674801567882
 21
7.851541483306785
 31
0.5
  0
LINE
  5
2AF
  8
0
 62
     4
 10
2.328674801567882
 20
7.851541483306785
 30
0.5
 11
2.334829678772658
 21
7.872148651855476
 31
0.5
  0
LINE
  5
2B0
  8
0
 62
     4
 10
2.334829678772658
 20
7.872148651855476
 30
0.5
 11
2.342829002089665
 21
7.892111355867455
 31
0.5
  0
LINE
  5
2B1
  8
0
 62
     4
 10
2.342829002089665
 20
7.892111355867455
 30
0.5
 11
2.35202931423779
 21
7.90958814680221
 31
0.5
  0
LINE
  5
2B2
  8
0
 62
     4
 10
2.35202931423779
 20
7.90958814680221
 30
0.5
 11
2.363073072501072
 21
7.926420475619761
 31
0.5
  0
LINE
  5
2B3
  8
0
 62
     4
 10
2.363073072501072
 20
7.926420475619761
 30
0.5
 11
2.375639049447246
 21
7.941688116838635
 31
0.5
  0
LINE
  5
2B4
  8
0
 62
     4
 10
2.375639049447246
 20
7.941688116838635
 30
0.5
 11
2.388484787326478
 21
7.954790074834981
 31
0.5
  0
LINE
  5
2B5
  8
0
 62
     4
 10
2.388484787326478
 20
7.954790074834981
 30
0.5
 11
2.404096196796492
 21
7.966926338442844
 31
0.5
  0
LINE
  5
2B6
  8
0
 62
     4
 10
2.404096196796492
 20
7.966926338442844
 30
0.5
 11
2.421229822529891
 21
7.977496914454958
 31
0.5
  0
LINE
  5
2B7
  8
0
 62
     4
 10
2.421229822529891
 20
7.977496914454958
 30
0.5
 11
2.438642211618783
 21
7.985902809661122
 31
0.5
  0
LINE
  5
2B8
  8
0
 62
     4
 10
2.438642211618783
 20
7.985902809661122
 30
0.5
 11
2.458820272298456
 21
7.993343010478806
 31
0.5
  0
LINE
  5
2B9
  8
0
 62
     4
 10
2.458820272298456
 20
7.993343010478806
 30
0.5
 11
2.481121542445853
 21
7.997974065953832
 31
0.5
  0
LINE
  5
2BA
  8
0
 62
     4
 10
2.481121542445853
 20
7.997974065953832
 30
0.5
 11
2.506189484181105
 21
8.001639424620869
 31
0.5
  0
LINE
  5
2BB
  8
0
 62
     4
 10
2.506189484181105
 20
8.001639424620869
 30
0.5
 11
2.533379637806516
 21
8.00249664036183
 31
0.5
  0
LINE
  5
2BC
  8
0
 62
     4
 10
2.533379637806516
 20
8.00249664036183
 30
0.5
 11
2.562093007692383
 21
8.001788166087536
 31
0.5
  0
LINE
  5
2BD
  8
0
 62
     4
 10
2.562093007692383
 20
8.001788166087536
 30
0.5
 11
2.592928587048903
 21
7.998270548890088
 31
0.5
  0
LINE
  5
2BE
  8
0
 62
     4
 10
2.592928587048903
 20
7.998270548890088
 30
0.5
 11
2.627452063471827
 21
7.99346600503288
 31
0.5
  0
LINE
  5
2BF
  8
0
 62
     4
 10
2.627452063471827
 20
7.99346600503288
 30
0.5
 11
2.663176523886853
 21
7.986173548104296
 31
0.5
  0
LINE
  5
2C0
  8
0
 62
     4
 10
2.663176523886853
 20
7.986173548104296
 30
0.5
 11
2.77191659756377
 21
7.96582039115657
 31
0.5
  0
LINE
  5
2C1
  8
0
 62
     4
 10
2.77191659756377
 20
7.96582039115657
 30
0.5
 11
2.786390427309976
 21
7.962839362898097
 31
0.5
  0
LINE
  5
2C2
  8
0
 62
     4
 10
2.786390427309976
 20
7.962839362898097
 30
0.5
 11
2.801186486905031
 21
7.960779557698668
 31
0.5
  0
LINE
  5
2C3
  8
0
 62
     4
 10
2.801186486905031
 20
7.960779557698668
 30
0.5
 11
2.814138100387854
 21
7.959364217035946
 31
0.5
  0
LINE
  5
2C4
  8
0
 62
     4
 10
2.814138100387854
 20
7.959364217035946
 30
0.5
 11
2.828011936926793
 21
7.957626644104872
 31
0.5
  0
LINE
  5
2C5
  8
0
 62
     4
 10
2.828011936926793
 20
7.957626644104872
 30
0.5
 11
2.840042324931067
 21
7.956532533293925
 31
0.5
  0
LINE
  5
2C6
  8
0
 62
     4
 10
2.840042324931067
 20
7.956532533293925
 30
0.5
 11
2.852071712938267
 21
7.955438424902485
 31
0.5
  0
LINE
  5
2C7
  8
0
 62
     4
 10
2.852071712938267
 20
7.955438424902485
 30
0.5
 11
2.863501110157707
 21
7.955588771835515
 31
0.5
  0
LINE
  5
2C8
  8
0
 62
     4
 10
2.863501110157707
 20
7.955588771835515
 30
0.5
 11
2.874608272689285
 21
7.954815895715359
 31
0.5
  0
LINE
  5
2C9
  8
0
 62
     4
 10
2.874608272689285
 20
7.954815895715359
 30
0.5
 11
2.878790287359367
 21
7.966802812387264
 31
0.5
  0
LINE
  5
2CA
  8
0
 62
     4
 10
2.878790287359367
 20
7.966802812387264
 30
0.5
 11
2.882651069758166
 21
7.977867503583547
 31
0.5
  0
LINE
  5
2CB
  8
0
 62
     4
 10
2.882651069758166
 20
7.977867503583547
 30
0.5
 11
2.885267396832497
 21
7.988332203992071
 31
0.5
  0
LINE
  5
2CC
  8
0
 62
     4
 10
2.885267396832497
 20
7.988332203992071
 30
0.5
 11
2.888483714694588
 21
7.997552449076122
 31
0.5
  0
LINE
  5
2CD
  8
0
 62
     4
 10
2.888483714694588
 20
7.997552449076122
 30
0.5
 11
2.891378802704906
 21
8.005851468681625
 31
0.5
  0
LINE
  5
2CE
  8
0
 62
     4
 10
2.891378802704906
 20
8.005851468681625
 30
0.5
 11
2.893030432968319
 21
8.013549495082787
 31
0.5
  0
LINE
  5
2CF
  8
0
 62
     4
 10
2.893030432968319
 20
8.013549495082787
 30
0.5
 11
2.894360830960451
 21
8.020325296008325
 31
0.5
  0
LINE
  5
2D0
  8
0
 62
     4
 10
2.894360830960451
 20
8.020325296008325
 30
0.5
 11
2.896612454431133
 21
8.026779867082089
 31
0.5
  0
LINE
  5
2D1
  8
0
 62
     4
 10
2.896612454431133
 20
8.026779867082089
 30
0.5
 11
2.896376164830441
 21
8.03203345416375
 31
0.5
  0
LINE
  5
2D2
  8
0
 62
     4
 10
2.896376164830441
 20
8.03203345416375
 30
0.5
 11
2.897384330554218
 21
8.037887032033172
 31
0.5
  0
LINE
  5
2D3
  8
0
 62
     4
 10
2.897384330554218
 20
8.037887032033172
 30
0.5
 11
2.89747027322188
 21
8.044062842170952
 31
0.5
  0
LINE
  5
2D4
  8
0
 62
     4
 10
2.89747027322188
 20
8.044062842170952
 30
0.5
 11
2.89723498361826
 21
8.049316426833105
 31
0.5
  0
LINE
  5
2D5
  8
0
 62
     4
 10
2.89723498361826
 20
8.049316426833105
 30
0.5
 11
2.896398703229806
 21
8.055814469239239
 31
0.5
  0
LINE
  5
2D6
  8
0
 62
     4
 10
2.896398703229806
 20
8.055814469239239
 30
0.5
 11
2.895562420421846
 21
8.062311511648298
 31
0.5
  0
LINE
  5
2D7
  8
0
 62
     4
 10
2.895562420421846
 20
8.062311511648298
 30
0.5
 11
2.894726137613886
 21
8.068808554057355
 31
0.5
  0
LINE
  5
2D8
  8
0
 62
     4
 10
2.894726137613886
 20
8.068808554057355
 30
0.5
 11
2.892968631746882
 21
8.075627826315262
 31
0.5
  0
LINE
  5
2D9
  8
0
 62
     4
 10
2.892968631746882
 20
8.075627826315262
 30
0.5
 11
2.89028790282669
 21
8.08276933326103
 31
0.5
  0
LINE
  5
2DA
  8
0
 62
     4
 10
2.89028790282669
 20
8.08276933326103
 30
0.5
 11
2.88728593921571
 21
8.088987614734101
 31
0.5
  0
LINE
  5
2DB
  8
0
 62
     4
 10
2.88728593921571
 20
8.088987614734101
 30
0.5
 11
2.884606207873084
 21
8.096128119263289
 31
0.5
  0
LINE
  5
2DC
  8
0
 62
     4
 10
2.884606207873084
 20
8.096128119263289
 30
0.5
 11
2.880682021205988
 21
8.102668633004717
 31
0.5
  0
LINE
  5
2DD
  8
0
 62
     4
 10
2.880682021205988
 20
8.102668633004717
 30
0.5
 11
2.875514379211495
 21
8.108609153538874
 31
0.5
  0
LINE
  5
2DE
  8
0
 62
     4
 10
2.875514379211495
 20
8.108609153538874
 30
0.5
 11
2.869746741590227
 21
8.115792129403356
 31
0.5
  0
LINE
  5
2DF
  8
0
 62
     4
 10
2.869746741590227
 20
8.115792129403356
 30
0.5
 11
2.863656874120111
 21
8.122053882208796
 31
0.5
  0
LINE
  5
2E0
  8
0
 62
     4
 10
2.863656874120111
 20
8.122053882208796
 30
0.5
 11
2.857567006649996
 21
8.128315635014236
 31
0.5
  0
LINE
  5
2E1
  8
0
 62
     4
 10
2.857567006649996
 20
8.128315635014236
 30
0.5
 11
2.849311458376861
 21
8.134298626883687
 31
0.5
  0
LINE
  5
2E2
  8
0
 62
     4
 10
2.849311458376861
 20
8.134298626883687
 30
0.5
 11
2.841055910103726
 21
8.140281618753141
 31
0.5
  0
LINE
  5
2E3
  8
0
 62
     4
 10
2.841055910103726
 20
8.140281618753141
 30
0.5
 11
2.831556906503193
 21
8.145664617415322
 31
0.5
  0
LINE
  5
2E4
  8
0
 62
     4
 10
2.831556906503193
 20
8.145664617415322
 30
0.5
 11
2.82145690969832
 21
8.152291073824413
 31
0.5
  0
LINE
  5
2E5
  8
0
 62
     4
 10
2.82145690969832
 20
8.152291073824413
 30
0.5
 11
2.810713448353811
 21
8.157073081701764
 31
0.5
  0
LINE
  5
2E6
  8
0
 62
     4
 10
2.810713448353811
 20
8.157073081701764
 30
0.5
 11
2.799048763950259
 21
8.162177319427959
 31
0.5
  0
LINE
  5
2E7
  8
0
 62
     4
 10
2.799048763950259
 20
8.162177319427959
 30
0.5
 11
2.786461854071084
 21
8.167602789425438
 31
0.5
  0
LINE
  5
2E8
  8
0
 62
     4
 10
2.786461854071084
 20
8.167602789425438
 30
0.5
 11
2.77263048886744
 21
8.172428268635155
 31
0.5
  0
LINE
  5
2E9
  8
0
 62
     4
 10
2.77263048886744
 20
8.172428268635155
 30
0.5
 11
2.755111224177886
 21
8.178539674507565
 31
0.5
  0
LINE
  5
2EA
  8
0
 62
     4
 10
2.755111224177886
 20
8.178539674507565
 30
0.5
 11
2.737871722840897
 21
8.182486397154518
 31
0.5
  0
LINE
  5
2EB
  8
0
 62
     4
 10
2.737871722840897
 20
8.182486397154518
 30
0.5
 11
2.721552444565879
 21
8.186110892372135
 31
0.5
  0
LINE
  5
2EC
  8
0
 62
     4
 10
2.721552444565879
 20
8.186110892372135
 30
0.5
 11
2.706757382548391
 21
8.188169695154986
 31
0.5
  0
LINE
  5
2ED
  8
0
 62
     4
 10
2.706757382548391
 20
8.188169695154986
 30
0.5
 11
2.691639090684981
 21
8.189307277298299
 31
0.5
  0
LINE
  5
2EE
  8
0
 62
     4
 10
2.691639090684981
 20
8.189307277298299
 30
0.5
 11
2.677121789606408
 21
8.189200401697637
 31
0.5
  0
LINE
  5
2EF
  8
0
 62
     4
 10
2.677121789606408
 20
8.189200401697637
 30
0.5
 11
2.663205481732174
 21
8.187850068350068
 31
0.5
  0
LINE
  5
2F0
  8
0
 62
     4
 10
2.663205481732174
 20
8.187850068350068
 30
0.5
 11
2.651132622392606
 21
8.185856272882374
 31
0.5
  0
LINE
  5
2F1
  8
0
 62
     4
 10
2.651132622392606
 20
8.185856272882374
 30
0.5
 11
2.638416298513402
 21
8.18201802888294
 31
0.5
  0
LINE
  5
2F2
  8
0
 62
     4
 10
2.638416298513402
 20
8.18201802888294
 30
0.5
 11
2.625978735570185
 21
8.176014104080483
 31
0.5
  0
LINE
  5
2F3
  8
0
 62
     4
 10
2.625978735570185
 20
8.176014104080483
 30
0.5
 11
2.614142165831309
 21
8.168766721531128
 31
0.5
  0
LINE
  5
2F4
  8
0
 62
     4
 10
2.614142165831309
 20
8.168766721531128
 30
0.5
 11
2.602905589299702
 21
8.160275883654373
 31
0.5
  0
LINE
  5
2F5
  8
0
 62
     4
 10
2.602905589299702
 20
8.160275883654373
 30
0.5
 11
2.590703315960104
 21
8.149018374189765
 31
0.5
  0
LINE
  5
2F6
  8
0
 62
     4
 10
2.590703315960104
 20
8.149018374189765
 30
0.5
 11
2.580345491152245
 21
8.137117400185518
 31
0.5
  0
LINE
  5
2F7
  8
0
 62
     4
 10
2.580345491152245
 20
8.137117400185518
 30
0.5
 11
2.570266427280373
 21
8.123050745378258
 31
0.5
  0
LINE
  5
2F8
  8
0
 62
     4
 10
2.570266427280373
 20
8.123050745378258
 30
0.5
 11
2.559544898865938
 21
8.107139639619748
 31
0.5
  0
LINE
  5
2F9
  8
0
 62
     4
 10
2.559544898865938
 20
8.107139639619748
 30
0.5
 11
2.456489125606066
 21
8.158608134437548
 31
0.5
  0
LINE
  5
2FA
  8
0
 62
     4
 10
2.456489125606066
 20
8.158608134437548
 30
0.5
 11
2.46978450734003
 21
8.181895034328862
 31
0.5
  0
LINE
  5
2FB
  8
0
 62
     4
 10
2.46978450734003
 20
8.181895034328862
 30
0.5
 11
2.484881866270438
 21
8.201450563401902
 31
0.5
  0
LINE
  5
2FC
  8
0
 62
     4
 10
2.484881866270438
 20
8.201450563401902
 30
0.5
 11
2.501500443886664
 21
8.21944140729577
 31
0.5
  0
LINE
  5
2FD
  8
0
 62
     4
 10
2.501500443886664
 20
8.21944140729577
 30
0.5
 11
2.51839878243595
 21
8.235266567967109
 31
0.5
  0
LINE
  5
2FE
  8
0
 62
     4
 10
2.51839878243595
 20
8.235266567967109
 30
0.5
 11
2.537741560304734
 21
8.249203808774343
 31
0.5
  0
LINE
  5
2FF
  8
0
 62
     4
 10
2.537741560304734
 20
8.249203808774343
 30
0.5
 11
2.557362099112434
 21
8.260975371198066
 31
0.5
  0
LINE
  5
300
  8
0
 62
     4
 10
2.557362099112434
 20
8.260975371198066
 30
0.5
 11
2.578184624328815
 21
8.270260018127978
 31
0.5
  0
LINE
  5
301
  8
0
 62
     4
 10
2.578184624328815
 20
8.270260018127978
 30
0.5
 11
2.600207133540226
 21
8.277056754406026
 31
0.5
  0
LINE
  5
302
  8
0
 62
     4
 10
2.600207133540226
 20
8.277056754406026
 30
0.5
 11
2.623751859015021
 21
8.282287803088321
 31
0.5
  0
LINE
  5
303
  8
0
 62
     4
 10
2.623751859015021
 20
8.282287803088321
 30
0.5
 11
2.648498570898498
 21
8.285031936276809
 31
0.5
  0
LINE
  5
304
  8
0
 62
     4
 10
2.648498570898498
 20
8.285031936276809
 30
0.5
 11
2.673844275992171
 21
8.286532616557405
 31
0.5
  0
LINE
  5
305
  8
0
 62
     4
 10
2.673844275992171
 20
8.286532616557405
 30
0.5
 11
2.70099195586278
 21
8.284300926022652
 31
0.5
  0
LINE
  5
306
  8
0
 62
     4
 10
2.70099195586278
 20
8.284300926022652
 30
0.5
 11
2.728739631360165
 21
8.280826780157575
 31
0.5
  0
LINE
  5
307
  8
0
 62
     4
 10
2.728739631360165
 20
8.280826780157575
 30
0.5
 11
2.758931746177049
 21
8.275464714428393
 31
0.5
  0
LINE
  5
308
  8
0
 62
     4
 10
2.758931746177049
 20
8.275464714428393
 30
0.5
 11
2.789081389658639
 21
8.267014742420566
 31
0.5
  0
LINE
  5
309
  8
0
 62
     4
 10
2.789081389658639
 20
8.267014742420566
 30
0.5
 11
2.82075325182312
 21
8.257000082814061
 31
0.5
  0
LINE
  5
30A
  8
0
 62
     4
 10
2.82075325182312
 20
8.257000082814061
 30
0.5
 11
2.849337207708958
 21
8.247027894542853
 31
0.5
  0
LINE
  5
30B
  8
0
 62
     4
 10
2.849337207708958
 20
8.247027894542853
 30
0.5
 11
2.8745110250478
 21
8.236175954550824
 31
0.5
  0
LINE
  5
30C
  8
0
 62
     4
 10
2.8745110250478
 20
8.236175954550824
 30
0.5
 11
2.898441389478752
 21
8.224725021348599
 31
0.5
  0
LINE
  5
30D
  8
0
 62
     4
 10
2.898441389478752
 20
8.224725021348599
 30
0.5
 11
2.919283845211554
 21
8.213315559484594
 31
0.5
  0
LINE
  5
30E
  8
0
 62
     4
 10
2.919283845211554
 20
8.213315559484594
 30
0.5
 11
2.938561615765185
 21
8.20038487893477
 31
0.5
  0
LINE
  5
30F
  8
0
 62
     4
 10
2.938561615765185
 20
8.20038487893477
 30
0.5
 11
2.955072712311456
 21
8.188418895195866
 31
0.5
  0
LINE
  5
310
  8
0
 62
     4
 10
2.955072712311456
 20
8.188418895195866
 30
0.5
 11
2.969095895786352
 21
8.175251927464858
 31
0.5
  0
LINE
  5
311
  8
0
 62
     4
 10
2.969095895786352
 20
8.175251927464858
 30
0.5
 11
2.981275630726583
 21
8.162728421853977
 31
0.5
  0
LINE
  5
312
  8
0
 62
     4
 10
2.981275630726583
 20
8.162728421853977
 30
0.5
 11
2.990967455014947
 21
8.149004932248069
 31
0.5
  0
LINE
  5
313
  8
0
 62
     4
 10
2.990967455014947
 20
8.149004932248069
 30
0.5
 11
2.999738051405255
 21
8.135601672496863
 31
0.5
  0
LINE
  5
314
  8
0
 62
     4
 10
2.999738051405255
 20
8.135601672496863
 30
0.5
 11
3.006341969414977
 21
8.121920654226251
 31
0.5
  0
LINE
  5
315
  8
0
 62
     4
 10
3.006341969414977
 20
8.121920654226251
 30
0.5
 11
3.012023661949076
 21
8.108560868226917
 31
0.5
  0
LINE
  5
316
  8
0
 62
     4
 10
3.012023661949076
 20
8.108560868226917
 30
0.5
 11
3.015539676099662
 21
8.09492332128867
 31
0.5
  0
LINE
  5
317
  8
0
 62
     4
 10
3.015539676099662
 20
8.09492332128867
 30
0.5
 11
3.018134464771699
 21
8.081607004202196
 31
0.5
  0
LINE
  5
318
  8
0
 62
     4
 10
3.018134464771699
 20
8.081607004202196
 30
0.5
 11
3.01980602797104
 21
8.068611921806514
 31
0.5
  0
LINE
  5
319
  8
0
 62
     4
 10
3.01980602797104
 20
8.068611921806514
 30
0.5
 11
3.019312910364435
 21
8.055338076055337
 31
0.5
  0
LINE
  5
31A
  8
0
 62
     4
 10
3.019312910364435
 20
8.055338076055337
 30
0.5
 11
3.01757533743336
 21
8.041464239516397
 31
0.5
  0
LINE
  5
31B
  8
0
 62
     4
 10
3.01757533743336
 20
8.041464239516397
 30
0.5
 11
3.015516532231003
 21
8.026668177501836
 31
0.5
  0
LINE
  5
31C
  8
0
 62
     4
 10
3.015516532231003
 20
8.026668177501836
 30
0.5
 11
3.013135497179799
 21
8.010950892428234
 31
0.5
  0
LINE
  5
31D
  8
0
 62
     4
 10
3.013135497179799
 20
8.010950892428234
 30
0.5
 11
3.008911011174423
 21
7.995876069477684
 31
0.5
  0
LINE
  5
31E
  8
0
 62
     4
 10
3.008911011174423
 20
7.995876069477684
 30
0.5
 11
3.004964286107961
 21
7.978635568143624
 31
0.5
  0
LINE
  5
31F
  8
0
 62
     4
 10
3.004964286107961
 20
7.978635568143624
 30
0.5
 11
2.999775103291667
 21
7.960794071185715
 31
0.5
  0
LINE
  5
320
  8
0
 62
     4
 10
2.999775103291667
 20
7.960794071185715
 30
0.5
 11
2.994584922897808
 21
7.942953576644384
 31
0.5
  0
LINE
  5
321
  8
0
 62
     4
 10
2.994584922897808
 20
7.942953576644384
 30
0.5
 11
2.987829054908198
 21
7.92359086583967
 31
0.5
  0
LINE
  5
322
  8
0
 62
     4
 10
2.987829054908198
 20
7.92359086583967
 30
0.5
 11
2.936038722349823
 21
7.775138738392831
 31
0.5
  0
LINE
  5
323
  8
0
 62
     4
 10
2.936038722349823
 20
7.775138738392831
 30
0.5
 11
2.92477960741885
 21
7.742866885440589
 31
0.5
  0
LINE
  5
324
  8
0
 62
     4
 10
2.92477960741885
 20
7.742866885440589
 30
0.5
 11
2.914163954608004
 21
7.712438481023011
 31
0.5
  0
LINE
  5
325
  8
0
 62
     4
 10
2.914163954608004
 20
7.712438481023011
 30
0.5
 11
2.905757456352054
 21
7.68537774139763
 31
0.5
  0
LINE
  5
326
  8
0
 62
     4
 10
2.905757456352054
 20
7.68537774139763
 30
0.5
 11
2.89739342701189
 21
7.661403908053819
 31
0.5
  0
LINE
  5
327
  8
0
 62
     4
 10
2.89739342701189
 20
7.661403908053819
 30
0.5
 11
2.89091631753876
 21
7.639874516449013
 31
0.5
  0
LINE
  5
328
  8
0
 62
     4
 10
2.89091631753876
 20
7.639874516449013
 30
0.5
 11
2.885404904873619
 21
7.621111796432061
 31
0.5
  0
LINE
  5
329
  8
0
 62
     4
 10
2.885404904873619
 20
7.621111796432061
 30
0.5
 11
2.880536956748113
 21
7.604193524946846
 31
0.5
  0
LINE
  5
32A
  8
0
 62
     4
 10
2.880536956748113
 20
7.604193524946846
 30
0.5
 11
2.877877158341416
 21
7.590640920679189
 31
0.5
  0
LINE
  5
32B
  8
0
 62
     4
 10
2.877877158341416
 20
7.590640920679189
 30
0.5
 11
2.874939601415311
 21
7.579254994792118
 31
0.5
  0
LINE
  5
32C
  8
0
 62
     4
 10
2.874939601415311
 20
7.579254994792118
 30
0.5
 11
2.87352325833601
 21
7.566302383731729
 31
0.5
  0
LINE
  5
32D
  8
0
 62
     4
 10
2.87352325833601
 20
7.566302383731729
 30
0.5
 11
2.872429149944571
 21
7.554272995724529
 31
0.5
  0
LINE
  5
32E
  8
0
 62
     4
 10
2.872429149944571
 20
7.554272995724529
 30
0.5
 11
2.872257264609247
 21
7.541921375448974
 31
0.5
  0
LINE
  5
32F
  8
0
 62
     4
 10
2.872257264609247
 20
7.541921375448974
 30
0.5
 11
2.871764149422149
 21
7.52864852969487
 31
0.5
  0
LINE
  5
330
  8
0
 62
     4
 10
2.871764149422149
 20
7.52864852969487
 30
0.5
 11
2.872513487145867
 21
7.515974679570467
 31
0.5
  0
LINE
  5
331
  8
0
 62
     4
 10
2.872513487145867
 20
7.515974679570467
 30
0.5
 11
2.874186050342282
 21
7.502979594755275
 31
0.5
  0
LINE
  5
332
  8
0
 62
     4
 10
2.874186050342282
 20
7.502979594755275
 30
0.5
 11
2.875858615958203
 21
7.489985509937158
 31
0.5
  0
LINE
  5
333
  8
0
 62
     4
 10
2.875858615958203
 20
7.489985509937158
 30
0.5
 11
2.760600566939227
 21
7.530195495293277
 31
0.5
  0
LINE
  5
334
  8
0
 62
     4
 10
2.760600566939227
 20
7.530195495293277
 30
0.5
 11
2.758885532407518
 21
7.540102673829825
 31
0.5
  0
LINE
  5
335
  8
0
 62
     4
 10
2.758885532407518
 20
7.540102673829825
 30
0.5
 11
2.758092720931924
 21
7.549687620098019
 31
0.5
  0
LINE
  5
336
  8
0
 62
     4
 10
2.758092720931924
 20
7.549687620098019
 30
0.5
 11
2.758543367203235
 21
7.559873559570555
 31
0.5
  0
LINE
  5
337
  8
0
 62
     4
 10
2.758543367203235
 20
7.559873559570555
 30
0.5
 11
2.758994013474546
 21
7.570059499043091
 31
0.5
  0
LINE
  5
338
  8
0
 62
     4
 10
2.758994013474546
 20
7.570059499043091
 30
0.5
 11
2.760088121865986
 21
7.582088887050292
 31
0.5
  0
LINE
  5
339
  8
0
 62
     4
 10
2.760088121865986
 20
7.582088887050292
 30
0.5
 11
2.761182232676932
 21
7.594119275054564
 31
0.5
  0
LINE
  5
33A
  8
0
 62
     4
 10
2.761182232676932
 20
7.594119275054564
 30
0.5
 11
2.763197564127415
 21
7.605826433212917
 31
0.5
  0
LINE
  5
33B
  8
0
 62
     4
 10
2.763197564127415
 20
7.605826433212917
 30
0.5
 11
2.765536130262832
 21
7.618456812004952
 31
0.5
  0
LINE
  5
33C
  8
0
 62
     4
 10
2.765536130262832
 20
7.618456812004952
 30
0.5
 11
2.729231609576465
 21
7.606299615464088
 31
0.5
  0
LINE
  5
33D
  8
0
 62
     4
 10
2.729231609576465
 20
7.606299615464088
 30
0.5
 11
2.693891785701016
 21
7.596909092930583
 31
0.5
  0
LINE
  5
33E
  8
0
 62
     4
 10
2.693891785701016
 20
7.596909092930583
 30
0.5
 11
2.65951765621405
 21
7.590284241987861
 31
0.5
  0
LINE
  5
33F
  8
0
 62
     4
 10
2.65951765621405
 20
7.590284241987861
 30
0.5
 11
2.624264772583829
 21
7.587068527175555
 31
0.5
  0
LINE
  5
340
  8
0
 62
     4
 10
2.624264772583829
 20
7.587068527175555
 30
0.5
 11
2.591220041091922
 21
7.587219479577877
 31
0.5
  0
LINE
  5
341
  8
0
 62
     4
 10
2.591220041091922
 20
7.587219479577877
 30
0.5
 11
2.557296557876266
 21
7.590780568107689
 31
0.5
  0
LINE
  5
342
  8
0
 62
     4
 10
2.557296557876266
 20
7.590780568107689
 30
0.5
 11
2.524338769049094
 21
7.597107328228283
 31
0.5
  0
LINE
  5
343
  8
0
 62
     4
 10
2.524338769049094
 20
7.597107328228283
 30
0.5
 11
2.491423451557217
 21
7.606521994627519
 31
0.5
  0
LINE
  5
344
  8
0
 62
     4
 10
2.491423451557217
 20
7.606521994627519
 30
0.5
 11
2.466849625006136
 21
7.616129479295079
 31
0.5
  0
LINE
  5
345
  8
0
 62
     4
 10
2.466849625006136
 20
7.616129479295079
 30
0.5
 11
2.443840488473241
 21
7.627260182642604
 31
0.5
  0
LINE
  5
346
  8
0
 62
     4
 10
2.443840488473241
 20
7.627260182642604
 30
0.5
 11
2.422998030320931
 21
7.638668644509535
 31
0.5
  0
LINE
  5
347
  8
0
 62
     4
 10
2.422998030320931
 20
7.638668644509535
 30
0.5
 11
2.4037202597673
 21
7.651599325059356
 31
0.5
  0
LINE
  5
348
  8
0
 62
     4
 10
2.4037202597673
 20
7.651599325059356
 30
0.5
 11
2.386930402285044
 21
7.665730989601282
 31
0.5
  0
LINE
  5
349
  8
0
 62
     4
 10
2.386930402285044
 20
7.665730989601282
 30
0.5
 11
2.371706234818044
 21
7.681385870403664
 31
0.5
  0
LINE
  5
34A
  8
0
 62
     4
 10
2.371706234818044
 20
7.681385870403664
 30
0.5
 11
2.358647745734558
 21
7.697318512144959
 31
0.5
  0
LINE
  5
34B
  8
0
 62
     4
 10
2.358647745734558
 20
7.697318512144959
 30
0.5
 11
2.34715494666633
 21
7.714774370146711
 31
0.5
  0
LINE
  5
34C
  8
0
 62
     4
 10
2.34715494666633
 20
7.714774370146711
 30
0.5
 11
2.337226832777274
 21
7.733751446834281
 31
0.5
  0
LINE
  5
34D
  8
0
 62
     4
 10
2.337226832777274
 20
7.733751446834281
 30
0.5
 11
2.330387627583439
 21
7.752687049764123
 31
0.5
  0
LINE
  5
34E
  8
0
 62
     4
 10
2.330387627583439
 20
7.752687049764123
 30
0.5
 11
2.325391868504763
 21
7.770978190576763
 31
0.5
  0
LINE
  5
34F
  8
0
 62
     4
 10
2.44826420977339
 20
7.811888019825566
 30
0.5
 11
2.45088053684772
 21
7.822352720234089
 31
0.5
  0
LINE
  5
350
  8
0
 62
     4
 10
2.45088053684772
 20
7.822352720234089
 30
0.5
 11
2.453819093770898
 21
7.833738643701653
 31
0.5
  0
LINE
  5
351
  8
0
 62
     4
 10
2.453819093770898
 20
7.833738643701653
 30
0.5
 11
2.463061877254317
 21
7.854303340915049
 31
0.5
  0
LINE
  5
352
  8
0
 62
     4
 10
2.463061877254317
 20
7.854303340915049
 30
0.5
 11
2.475027858573715
 21
7.870813437464246
 31
0.5
  0
LINE
  5
353
  8
0
 62
     4
 10
2.475027858573715
 20
7.870813437464246
 30
0.5
 11
2.490960502734517
 21
7.883872926544806
 31
0.5
  0
LINE
  5
354
  8
0
 62
     4
 10
2.490960502734517
 20
7.883872926544806
 30
0.5
 11
2.509938576999654
 21
7.893800038017282
 31
0.5
  0
LINE
  5
355
  8
0
 62
     4
 10
2.509938576999654
 20
7.893800038017282
 30
0.5
 11
2.531639853939783
 21
7.899674548819706
 31
0.5
  0
LINE
  5
356
  8
0
 62
     4
 10
2.531639853939783
 20
7.899674548819706
 30
0.5
 11
2.556385565826187
 21
7.9024186844277
 31
0.5
  0
LINE
  5
357
  8
0
 62
     4
 10
2.556385565826187
 20
7.9024186844277
 30
0.5
 11
2.584776703443701
 21
7.900787987097289
 31
0.5
  0
LINE
  5
358
  8
0
 62
     4
 10
2.584776703443701
 20
7.900787987097289
 30
0.5
 11
2.616212276007489
 21
7.896026914572446
 31
0.5
  0
LINE
  5
359
  8
0
 62
     4
 10
2.616212276007489
 20
7.896026914572446
 30
0.5
 11
2.648248839356112
 21
7.890021384303629
 31
0.5
  0
LINE
  5
35A
  8
0
 62
     4
 10
2.648248839356112
 20
7.890021384303629
 30
0.5
 11
2.679363179648618
 21
7.884338086303163
 31
0.5
  0
LINE
  5
35B
  8
0
 62
     4
 10
2.679363179648618
 20
7.884338086303163
 30
0.5
 11
2.709555294465503
 21
7.87897602057398
 31
0.5
  0
LINE
  5
35C
  8
0
 62
     4
 10
2.709555294465503
 20
7.87897602057398
 30
0.5
 11
2.738225193019003
 21
7.875179642440548
 31
0.5
  0
LINE
  5
35D
  8
0
 62
     4
 10
2.738225193019003
 20
7.875179642440548
 30
0.5
 11
2.766295098365235
 21
7.872626719634514
 31
0.5
  0
LINE
  5
35E
  8
0
 62
     4
 10
2.766295098365235
 20
7.872626719634514
 30
0.5
 11
2.793441780658278
 21
7.87039603151634
 31
0.5
  0
LINE
  5
35F
  8
0
 62
     4
 10
2.793441780658278
 20
7.87039603151634
 30
0.5
 11
2.819667237472772
 21
7.86848657324994
 31
0.5
  0
LINE
  5
360
  8
0
 62
     4
 10
2.819667237472772
 20
7.86848657324994
 30
0.5
 11
2.844370478023882
 21
7.868142802579293
 31
0.5
  0
LINE
  5
361
  8
0
 62
     4
 10
2.844370478023882
 20
7.868142802579293
 30
0.5
 11
2.830216275082591
 21
7.827571930021549
 31
0.5
  0
LINE
  5
362
  8
0
 62
     4
 10
2.830216275082591
 20
7.827571930021549
 30
0.5
 11
2.819644093604113
 21
7.800231429463107
 31
0.5
  0
LINE
  5
363
  8
0
 62
     4
 10
2.819644093604113
 20
7.800231429463107
 30
0.5
 11
2.807548695865179
 21
7.774456618919923
 31
0.5
  0
LINE
  5
364
  8
0
 62
     4
 10
2.807548695865179
 20
7.774456618919923
 30
0.5
 11
2.793652320926874
 21
7.752413176775511
 31
0.5
  0
LINE
  5
365
  8
0
 62
     4
 10
2.793652320926874
 20
7.752413176775511
 30
0.5
 11
2.779799417320936
 21
7.733457638490235
 31
0.5
  0
LINE
  5
366
  8
0
 62
     4
 10
2.779799417320936
 20
7.733457638490235
 30
0.5
 11
2.763502074395499
 21
7.716390020069064
 31
0.5
  0
LINE
  5
367
  8
0
 62
     4
 10
2.763502074395499
 20
7.716390020069064
 30
0.5
 11
2.747247200385849
 21
7.702409307929462
 31
0.5
  0
LINE
  5
368
  8
0
 62
     4
 10
2.747247200385849
 20
7.702409307929462
 30
0.5
 11
2.728870116905547
 21
7.691237738713008
 31
0.5
  0
LINE
  5
369
  8
0
 62
     4
 10
2.728870116905547
 20
7.691237738713008
 30
0.5
 11
2.709613279284917
 21
7.683475308046479
 31
0.5
  0
LINE
  5
36A
  8
0
 62
     4
 10
2.709613279284917
 20
7.683475308046479
 30
0.5
 11
2.690077683147806
 21
7.677879558180042
 31
0.5
  0
LINE
  5
36B
  8
0
 62
     4
 10
2.690077683147806
 20
7.677879558180042
 30
0.5
 11
2.669942093803428
 21
7.673527263641001
 31
0.5
  0
LINE
  5
36C
  8
0
 62
     4
 10
2.669942093803428
 20
7.673527263641001
 30
0.5
 11
2.650449966579179
 21
7.671018417636626
 31
0.5
  0
LINE
  5
36D
  8
0
 62
     4
 10
2.650449966579179
 20
7.671018417636626
 30
0.5
 11
2.629435625511053
 21
7.670076259225076
 31
0.5
  0
LINE
  5
36E
  8
0
 62
     4
 10
2.629435625511053
 20
7.670076259225076
 30
0.5
 11
2.609064746563055
 21
7.67097754934819
 31
0.5
  0
LINE
  5
36F
  8
0
 62
     4
 10
2.609064746563055
 20
7.67097754934819
 30
0.5
 11
2.58933633215762
 21
7.67372329042255
 31
0.5
  0
LINE
  5
370
  8
0
 62
     4
 10
2.58933633215762
 20
7.67372329042255
 30
0.5
 11
2.569330154393763
 21
7.678633709883349
 31
0.5
  0
LINE
  5
371
  8
0
 62
     4
 10
2.569330154393763
 20
7.678633709883349
 30
0.5
 11
2.548722985845074
 21
7.684788587088126
 31
0.5
  0
LINE
  5
372
  8
0
 62
     4
 10
2.548722985845074
 20
7.684788587088126
 30
0.5
 11
2.533048172106764
 21
7.690257528417972
 31
0.5
  0
LINE
  5
373
  8
0
 62
     4
 10
2.533048172106764
 20
7.690257528417972
 30
0.5
 11
2.519860271442755
 21
7.696927456159427
 31
0.5
  0
LINE
  5
374
  8
0
 62
     4
 10
2.519860271442755
 20
7.696927456159427
 30
0.5
 11
2.50667236835924
 21
7.70359638390381
 31
0.5
  0
LINE
  5
375
  8
0
 62
     4
 10
2.50667236835924
 20
7.70359638390381
 30
0.5
 11
2.495050155290982
 21
7.71178852790865
 31
0.5
  0
LINE
  5
376
  8
0
 62
     4
 10
2.495050155290982
 20
7.71178852790865
 30
0.5
 11
2.485272388334957
 21
7.719336207376781
 31
0.5
  0
LINE
  5
377
  8
0
 62
     4
 10
2.485272388334957
 20
7.719336207376781
 30
0.5
 11
2.476138088338073
 21
7.728729335373722
 31
0.5
  0
LINE
  5
378
  8
0
 62
     4
 10
2.476138088338073
 20
7.728729335373722
 30
0.5
 11
2.467925011400233
 21
7.737800233521818
 31
0.5
  0
LINE
  5
379
  8
0
 62
     4
 10
2.467925011400233
 20
7.737800233521818
 30
0.5
 11
2.462200847530839
 21
7.748072113242508
 31
0.5
  0
LINE
  5
37A
  8
0
 62
     4
 10
2.462200847530839
 20
7.748072113242508
 30
0.5
 11
2.456475681244865
 21
7.758342995385632
 31
0.5
  0
LINE
  5
37B
  8
0
 62
     4
 10
2.456475681244865
 20
7.758342995385632
 30
0.5
 11
2.452916198181418
 21
7.768893638461815
 31
0.5
  0
LINE
  5
37C
  8
0
 62
     4
 10
2.452916198181418
 20
7.768893638461815
 30
0.5
 11
2.449356715117971
 21
7.779444281538
 31
0.5
  0
LINE
  5
37D
  8
0
 62
     4
 10
2.449356715117971
 20
7.779444281538
 30
0.5
 11
2.447962910438037
 21
7.790272685553099
 31
0.5
  0
LINE
  5
37E
  8
0
 62
     4
 10
2.447962910438037
 20
7.790272685553099
 30
0.5
 11
2.447492333650304
 21
7.800780854874481
 31
0.5
  0
LINE
  5
37F
  8
0
 62
     4
 10
2.447492333650304
 20
7.800780854874481
 30
0.5
 11
2.44826420977339
 21
7.811888019825566
 31
0.5
  0
LINE
  5
380
  8
0
 62
     4
 10
3.004850931018066
 20
7.438296260827727
 30
0.5
 11
3.279959894482827
 21
8.071548486290334
 31
0.5
  0
LINE
  5
381
  8
0
 62
     4
 10
3.279959894482827
 20
8.071548486290334
 30
0.5
 11
3.378485621896959
 21
8.028745977315788
 31
0.5
  0
LINE
  5
382
  8
0
 62
     4
 10
3.378485621896959
 20
8.028745977315788
 30
0.5
 11
3.337238784746575
 21
7.933802496428001
 31
0.5
  0
LINE
  5
383
  8
0
 62
     4
 10
3.337238784746575
 20
7.933802496428001
 30
0.5
 11
3.339029906799994
 21
7.933024160517386
 31
0.5
  0
LINE
  5
384
  8
0
 62
     4
 10
3.339029906799994
 20
7.933024160517386
 30
0.5
 11
3.363360534625829
 21
7.952266348714176
 31
0.5
  0
LINE
  5
385
  8
0
 62
     4
 10
3.363360534625829
 20
7.952266348714176
 30
0.5
 11
3.387419720820741
 21
7.968433184664312
 31
0.5
  0
LINE
  5
386
  8
0
 62
     4
 10
3.387419720820741
 20
7.968433184664312
 30
0.5
 11
3.410818293800158
 21
7.980627607345475
 31
0.5
  0
LINE
  5
387
  8
0
 62
     4
 10
3.410818293800158
 20
7.980627607345475
 30
0.5
 11
3.433555253567011
 21
7.98884961917717
 31
0.5
  0
LINE
  5
388
  8
0
 62
     4
 10
3.433555253567011
 20
7.98884961917717
 30
0.5
 11
3.456916832728184
 21
7.993607109597151
 31
0.5
  0
LINE
  5
389
  8
0
 62
     4
 10
3.456916832728184
 20
7.993607109597151
 30
0.5
 11
3.478333570900138
 21
7.993886292465538
 31
0.5
  0
LINE
  5
38A
  8
0
 62
     4
 10
3.478333570900138
 20
7.993886292465538
 30
0.5
 11
3.500372923633253
 21
7.990698958767079
 31
0.5
  0
LINE
  5
38B
  8
0
 62
     4
 10
3.500372923633253
 20
7.990698958767079
 30
0.5
 11
3.520856606961715
 21
7.983930378539345
 31
0.5
  0
LINE
  5
38C
  8
0
 62
     4
 10
3.520856606961715
 20
7.983930378539345
 30
0.5
 11
3.535187585802723
 21
7.977704686412476
 31
0.5
  0
LINE
  5
38D
  8
0
 62
     4
 10
3.535187585802723
 20
7.977704686412476
 30
0.5
 11
3.547844165288363
 21
7.970076041400175
 31
0.5
  0
LINE
  5
38E
  8
0
 62
     4
 10
3.547844165288363
 20
7.970076041400175
 30
0.5
 11
3.560112578025521
 21
7.961552332940196
 31
0.5
  0
LINE
  5
38F
  8
0
 62
     4
 10
3.560112578025521
 20
7.961552332940196
 30
0.5
 11
3.57288688262579
 21
7.951743396709414
 31
0.5
  0
LINE
  5
390
  8
0
 62
     4
 10
3.57288688262579
 20
7.951743396709414
 30
0.5
 11
3.58398779028727
 21
7.940532505170767
 31
0.5
  0
LINE
  5
391
  8
0
 62
     4
 10
3.58398779028727
 20
7.940532505170767
 30
0.5
 11
3.595983758976924
 21
7.928932446886567
 31
0.5
  0
LINE
  5
392
  8
0
 62
     4
 10
3.595983758976924
 20
7.928932446886567
 30
0.5
 11
3.606306330727787
 21
7.915930433294499
 31
0.5
  0
LINE
  5
393
  8
0
 62
     4
 10
3.606306330727787
 20
7.915930433294499
 30
0.5
 11
3.617134794341763
 21
7.901643191931633
 31
0.5
  0
LINE
  5
394
  8
0
 62
     4
 10
3.617134794341763
 20
7.901643191931633
 30
0.5
 11
3.536712717423958
 21
7.819460533163334
 31
0.5
  0
LINE
  5
395
  8
0
 62
     4
 10
3.536712717423958
 20
7.819460533163334
 30
0.5
 11
3.52919505386639
 21
7.829114750461241
 31
0.5
  0
LINE
  5
396
  8
0
 62
     4
 10
3.52919505386639
 20
7.829114750461241
 30
0.5
 11
3.521288223563267
 21
7.837873906730976
 31
0.5
  0
LINE
  5
397
  8
0
 62
     4
 10
3.521288223563267
 20
7.837873906730976
 30
0.5
 11
3.512992224095083
 21
7.845737001975463
 31
0.5
  0
LINE
  5
398
  8
0
 62
     4
 10
3.512992224095083
 20
7.845737001975463
 30
0.5
 11
3.504696224626898
 21
7.853600097219951
 31
0.5
  0
LINE
  5
399
  8
0
 62
     4
 10
3.504696224626898
 20
7.853600097219951
 30
0.5
 11
3.496011055993653
 21
7.860567131439193
 31
0.5
  0
LINE
  5
39A
  8
0
 62
     4
 10
3.496011055993653
 20
7.860567131439193
 30
0.5
 11
3.486936720614853
 21
7.866639104630261
 31
0.5
  0
LINE
  5
39B
  8
0
 62
     4
 10
3.486936720614853
 20
7.866639104630261
 30
0.5
 11
3.478368277099164
 21
7.871425850050529
 31
0.5
  0
LINE
  5
39C
  8
0
 62
     4
 10
3.478368277099164
 20
7.871425850050529
 30
0.5
 11
3.468904772555303
 21
7.87660176221635
 31
0.5
  0
LINE
  5
39D
  8
0
 62
     4
 10
3.468904772555303
 20
7.87660176221635
 30
0.5
 11
3.454184626968739
 21
7.881932393315048
 31
0.5
  0
LINE
  5
39E
  8
0
 62
     4
 10
3.454184626968739
 20
7.881932393315048
 30
0.5
 11
3.438686143052053
 21
7.885470902363252
 31
0.5
  0
LINE
  5
39F
  8
0
 62
     4
 10
3.438686143052053
 20
7.885470902363252
 30
0.5
 11
3.424201445275243
 21
7.886439951027914
 31
0.5
  0
LINE
  5
3A0
  8
0
 62
     4
 10
3.424201445275243
 20
7.886439951027914
 30
0.5
 11
3.409833472615991
 21
7.885228710893601
 31
0.5
  0
LINE
  5
3A1
  8
0
 62
     4
 10
3.409833472615991
 20
7.885228710893601
 30
0.5
 11
3.395972391816923
 21
7.88273224056898
 31
0.5
  0
LINE
  5
3A2
  8
0
 62
     4
 10
3.395972391816923
 20
7.88273224056898
 30
0.5
 11
3.381332977526745
 21
7.878445648188014
 31
0.5
  0
LINE
  5
3A3
  8
0
 62
     4
 10
3.381332977526745
 20
7.878445648188014
 30
0.5
 11
3.367317177794803
 21
7.870692536820692
 31
0.5
  0
LINE
  5
3A4
  8
0
 62
     4
 10
3.367317177794803
 20
7.870692536820692
 30
0.5
 11
3.353808272342553
 21
7.861655195260136
 31
0.5
  0
LINE
  5
3A5
  8
0
 62
     4
 10
3.353808272342553
 20
7.861655195260136
 30
0.5
 11
3.340417089585426
 21
7.850436562484026
 31
0.5
  0
LINE
  5
3A6
  8
0
 62
     4
 10
3.340417089585426
 20
7.850436562484026
 30
0.5
 11
3.327531801110917
 21
7.837933701934188
 31
0.5
  0
LINE
  5
3A7
  8
0
 62
     4
 10
3.327531801110917
 20
7.837933701934188
 30
0.5
 11
3.314765237748111
 21
7.823250547746363
 31
0.5
  0
LINE
  5
3A8
  8
0
 62
     4
 10
3.314765237748111
 20
7.823250547746363
 30
0.5
 11
3.302503566251344
 21
7.807282168207244
 31
0.5
  0
LINE
  5
3A9
  8
0
 62
     4
 10
3.302503566251344
 20
7.807282168207244
 30
0.5
 11
3.290360619866281
 21
7.789133495030135
 31
0.5
  0
LINE
  5
3AA
  8
0
 62
     4
 10
3.290360619866281
 20
7.789133495030135
 30
0.5
 11
3.278723567763835
 21
7.769700594079301
 31
0.5
  0
LINE
  5
3AB
  8
0
 62
     4
 10
3.278723567763835
 20
7.769700594079301
 30
0.5
 11
3.268100299381759
 21
7.747697232747849
 31
0.5
  0
LINE
  5
3AC
  8
0
 62
     4
 10
3.268100299381759
 20
7.747697232747849
 30
0.5
 11
3.256697695091994
 21
7.723902751782486
 31
0.5
  0
LINE
  5
3AD
  8
0
 62
     4
 10
3.256697695091994
 20
7.723902751782486
 30
0.5
 11
3.112334268693443
 21
7.391602067461087
 31
0.5
  0
LINE
  5
3AE
  8
0
 62
     4
 10
3.112334268693443
 20
7.391602067461087
 30
0.5
 11
3.004850931018066
 21
7.438296260827727
 31
0.5
  0
ARC
  5
3B5
  8
0
  6
BYBLOCK
 62
     4
 10
-0.1571912546358378
 20
1.087297151906673
 30
0.0
 40
8.389872576544001
 50
59.87835244156064
 51
118.5653214030904
  0
ARC
  5
3B6
  8
0
  6
BYBLOCK
 62
     4
 10
-0.0557140377380379
 20
-0.9340442721440495
 30
0.0
 40
8.439815318020493
 50
63.92831249042131
 51
116.2400558266011
  0
LINE
  5
3B7
  8
0
  6
BYBLOCK
 62
     4
 10
-4.168895797330593
 20
8.455891896684495
 30
0.0
 11
-4.170272015372567
 21
6.855518734822794
 31
0.0
  0
LINE
  5
3B8
  8
0
  6
BYBLOCK
 62
     4
 10
4.053162044325963
 20
8.344217087290179
 30
0.0
 11
4.053449111278587
 21
6.86370503287265
 31
0.0
  0
ARC
  5
412
  8
0
  6
BYBLOCK
 62
     4
 10
-3.909721272774609
 20
6.866259305744524
 30
0.0
 40
0.2607720255933754
 50
182.3605427300573
 51
298.0152102484774
  0
ARC
  5
413
  8
0
  6
BYBLOCK
 62
     4
 10
3.780698344500637
 20
6.889668136842844
 30
0.0
 40
0.2739836921163859
 50
242.3487441824417
 51
354.5624075091333
  0
ENDSEC
  0
EOF
