999
DXF created by Inkscape
  0
SECTION
  2
HEADER
  9
$ACADVER
  1
AC1014
  9
$HANDSEED
  5
FFFF
  9
$MEASUREMENT
 70
     1
  0
ENDSEC
  0
SECTION
  2
TABLES
  0
TABLE
  2
VPORT
  5
8
330
0
100
AcDbSymbolTable
 70
     4
  0
VPORT
  5
2E
330
8
100
AcDbSymbolTableRecord
100
AcDbViewportTableRecord
  2
*ACTIVE
 70
     0
 10
0.0
 20
0.0
 11
1.0
 21
1.0
 12
210.0
 22
148.5
 13
0.0
 23
0.0
 14
10.0
 24
10.0
 15
10.0
 25
10.0
 16
0.0
 26
0.0
 36
1.0
 17
0.0
 27
0.0
 37
0.0
 40
341.0
 41
1.24
 42
50.0
 43
0.0
 44
0.0
 50
0.0
 51
0.0
 71
     0
 72
   100
 73
     1
 74
     3
 75
     0
 76
     0
 77
     0
 78
     0
  0
ENDTAB
  0
TABLE
  2
LTYPE
  5
5
330
0
100
AcDbSymbolTable
 70
     1
  0
LTYPE
  5
14
330
5
100
AcDbSymbolTableRecord
100
AcDbLinetypeTableRecord
  2
BYBLOCK
 70
     0
  3

 72
    65
 73
     0
 40
0.0
  0
LTYPE
  5
15
330
5
100
AcDbSymbolTableRecord
100
AcDbLinetypeTableRecord
  2
BYLAYER
 70
     0
  3

 72
    65
 73
     0
 40
0.0
  0
LTYPE
  5
16
330
5
100
AcDbSymbolTableRecord
100
AcDbLinetypeTableRecord
  2
CONTINUOUS
 70
     0
  3
Solid line
 72
    65
 73
     0
 40
0.0
  0
ENDTAB
  0
TABLE
  2
LAYER
  5
2
330
0
100
AcDbSymbolTable
 70
1
  0
LAYER
  5
10
330
2
100
AcDbSymbolTableRecord
100
AcDbLayerTableRecord
  2
0
 70
     0
 62
     7
  6
CONTINUOUS
  0
ENDTAB
  0
TABLE
  2
STYLE
  5
3
330
0
100
AcDbSymbolTable
 70
     1
  0
STYLE
  5
11
330
3
100
AcDbSymbolTableRecord
100
AcDbTextStyleTableRecord
  2
STANDARD
 70
     0
 40
0.0
 41
1.0
 50
0.0
 71
     0
 42
2.5
  3
txt
  4

  0
ENDTAB
  0
TABLE
  2
VIEW
  5
6
330
0
100
AcDbSymbolTable
 70
     0
  0
ENDTAB
  0
TABLE
  2
UCS
  5
7
330
0
100
AcDbSymbolTable
 70
     0
  0
ENDTAB
  0
TABLE
  2
APPID
  5
9
330
0
100
AcDbSymbolTable
 70
     2
  0
APPID
  5
12
330
9
100
AcDbSymbolTableRecord
100
AcDbRegAppTableRecord
  2
ACAD
 70
     0
  0
ENDTAB
  0
TABLE
  2
DIMSTYLE
  5
A
330
0
100
AcDbSymbolTable
 70
     1
  0
DIMSTYLE
105
27
330
A
100
AcDbSymbolTableRecord
100
AcDbDimStyleTableRecord
  2
ISO-25
 70
     0
  3

  4

  5

  6

  7

 40
1.0
 41
2.5
 42
0.625
 43
3.75
 44
1.25
 45
0.0
 46
0.0
 47
0.0
 48
0.0
140
2.5
141
2.5
142
0.0
143
0.03937007874016
144
1.0
145
0.0
146
1.0
147
0.625
 71
     0
 72
     0
 73
     0
 74
     0
 75
     0
 76
     0
 77
     1
 78
     8
170
     0
171
     3
172
     1
173
     0
174
     0
175
     0
176
     0
177
     0
178
     0
270
     2
271
     2
272
     2
273
     2
274
     3
340
11
275
     0
280
     0
281
     0
282
     0
283
     0
284
     8
285
     0
286
     0
287
     3
288
     0
  0
ENDTAB
  0
TABLE
  2
BLOCK_RECORD
  5
1
330
0
100
AcDbSymbolTable
 70
     1
  0
BLOCK_RECORD
  5
1F
330
1
100
AcDbSymbolTableRecord
100
AcDbBlockTableRecord
  2
*MODEL_SPACE
  0
BLOCK_RECORD
  5
1B
330
1
100
AcDbSymbolTableRecord
100
AcDbBlockTableRecord
  2
*PAPER_SPACE
  0
ENDTAB
  0
ENDSEC
  0
SECTION
  2
BLOCKS
  0
BLOCK
  5
20
330
1F
100
AcDbEntity
  8
0
100
AcDbBlockBegin
  2
*MODEL_SPACE
 70
     0
 10
0.0
 20
0.0
 30
0.0
  3
*MODEL_SPACE
  1

  0
ENDBLK
  5
21
330
1F
100
AcDbEntity
  8
0
100
AcDbBlockEnd
  0
BLOCK
  5
1C
330
1B
100
AcDbEntity
 67
     1
  8
0
100
AcDbBlockBegin
  2
*PAPER_SPACE
  1

  0
ENDBLK
  5
1D
330
1B
100
AcDbEntity
 67
     1
  8
0
100
AcDbBlockEnd
  0
ENDSEC
  0
SECTION
  2
ENTITIES
  0
LWPOLYLINE
  5
100
100
AcDbEntity
  8
0
 62
7
100
AcDbPolyline
 90
10
 70
0
 10
0.282221
 20
17.921111
 30
0.0
 10
0.282221
 20
35.560000
 30
0.0
 10
21.448888
 20
35.560000
 30
0.0
 10
42.615556
 20
35.560000
 30
0.0
 10
42.615556
 20
17.921111
 30
0.0
 10
42.615556
 20
0.282222
 30
0.0
 10
21.448888
 20
0.282222
 30
0.0
 10
0.282221
 20
0.282222
 30
0.0
 10
0.282221
 20
17.921111
 30
0.0
 10
0.282221
 20
17.921111
 30
0.0
  0
SPLINE
  5
101
100
AcDbEntity
  8
0
 62
7
100
AcDbSpline
 70
0
 71
3
 72
157
 73
153
 74
151
 40
0.000000
 40
0.000000
 40
0.000000
 40
0.000000
 40
9.578725
 40
13.642214
 40
14.263101
 40
14.754135
 40
15.379006
 40
16.020780
 40
16.650760
 40
17.241965
 40
17.682293
 40
18.122417
 40
18.713218
 40
19.342769
 40
20.014121
 40
20.709692
 40
21.284887
 40
21.781785
 40
22.276158
 40
22.676889
 40
23.035657
 40
23.433303
 40
23.818388
 40
24.261557
 40
24.742183
 40
25.353667
 40
25.921150
 40
26.456544
 40
26.867265
 40
27.225469
 40
27.604908
 40
27.942107
 40
28.261356
 40
28.540962
 40
28.927438
 40
29.858742
 40
30.942266
 40
31.874250
 40
32.241132
 40
32.504538
 40
33.072311
 40
33.576443
 40
34.074924
 40
34.467846
 40
35.516781
 40
36.744763
 40
37.879122
 40
38.469259
 40
38.784791
 40
39.150734
 40
40.322156
 40
41.556061
 40
42.859391
 40
43.583207
 40
44.259555
 40
44.767216
 40
45.183213
 40
45.595801
 40
45.933848
 40
46.412410
 40
47.233355
 40
48.387777
 40
49.545360
 40
50.332545
 40
50.768958
 40
51.056684
 40
51.406351
 40
51.774644
 40
52.159629
 40
52.536453
 40
52.886389
 40
53.214943
 40
53.531202
 40
53.785219
 40
53.992701
 40
54.220318
 40
54.477873
 40
55.284027
 40
56.431184
 40
57.303399
 40
57.539230
 40
57.807807
 40
58.079434
 40
58.554569
 40
59.398186
 40
60.497829
 40
61.562756
 40
62.406884
 40
62.861251
 40
63.173846
 40
63.620399
 40
64.120980
 40
64.733445
 40
65.370023
 40
66.121666
 40
67.372850
 40
68.606059
 40
69.825281
 40
70.152105
 40
70.335521
 40
70.472544
 40
71.420217
 40
72.841008
 40
73.967943
 40
74.454917
 40
75.010360
 40
75.531499
 40
76.139710
 40
76.670273
 40
77.657032
 40
78.587135
 40
79.201921
 40
79.782586
 40
80.283061
 40
80.516058
 40
80.827081
 40
81.178932
 40
81.627194
 40
82.097806
 40
82.619521
 40
83.201873
 40
83.733814
 40
84.249905
 40
84.759045
 40
85.226367
 40
85.644778
 40
86.040830
 40
86.350427
 40
86.684138
 40
87.134370
 40
87.616759
 40
88.165804
 40
88.792907
 40
89.371817
 40
89.933699
 40
90.525896
 40
91.042067
 40
91.585695
 40
92.247447
 40
92.900774
 40
93.540495
 40
94.166587
 40
94.661930
 40
95.252984
 40
99.261401
 40
108.818315
 40
116.238623
 40
121.578584
 40
123.683426
 40
126.602683
 40
134.079519
 40
144.496190
 40
144.496190
 40
144.496190
 40
144.496190
 10
42.249005
 20
15.494799
 30
0.0
 10
42.113580
 20
18.893719
 30
0.0
 10
41.920704
 20
23.734531
 30
0.0
 10
42.603433
 20
27.484962
 30
0.0
 10
41.956100
 20
29.940490
 30
0.0
 10
41.515912
 20
29.241449
 30
0.0
 10
41.020562
 20
29.022306
 30
0.0
 10
40.430819
 20
28.759561
 30
0.0
 10
39.853312
 20
28.542322
 30
0.0
 10
39.364101
 20
28.266504
 30
0.0
 10
39.016423
 20
27.918475
 30
0.0
 10
38.668654
 20
27.570100
 30
0.0
 10
38.179207
 20
27.297712
 30
0.0
 10
37.593263
 20
27.066717
 30
0.0
 10
36.968481
 20
26.836475
 30
0.0
 10
36.386012
 20
26.548808
 30
0.0
 10
35.896449
 20
26.219863
 30
0.0
 10
35.462369
 20
25.930038
 30
0.0
 10
35.031125
 20
25.741863
 30
0.0
 10
34.616017
 20
25.685987
 30
0.0
 10
34.232523
 20
25.624052
 30
0.0
 10
33.896555
 20
25.420337
 30
0.0
 10
33.637733
 20
25.104437
 30
0.0
 10
33.360978
 20
24.755265
 30
0.0
 10
32.859013
 20
24.573692
 30
0.0
 10
32.306402
 20
24.559426
 30
0.0
 10
31.736336
 20
24.513800
 30
0.0
 10
31.241941
 20
24.382155
 30
0.0
 10
30.871130
 20
24.147839
 30
0.0
 10
30.580332
 20
23.897549
 30
0.0
 10
30.243174
 20
23.753428
 30
0.0
 10
29.906087
 20
23.701745
 30
0.0
 10
29.575282
 20
23.686481
 30
0.0
 10
29.356063
 20
23.395226
 30
0.0
 10
29.368351
 20
22.852149
 30
0.0
 10
29.110370
 20
22.073738
 30
0.0
 10
28.499581
 20
21.282713
 30
0.0
 10
27.904978
 20
20.769516
 30
0.0
 10
27.303215
 20
20.667676
 30
0.0
 10
27.278608
 20
20.203819
 30
0.0
 10
27.547971
 20
19.844065
 30
0.0
 10
27.744455
 20
19.355309
 30
0.0
 10
27.883576
 20
18.912386
 30
0.0
 10
27.994300
 20
18.266817
 30
0.0
 10
27.656443
 20
17.390437
 30
0.0
 10
26.994061
 20
16.472028
 30
0.0
 10
26.187443
 20
15.847660
 30
0.0
 10
25.536967
 20
15.658330
 30
0.0
 10
25.225059
 20
15.284636
 30
0.0
 10
25.562431
 20
14.682222
 30
0.0
 10
25.783868
 20
13.807928
 30
0.0
 10
25.577484
 20
12.530927
 30
0.0
 10
24.960385
 20
11.619027
 30
0.0
 10
24.399861
 20
10.915121
 30
0.0
 10
24.099308
 20
10.346169
 30
0.0
 10
23.979613
 20
9.821538
 30
0.0
 10
23.956907
 20
9.376885
 30
0.0
 10
23.842982
 20
8.995697
 30
0.0
 10
23.593629
 20
8.667172
 30
0.0
 10
23.378752
 20
8.156544
 30
0.0
 10
23.322251
 20
7.331525
 30
0.0
 10
23.321889
 20
6.288935
 30
0.0
 10
23.320077
 20
5.260332
 30
0.0
 10
23.274509
 20
4.454854
 30
0.0
 10
23.053649
 20
3.992772
 30
0.0
 10
22.816508
 20
3.717788
 30
0.0
 10
22.749554
 20
3.374845
 30
0.0
 10
22.782116
 20
3.010173
 30
0.0
 10
22.811953
 20
2.631753
 30
0.0
 10
22.700322
 20
2.265083
 30
0.0
 10
22.467888
 20
1.994777
 30
0.0
 10
22.227758
 20
1.768045
 30
0.0
 10
22.063964
 20
1.506343
 30
0.0
 10
22.019054
 20
1.252299
 30
0.0
 10
21.964307
 20
1.019055
 30
0.0
 10
21.761361
 20
0.880845
 30
0.0
 10
21.321573
 20
0.781895
 30
0.0
 10
20.733767
 20
1.418483
 30
0.0
 10
20.244405
 20
2.167479
 30
0.0
 10
20.055082
 20
2.937878
 30
0.0
 10
20.135680
 20
3.394531
 30
0.0
 10
20.053019
 20
3.652640
 30
0.0
 10
19.826458
 20
3.908253
 30
0.0
 10
19.650137
 20
4.421359
 30
0.0
 10
19.556575
 20
5.221730
 30
0.0
 10
19.523610
 20
6.225081
 30
0.0
 10
19.487066
 20
7.226440
 30
0.0
 10
19.409911
 20
8.013307
 30
0.0
 10
19.243842
 20
8.530207
 30
0.0
 10
19.014813
 20
8.869058
 30
0.0
 10
18.936925
 20
9.291627
 30
0.0
 10
18.909845
 20
9.807216
 30
0.0
 10
18.856932
 20
10.394751
 30
0.0
 10
18.549544
 20
11.005417
 30
0.0
 10
17.935561
 20
11.635618
 30
0.0
 10
17.302743
 20
12.538453
 30
0.0
 10
17.096285
 20
13.793782
 30
0.0
 10
17.371800
 20
14.737111
 30
0.0
 10
17.628583
 20
15.209586
 30
0.0
 10
17.682975
 20
15.472969
 30
0.0
 10
17.219543
 20
15.606057
 30
0.0
 10
16.554989
 20
16.048891
 30
0.0
 10
15.755825
 20
16.910969
 30
0.0
 10
15.098143
 20
17.740922
 30
0.0
 10
15.049807
 20
18.476467
 30
0.0
 10
15.096595
 20
18.998153
 30
0.0
 10
15.243665
 20
19.534030
 30
0.0
 10
15.512386
 20
20.067480
 30
0.0
 10
15.160502
 20
20.751972
 30
0.0
 10
14.538390
 20
21.268530
 30
0.0
 10
13.933683
 20
21.860327
 30
0.0
 10
13.559350
 20
22.488218
 30
0.0
 10
13.571462
 20
23.077349
 30
0.0
 10
13.698604
 20
23.492058
 30
0.0
 10
13.530070
 20
23.876643
 30
0.0
 10
13.184864
 20
23.744835
 30
0.0
 10
12.828955
 20
23.759384
 30
0.0
 10
12.409004
 20
23.870880
 30
0.0
 10
11.991478
 20
24.107890
 30
0.0
 10
11.525105
 20
24.350963
 30
0.0
 10
10.996812
 20
24.506352
 30
0.0
 10
10.454879
 20
24.552397
 30
0.0
 10
9.936026
 20
24.599193
 30
0.0
 10
9.465258
 20
24.792346
 30
0.0
 10
9.114159
 20
25.103008
 30
0.0
 10
8.816960
 20
25.408633
 30
0.0
 10
8.493522
 20
25.614558
 30
0.0
 10
8.151994
 20
25.685623
 30
0.0
 10
7.791695
 20
25.747536
 30
0.0
 10
7.409382
 20
25.940406
 30
0.0
 10
7.006603
 20
26.224646
 30
0.0
 10
6.543535
 20
26.528330
 30
0.0
 10
6.008933
 20
26.774261
 30
0.0
 10
5.440476
 20
26.931288
 30
0.0
 10
4.890436
 20
27.110651
 30
0.0
 10
4.401780
 20
27.393149
 30
0.0
 10
4.011874
 20
27.784459
 30
0.0
 10
3.604765
 20
28.190166
 30
0.0
 10
3.071270
 20
28.519799
 30
0.0
 10
2.468412
 20
28.758344
 30
0.0
 10
1.872130
 20
29.023665
 30
0.0
 10
1.375768
 20
29.244781
 30
0.0
 10
0.948647
 20
29.941435
 30
0.0
 10
0.221529
 20
27.589544
 30
0.0
 10
1.004107
 20
23.795157
 30
0.0
 10
0.515402
 20
16.271389
 30
0.0
 10
0.448499
 20
8.738675
 30
0.0
 10
0.936027
 20
4.277704
 30
0.0
 10
0.240712
 20
-0.045899
 30
0.0
 10
5.842614
 20
1.283736
 30
0.0
 10
11.805093
 20
0.313380
 30
0.0
 10
17.971440
 20
0.520021
 30
0.0
 10
21.561167
 20
0.640317
 30
0.0
 11
42.249005
 21
15.494799
 31
0.0
 11
42.259749
 21
25.073518
 31
0.0
 11
42.158605
 21
29.135747
 31
0.0
 11
41.895353
 21
29.698064
 31
0.0
 11
41.543703
 21
29.355344
 31
0.0
 11
41.016348
 21
29.020142
 31
0.0
 11
40.427458
 21
28.765027
 31
0.0
 11
39.846348
 21
28.521748
 31
0.0
 11
39.339394
 21
28.217575
 31
0.0
 11
39.016347
 21
27.918361
 31
0.0
 11
38.693299
 21
27.619447
 31
0.0
 11
38.186345
 21
27.316062
 31
0.0
 11
37.605236
 21
27.073889
 31
0.0
 11
36.980355
 21
26.828454
 31
0.0
 11
36.358651
 21
26.516522
 31
0.0
 11
35.874717
 21
26.205624
 31
0.0
 11
35.453527
 21
25.941984
 31
0.0
 11
34.996309
 21
25.753948
 31
0.0
 11
34.602050
 21
25.682222
 31
0.0
 11
34.251719
 21
25.604872
 31
0.0
 11
33.909664
 21
25.402091
 31
0.0
 11
33.649940
 21
25.117778
 31
0.0
 11
33.344341
 21
24.796830
 31
0.0
 11
32.900523
 21
24.612365
 31
0.0
 11
32.291895
 21
24.553333
 31
0.0
 11
31.727385
 21
24.495321
 31
0.0
 11
31.214047
 21
24.343235
 31
0.0
 11
30.863015
 21
24.130000
 31
0.0
 11
30.575194
 21
23.916765
 31
0.0
 11
30.227568
 21
23.764679
 31
0.0
 11
29.895396
 21
23.706667
 31
0.0
 11
29.583554
 21
23.638303
 31
0.0
 11
29.406856
 21
23.421606
 31
0.0
 11
29.351111
 21
23.039171
 31
0.0
 11
29.083746
 21
22.147071
 31
0.0
 11
28.443525
 21
21.272919
 31
0.0
 11
27.673257
 21
20.748247
 31
0.0
 11
27.341230
 21
20.592169
 31
0.0
 11
27.303413
 21
20.331491
 31
0.0
 11
27.537770
 21
19.814343
 31
0.0
 11
27.738716
 21
19.351991
 31
0.0
 11
27.882217
 21
18.874612
 31
0.0
 11
27.937205
 21
18.485556
 31
0.0
 11
27.646421
 21
17.477732
 31
0.0
 11
26.925438
 21
16.483689
 31
0.0
 11
26.004694
 21
15.821116
 31
0.0
 11
25.477698
 21
15.555527
 31
0.0
 11
25.299860
 21
15.294885
 31
0.0
 11
25.406871
 21
14.944938
 31
0.0
 11
25.701543
 21
13.811184
 31
0.0
 11
25.501188
 21
12.593654
 31
0.0
 11
24.835555
 21
11.473118
 31
0.0
 11
24.408652
 21
10.888598
 31
0.0
 11
24.104696
 21
10.284399
 31
0.0
 11
23.988888
 21
9.790124
 31
0.0
 11
23.940003
 21
9.377008
 31
0.0
 11
23.811845
 21
8.984829
 31
0.0
 11
23.632159
 21
8.698492
 31
0.0
 11
23.442747
 21
8.259011
 31
0.0
 11
23.337745
 21
7.444808
 31
0.0
 11
23.321619
 21
6.290499
 31
0.0
 11
23.307078
 21
5.133007
 31
0.0
 11
23.203481
 21
4.352669
 31
0.0
 11
23.012272
 21
3.960374
 31
0.0
 11
22.850224
 21
3.722621
 31
0.0
 11
22.767159
 21
3.382962
 31
0.0
 11
22.781062
 21
3.014932
 31
0.0
 11
22.787497
 21
2.630001
 31
0.0
 11
22.674208
 21
2.270610
 31
0.0
 11
22.459362
 21
1.994391
 31
0.0
 11
22.234695
 21
1.754657
 31
0.0
 11
22.074455
 21
1.481999
 31
0.0
 11
22.013332
 21
1.235445
 31
0.0
 11
21.944777
 21
1.039616
 31
0.0
 11
21.765053
 21
0.899944
 31
0.0
 11
21.513068
 21
0.846667
 31
0.0
 11
20.855265
 21
1.312692
 31
0.0
 11
20.254945
 21
2.290232
 31
0.0
 11
20.099493
 21
3.148482
 31
0.0
 11
20.115563
 21
3.383766
 31
0.0
 11
20.037771
 21
3.640830
 31
0.0
 11
19.882961
 21
3.864023
 31
0.0
 11
19.703346
 21
4.303899
 31
0.0
 11
19.576636
 21
5.137947
 31
0.0
 11
19.522566
 21
6.236259
 31
0.0
 11
19.472207
 21
7.299995
 31
0.0
 11
19.358537
 21
8.136435
 31
0.0
 11
19.206172
 21
8.564493
 31
0.0
 11
19.056430
 21
8.838889
 31
0.0
 11
18.949627
 21
9.272482
 31
0.0
 11
18.908888
 21
9.771402
 31
0.0
 11
18.820602
 21
10.377471
 31
0.0
 11
18.544168
 21
10.950895
 31
0.0
 11
18.062221
 21
11.527692
 31
0.0
 11
17.387324
 21
12.581245
 31
0.0
 11
17.191548
 21
13.798816
 31
0.0
 11
17.507708
 21
14.976331
 31
0.0
 11
17.636385
 21
15.276758
 31
0.0
 11
17.639684
 21
15.460145
 31
0.0
 11
17.517530
 21
15.522222
 31
0.0
 11
16.694359
 21
15.991770
 31
0.0
 11
15.698079
 21
17.004722
 31
0.0
 11
15.112454
 21
17.967544
 31
0.0
 11
15.063209
 21
18.452021
 31
0.0
 11
15.114061
 21
19.005132
 31
0.0
 11
15.254003
 21
19.507130
 31
0.0
 11
15.418591
 21
20.092648
 31
0.0
 11
15.219581
 21
20.584474
 31
0.0
 11
14.531777
 21
21.292017
 31
0.0
 11
13.893504
 21
21.968553
 31
0.0
 11
13.611280
 21
22.514731
 31
0.0
 11
13.599980
 21
23.095286
 31
0.0
 11
13.636342
 21
23.594438
 31
0.0
 11
13.520309
 21
23.796489
 31
0.0
 11
13.210085
 21
23.774224
 31
0.0
 11
12.858263
 21
23.769672
 31
0.0
 11
12.425280
 21
23.885709
 31
0.0
 11
12.004875
 21
24.097215
 31
0.0
 11
11.536470
 21
24.326963
 31
0.0
 11
10.977649
 21
24.490828
 31
0.0
 11
10.449393
 21
24.553333
 31
0.0
 11
9.938332
 21
24.625215
 31
0.0
 11
9.468980
 21
24.822528
 31
0.0
 11
9.106740
 21
25.117778
 31
0.0
 11
8.799765
 21
25.402091
 31
0.0
 11
8.459564
 21
25.604872
 31
0.0
 11
8.159786
 21
25.682222
 31
0.0
 11
7.834003
 21
25.754532
 31
0.0
 11
7.425624
 21
25.944101
 31
0.0
 11
7.023062
 21
26.209888
 31
0.0
 11
6.558818
 21
26.503022
 31
0.0
 11
5.988730
 21
26.764284
 31
0.0
 11
5.436220
 21
26.937112
 31
0.0
 11
4.906850
 21
27.125469
 31
0.0
 11
4.397428
 21
27.427440
 31
0.0
 11
4.018240
 21
27.777652
 31
0.0
 11
3.620306
 21
28.148031
 31
0.0
 11
3.061735
 21
28.502874
 31
0.0
 11
2.463455
 21
28.765359
 31
0.0
 11
1.877227
 21
29.021444
 31
0.0
 11
1.350252
 21
29.359508
 31
0.0
 11
0.996616
 21
29.706362
 31
0.0
 11
0.724284
 21
29.181786
 31
0.0
 11
0.604321
 21
25.175164
 31
0.0
 11
0.574801
 21
15.618297
 31
0.0
 11
0.596717
 21
8.198021
 31
0.0
 11
0.659544
 21
2.858429
 31
0.0
 11
0.749672
 21
0.755517
 31
0.0
 11
3.667778
 21
0.673571
 31
0.0
 11
11.144500
 21
0.632184
 31
0.0
 11
21.561167
 21
0.640317
 31
0.0
  0
LWPOLYLINE
  5
102
100
AcDbEntity
  8
0
 62
7
100
AcDbPolyline
 90
4
 70
0
 10
21.561167
 20
0.640317
 30
0.0
 10
42.192225
 20
0.705556
 30
0.0
 10
42.249008
 20
15.494799
 30
0.0
 10
42.249005
 20
15.494799
 30
0.0
  0
SPLINE
  5
103
100
AcDbEntity
  8
0
 62
7
100
AcDbSpline
 70
0
 71
3
 72
73
 73
69
 74
67
 40
0.000000
 40
0.000000
 40
0.000000
 40
0.000000
 40
0.479509
 40
0.869412
 40
1.131485
 40
1.560463
 40
2.468763
 40
3.840362
 40
5.061072
 40
5.884877
 40
6.145388
 40
6.313317
 40
6.634920
 40
7.079368
 40
8.121845
 40
9.136561
 40
10.072208
 40
11.187057
 40
12.584227
 40
13.454610
 40
13.760443
 40
14.088048
 40
14.382662
 40
15.136177
 40
16.000067
 40
16.750673
 40
17.079564
 40
17.296721
 40
17.553721
 40
18.259563
 40
19.499786
 40
20.543648
 40
21.255530
 40
22.194946
 40
22.972166
 40
23.082102
 40
23.320173
 40
23.714384
 40
25.062523
 40
26.470091
 40
27.623408
 40
29.046883
 40
30.904919
 40
32.964593
 40
33.857564
 40
35.382646
 40
38.825223
 40
41.662662
 40
43.086407
 40
43.563787
 40
43.980674
 40
45.103397
 40
46.456359
 40
46.888569
 40
47.241160
 40
47.822252
 40
48.474688
 40
49.026118
 40
50.249987
 40
51.109378
 40
51.689890
 40
51.883692
 40
52.449986
 40
54.251073
 40
57.572686
 40
59.813192
 40
61.020330
 40
61.139274
 40
61.139274
 40
61.139274
 40
61.139274
 10
21.617744
 20
2.345481
 30
0.0
 10
21.603604
 20
2.503119
 30
0.0
 10
21.577966
 20
2.788936
 30
0.0
 10
21.602838
 20
3.185426
 30
0.0
 10
21.844709
 20
3.464810
 30
0.0
 10
22.037783
 20
3.971393
 30
0.0
 10
22.058840
 20
4.886938
 30
0.0
 10
22.065389
 20
6.032317
 30
0.0
 10
22.041540
 20
7.227003
 30
0.0
 10
22.079595
 20
7.884260
 30
0.0
 10
22.125711
 20
8.434195
 30
0.0
 10
22.425058
 20
8.350271
 30
0.0
 10
22.646768
 20
8.619779
 30
0.0
 10
23.077753
 20
9.018931
 30
0.0
 10
23.376903
 20
9.845161
 30
0.0
 10
23.302422
 20
10.925239
 30
0.0
 10
22.452456
 20
11.579675
 30
0.0
 10
21.921925
 20
12.654718
 30
0.0
 10
21.863297
 20
13.722004
 30
0.0
 10
22.307813
 20
14.765348
 30
0.0
 10
22.838424
 20
14.630972
 30
0.0
 10
23.121138
 20
14.524340
 30
0.0
 10
23.513184
 20
14.262000
 30
0.0
 10
23.725336
 20
13.606028
 30
0.0
 10
23.699447
 20
12.812346
 30
0.0
 10
23.402315
 20
12.199783
 30
0.0
 10
23.038938
 20
11.937086
 30
0.0
 10
22.975244
 20
11.654030
 30
0.0
 10
23.237860
 20
11.274397
 30
0.0
 10
24.086744
 20
11.762647
 30
0.0
 10
24.638285
 20
12.426188
 30
0.0
 10
25.270254
 20
13.381702
 30
0.0
 10
24.872499
 20
14.244496
 30
0.0
 10
24.560665
 20
15.007275
 30
0.0
 10
23.964945
 20
15.306616
 30
0.0
 10
23.869991
 20
15.717378
 30
0.0
 10
24.179718
 20
15.805033
 30
0.0
 10
24.759186
 20
15.955366
 30
0.0
 10
25.783680
 20
16.413382
 30
0.0
 10
26.684411
 20
17.340590
 30
0.0
 10
27.317269
 20
18.641514
 30
0.0
 10
26.466433
 20
20.057606
 30
0.0
 10
24.970525
 20
21.092893
 30
0.0
 10
23.423560
 20
21.355556
 30
0.0
 10
21.871116
 20
21.866744
 30
0.0
 10
21.866985
 20
24.146632
 30
0.0
 10
21.639521
 20
26.667117
 30
0.0
 10
21.993381
 20
28.944963
 30
0.0
 10
21.604338
 20
31.061072
 30
0.0
 10
22.538247
 20
31.161062
 30
0.0
 10
22.703776
 20
31.895345
 30
0.0
 10
22.599419
 20
32.830269
 30
0.0
 10
22.487037
 20
33.772113
 30
0.0
 10
22.327585
 20
34.516961
 30
0.0
 10
21.871932
 20
34.731219
 30
0.0
 10
21.361215
 20
34.636691
 30
0.0
 10
20.685156
 20
34.654163
 30
0.0
 10
20.331845
 20
33.815879
 30
0.0
 10
20.331708
 20
32.958685
 30
0.0
 10
20.288261
 20
32.073286
 30
0.0
 10
20.237007
 20
31.518130
 30
0.0
 10
20.414799
 20
31.093072
 30
0.0
 10
21.324438
 20
30.747182
 30
0.0
 10
20.853299
 20
28.410287
 30
0.0
 10
21.335676
 20
26.055259
 30
0.0
 10
20.833900
 20
24.101268
 30
0.0
 10
21.369833
 20
22.406229
 30
0.0
 10
20.924397
 20
22.304665
 30
0.0
 10
20.884444
 20
22.295556
 30
0.0
 11
21.617744
 21
2.345481
 31
0.0
 11
21.588936
 21
2.824124
 31
0.0
 11
21.652697
 21
3.208778
 31
0.0
 11
21.797122
 21
3.427465
 31
0.0
 11
21.964376
 21
3.822494
 31
0.0
 11
22.053102
 21
4.726449
 31
0.0
 11
22.059247
 21
6.098035
 31
0.0
 11
22.055890
 21
7.318740
 31
0.0
 11
22.101611
 21
8.141275
 31
0.0
 11
22.186507
 21
8.387565
 31
0.0
 11
22.354410
 21
8.390534
 31
0.0
 11
22.617732
 21
8.575170
 31
0.0
 11
22.919466
 21
8.901499
 31
0.0
 11
23.303904
 21
9.870501
 31
0.0
 11
23.167201
 21
10.875967
 31
0.0
 11
22.554838
 21
11.583388
 31
0.0
 11
22.032930
 21
12.568528
 31
0.0
 11
22.017792
 21
13.965616
 31
0.0
 11
22.521332
 21
14.675556
 31
0.0
 11
22.823624
 21
14.629146
 31
0.0
 11
23.127797
 21
14.507477
 31
0.0
 11
23.367999
 21
14.336889
 31
0.0
 11
23.670300
 21
13.646672
 31
0.0
 11
23.632586
 21
12.783606
 31
0.0
 11
23.271372
 21
12.125629
 31
0.0
 11
23.047428
 21
11.884759
 31
0.0
 11
23.008427
 21
11.671132
 31
0.0
 11
23.149133
 21
11.456072
 31
0.0
 11
23.829416
 21
11.644293
 31
0.0
 11
24.692335
 21
12.535093
 31
0.0
 11
25.117777
 21
13.488323
 31
0.0
 11
24.911964
 21
14.169804
 31
0.0
 11
24.438185
 21
14.980998
 31
0.0
 11
23.911929
 21
15.552947
 31
0.0
 11
23.898227
 21
15.662026
 31
0.0
 11
24.103383
 21
15.782811
 31
0.0
 11
24.482980
 21
15.889152
 31
0.0
 11
25.701813
 21
16.465280
 31
0.0
 11
26.687612
 21
17.469994
 31
0.0
 11
27.093332
 21
18.549591
 31
0.0
 11
26.495332
 21
19.841364
 31
0.0
 11
24.990429
 21
20.931118
 31
0.0
 11
23.012272
 21
21.504835
 31
0.0
 11
22.204371
 21
21.885219
 31
0.0
 11
21.855022
 21
23.369749
 31
0.0
 11
21.763566
 21
26.811111
 31
0.0
 11
21.816408
 21
29.648058
 31
0.0
 11
22.043759
 21
31.053534
 31
0.0
 11
22.480862
 21
31.245452
 31
0.0
 11
22.632514
 21
31.633777
 31
0.0
 11
22.606417
 21
32.756197
 31
0.0
 11
22.414599
 21
34.095492
 31
0.0
 11
22.259996
 21
34.499105
 31
0.0
 11
21.949703
 21
34.666554
 31
0.0
 11
21.368649
 21
34.659937
 31
0.0
 11
20.729365
 21
34.529599
 31
0.0
 11
20.454624
 21
34.051485
 31
0.0
 11
20.319999
 21
32.835043
 31
0.0
 11
20.275987
 21
31.976780
 31
0.0
 11
20.296247
 21
31.396622
 31
0.0
 11
20.376396
 21
31.220170
 31
0.0
 11
20.826555
 21
30.876592
 31
0.0
 11
21.073150
 21
29.092466
 31
0.0
 11
21.129514
 21
25.771331
 31
0.0
 11
21.084020
 21
23.531287
 31
0.0
 11
20.999118
 21
22.327138
 31
0.0
 11
20.884444
 21
22.295556
 31
0.0
  0
LWPOLYLINE
  5
104
100
AcDbEntity
  8
0
 62
7
100
AcDbPolyline
 90
3
 70
0
 10
20.884444
 20
22.295556
 30
0.0
 10
20.676525
 20
23.283333
 30
0.0
 10
20.639373
 20
22.366111
 30
0.0
  0
SPLINE
  5
105
100
AcDbEntity
  8
0
 62
7
100
AcDbSpline
 70
0
 71
3
 72
142
 73
138
 74
136
 40
0.000000
 40
0.000000
 40
0.000000
 40
0.000000
 40
0.644544
 40
1.085322
 40
2.041900
 40
3.703385
 40
4.916496
 40
5.788209
 40
6.604779
 40
7.209051
 40
8.373482
 40
9.688021
 40
10.457756
 40
11.040400
 40
11.305505
 40
11.556409
 40
11.773675
 40
12.166587
 40
12.891968
 40
13.564817
 40
13.775650
 40
13.928807
 40
14.057822
 40
14.642832
 40
15.743323
 40
16.677960
 40
16.926270
 40
17.021842
 40
17.174361
 40
17.356680
 40
17.519976
 40
17.670714
 40
17.824252
 40
18.007037
 40
18.223751
 40
18.440597
 40
18.624460
 40
18.780509
 40
18.936060
 40
19.188397
 40
19.556074
 40
19.979020
 40
20.216616
 40
20.472452
 40
20.696157
 40
20.869168
 40
21.090912
 40
21.323298
 40
21.499149
 40
21.853992
 40
22.528072
 40
22.890954
 40
23.493227
 40
23.976201
 40
24.038378
 40
24.581231
 40
25.260765
 40
25.617577
 40
26.548816
 40
27.396049
 40
27.905937
 40
28.499322
 40
29.045913
 40
29.273905
 40
29.610718
 40
29.868174
 40
30.090443
 40
30.269841
 40
30.375138
 40
30.427679
 40
30.592586
 40
30.781634
 40
30.911011
 40
31.031970
 40
31.195696
 40
31.388576
 40
31.593910
 40
31.808411
 40
31.959429
 40
32.248124
 40
32.533991
 40
32.770380
 40
33.258589
 40
33.731098
 40
34.203683
 40
34.599873
 40
34.976482
 40
35.378346
 40
35.730839
 40
36.033420
 40
36.283813
 40
36.971533
 40
38.210857
 40
39.280468
 40
40.334662
 40
41.609170
 40
43.060017
 40
43.859823
 40
44.282735
 40
44.682809
 40
45.167906
 40
45.606437
 40
46.426418
 40
47.758753
 40
49.436847
 40
50.122930
 40
50.647953
 40
50.949207
 40
51.263893
 40
51.524823
 40
51.775574
 40
52.068545
 40
52.345858
 40
52.611337
 40
52.786748
 40
53.089053
 40
53.398832
 40
53.618736
 40
53.972836
 40
54.341331
 40
54.428796
 40
54.802663
 40
55.208305
 40
55.721044
 40
56.247005
 40
56.736900
 40
57.146713
 40
57.395257
 40
57.582739
 40
57.831734
 40
58.101784
 40
58.481903
 40
59.054308
 40
59.963590
 40
60.911944
 40
61.954151
 40
62.865801
 40
62.865801
 40
62.865801
 40
62.865801
 10
20.639373
 20
22.366111
 30
0.0
 10
20.657537
 20
22.129024
 30
0.0
 10
20.688121
 20
21.729802
 30
0.0
 10
20.022344
 20
21.361947
 30
0.0
 10
18.993402
 20
21.493026
 30
0.0
 10
17.734320
 20
21.504508
 30
0.0
 10
16.471125
 20
21.888736
 30
0.0
 10
15.868005
 20
22.659887
 30
0.0
 10
15.700837
 20
23.557037
 30
0.0
 10
16.556095
 20
24.053100
 30
0.0
 10
17.609766
 20
23.791166
 30
0.0
 10
18.589857
 20
23.744000
 30
0.0
 10
19.705697
 20
23.990801
 30
0.0
 10
19.521828
 20
24.646758
 30
0.0
 10
19.305808
 20
24.938647
 30
0.0
 10
19.269620
 20
25.179022
 30
0.0
 10
19.315206
 20
25.514478
 30
0.0
 10
19.929452
 20
25.384183
 30
0.0
 10
20.144899
 20
24.810110
 30
0.0
 10
20.276369
 20
24.260851
 30
0.0
 10
20.156274
 20
23.934789
 30
0.0
 10
20.185923
 20
23.753985
 30
0.0
 10
20.502628
 20
23.621157
 30
0.0
 10
20.602115
 20
24.562477
 30
0.0
 10
20.607826
 20
25.246158
 30
0.0
 10
20.425305
 20
26.048252
 30
0.0
 10
20.235765
 20
26.423478
 30
0.0
 10
20.035945
 20
26.498151
 30
0.0
 10
20.050048
 20
26.289201
 30
0.0
 10
20.016365
 20
26.144557
 30
0.0
 10
19.911684
 20
26.002975
 30
0.0
 10
19.754111
 20
25.943362
 30
0.0
 10
19.593215
 20
26.016443
 30
0.0
 10
19.493521
 20
26.181498
 30
0.0
 10
19.473559
 20
26.388818
 30
0.0
 10
19.452231
 20
26.590825
 30
0.0
 10
19.351518
 20
26.770120
 30
0.0
 10
19.182729
 20
26.800257
 30
0.0
 10
19.013501
 20
26.912666
 30
0.0
 10
19.017837
 20
27.201200
 30
0.0
 10
19.068723
 20
27.534633
 30
0.0
 10
19.174148
 20
27.861569
 30
0.0
 10
19.084691
 20
28.201264
 30
0.0
 10
18.814806
 20
28.231380
 30
0.0
 10
18.590812
 20
28.208551
 30
0.0
 10
18.456308
 20
28.015511
 30
0.0
 10
18.514395
 20
27.812384
 30
0.0
 10
18.612832
 20
27.575038
 30
0.0
 10
18.335368
 20
27.439147
 30
0.0
 10
17.957425
 20
27.564991
 30
0.0
 10
17.433811
 20
27.566946
 30
0.0
 10
17.149492
 20
28.129165
 30
0.0
 10
17.358257
 20
28.519018
 30
0.0
 10
17.875289
 20
28.953907
 30
0.0
 10
17.496168
 20
29.088084
 30
0.0
 10
17.254193
 20
28.597715
 30
0.0
 10
16.785495
 20
28.131865
 30
0.0
 10
16.215092
 20
28.658498
 30
0.0
 10
16.357978
 20
29.421794
 30
0.0
 10
16.290293
 20
30.181718
 30
0.0
 10
15.789774
 20
30.749752
 30
0.0
 10
15.188597
 20
30.479701
 30
0.0
 10
14.879955
 20
30.194534
 30
0.0
 10
14.375367
 20
30.242514
 30
0.0
 10
14.644258
 20
30.575010
 30
0.0
 10
14.775845
 20
30.774402
 30
0.0
 10
14.818569
 20
31.011451
 30
0.0
 10
14.788039
 20
31.157153
 30
0.0
 10
14.648655
 20
31.277239
 30
0.0
 10
14.789871
 20
31.294294
 30
0.0
 10
14.887297
 20
31.200549
 30
0.0
 10
15.039042
 20
31.139600
 30
0.0
 10
15.204933
 20
31.152883
 30
0.0
 10
15.259347
 20
31.304579
 30
0.0
 10
15.194522
 20
31.457052
 30
0.0
 10
15.067208
 20
31.600381
 30
0.0
 10
14.894839
 20
31.698349
 30
0.0
 10
14.676269
 20
31.757336
 30
0.0
 10
14.689404
 20
32.015479
 30
0.0
 10
14.870171
 20
32.166989
 30
0.0
 10
15.087998
 20
32.411286
 30
0.0
 10
15.414870
 20
32.172333
 30
0.0
 10
15.527691
 20
31.795541
 30
0.0
 10
15.791950
 20
31.389227
 30
0.0
 10
16.102439
 20
31.060758
 30
0.0
 10
16.472735
 20
30.862180
 30
0.0
 10
16.837162
 20
30.724800
 30
0.0
 10
17.154534
 20
30.492431
 30
0.0
 10
17.381589
 20
30.277950
 30
0.0
 10
17.616491
 20
29.917609
 30
0.0
 10
17.892046
 20
30.394709
 30
0.0
 10
17.949512
 20
31.040439
 30
0.0
 10
18.057564
 20
32.096530
 30
0.0
 10
17.564713
 20
33.148018
 30
0.0
 10
16.579855
 20
33.858137
 30
0.0
 10
15.251328
 20
33.687460
 30
0.0
 10
14.169277
 20
33.400199
 30
0.0
 10
13.346584
 20
32.760275
 30
0.0
 10
13.513299
 20
32.138155
 30
0.0
 10
13.005517
 20
31.901391
 30
0.0
 10
12.619953
 20
32.160674
 30
0.0
 10
12.047700
 20
32.309995
 30
0.0
 10
11.194044
 20
32.112068
 30
0.0
 10
9.890645
 20
31.772459
 30
0.0
 10
9.015495
 20
31.517666
 30
0.0
 10
7.597807
 20
30.911947
 30
0.0
 10
8.349522
 20
30.711550
 30
0.0
 10
8.695536
 20
30.720712
 30
0.0
 10
8.995594
 20
30.718989
 30
0.0
 10
9.267903
 20
30.751421
 30
0.0
 10
9.536478
 20
30.758851
 30
0.0
 10
9.811627
 20
30.719552
 30
0.0
 10
10.069005
 20
30.641640
 30
0.0
 10
10.326014
 20
30.555822
 30
0.0
 10
10.364688
 20
30.274297
 30
0.0
 10
10.173332
 20
30.078293
 30
0.0
 10
9.976610
 20
29.848674
 30
0.0
 10
10.076519
 20
29.533810
 30
0.0
 10
10.323251
 20
29.364078
 30
0.0
 10
10.705813
 20
29.291970
 30
0.0
 10
10.616788
 20
28.984592
 30
0.0
 10
10.227474
 20
29.102216
 30
0.0
 10
9.840767
 20
29.130272
 30
0.0
 10
9.382533
 20
29.343421
 30
0.0
 10
8.961642
 20
29.621706
 30
0.0
 10
8.581541
 20
29.907745
 30
0.0
 10
8.253649
 20
30.111578
 30
0.0
 10
7.983639
 20
30.196147
 30
0.0
 10
7.758494
 20
30.243000
 30
0.0
 10
7.559098
 20
30.380646
 30
0.0
 10
7.363216
 20
30.605873
 30
0.0
 10
7.008040
 20
30.836614
 30
0.0
 10
6.365203
 20
30.828770
 30
0.0
 10
5.569812
 20
30.732030
 30
0.0
 10
4.607587
 20
30.613360
 30
0.0
 10
3.643687
 20
30.535310
 30
0.0
 10
2.992689
 20
30.511644
 30
0.0
 10
2.688939
 20
30.500602
 30
0.0
 11
20.639373
 21
22.366111
 31
0.0
 11
20.558269
 21
21.726690
 31
0.0
 11
20.189089
 21
21.485876
 31
0.0
 11
19.233226
 21
21.448889
 31
0.0
 11
17.578762
 21
21.601466
 31
0.0
 11
16.447289
 21
22.038968
 31
0.0
 11
15.917285
 21
22.731050
 31
0.0
 11
15.874827
 21
23.546516
 31
0.0
 11
16.373039
 21
23.888465
 31
0.0
 11
17.536560
 21
23.842444
 31
0.0
 11
18.850981
 21
23.824851
 31
0.0
 11
19.550867
 21
24.145243
 31
0.0
 11
19.452516
 21
24.719527
 31
0.0
 11
19.323074
 21
24.950882
 31
0.0
 11
19.281715
 21
25.198354
 31
0.0
 11
19.337392
 21
25.408365
 31
0.0
 11
19.729658
 21
25.385840
 31
0.0
 11
20.136700
 21
24.785428
 31
0.0
 11
20.212918
 21
24.116910
 31
0.0
 11
20.171083
 21
23.910269
 31
0.0
 11
20.212736
 21
23.762885
 31
0.0
 11
20.328858
 21
23.706667
 31
0.0
 11
20.563162
 21
24.242707
 31
0.0
 11
20.559323
 21
25.343191
 31
0.0
 11
20.319996
 21
26.246667
 31
0.0
 11
20.167528
 21
26.442654
 31
0.0
 11
20.074895
 21
26.466173
 31
0.0
 11
20.042098
 21
26.317222
 31
0.0
 11
20.001298
 21
26.139527
 31
0.0
 11
19.898327
 21
26.012788
 31
0.0
 11
19.755552
 21
25.964444
 31
0.0
 11
19.613396
 21
26.022457
 31
0.0
 11
19.512005
 21
26.174543
 31
0.0
 11
19.473330
 21
26.387778
 31
0.0
 11
19.433918
 21
26.601012
 31
0.0
 11
19.330596
 21
26.753099
 31
0.0
 11
19.185731
 21
26.811111
 31
0.0
 11
19.060678
 21
26.903619
 31
0.0
 11
19.021628
 21
27.152916
 31
0.0
 11
19.075216
 21
27.516667
 31
0.0
 11
19.138948
 21
27.934783
 31
0.0
 11
19.054584
 21
28.156898
 31
0.0
 11
18.807229
 21
28.222222
 31
0.0
 11
18.589277
 21
28.171817
 31
0.0
 11
18.490420
 21
28.029830
 31
0.0
 11
18.520299
 21
27.810108
 31
0.0
 11
18.552896
 21
27.580019
 31
0.0
 11
18.403360
 21
27.487486
 31
0.0
 11
18.049922
 21
27.519035
 31
0.0
 11
17.405584
 21
27.717056
 31
0.0
 11
17.234347
 21
28.036996
 31
0.0
 11
17.477880
 21
28.587835
 31
0.0
 11
17.722993
 21
29.003988
 31
0.0
 11
17.664686
 21
29.025578
 31
0.0
 11
17.253801
 21
28.670804
 31
0.0
 11
16.692785
 21
28.287364
 31
0.0
 11
16.416887
 21
28.513628
 31
0.0
 11
16.316547
 21
29.439446
 31
0.0
 11
16.160234
 21
30.272134
 31
0.0
 11
15.785804
 21
30.618238
 31
0.0
 11
15.214404
 21
30.458210
 31
0.0
 11
14.719980
 21
30.225174
 31
0.0
 11
14.496653
 21
30.271058
 31
0.0
 11
14.638547
 21
30.576523
 31
0.0
 11
14.768205
 21
30.798946
 31
0.0
 11
14.805968
 21
31.017984
 31
0.0
 11
14.743661
 21
31.186215
 31
0.0
 11
14.686620
 21
31.274723
 31
0.0
 11
14.738194
 21
31.284758
 31
0.0
 11
14.887219
 21
31.214146
 31
0.0
 11
15.064914
 21
31.149622
 31
0.0
 11
15.191653
 21
31.175612
 31
0.0
 11
15.239996
 21
31.286491
 31
0.0
 11
15.191653
 21
31.442917
 31
0.0
 11
15.064914
 21
31.588313
 31
0.0
 11
14.887219
 21
31.691203
 31
0.0
 11
14.702686
 21
31.800558
 31
0.0
 11
14.698520
 21
31.951519
 31
0.0
 11
14.873700
 21
32.180988
 31
0.0
 11
15.109876
 21
32.342051
 31
0.0
 11
15.315731
 21
32.225847
 31
0.0
 11
15.551530
 21
31.798357
 31
0.0
 11
15.803066
 21
31.398365
 31
0.0
 11
16.137051
 21
31.064014
 31
0.0
 11
16.481179
 21
30.867690
 31
0.0
 11
16.823930
 21
30.711628
 31
0.0
 11
17.154303
 21
30.482830
 31
0.0
 11
17.400772
 21
30.230828
 31
0.0
 11
17.623850
 21
30.026399
 31
0.0
 11
17.781837
 21
30.220658
 31
0.0
 11
17.937327
 21
30.890570
 31
0.0
 11
17.942214
 21
32.129884
 31
0.0
 11
17.485280
 21
33.096982
 31
0.0
 11
16.614261
 21
33.690826
 31
0.0
 11
15.339867
 21
33.673769
 31
0.0
 11
13.968726
 21
33.199502
 31
0.0
 11
13.445342
 21
32.594722
 31
0.0
 11
13.408956
 21
32.173378
 31
0.0
 11
13.056045
 21
31.984929
 31
0.0
 11
12.596982
 21
32.141709
 31
0.0
 11
12.172695
 21
32.252568
 31
0.0
 11
11.359489
 21
32.147377
 31
0.0
 11
10.069344
 21
31.814751
 31
0.0
 11
8.478171
 21
31.281674
 31
0.0
 11
7.902671
 21
30.908164
 31
0.0
 11
8.396099
 21
30.728783
 31
0.0
 11
8.697198
 21
30.719131
 31
0.0
 11
9.011810
 21
30.725973
 31
0.0
 11
9.271823
 21
30.747827
 31
0.0
 11
9.522542
 21
30.751858
 31
0.0
 11
9.812785
 21
30.711976
 31
0.0
 11
10.079718
 21
30.636815
 31
0.0
 11
10.309359
 21
30.503607
 31
0.0
 11
10.339082
 21
30.330733
 31
0.0
 11
10.176125
 21
30.076108
 31
0.0
 11
10.018677
 21
29.809325
 31
0.0
 11
10.073879
 21
29.596462
 31
0.0
 11
10.356005
 21
29.382474
 31
0.0
 11
10.665940
 21
29.183152
 31
0.0
 11
10.641846
 21
29.099071
 31
0.0
 11
10.268604
 21
29.077470
 31
0.0
 11
9.869589
 21
29.150498
 31
0.0
 11
9.397338
 21
29.350196
 31
0.0
 11
8.954089
 21
29.633332
 31
0.0
 11
8.555136
 21
29.917645
 31
0.0
 11
8.199010
 21
30.120427
 31
0.0
 11
7.962809
 21
30.197777
 31
0.0
 11
7.782452
 21
30.248974
 31
0.0
 11
7.572729
 21
30.383193
 31
0.0
 11
7.379043
 21
30.571376
 31
0.0
 11
7.055595
 21
30.771054
 31
0.0
 11
6.485490
 21
30.822317
 31
0.0
 11
5.580596
 21
30.733090
 31
0.0
 11
4.638591
 21
30.623539
 31
0.0
 11
3.599736
 21
30.540016
 31
0.0
 11
2.688939
 21
30.500602
 31
0.0
  0
LWPOLYLINE
  5
106
100
AcDbEntity
  8
0
 62
7
100
AcDbPolyline
 90
3
 70
0
 10
2.688939
 20
30.500602
 30
0.0
 10
1.285668
 20
30.480000
 30
0.0
 10
1.873289
 20
29.892378
 30
0.0
  0
SPLINE
  5
107
100
AcDbEntity
  8
0
 62
7
100
AcDbSpline
 70
0
 71
3
 72
52
 73
48
 74
46
 40
0.000000
 40
0.000000
 40
0.000000
 40
0.000000
 40
0.622993
 40
1.409885
 40
2.471749
 40
3.345845
 40
3.917491
 40
4.130504
 40
4.345830
 40
4.661710
 40
5.039246
 40
5.516835
 40
5.633505
 40
6.168453
 40
6.751533
 40
7.437920
 40
8.442182
 40
9.241209
 40
9.817949
 40
10.073306
 40
10.231590
 40
10.462029
 40
10.757086
 40
11.030866
 40
11.208518
 40
11.333721
 40
11.964368
 40
12.906047
 40
13.889851
 40
14.563743
 40
14.820849
 40
15.519900
 40
15.969398
 40
16.138665
 40
16.505876
 40
17.243123
 40
18.258358
 40
19.363824
 40
19.691973
 40
19.841502
 40
20.193556
 40
20.811823
 40
21.402058
 40
22.339851
 40
22.965439
 40
23.512751
 40
24.173870
 40
24.173870
 40
24.173870
 40
24.173870
 10
1.873289
 20
29.892378
 30
0.0
 10
2.038334
 20
29.763643
 30
0.0
 10
2.411846
 20
29.472304
 30
0.0
 10
3.226729
 20
29.254861
 30
0.0
 10
4.118446
 20
29.168462
 30
0.0
 10
4.968420
 20
29.027631
 30
0.0
 10
5.474268
 20
29.002080
 30
0.0
 10
5.828897
 20
28.709774
 30
0.0
 10
5.511245
 20
28.570159
 30
0.0
 10
5.236348
 20
28.553484
 30
0.0
 10
4.865392
 20
28.534238
 30
0.0
 10
4.438353
 20
28.807056
 30
0.0
 10
4.309724
 20
28.389234
 30
0.0
 10
4.798848
 20
28.159693
 30
0.0
 10
5.201374
 20
27.756796
 30
0.0
 10
5.996442
 20
27.618574
 30
0.0
 10
6.799711
 20
27.623832
 30
0.0
 10
7.633027
 20
27.600263
 30
0.0
 10
8.095145
 20
27.555311
 30
0.0
 10
8.532326
 20
27.410711
 30
0.0
 10
8.373249
 20
27.187442
 30
0.0
 10
8.161421
 20
27.116553
 30
0.0
 10
7.888645
 20
27.091404
 30
0.0
 10
7.654235
 20
27.080590
 30
0.0
 10
7.437923
 20
27.003052
 30
0.0
 10
7.464596
 20
26.644549
 30
0.0
 10
8.159550
 20
26.495914
 30
0.0
 10
8.956402
 20
26.394765
 30
0.0
 10
9.759997
 20
26.423323
 30
0.0
 10
10.557338
 20
26.817646
 30
0.0
 10
10.760579
 20
26.177204
 30
0.0
 10
10.185156
 20
25.953805
 30
0.0
 10
9.744378
 20
25.825357
 30
0.0
 10
9.657707
 20
25.451772
 30
0.0
 10
10.165708
 20
25.274380
 30
0.0
 10
10.791441
 20
25.121970
 30
0.0
 10
11.793162
 20
25.271531
 30
0.0
 10
12.535325
 20
25.376013
 30
0.0
 10
13.074940
 20
25.723283
 30
0.0
 10
13.297672
 20
25.479788
 30
0.0
 10
13.062511
 20
25.119790
 30
0.0
 10
13.089909
 20
24.477895
 30
0.0
 10
13.950084
 20
24.359092
 30
0.0
 10
14.554275
 20
24.751341
 30
0.0
 10
15.144347
 20
25.146932
 30
0.0
 10
15.764452
 20
25.258048
 30
0.0
 10
16.162055
 20
25.179694
 30
0.0
 10
16.379579
 20
25.136827
 30
0.0
 11
1.873289
 21
29.892378
 31
0.0
 11
2.386251
 21
29.538840
 31
0.0
 11
3.135345
 21
29.297887
 31
0.0
 11
4.186616
 21
29.148275
 31
0.0
 11
5.052968
 21
29.032185
 31
0.0
 11
5.604324
 21
28.881235
 31
0.0
 11
5.745296
 21
28.721542
 31
0.0
 11
5.565016
 21
28.603796
 31
0.0
 11
5.252944
 21
28.554891
 31
0.0
 11
4.876644
 21
28.585415
 31
0.0
 11
4.404697
 21
28.658605
 31
0.0
 11
4.368025
 21
28.547848
 31
0.0
 11
4.735482
 21
28.159075
 31
0.0
 11
5.212234
 21
27.823381
 31
0.0
 11
5.877755
 21
27.655427
 31
0.0
 11
6.881302
 21
27.617546
 31
0.0
 11
7.679849
 21
27.589868
 31
0.0
 11
8.249402
 21
27.499106
 31
0.0
 11
8.466655
 21
27.364908
 31
0.0
 11
8.387022
 21
27.228115
 31
0.0
 11
8.178257
 21
27.130549
 31
0.0
 11
7.885556
 21
27.093333
 31
0.0
 11
7.613902
 21
27.059276
 31
0.0
 11
7.460317
 21
26.969992
 31
0.0
 11
7.458052
 21
26.844809
 31
0.0
 11
8.007516
 21
26.535286
 31
0.0
 11
8.942076
 21
26.419716
 31
0.0
 11
9.918431
 21
26.540551
 31
0.0
 11
10.588592
 21
26.611373
 31
0.0
 11
10.668555
 21
26.367018
 31
0.0
 11
10.114861
 21
25.940292
 31
0.0
 11
9.731162
 21
25.706146
 31
0.0
 11
9.701102
 21
25.539570
 31
0.0
 11
10.005474
 21
25.334140
 31
0.0
 11
10.726532
 21
25.180489
 31
0.0
 11
11.738481
 21
25.262111
 31
0.0
 11
12.803112
 21
25.559793
 31
0.0
 11
13.119499
 21
25.646861
 31
0.0
 11
13.221979
 21
25.537973
 31
0.0
 11
13.147479
 21
25.193892
 31
0.0
 11
13.211614
 21
24.578960
 31
0.0
 11
13.783382
 21
24.432475
 31
0.0
 11
14.641310
 21
24.811179
 31
0.0
 11
15.185766
 21
25.119281
 31
0.0
 11
15.723719
 21
25.220062
 31
0.0
 11
16.379579
 21
25.136827
 31
0.0
  0
LWPOLYLINE
  5
108
100
AcDbEntity
  8
0
 62
7
100
AcDbPolyline
 90
3
 70
0
 10
16.379579
 20
25.136827
 30
0.0
 10
17.356655
 20
24.920461
 30
0.0
 10
16.284475
 20
24.702890
 30
0.0
  0
SPLINE
  5
109
100
AcDbEntity
  8
0
 62
7
100
AcDbSpline
 70
0
 71
3
 72
76
 73
72
 74
70
 40
0.000000
 40
0.000000
 40
0.000000
 40
0.000000
 40
1.120244
 40
1.959778
 40
2.764885
 40
3.686625
 40
5.001911
 40
6.404517
 40
6.897150
 40
7.023713
 40
7.373069
 40
8.455138
 40
9.438926
 40
10.633837
 40
11.635429
 40
12.987110
 40
13.903413
 40
14.057874
 40
14.243587
 40
14.445135
 40
14.622830
 40
14.792168
 40
14.998489
 40
15.246823
 40
15.502135
 40
15.731611
 40
15.901451
 40
15.978277
 40
16.188505
 40
16.328979
 40
16.408648
 40
16.670742
 40
17.025843
 40
17.353256
 40
17.600083
 40
17.846910
 40
18.174324
 40
18.529425
 40
18.793790
 40
18.878643
 40
19.010817
 40
19.262295
 40
20.334579
 40
21.598991
 40
22.562973
 40
23.192599
 40
24.128963
 40
24.646800
 40
24.849308
 40
25.090658
 40
25.349808
 40
25.715724
 40
26.461998
 40
27.127551
 40
27.710549
 40
28.098096
 40
28.405599
 40
28.761580
 40
29.099915
 40
29.426786
 40
29.758017
 40
30.040964
 40
30.320921
 40
30.639796
 40
30.944658
 40
31.779746
 40
32.258960
 40
32.495826
 40
32.745324
 40
33.132866
 40
33.604557
 40
33.604557
 40
33.604557
 40
33.604557
 10
16.284475
 20
24.702890
 30
0.0
 10
15.918046
 20
24.613933
 30
0.0
 10
15.277008
 20
24.458309
 30
0.0
 10
14.535058
 20
23.847409
 30
0.0
 10
14.278248
 20
22.950459
 30
0.0
 10
14.811853
 20
22.007323
 30
0.0
 10
15.723756
 20
21.224516
 30
0.0
 10
16.570684
 20
20.539223
 30
0.0
 10
17.311815
 20
20.468103
 30
0.0
 10
17.466639
 20
20.110268
 30
0.0
 10
16.685069
 20
20.130824
 30
0.0
 10
16.090831
 20
19.679557
 30
0.0
 10
15.643539
 20
18.597010
 30
0.0
 10
15.961277
 20
17.488253
 30
0.0
 10
16.875220
 20
16.707522
 30
0.0
 10
17.759384
 20
16.071415
 30
0.0
 10
18.490552
 20
15.720795
 30
0.0
 10
18.907850
 20
15.626196
 30
0.0
 10
19.035259
 20
15.487024
 30
0.0
 10
19.132137
 20
15.325303
 30
0.0
 10
19.145881
 20
15.127707
 30
0.0
 10
19.006077
 20
14.978038
 30
0.0
 10
18.791997
 20
14.957061
 30
0.0
 10
18.560021
 20
14.927920
 30
0.0
 10
18.328578
 20
14.807544
 30
0.0
 10
18.201446
 20
14.664852
 30
0.0
 10
18.060259
 20
14.489202
 30
0.0
 10
18.227568
 20
14.401336
 30
0.0
 10
18.318885
 20
14.490497
 30
0.0
 10
18.539209
 20
14.603212
 30
0.0
 10
18.425758
 20
14.410699
 30
0.0
 10
18.248903
 20
14.312528
 30
0.0
 10
18.020798
 20
14.068813
 30
0.0
 10
17.851669
 20
13.816615
 30
0.0
 10
17.749156
 20
13.546682
 30
0.0
 10
17.851766
 20
13.276646
 30
0.0
 10
18.020234
 20
13.024879
 30
0.0
 10
18.251492
 20
12.778934
 30
0.0
 10
18.424283
 20
12.683787
 30
0.0
 10
18.547128
 20
12.484681
 30
0.0
 10
18.319604
 20
12.641233
 30
0.0
 10
17.873875
 20
12.211405
 30
0.0
 10
19.115626
 20
11.596514
 30
0.0
 10
19.710123
 20
10.904158
 30
0.0
 10
20.699418
 20
10.505948
 30
0.0
 10
20.938483
 20
9.601957
 30
0.0
 10
20.506830
 20
8.964384
 30
0.0
 10
20.187026
 20
8.577681
 30
0.0
 10
20.102142
 20
8.172882
 30
0.0
 10
20.409671
 20
8.202916
 30
0.0
 10
20.705768
 20
8.108078
 30
0.0
 10
20.695390
 20
7.567518
 30
0.0
 10
20.588134
 20
7.026077
 30
0.0
 10
20.502007
 20
6.355102
 30
0.0
 10
20.484851
 20
5.808887
 30
0.0
 10
20.572379
 20
5.388008
 30
0.0
 10
20.709050
 20
5.063898
 30
0.0
 10
20.748209
 20
4.727321
 30
0.0
 10
20.721545
 20
4.388080
 30
0.0
 10
20.703275
 20
4.055787
 30
0.0
 10
20.767069
 20
3.741860
 30
0.0
 10
20.919053
 20
3.483600
 30
0.0
 10
21.077439
 20
3.234604
 30
0.0
 10
21.154593
 20
2.938113
 30
0.0
 10
21.156382
 20
2.445815
 30
0.0
 10
21.136467
 20
1.951799
 30
0.0
 10
21.091968
 20
1.331369
 30
0.0
 10
21.500097
 20
1.219712
 30
0.0
 10
21.619884
 20
1.549659
 30
0.0
 10
21.663681
 20
1.896924
 30
0.0
 10
21.633941
 20
2.186509
 30
0.0
 10
21.617615
 20
2.345481
 30
0.0
 11
16.284475
 21
24.702890
 31
0.0
 11
15.222809
 21
24.345382
 31
0.0
 11
14.597937
 21
23.784712
 31
0.0
 11
14.393321
 21
23.006040
 31
0.0
 11
14.771362
 21
22.165391
 31
0.0
 11
15.710312
 21
21.244332
 31
0.0
 11
16.917412
 21
20.530041
 31
0.0
 11
17.364984
 21
20.324209
 31
0.0
 11
17.408761
 21
20.205458
 31
0.0
 11
17.074432
 21
20.104100
 31
0.0
 11
16.128352
 21
19.578927
 31
0.0
 11
15.777818
 21
18.659708
 31
0.0
 11
16.083084
 21
17.504448
 31
0.0
 11
16.790518
 21
16.795418
 31
0.0
 11
17.902422
 21
16.026841
 31
0.0
 11
18.744248
 21
15.664984
 31
0.0
 11
18.890673
 21
15.615811
 31
0.0
 11
19.025861
 21
15.488478
 31
0.0
 11
19.120543
 21
15.310556
 31
0.0
 11
19.120823
 21
15.132860
 31
0.0
 11
19.008518
 21
15.006121
 31
0.0
 11
18.807940
 21
14.957778
 31
0.0
 11
18.563654
 21
14.913127
 31
0.0
 11
18.336757
 21
14.796071
 31
0.0
 11
18.176372
 21
14.631950
 31
0.0
 11
18.110177
 21
14.475540
 31
0.0
 11
18.175580
 21
14.435233
 31
0.0
 11
18.371382
 21
14.511768
 31
0.0
 11
18.503361
 21
14.559877
 31
0.0
 11
18.468331
 21
14.488322
 31
0.0
 11
18.273877
 21
14.312594
 31
0.0
 11
18.025103
 21
14.059200
 31
0.0
 11
17.847669
 21
13.784033
 31
0.0
 11
17.779988
 21
13.546667
 31
0.0
 11
17.847669
 21
13.309300
 31
0.0
 11
18.025103
 21
13.034134
 31
0.0
 11
18.273877
 21
12.780740
 31
0.0
 11
18.470296
 21
12.603798
 31
0.0
 11
18.510475
 21
12.529061
 31
0.0
 11
18.385716
 21
12.572708
 31
0.0
 11
18.162708
 21
12.456481
 31
0.0
 11
18.875994
 21
11.655846
 31
0.0
 11
19.883353
 21
10.891669
 31
0.0
 11
20.668410
 21
10.332253
 31
0.0
 11
20.833139
 21
9.724558
 31
0.0
 11
20.428641
 21
8.880071
 31
0.0
 11
20.165158
 21
8.434278
 31
0.0
 11
20.154143
 21
8.232069
 31
0.0
 11
20.390747
 21
8.184444
 31
0.0
 11
20.631749
 21
8.089173
 31
0.0
 11
20.691916
 21
7.728238
 31
0.0
 11
20.590032
 21
6.988951
 31
0.0
 11
20.510040
 21
6.328223
 31
0.0
 11
20.510458
 21
5.745225
 31
0.0
 11
20.591161
 21
5.366173
 31
0.0
 11
20.689785
 21
5.074915
 31
0.0
 11
20.736999
 21
4.722079
 31
0.0
 11
20.722584
 21
4.384051
 31
0.0
 11
20.717338
 21
4.057223
 31
0.0
 11
20.788597
 21
3.733747
 31
0.0
 11
20.920932
 21
3.483655
 31
0.0
 11
21.058113
 21
3.239611
 31
0.0
 11
21.142071
 21
2.931988
 31
0.0
 11
21.154629
 21
2.627384
 31
0.0
 11
21.123394
 21
1.792881
 31
0.0
 11
21.229768
 21
1.325622
 31
0.0
 11
21.461811
 21
1.278066
 31
0.0
 11
21.591428
 21
1.491252
 31
0.0
 11
21.647402
 21
1.874731
 31
0.0
 11
21.617615
 21
2.345481
 31
0.0
  0
LWPOLYLINE
  5
10a
100
AcDbEntity
  8
0
 62
7
100
AcDbPolyline
 90
2
 70
0
 10
21.617615
 20
2.345481
 30
0.0
 10
21.617744
 20
2.345481
 30
0.0
  0
SPLINE
  5
10b
100
AcDbEntity
  8
0
 62
7
100
AcDbSpline
 70
0
 71
3
 72
16
 73
12
 74
10
 40
0.000000
 40
0.000000
 40
0.000000
 40
0.000000
 40
0.696087
 40
1.268082
 40
1.785073
 40
2.345609
 40
2.923890
 40
3.604017
 40
4.141322
 40
4.486872
 40
4.916025
 40
4.916025
 40
4.916025
 40
4.916025
 10
21.839495
 20
9.155737
 30
0.0
 10
21.781431
 20
9.383770
 30
0.0
 10
21.675655
 20
9.799185
 30
0.0
 10
21.893037
 20
10.409029
 30
0.0
 10
22.449181
 20
10.670977
 30
0.0
 10
23.021902
 20
10.395032
 30
0.0
 10
23.176181
 20
9.738716
 30
0.0
 10
22.901910
 20
9.181627
 30
0.0
 10
22.534230
 20
8.784546
 30
0.0
 10
22.025128
 20
8.752463
 30
0.0
 10
21.905670
 20
9.011978
 30
0.0
 10
21.839495
 20
9.155738
 30
0.0
 11
21.839495
 21
9.155737
 31
0.0
 11
21.743709
 21
9.845202
 31
0.0
 11
21.964444
 21
10.372890
 31
0.0
 11
22.436666
 21
10.583333
 31
0.0
 11
22.943735
 21
10.344417
 31
0.0
 11
23.104415
 21
9.788908
 31
0.0
 11
22.848747
 21
9.158665
 31
0.0
 11
22.439158
 21
8.810910
 31
0.0
 11
22.093609
 21
8.809908
 31
0.0
 11
21.839495
 21
9.155738
 31
0.0
  0
LWPOLYLINE
  5
10c
100
AcDbEntity
  8
0
 62
7
100
AcDbPolyline
 90
2
 70
0
 10
21.839495
 20
9.155738
 30
0.0
 10
21.839495
 20
9.155737
 30
0.0
  0
SPLINE
  5
10d
100
AcDbEntity
  8
0
 62
7
100
AcDbSpline
 70
0
 71
3
 72
16
 73
12
 74
10
 40
0.000000
 40
0.000000
 40
0.000000
 40
0.000000
 40
0.867062
 40
1.569312
 40
2.318931
 40
2.996574
 40
3.464012
 40
4.537528
 40
5.526286
 40
6.002245
 40
6.847285
 40
6.847285
 40
6.847285
 40
6.847285
 10
19.658185
 20
12.369445
 30
0.0
 10
19.480117
 20
12.605523
 30
0.0
 10
19.157828
 20
13.032804
 30
0.0
 10
19.232813
 20
13.906861
 30
0.0
 10
19.812710
 20
14.314835
 30
0.0
 10
20.502867
 20
14.680367
 30
0.0
 10
20.989840
 20
13.945284
 30
0.0
 10
20.813397
 20
13.134246
 30
0.0
 10
20.985916
 20
12.180687
 30
0.0
 10
20.187179
 20
11.691678
 30
0.0
 10
19.864562
 20
12.105027
 30
0.0
 10
19.658185
 20
12.369445
 30
0.0
 11
19.658185
 21
12.369445
 31
0.0
 11
19.237856
 21
13.127811
 31
0.0
 11
19.312794
 21
13.826051
 31
0.0
 11
19.868509
 21
14.329153
 31
0.0
 11
20.521383
 21
14.510686
 31
0.0
 11
20.815795
 21
14.147615
 31
0.0
 11
20.884444
 21
13.076296
 31
0.0
 11
20.744589
 21
12.097479
 31
0.0
 11
20.332232
 21
11.859785
 31
0.0
 11
19.658185
 21
12.369445
 31
0.0
  0
LWPOLYLINE
  5
10e
100
AcDbEntity
  8
0
 62
7
100
AcDbPolyline
 90
2
 70
0
 10
19.658185
 20
12.369445
 30
0.0
 10
19.658185
 20
12.369445
 30
0.0
  0
SPLINE
  5
10f
100
AcDbEntity
  8
0
 62
7
100
AcDbSpline
 70
0
 71
3
 72
16
 73
12
 74
10
 40
0.000000
 40
0.000000
 40
0.000000
 40
0.000000
 40
0.529289
 40
0.698434
 40
0.992474
 40
1.572696
 40
2.092982
 40
2.478273
 40
2.638194
 40
2.958801
 40
3.405905
 40
3.405905
 40
3.405905
 40
3.405905
 10
20.374527
 20
13.303098
 30
0.0
 10
20.375951
 20
13.474909
 30
0.0
 10
20.377830
 20
13.701626
 30
0.0
 10
20.118332
 20
14.033678
 30
0.0
 10
19.904071
 20
13.562488
 30
0.0
 10
19.809739
 20
13.180420
 30
0.0
 10
19.847893
 20
12.689661
 30
0.0
 10
20.214917
 20
12.315271
 30
0.0
 10
20.416853
 20
12.588821
 30
0.0
 10
20.407984
 20
12.900132
 30
0.0
 10
20.386841
 20
13.154789
 30
0.0
 10
20.374527
 20
13.303098
 30
0.0
 11
20.374527
 21
13.303098
 31
0.0
 11
20.272844
 21
13.822528
 31
0.0
 11
20.154454
 21
13.943333
 31
0.0
 11
19.976456
 21
13.709289
 31
0.0
 11
19.834233
 21
13.146768
 31
0.0
 11
19.946651
 21
12.638772
 31
0.0
 11
20.262262
 21
12.417778
 31
0.0
 11
20.366454
 21
12.539099
 31
0.0
 11
20.406786
 21
12.857159
 31
0.0
 11
20.374527
 21
13.303098
 31
0.0
  0
LWPOLYLINE
  5
110
100
AcDbEntity
  8
0
 62
7
100
AcDbPolyline
 90
2
 70
0
 10
20.374527
 20
13.303098
 30
0.0
 10
20.374527
 20
13.303098
 30
0.0
  0
SPLINE
  5
111
100
AcDbEntity
  8
0
 62
7
100
AcDbSpline
 70
0
 71
3
 72
19
 73
15
 74
13
 40
0.000000
 40
0.000000
 40
0.000000
 40
0.000000
 40
0.313625
 40
0.916168
 40
1.685782
 40
2.906228
 40
3.610875
 40
4.518517
 40
5.991903
 40
7.099747
 40
8.270417
 40
9.372531
 40
10.127484
 40
10.535845
 40
10.535845
 40
10.535845
 40
10.535845
 10
22.204586
 20
16.553933
 30
0.0
 10
22.169106
 20
16.652616
 30
0.0
 10
22.065459
 20
16.940892
 30
0.0
 10
22.033434
 20
17.509220
 30
0.0
 10
22.012925
 20
18.364776
 30
0.0
 10
21.963011
 20
19.291817
 30
0.0
 10
22.641040
 20
20.132132
 30
0.0
 10
23.763118
 20
19.831660
 30
0.0
 10
24.803607
 20
19.319843
 30
0.0
 10
25.325838
 20
17.940226
 30
0.0
 10
24.374564
 20
17.035531
 30
0.0
 10
23.454263
 20
16.728702
 30
0.0
 10
22.719294
 20
16.410788
 30
0.0
 10
22.338320
 20
16.516740
 30
0.0
 10
22.204586
 20
16.553933
 30
0.0
 11
22.204586
 21
16.553933
 31
0.0
 11
22.108251
 21
16.852396
 31
0.0
 11
22.039541
 21
17.451009
 31
0.0
 11
22.013332
 21
18.220176
 31
0.0
 11
22.152983
 21
19.432606
 31
0.0
 11
22.630728
 21
19.950570
 31
0.0
 11
23.534759
 21
19.869685
 31
0.0
 11
24.778868
 21
19.080343
 31
0.0
 11
25.090548
 21
18.017247
 31
0.0
 11
24.341666
 21
17.117445
 31
0.0
 11
23.335351
 21
16.668016
 31
0.0
 11
22.605350
 21
16.475527
 31
0.0
 11
22.204586
 21
16.553933
 31
0.0
  0
LWPOLYLINE
  5
112
100
AcDbEntity
  8
0
 62
7
100
AcDbPolyline
 90
2
 70
0
 10
22.204586
 20
16.553933
 30
0.0
 10
22.204586
 20
16.553933
 30
0.0
  0
SPLINE
  5
113
100
AcDbEntity
  8
0
 62
7
100
AcDbSpline
 70
0
 71
3
 72
19
 73
15
 74
13
 40
0.000000
 40
0.000000
 40
0.000000
 40
0.000000
 40
0.615688
 40
1.228408
 40
1.875383
 40
2.639014
 40
3.087572
 40
4.033943
 40
4.829501
 40
5.176638
 40
5.493706
 40
5.816472
 40
6.160776
 40
6.454598
 40
6.454598
 40
6.454598
 40
6.454598
 10
23.918332
 20
17.576145
 30
0.0
 10
24.054081
 20
17.739787
 30
0.0
 10
24.324923
 20
18.066281
 30
0.0
 10
24.222698
 20
18.769005
 30
0.0
 10
23.725166
 20
19.207031
 30
0.0
 10
23.088608
 20
19.605790
 30
0.0
 10
22.472805
 20
19.039095
 30
0.0
 10
22.617421
 20
18.231664
 30
0.0
 10
22.553807
 20
17.608369
 30
0.0
 10
22.698272
 20
17.022040
 30
0.0
 10
23.091849
 20
17.123118
 30
0.0
 10
23.372109
 20
17.252580
 30
0.0
 10
23.663023
 20
17.400253
 30
0.0
 10
23.837839
 20
17.520690
 30
0.0
 10
23.918332
 20
17.576145
 30
0.0
 11
23.918332
 21
17.576145
 31
0.0
 11
24.240718
 21
18.100682
 31
0.0
 11
24.167526
 21
18.709014
 31
0.0
 11
23.725219
 21
19.181181
 31
0.0
 11
23.008201
 21
19.443896
 31
0.0
 11
22.665496
 21
19.154488
 31
0.0
 11
22.577777
 21
18.212191
 31
0.0
 11
22.611832
 21
17.417363
 31
0.0
 11
22.755640
 21
17.101414
 31
0.0
 11
23.071666
 21
17.127112
 31
0.0
 11
23.368783
 21
17.253204
 31
0.0
 11
23.672956
 21
17.414523
 31
0.0
 11
23.918332
 21
17.576145
 31
0.0
  0
LWPOLYLINE
  5
114
100
AcDbEntity
  8
0
 62
7
100
AcDbPolyline
 90
2
 70
0
 10
23.918332
 20
17.576145
 30
0.0
 10
23.918332
 20
17.576145
 30
0.0
  0
SPLINE
  5
115
100
AcDbEntity
  8
0
 62
7
100
AcDbSpline
 70
0
 71
3
 72
19
 73
15
 74
13
 40
0.000000
 40
0.000000
 40
0.000000
 40
0.000000
 40
1.316635
 40
2.332875
 40
3.623225
 40
4.814660
 40
5.550909
 40
6.844355
 40
7.856861
 40
8.309680
 40
8.739179
 40
9.139817
 40
9.583483
 40
9.978330
 40
9.978330
 40
9.978330
 40
9.978330
 10
19.040200
 20
16.919652
 30
0.0
 10
18.623794
 20
17.138467
 30
0.0
 10
17.885986
 20
17.526172
 30
0.0
 10
17.847529
 20
18.974431
 30
0.0
 10
18.929942
 20
19.596894
 30
0.0
 10
19.999085
 20
20.112034
 30
0.0
 10
20.983761
 20
19.360460
 30
0.0
 10
20.845732
 20
18.227537
 30
0.0
 10
20.916232
 20
17.380797
 30
0.0
 10
20.744285
 20
16.662485
 30
0.0
 10
20.244812
 20
16.660993
 30
0.0
 10
19.839858
 20
16.705602
 30
0.0
 10
19.428730
 20
16.786882
 30
0.0
 10
19.164584
 20
16.877147
 30
0.0
 10
19.040200
 20
16.919652
 30
0.0
 11
19.040200
 21
16.919652
 31
0.0
 11
18.018107
 21
17.749624
 31
0.0
 11
17.993736
 21
18.765571
 31
0.0
 11
18.975845
 21
19.602508
 31
0.0
 11
20.130769
 21
19.895202
 31
0.0
 11
20.719673
 21
19.453326
 31
0.0
 11
20.884444
 21
18.170417
 31
0.0
 11
20.849169
 21
17.158526
 31
0.0
 11
20.672783
 21
16.741473
 31
0.0
 11
20.249444
 21
16.669000
 31
0.0
 11
19.850899
 21
16.709908
 31
0.0
 11
19.416468
 21
16.799957
 31
0.0
 11
19.040200
 21
16.919652
 31
0.0
  0
LWPOLYLINE
  5
116
100
AcDbEntity
  8
0
 62
7
100
AcDbPolyline
 90
2
 70
0
 10
19.040200
 20
16.919652
 30
0.0
 10
19.040200
 20
16.919652
 30
0.0
  0
SPLINE
  5
117
100
AcDbEntity
  8
0
 62
7
100
AcDbSpline
 70
0
 71
3
 72
19
 73
15
 74
13
 40
0.000000
 40
0.000000
 40
0.000000
 40
0.000000
 40
0.182075
 40
0.505558
 40
0.919115
 40
1.744624
 40
2.474036
 40
3.407575
 40
3.938508
 40
4.235899
 40
5.024977
 40
5.626695
 40
6.097423
 40
6.343870
 40
6.343870
 40
6.343870
 40
6.343870
 10
20.197743
 20
19.407441
 30
0.0
 10
20.138214
 20
19.422955
 30
0.0
 10
19.972920
 20
19.466033
 30
0.0
 10
19.668560
 20
19.369143
 30
0.0
 10
19.184703
 20
19.211208
 30
0.0
 10
18.601920
 20
18.746687
 30
0.0
 10
18.720144
 20
17.778707
 30
0.0
 10
19.327993
 20
17.418278
 30
0.0
 10
19.916189
 20
16.976201
 30
0.0
 10
20.325367
 20
17.457536
 30
0.0
 10
20.240889
 20
18.041997
 30
0.0
 10
20.295742
 20
18.653797
 30
0.0
 10
20.296890
 20
19.100703
 30
0.0
 10
20.223100
 20
19.328993
 30
0.0
 10
20.197743
 20
19.407441
 30
0.0
 11
20.197743
 21
19.407441
 31
0.0
 11
20.018879
 21
19.441484
 31
0.0
 11
19.701438
 21
19.379255
 31
0.0
 11
19.314145
 21
19.234225
 31
0.0
 11
18.724043
 21
18.656953
 31
0.0
 11
18.783890
 21
17.930000
 31
0.0
 11
19.473332
 21
17.300584
 31
0.0
 11
19.966637
 21
17.104268
 31
0.0
 11
20.176310
 21
17.315168
 31
0.0
 11
20.267108
 21
18.099005
 31
0.0
 11
20.289948
 21
18.700289
 31
0.0
 11
20.265027
 21
19.170357
 31
0.0
 11
20.197743
 21
19.407441
 31
0.0
  0
LWPOLYLINE
  5
118
100
AcDbEntity
  8
0
 62
7
100
AcDbPolyline
 90
2
 70
0
 10
20.197743
 20
19.407441
 30
0.0
 10
20.197743
 20
19.407441
 30
0.0
  0
SPLINE
  5
119
100
AcDbEntity
  8
0
 62
7
100
AcDbSpline
 70
0
 71
3
 72
28
 73
24
 74
22
 40
0.000000
 40
0.000000
 40
0.000000
 40
0.000000
 40
0.470299
 40
0.815287
 40
1.114245
 40
1.660551
 40
1.995309
 40
2.486992
 40
2.867232
 40
3.179790
 40
3.699607
 40
4.126143
 40
4.412326
 40
4.576665
 40
4.972589
 40
5.409467
 40
6.060621
 40
6.525054
 40
6.887628
 40
7.293745
 40
7.690854
 40
7.892646
 40
8.409259
 40
8.409259
 40
8.409259
 40
8.409259
 10
16.206012
 20
26.091803
 30
0.0
 10
16.173348
 20
26.244454
 30
0.0
 10
16.116724
 20
26.509083
 30
0.0
 10
16.162400
 20
26.901136
 30
0.0
 10
16.456528
 20
27.183070
 30
0.0
 10
16.813331
 20
27.404806
 30
0.0
 10
17.313616
 20
27.263133
 30
0.0
 10
17.406610
 20
26.832015
 30
0.0
 10
17.517391
 20
26.428235
 30
0.0
 10
17.940262
 20
26.278451
 30
0.0
 10
18.352169
 20
26.403679
 30
0.0
 10
18.748661
 20
26.452359
 30
0.0
 10
19.065658
 20
26.466295
 30
0.0
 10
19.268389
 20
26.224143
 30
0.0
 10
19.056007
 20
25.842727
 30
0.0
 10
18.540162
 20
25.761172
 30
0.0
 10
18.041885
 20
25.915432
 30
0.0
 10
17.573654
 20
26.088444
 30
0.0
 10
17.144995
 20
26.017201
 30
0.0
 10
16.843740
 20
25.795475
 30
0.0
 10
16.613389
 20
25.427179
 30
0.0
 10
16.237647
 20
25.654864
 30
0.0
 10
16.219245
 20
25.909029
 30
0.0
 10
16.206012
 20
26.091803
 30
0.0
 11
16.206012
 21
26.091803
 31
0.0
 11
16.137984
 21
26.557156
 31
0.0
 11
16.202383
 21
26.896080
 31
0.0
 11
16.401248
 21
27.119304
 31
0.0
 11
16.898323
 21
27.345947
 31
0.0
 11
17.217459
 21
27.244877
 31
0.0
 11
17.419762
 21
26.796742
 31
0.0
 11
17.576980
 21
26.450526
 31
0.0
 11
17.865458
 21
26.330224
 31
0.0
 11
18.381118
 21
26.395833
 31
0.0
 11
18.803956
 21
26.451877
 31
0.0
 11
19.087532
 21
26.413336
 31
0.0
 11
19.191110
 21
26.285747
 31
0.0
 11
19.039390
 21
25.920047
 31
0.0
 11
18.619323
 21
25.800020
 31
0.0
 11
17.983549
 21
25.940705
 31
0.0
 11
17.533341
 21
26.054770
 31
0.0
 11
17.175388
 21
25.997071
 31
0.0
 11
16.847410
 21
25.757568
 31
0.0
 11
16.540281
 21
25.505838
 31
0.0
 11
16.361329
 21
25.599091
 31
0.0
 11
16.206012
 21
26.091803
 31
0.0
  0
LWPOLYLINE
  5
11a
100
AcDbEntity
  8
0
 62
7
100
AcDbPolyline
 90
2
 70
0
 10
16.206012
 20
26.091803
 30
0.0
 10
16.206012
 20
26.091803
 30
0.0
  0
SPLINE
  5
11b
100
AcDbEntity
  8
0
 62
7
100
AcDbSpline
 70
0
 71
3
 72
16
 73
12
 74
10
 40
0.000000
 40
0.000000
 40
0.000000
 40
0.000000
 40
0.503721
 40
1.042668
 40
1.544880
 40
2.111665
 40
2.547498
 40
3.178927
 40
3.731167
 40
4.072996
 40
4.441131
 40
4.441131
 40
4.441131
 40
4.441131
 10
14.581482
 20
26.434815
 30
0.0
 10
14.497957
 20
26.585892
 30
0.0
 10
14.325067
 20
26.898611
 30
0.0
 10
14.455984
 20
27.447309
 30
0.0
 10
14.843927
 20
27.837152
 30
0.0
 10
15.433484
 20
27.924230
 30
0.0
 10
15.793092
 20
27.394303
 30
0.0
 10
15.553059
 20
26.850698
 30
0.0
 10
15.313897
 20
26.416966
 30
0.0
 10
14.885803
 20
26.183937
 30
0.0
 10
14.685397
 20
26.349148
 30
0.0
 10
14.581482
 20
26.434815
 30
0.0
 11
14.581482
 21
26.434815
 31
0.0
 11
14.391881
 21
26.901491
 31
0.0
 11
14.502765
 21
27.428908
 31
0.0
 11
14.863859
 21
27.777946
 31
0.0
 11
15.429772
 21
27.809358
 31
0.0
 11
15.684500
 21
27.455714
 31
0.0
 11
15.538438
 21
26.841410
 31
0.0
 11
15.218697
 21
26.391150
 31
0.0
 11
14.904088
 21
26.257477
 31
0.0
 11
14.581482
 21
26.434815
 31
0.0
  0
LWPOLYLINE
  5
11c
100
AcDbEntity
  8
0
 62
7
100
AcDbPolyline
 90
2
 70
0
 10
14.581482
 20
26.434815
 30
0.0
 10
14.581482
 20
26.434815
 30
0.0
  0
SPLINE
  5
11d
100
AcDbEntity
  8
0
 62
7
100
AcDbSpline
 70
0
 71
3
 72
22
 73
18
 74
16
 40
0.000000
 40
0.000000
 40
0.000000
 40
0.000000
 40
0.246776
 40
0.399486
 40
0.497868
 40
0.731185
 40
1.391348
 40
1.936362
 40
2.088176
 40
2.362227
 40
2.738325
 40
3.214712
 40
3.587732
 40
4.092276
 40
4.570140
 40
4.736283
 40
5.029859
 40
5.029859
 40
5.029859
 40
5.029859
 10
12.714175
 20
27.533747
 30
0.0
 10
12.758774
 20
27.594887
 30
0.0
 10
12.830971
 20
27.693861
 30
0.0
 10
12.928429
 20
27.890504
 30
0.0
 10
12.730488
 20
27.960935
 30
0.0
 10
12.987577
 20
28.365496
 30
0.0
 10
13.338601
 20
28.476830
 30
0.0
 10
13.796948
 20
28.905690
 30
0.0
 10
14.060688
 20
28.658411
 30
0.0
 10
14.075295
 20
28.377785
 30
0.0
 10
14.066503
 20
28.010580
 30
0.0
 10
13.997956
 20
27.589388
 30
0.0
 10
13.643821
 20
27.255721
 30
0.0
 10
13.176053
 20
27.235645
 30
0.0
 10
12.809201
 20
27.110004
 30
0.0
 10
12.474138
 20
27.304313
 30
0.0
 10
12.620627
 20
27.444331
 30
0.0
 10
12.714175
 20
27.533747
 30
0.0
 11
12.714175
 21
27.533747
 31
0.0
 11
12.850262
 21
27.739608
 31
0.0
 11
12.882932
 21
27.888783
 31
0.0
 11
12.805113
 21
27.948976
 31
0.0
 11
12.876014
 21
28.171259
 31
0.0
 11
13.400600
 21
28.572039
 31
0.0
 11
13.901574
 21
28.786667
 31
0.0
 11
14.013767
 21
28.684391
 31
0.0
 11
14.070431
 21
28.416262
 31
0.0
 11
14.059300
 21
28.040329
 31
0.0
 11
13.937236
 21
27.579845
 31
0.0
 11
13.664974
 21
27.324860
 31
0.0
 11
13.173506
 21
27.210742
 31
0.0
 11
12.696174
 21
27.188178
 31
0.0
 11
12.560270
 21
27.283747
 31
0.0
 11
12.714175
 21
27.533747
 31
0.0
  0
LWPOLYLINE
  5
11e
100
AcDbEntity
  8
0
 62
7
100
AcDbPolyline
 90
2
 70
0
 10
12.714175
 20
27.533747
 30
0.0
 10
12.714175
 20
27.533747
 30
0.0
  0
SPLINE
  5
11f
100
AcDbEntity
  8
0
 62
7
100
AcDbSpline
 70
0
 71
3
 72
22
 73
18
 74
16
 40
0.000000
 40
0.000000
 40
0.000000
 40
0.000000
 40
0.348832
 40
0.606380
 40
0.955212
 40
1.596514
 40
2.191317
 40
2.573832
 40
2.720247
 40
2.857088
 40
2.991615
 40
3.124962
 40
3.331435
 40
3.618451
 40
4.105136
 40
4.535669
 40
5.210378
 40
5.210378
 40
5.210378
 40
5.210378
 10
11.288888
 20
28.363333
 30
0.0
 10
11.211602
 20
28.455203
 30
0.0
 10
11.077254
 20
28.614901
 30
0.0
 10
11.079792
 20
28.956674
 30
0.0
 10
11.339439
 20
29.305315
 30
0.0
 10
11.802276
 20
29.572932
 30
0.0
 10
12.343169
 20
29.717797
 30
0.0
 10
12.742339
 20
29.435839
 30
0.0
 10
12.675088
 20
29.207448
 30
0.0
 10
12.582232
 20
29.090575
 30
0.0
 10
12.441422
 20
29.080795
 30
0.0
 10
12.298761
 20
28.985936
 30
0.0
 10
12.287825
 20
28.752517
 30
0.0
 10
12.355579
 20
28.458415
 30
0.0
 10
12.373517
 20
27.940077
 30
0.0
 10
11.698036
 20
27.918637
 30
0.0
 10
11.443980
 20
28.194767
 30
0.0
 10
11.288888
 20
28.363333
 30
0.0
 11
11.288888
 21
28.363333
 31
0.0
 11
11.102023
 21
28.657893
 31
0.0
 11
11.102023
 21
28.915441
 31
0.0
 11
11.288888
 21
29.210000
 31
0.0
 11
11.829878
 21
29.554382
 31
0.0
 11
12.421728
 21
29.613567
 31
0.0
 11
12.699999
 21
29.351111
 31
0.0
 11
12.664945
 21
29.208955
 31
0.0
 11
12.573046
 21
29.107564
 31
0.0
 11
12.444199
 21
29.068889
 31
0.0
 11
12.335578
 21
28.991539
 31
0.0
 11
12.296709
 21
28.788757
 31
0.0
 11
12.336003
 21
28.504444
 31
0.0
 11
12.260931
 21
28.023584
 31
0.0
 11
11.834255
 21
27.966084
 31
0.0
 11
11.288888
 21
28.363333
 31
0.0
  0
LWPOLYLINE
  5
120
100
AcDbEntity
  8
0
 62
7
100
AcDbPolyline
 90
2
 70
0
 10
11.288888
 20
28.363333
 30
0.0
 10
11.288888
 20
28.363333
 30
0.0
  0
SPLINE
  5
121
100
AcDbEntity
  8
0
 62
7
100
AcDbSpline
 70
0
 71
3
 72
19
 73
15
 74
13
 40
0.000000
 40
0.000000
 40
0.000000
 40
0.000000
 40
0.097313
 40
0.278352
 40
0.512623
 40
0.730424
 40
0.887644
 40
1.016835
 40
1.166252
 40
1.347291
 40
1.563791
 40
1.777567
 40
1.934787
 40
2.015327
 40
2.015327
 40
2.015327
 40
2.015327
 10
13.264444
 20
31.437583
 30
0.0
 10
13.282367
 20
31.465090
 30
0.0
 10
13.333636
 20
31.543772
 30
0.0
 10
13.491959
 20
31.622507
 30
0.0
 10
13.679664
 20
31.716469
 30
0.0
 10
13.876516
 20
31.766918
 30
0.0
 10
14.059040
 20
31.742412
 30
0.0
 10
14.135561
 20
31.592026
 30
0.0
 10
14.055907
 20
31.441295
 30
0.0
 10
13.894013
 20
31.348328
 30
0.0
 10
13.687134
 20
31.316883
 30
0.0
 10
13.496757
 20
31.340184
 30
0.0
 10
13.336186
 20
31.356038
 30
0.0
 10
13.282597
 20
31.416950
 30
0.0
 10
13.264444
 20
31.437583
 30
0.0
 11
13.264444
 21
31.437583
 31
0.0
 11
13.322456
 21
31.515714
 31
0.0
 11
13.474542
 21
31.613922
 31
0.0
 11
13.687777
 21
31.710948
 31
0.0
 11
13.901011
 21
31.755313
 31
0.0
 11
14.053098
 21
31.715465
 31
0.0
 11
14.111110
 21
31.600031
 31
0.0
 11
14.053098
 21
31.462337
 31
0.0
 11
13.901011
 21
31.364128
 31
0.0
 11
13.687777
 21
31.326667
 31
0.0
 11
13.474542
 21
31.341866
 31
0.0
 11
13.322456
 21
31.381714
 31
0.0
 11
13.264444
 21
31.437583
 31
0.0
  0
LWPOLYLINE
  5
122
100
AcDbEntity
  8
0
 62
7
100
AcDbPolyline
 90
2
 70
0
 10
13.264444
 20
31.437583
 30
0.0
 10
13.264444
 20
31.437583
 30
0.0
  0
SPLINE
  5
123
100
AcDbEntity
  8
0
 62
7
100
AcDbSpline
 70
0
 71
3
 72
16
 73
12
 74
10
 40
0.000000
 40
0.000000
 40
0.000000
 40
0.000000
 40
0.083663
 40
0.226998
 40
0.476394
 40
0.718643
 40
0.802176
 40
0.954553
 40
1.170675
 40
1.365172
 40
1.516735
 40
1.516735
 40
1.516735
 40
1.516735
 10
22.748287
 20
7.543566
 30
0.0
 10
22.717655
 20
7.553270
 30
0.0
 10
22.634543
 20
7.579598
 30
0.0
 10
22.600144
 20
7.366756
 30
0.0
 10
22.607693
 20
7.181463
 30
0.0
 10
22.579433
 20
6.985303
 30
0.0
 10
22.711569
 20
6.826521
 30
0.0
 10
22.787376
 20
7.048412
 30
0.0
 10
22.827136
 20
7.195366
 30
0.0
 10
22.833246
 20
7.399308
 30
0.0
 10
22.774173
 20
7.499629
 30
0.0
 10
22.748301
 20
7.543566
 30
0.0
 11
22.748287
 21
7.543566
 31
0.0
 11
22.665454
 21
7.555324
 31
0.0
 11
22.612202
 21
7.422248
 31
0.0
 11
22.600058
 21
7.173149
 31
0.0
 11
22.630265
 21
6.932790
 31
0.0
 11
22.689331
 21
6.873723
 31
0.0
 11
22.770569
 21
7.002639
 31
0.0
 11
22.821866
 21
7.212584
 31
0.0
 11
22.813865
 21
7.406917
 31
0.0
 11
22.748301
 21
7.543566
 31
0.0
  0
LWPOLYLINE
  5
124
100
AcDbEntity
  8
0
 62
7
100
AcDbPolyline
 90
2
 70
0
 10
22.748301
 20
7.543566
 30
0.0
 10
22.748287
 20
7.543566
 30
0.0
  0
SPLINE
  5
125
100
AcDbEntity
  8
0
 62
7
100
AcDbSpline
 70
0
 71
3
 72
16
 73
12
 74
10
 40
0.000000
 40
0.000000
 40
0.000000
 40
0.000000
 40
0.392729
 40
0.613337
 40
1.332349
 40
2.086782
 40
2.255365
 40
2.780588
 40
3.321585
 40
3.628839
 40
4.071499
 40
4.071499
 40
4.071499
 40
4.071499
 10
22.753198
 20
13.774408
 30
0.0
 10
22.645663
 20
13.917442
 30
0.0
 10
22.477723
 20
14.140822
 30
0.0
 10
22.199639
 20
13.655319
 30
0.0
 10
22.393473
 20
13.125001
 30
0.0
 10
22.142001
 20
12.540412
 30
0.0
 10
22.532662
 20
12.106883
 30
0.0
 10
22.739518
 20
12.760485
 30
0.0
 10
23.056255
 20
13.016206
 30
0.0
 10
23.071146
 20
13.502369
 30
0.0
 10
22.871214
 20
13.673433
 30
0.0
 10
22.753198
 20
13.774408
 30
0.0
 11
22.753198
 21
13.774408
 31
0.0
 11
22.446963
 21
14.020288
 31
0.0
 11
22.320401
 21
13.839595
 31
0.0
 11
22.295541
 21
13.121013
 31
0.0
 11
22.313055
 21
12.366783
 31
0.0
 11
22.432272
 21
12.247587
 31
0.0
 11
22.753198
 21
12.663358
 31
0.0
 11
23.034570
 21
13.125428
 31
0.0
 11
23.034570
 21
13.432681
 31
0.0
 11
22.753198
 21
13.774408
 31
0.0
  0
LWPOLYLINE
  5
126
100
AcDbEntity
  8
0
 62
7
100
AcDbPolyline
 90
2
 70
0
 10
22.753198
 20
13.774408
 30
0.0
 10
22.753198
 20
13.774408
 30
0.0
  0
SPLINE
  5
127
100
AcDbEntity
  8
0
 62
7
100
AcDbSpline
 70
0
 71
3
 72
61
 73
57
 74
55
 40
0.000000
 40
0.000000
 40
0.000000
 40
0.000000
 40
0.859585
 40
1.762459
 40
2.752741
 40
3.608172
 40
3.823799
 40
4.755940
 40
5.419202
 40
5.819806
 40
6.167598
 40
6.455398
 40
6.747170
 40
7.021782
 40
7.285109
 40
7.419264
 40
7.748851
 40
9.013234
 40
10.063154
 40
10.794490
 40
11.074217
 40
11.231823
 40
11.318647
 40
11.806327
 40
12.167287
 40
12.415804
 40
12.649554
 40
13.166304
 40
13.881461
 40
14.642183
 40
15.279871
 40
15.675569
 40
15.920304
 40
16.054058
 40
16.387661
 40
16.716607
 40
17.008933
 40
17.222162
 40
17.413851
 40
17.966706
 40
18.843198
 40
19.967540
 40
20.686730
 40
21.329403
 40
21.822401
 40
21.959639
 40
22.218221
 40
22.540982
 40
22.896056
 40
23.223743
 40
23.405816
 40
23.797148
 40
24.670771
 40
25.607059
 40
26.507223
 40
27.189646
 40
27.189646
 40
27.189646
 40
27.189646
 10
28.138063
 20
22.013333
 30
0.0
 10
28.282426
 20
22.270165
 30
0.0
 10
28.578423
 20
22.796763
 30
0.0
 10
28.357158
 20
23.774486
 30
0.0
 10
27.989577
 20
24.483234
 30
0.0
 10
26.990661
 20
25.026152
 30
0.0
 10
27.641837
 20
25.496095
 30
0.0
 10
28.147168
 20
24.818618
 30
0.0
 10
28.681067
 20
24.519097
 30
0.0
 10
29.155631
 20
24.344972
 30
0.0
 10
29.488158
 20
24.518497
 30
0.0
 10
29.678414
 20
24.766983
 30
0.0
 10
29.756845
 20
25.052308
 30
0.0
 10
29.740264
 20
25.317603
 30
0.0
 10
29.576389
 20
25.567538
 30
0.0
 10
29.833291
 20
25.710556
 30
0.0
 10
30.364040
 20
25.365740
 30
0.0
 10
31.225299
 20
25.227596
 30
0.0
 10
32.228320
 20
25.120154
 30
0.0
 10
32.954484
 20
25.403228
 30
0.0
 10
33.134966
 20
25.701846
 30
0.0
 10
33.261011
 20
25.905951
 30
0.0
 10
32.988072
 20
26.004331
 30
0.0
 10
32.696206
 20
25.879309
 30
0.0
 10
32.333581
 20
25.951235
 30
0.0
 10
32.089443
 20
26.248744
 30
0.0
 10
32.487868
 20
26.419565
 30
0.0
 10
32.927526
 20
26.451969
 30
0.0
 10
33.614148
 20
26.466455
 30
0.0
 10
34.306476
 20
26.472314
 30
0.0
 10
34.919917
 20
26.568002
 30
0.0
 10
35.287696
 20
26.700510
 30
0.0
 10
35.545910
 20
26.928415
 30
0.0
 10
35.348313
 20
27.136494
 30
0.0
 10
35.068344
 20
27.071062
 30
0.0
 10
34.743627
 20
27.121379
 30
0.0
 10
34.510415
 20
27.196625
 30
0.0
 10
34.221509
 20
27.349311
 30
0.0
 10
34.568458
 20
27.607453
 30
0.0
 10
35.077637
 20
27.558721
 30
0.0
 10
35.946386
 20
27.621814
 30
0.0
 10
36.841389
 20
27.589524
 30
0.0
 10
37.684743
 20
27.737148
 30
0.0
 10
38.157261
 20
28.186114
 30
0.0
 10
38.473086
 20
28.403342
 30
0.0
 10
38.613128
 20
28.774992
 30
0.0
 10
38.253162
 20
28.586283
 30
0.0
 10
37.998526
 20
28.557404
 30
0.0
 10
37.645835
 20
28.578094
 30
0.0
 10
37.361697
 20
28.594656
 30
0.0
 10
37.108504
 20
28.894276
 30
0.0
 10
37.866534
 20
28.970268
 30
0.0
 10
38.417266
 20
29.078928
 30
0.0
 10
39.367900
 20
29.231647
 30
0.0
 10
40.166906
 20
29.458467
 30
0.0
 10
40.639225
 20
29.698678
 30
0.0
 10
40.842892
 20
29.802259
 30
0.0
 11
28.138063
 21
22.013333
 31
0.0
 11
28.467046
 21
22.807472
 31
0.0
 11
28.341210
 21
23.701534
 31
0.0
 11
27.785124
 21
24.520941
 31
0.0
 11
27.233788
 21
25.174998
 31
0.0
 11
27.407056
 21
25.303346
 31
0.0
 11
28.215905
 21
24.840043
 31
0.0
 11
28.779728
 21
24.490728
 31
0.0
 11
29.170112
 21
24.400818
 31
0.0
 11
29.485381
 21
24.547667
 31
0.0
 11
29.661402
 21
24.775363
 31
0.0
 11
29.741616
 21
25.055892
 31
0.0
 11
29.708658
 21
25.328519
 31
0.0
 11
29.649069
 21
25.585016
 31
0.0
 11
29.762443
 21
25.656736
 31
0.0
 11
30.078212
 21
25.562299
 31
0.0
 11
31.297632
 21
25.228115
 31
0.0
 11
32.347479
 21
25.215745
 31
0.0
 11
33.008911
 21
25.527768
 31
0.0
 11
33.169219
 21
25.757004
 31
0.0
 11
33.215708
 21
25.907598
 31
0.0
 11
33.138313
 21
25.946948
 31
0.0
 11
32.651482
 21
25.918200
 31
0.0
 11
32.305179
 21
26.020017
 31
0.0
 11
32.173319
 21
26.230668
 31
0.0
 11
32.367807
 21
26.360336
 31
0.0
 11
32.877679
 21
26.444366
 31
0.0
 11
33.592550
 21
26.464565
 31
0.0
 11
34.352718
 21
26.493579
 31
0.0
 11
34.981342
 21
26.600717
 31
0.0
 11
35.342328
 21
26.762785
 31
0.0
 11
35.486233
 21
26.960742
 31
0.0
 11
35.400933
 21
27.063765
 31
0.0
 11
35.068643
 21
27.093333
 31
0.0
 11
34.741728
 21
27.129836
 31
0.0
 11
34.465509
 21
27.225531
 31
0.0
 11
34.299785
 21
27.359702
 31
0.0
 11
34.435251
 21
27.495325
 31
0.0
 11
34.981558
 21
27.580162
 31
0.0
 11
35.857787
 21
27.601646
 31
0.0
 11
36.981676
 21
27.633571
 31
0.0
 11
37.678617
 21
27.811069
 31
0.0
 11
38.192978
 21
28.196378
 31
0.0
 11
38.526433
 21
28.559495
 31
0.0
 11
38.562676
 21
28.691861
 31
0.0
 11
38.311653
 21
28.629795
 31
0.0
 11
37.995198
 21
28.566303
 31
0.0
 11
37.640330
 21
28.578394
 31
0.0
 11
37.323875
 21
28.663452
 31
0.0
 11
37.213833
 21
28.808508
 31
0.0
 11
37.580753
 21
28.944558
 31
0.0
 11
38.444003
 21
29.078782
 31
0.0
 11
39.364547
 21
29.249768
 31
0.0
 11
40.226370
 21
29.509683
 31
0.0
 11
40.842892
 21
29.802259
 31
0.0
  0
LWPOLYLINE
  5
128
100
AcDbEntity
  8
0
 62
7
100
AcDbPolyline
 90
3
 70
0
 10
40.842892
 20
29.802259
 30
0.0
 10
41.627764
 20
30.329802
 30
0.0
 10
39.369986
 20
30.531985
 30
0.0
  0
SPLINE
  5
129
100
AcDbEntity
  8
0
 62
7
100
AcDbSpline
 70
0
 71
3
 72
181
 73
177
 74
175
 40
0.000000
 40
0.000000
 40
0.000000
 40
0.000000
 40
1.246040
 40
2.333913
 40
3.028579
 40
3.463864
 40
3.779943
 40
4.052583
 40
4.302750
 40
4.564589
 40
4.816240
 40
5.132510
 40
5.560735
 40
6.024202
 40
6.502025
 40
6.973118
 40
7.356214
 40
7.723665
 40
7.809682
 40
8.185939
 40
8.584736
 40
8.764459
 40
9.192599
 40
9.599167
 40
9.761731
 40
10.245851
 40
10.655228
 40
11.013068
 40
11.245194
 40
11.454662
 40
11.747296
 40
12.060838
 40
12.455147
 40
13.103790
 40
14.570736
 40
16.003452
 40
16.964778
 40
17.704896
 40
17.920093
 40
18.107989
 40
18.316262
 40
19.247810
 40
20.681064
 40
21.909008
 40
22.974787
 40
24.046160
 40
25.285941
 40
25.930284
 40
26.176779
 40
26.424057
 40
26.762363
 40
27.174791
 40
27.593004
 40
28.032077
 40
28.461950
 40
28.905089
 40
29.534283
 40
29.898029
 40
30.590769
 40
31.014198
 40
31.077121
 40
31.453078
 40
31.859955
 40
31.934161
 40
32.329879
 40
32.663237
 40
32.986520
 40
33.274722
 40
33.514131
 40
33.677304
 40
33.782122
 40
33.939648
 40
34.191982
 40
34.506830
 40
35.135958
 40
35.650342
 40
36.541188
 40
37.433346
 40
37.767315
 40
38.439398
 40
38.982634
 40
39.044329
 40
39.545268
 40
40.030314
 40
40.291302
 40
40.605606
 40
40.866898
 40
41.098793
 40
41.271967
 40
41.388506
 40
41.491259
 40
41.634489
 40
41.774369
 40
41.890874
 40
42.047745
 40
42.244165
 40
42.455992
 40
42.777638
 40
43.118591
 40
43.205076
 40
43.525805
 40
43.846984
 40
44.159739
 40
44.398657
 40
44.506332
 40
44.628014
 40
44.878589
 40
45.186623
 40
45.453761
 40
45.640939
 40
45.795494
 40
46.002415
 40
46.256347
 40
46.456522
 40
46.566757
 40
46.927572
 40
47.889370
 40
48.458083
 40
48.819700
 40
49.327940
 40
49.749617
 40
50.292801
 40
50.660942
 40
51.022672
 40
51.411950
 40
51.821544
 40
52.018871
 40
52.412185
 40
52.791777
 40
53.143179
 40
53.516281
 40
54.174263
 40
54.443199
 40
54.694388
 40
54.852795
 40
55.075738
 40
55.550770
 40
56.147033
 40
56.481752
 40
57.118087
 40
57.309218
 40
57.736454
 40
58.674827
 40
60.062713
 40
60.422541
 40
60.950721
 40
61.436909
 40
61.826990
 40
62.050109
 40
62.160103
 40
62.253670
 40
62.381286
 40
62.783986
 40
63.181356
 40
63.638079
 40
64.225443
 40
65.009233
 40
66.334767
 40
67.261446
 40
67.762727
 40
68.222251
 40
68.648680
 40
69.023893
 40
69.724757
 40
70.322412
 40
70.849862
 40
71.200238
 40
71.311110
 40
71.592102
 40
72.106896
 40
72.877964
 40
73.301631
 40
73.819193
 40
74.261406
 40
74.719040
 40
75.094118
 40
75.094118
 40
75.094118
 40
75.094118
 10
39.369986
 20
30.531985
 30
0.0
 10
38.956465
 20
30.571598
 30
0.0
 10
38.181914
 20
30.645797
 30
0.0
 10
37.178890
 20
30.753882
 30
0.0
 10
36.445811
 20
30.864783
 30
0.0
 10
35.973085
 20
30.935029
 30
0.0
 10
35.611983
 20
30.862134
 30
0.0
 10
35.453687
 20
30.614938
 30
0.0
 10
35.326676
 20
30.387224
 30
0.0
 10
35.105452
 20
30.235757
 30
0.0
 10
34.829335
 20
30.197877
 30
0.0
 10
34.503650
 20
30.125162
 30
0.0
 10
34.149788
 20
29.920948
 30
0.0
 10
33.798822
 20
29.627755
 30
0.0
 10
33.431523
 20
29.340887
 30
0.0
 10
33.012952
 20
29.129450
 30
0.0
 10
32.651463
 20
29.100178
 30
0.0
 10
32.263419
 20
28.984591
 30
0.0
 10
32.196980
 20
29.295799
 30
0.0
 10
32.573741
 20
29.379848
 30
0.0
 10
32.896941
 20
29.510099
 30
0.0
 10
32.892342
 20
29.893474
 30
0.0
 10
32.570499
 20
30.051349
 30
0.0
 10
32.174241
 20
30.224739
 30
0.0
 10
32.331156
 20
30.605411
 30
0.0
 10
32.749861
 20
30.587497
 30
0.0
 10
33.135055
 20
30.706217
 30
0.0
 10
33.469607
 20
30.750437
 30
0.0
 10
33.736717
 20
30.752660
 30
0.0
 10
33.978364
 20
30.715780
 30
0.0
 10
34.256997
 20
30.723823
 30
0.0
 10
34.561924
 20
30.700555
 30
0.0
 10
35.177829
 20
30.926551
 30
0.0
 10
33.896711
 20
31.417062
 30
0.0
 10
33.076922
 20
31.707285
 30
0.0
 10
31.752250
 20
32.077437
 30
0.0
 10
30.723344
 20
32.280583
 30
0.0
 10
30.094569
 20
32.164962
 30
0.0
 10
29.705926
 20
32.114720
 30
0.0
 10
29.517785
 20
32.247742
 30
0.0
 10
29.484407
 20
32.714445
 30
0.0
 10
28.717798
 20
33.304325
 30
0.0
 10
27.629681
 20
33.691599
 30
0.0
 10
26.319199
 20
33.856750
 30
0.0
 10
25.341635
 20
33.153689
 30
0.0
 10
24.841666
 20
32.107314
 30
0.0
 10
24.935994
 20
31.046010
 30
0.0
 10
25.015874
 20
30.445654
 30
0.0
 10
25.244024
 20
29.964796
 30
0.0
 10
25.448104
 20
30.301633
 30
0.0
 10
25.645833
 20
30.517459
 30
0.0
 10
25.987176
 20
30.744596
 30
0.0
 10
26.385875
 20
30.875472
 30
0.0
 10
26.793432
 20
31.025871
 30
0.0
 10
27.111828
 20
31.357124
 30
0.0
 10
27.293080
 20
31.795552
 30
0.0
 10
27.412873
 20
32.413392
 30
0.0
 10
28.124828
 20
32.244739
 30
0.0
 10
28.049195
 20
31.694137
 30
0.0
 10
28.294328
 20
31.235827
 30
0.0
 10
28.021282
 20
31.061245
 30
0.0
 10
27.944065
 20
31.505310
 30
0.0
 10
27.904132
 20
31.854206
 30
0.0
 10
27.575597
 20
31.812174
 30
0.0
 10
27.701424
 20
31.415678
 30
0.0
 10
27.701678
 20
31.104571
 30
0.0
 10
27.866438
 20
30.807360
 30
0.0
 10
28.104773
 20
30.643513
 30
0.0
 10
28.311649
 20
30.556768
 30
0.0
 10
28.460153
 20
30.444133
 30
0.0
 10
28.440588
 20
30.271879
 30
0.0
 10
28.231002
 20
30.262184
 30
0.0
 10
28.007083
 20
30.311619
 30
0.0
 10
27.648689
 20
30.477337
 30
0.0
 10
27.134614
 20
30.729908
 30
0.0
 10
26.608718
 20
30.137640
 30
0.0
 10
26.537102
 20
29.381053
 30
0.0
 10
26.661559
 20
28.609744
 30
0.0
 10
26.087773
 20
28.137743
 30
0.0
 10
25.649796
 20
28.593213
 30
0.0
 10
25.393891
 20
29.105084
 30
0.0
 10
25.025501
 20
28.930759
 30
0.0
 10
25.513393
 20
28.540524
 30
0.0
 10
25.652003
 20
28.231787
 30
0.0
 10
25.694726
 20
27.834259
 30
0.0
 10
25.424722
 20
27.668812
 30
0.0
 10
25.191627
 20
27.553629
 30
0.0
 10
24.965672
 20
27.501811
 30
0.0
 10
24.797724
 20
27.538080
 30
0.0
 10
24.667461
 20
27.603004
 30
0.0
 10
24.559845
 20
27.507904
 30
0.0
 10
24.555967
 20
27.378821
 30
0.0
 10
24.537531
 20
27.233309
 30
0.0
 10
24.390201
 20
27.174265
 30
0.0
 10
24.240308
 20
27.239590
 30
0.0
 10
24.096225
 20
27.389756
 30
0.0
 10
24.160114
 20
27.652211
 30
0.0
 10
24.293307
 20
27.886962
 30
0.0
 10
24.587706
 20
28.064441
 30
0.0
 10
24.442042
 20
28.319571
 30
0.0
 10
24.163094
 20
28.091469
 30
0.0
 10
23.882054
 20
28.044753
 30
0.0
 10
23.583819
 20
27.952375
 30
0.0
 10
23.392428
 20
27.948632
 30
0.0
 10
23.189576
 20
27.899147
 30
0.0
 10
23.330695
 20
27.725457
 30
0.0
 10
23.506725
 20
27.635613
 30
0.0
 10
23.743375
 20
27.467569
 30
0.0
 10
23.909465
 20
27.285971
 30
0.0
 10
24.020050
 20
27.090150
 30
0.0
 10
23.921150
 20
26.911833
 30
0.0
 10
23.722706
 20
26.819005
 30
0.0
 10
23.551483
 20
26.774838
 30
0.0
 10
23.236103
 20
26.783762
 30
0.0
 10
23.449388
 20
26.571099
 30
0.0
 10
23.892985
 20
26.509127
 30
0.0
 10
24.473254
 20
26.307598
 30
0.0
 10
25.204225
 20
26.227494
 30
0.0
 10
25.449085
 20
26.694124
 30
0.0
 10
25.461501
 20
27.171311
 30
0.0
 10
26.026540
 20
27.346158
 30
0.0
 10
26.425510
 20
27.075088
 30
0.0
 10
26.672653
 20
26.728102
 30
0.0
 10
26.760024
 20
26.346646
 30
0.0
 10
26.666250
 20
25.980277
 30
0.0
 10
26.614864
 20
25.606008
 30
0.0
 10
26.246958
 20
25.486077
 30
0.0
 10
26.022710
 20
25.794269
 30
0.0
 10
25.706051
 20
25.985024
 30
0.0
 10
25.333907
 20
26.059390
 30
0.0
 10
24.866904
 20
25.929877
 30
0.0
 10
24.557903
 20
25.750325
 30
0.0
 10
23.997416
 20
25.689942
 30
0.0
 10
24.146500
 20
25.959744
 30
0.0
 10
24.210548
 20
26.202993
 30
0.0
 10
23.820622
 20
26.190571
 30
0.0
 10
23.462299
 20
26.134297
 30
0.0
 10
22.960321
 20
25.926097
 30
0.0
 10
22.488597
 20
26.303085
 30
0.0
 10
22.570300
 20
26.665589
 30
0.0
 10
22.400720
 20
27.208261
 30
0.0
 10
22.384261
 20
26.259350
 30
0.0
 10
22.374786
 20
25.596428
 30
0.0
 10
22.275398
 20
24.790575
 30
0.0
 10
22.460145
 20
23.719971
 30
0.0
 10
22.731729
 20
24.471718
 30
0.0
 10
22.878941
 20
24.818880
 30
0.0
 10
22.976035
 20
25.192770
 30
0.0
 10
22.984399
 20
25.433946
 30
0.0
 10
22.907787
 20
25.573051
 30
0.0
 10
22.989101
 20
25.674146
 30
0.0
 10
23.203431
 20
25.698528
 30
0.0
 10
23.521165
 20
25.566979
 30
0.0
 10
23.672179
 20
25.108487
 30
0.0
 10
23.408305
 20
24.705416
 30
0.0
 10
23.192868
 20
23.989167
 30
0.0
 10
24.322390
 20
23.721588
 30
0.0
 10
25.247414
 20
23.784310
 30
0.0
 10
26.152677
 20
23.936362
 30
0.0
 10
26.830307
 20
23.859225
 30
0.0
 10
27.085850
 20
23.450594
 30
0.0
 10
27.299176
 20
23.041378
 30
0.0
 10
26.984368
 20
22.580293
 30
0.0
 10
26.497527
 20
22.313539
 30
0.0
 10
25.966299
 20
22.027092
 30
0.0
 10
25.522972
 20
21.775609
 30
0.0
 10
25.189029
 20
21.790527
 30
0.0
 10
24.965181
 20
21.595905
 30
0.0
 10
25.368165
 20
21.384302
 30
0.0
 10
25.723890
 20
21.145464
 30
0.0
 10
26.248866
 20
20.838222
 30
0.0
 10
26.851262
 20
20.772755
 30
0.0
 10
27.214166
 20
21.110057
 30
0.0
 10
27.565089
 20
21.413739
 30
0.0
 10
27.870658
 20
21.712746
 30
0.0
 10
28.055021
 20
21.919986
 30
0.0
 10
28.138063
 20
22.013333
 30
0.0
 11
39.369986
 21
30.531985
 31
0.0
 11
38.129877
 21
30.653418
 31
0.0
 11
37.049095
 21
30.777420
 31
0.0
 11
36.361624
 21
30.877145
 31
0.0
 11
35.927628
 21
30.910619
 31
0.0
 11
35.624485
 21
30.821116
 31
0.0
 11
35.453261
 21
30.608950
 31
0.0
 11
35.312942
 21
30.401841
 31
0.0
 11
35.096749
 21
30.254124
 31
0.0
 11
34.851487
 21
30.197778
 31
0.0
 11
34.544822
 21
30.120428
 31
0.0
 11
34.167654
 21
29.917646
 31
0.0
 11
33.801637
 21
29.633333
 31
0.0
 11
33.416736
 21
29.350197
 31
0.0
 11
32.990064
 21
29.150498
 31
0.0
 11
32.613992
 21
29.077471
 31
0.0
 11
32.247146
 21
29.098523
 31
0.0
 11
32.228505
 21
29.182496
 31
0.0
 11
32.545788
 21
29.384737
 31
0.0
 11
32.876785
 21
29.607178
 31
0.0
 11
32.876861
 21
29.786900
 31
0.0
 11
32.546070
 21
30.058711
 31
0.0
 11
32.235961
 21
30.321638
 31
0.0
 11
32.293364
 21
30.473729
 31
0.0
 11
32.756241
 21
30.615565
 31
0.0
 11
33.156806
 21
30.700048
 31
0.0
 11
33.511552
 21
30.746999
 31
0.0
 11
33.743677
 21
30.746255
 31
0.0
 11
33.952084
 21
30.725208
 31
0.0
 11
34.244651
 21
30.718938
 31
0.0
 11
34.558038
 21
30.728802
 31
0.0
 11
34.918571
 21
30.888476
 31
0.0
 11
34.369958
 21
31.234541
 31
0.0
 11
32.985854
 21
31.720532
 31
0.0
 11
31.603213
 21
32.096004
 31
0.0
 11
30.650847
 21
32.226950
 31
0.0
 11
29.915541
 21
32.142686
 31
0.0
 11
29.700346
 21
32.143566
 31
0.0
 11
29.549240
 21
32.255243
 31
0.0
 11
29.492208
 21
32.455556
 31
0.0
 11
28.865464
 21
33.144739
 31
0.0
 11
27.529865
 21
33.664729
 31
0.0
 11
26.302357
 21
33.697462
 31
0.0
 11
25.418970
 21
33.101213
 31
0.0
 11
24.955982
 21
32.135044
 31
0.0
 11
24.959546
 21
30.895268
 31
0.0
 11
25.106743
 21
30.267963
 31
0.0
 11
25.249380
 21
30.066930
 31
0.0
 11
25.420855
 21
30.245095
 31
0.0
 11
25.645460
 21
30.498084
 31
0.0
 11
25.989992
 21
30.724789
 31
0.0
 11
26.379861
 21
30.876132
 31
0.0
 11
26.779934
 21
31.057035
 31
0.0
 11
27.082784
 21
31.362114
 31
0.0
 11
27.263812
 21
31.766590
 31
0.0
 11
27.570150
 21
32.316173
 31
0.0
 11
27.926581
 21
32.243591
 31
0.0
 11
28.146789
 21
31.586783
 31
0.0
 11
28.175905
 21
31.164356
 31
0.0
 11
28.122436
 21
31.131185
 31
0.0
 11
27.954960
 21
31.467778
 31
0.0
 11
27.775726
 21
31.833050
 31
0.0
 11
27.702293
 21
31.822365
 31
0.0
 11
27.677600
 21
31.427417
 31
0.0
 11
27.731151
 21
31.098389
 31
0.0
 11
27.890625
 21
30.817177
 31
0.0
 11
28.121491
 21
30.644663
 31
0.0
 11
28.333512
 21
30.533469
 31
0.0
 11
28.443586
 21
30.413015
 31
0.0
 11
28.427883
 21
30.309380
 31
0.0
 11
28.275557
 21
30.269240
 31
0.0
 11
28.027453
 21
30.315248
 31
0.0
 11
27.737285
 21
30.437442
 31
0.0
 11
27.126701
 21
30.589066
 31
0.0
 11
26.748841
 21
30.240049
 31
0.0
 11
26.577185
 21
29.365897
 31
0.0
 11
26.459986
 21
28.481471
 31
0.0
 11
26.192148
 21
28.281977
 31
0.0
 11
25.643961
 21
28.670804
 31
0.0
 11
25.232643
 21
29.025662
 31
0.0
 11
25.177227
 21
28.998546
 31
0.0
 11
25.430564
 21
28.566389
 31
0.0
 11
25.654560
 21
28.136162
 31
0.0
 11
25.649594
 21
27.875222
 31
0.0
 11
25.413461
 21
27.667788
 31
0.0
 11
25.176161
 21
27.558417
 31
0.0
 11
24.948032
 21
27.516799
 31
0.0
 11
24.778461
 21
27.551944
 31
0.0
 11
24.665056
 21
27.578793
 31
0.0
 11
24.584171
 21
27.515423
 31
0.0
 11
24.553318
 21
27.375556
 31
0.0
 11
24.512766
 21
27.241683
 31
0.0
 11
24.406451
 21
27.194030
 31
0.0
 11
24.257391
 21
27.242914
 31
0.0
 11
24.132520
 21
27.394532
 31
0.0
 11
24.155951
 21
27.605059
 31
0.0
 11
24.327947
 21
27.876855
 31
0.0
 11
24.527878
 21
28.153038
 31
0.0
 11
24.484190
 21
28.227677
 31
0.0
 11
24.177460
 21
28.133952
 31
0.0
 11
23.871878
 21
28.035082
 31
0.0
 11
23.567706
 21
27.962319
 31
0.0
 11
23.330794
 21
27.931418
 31
0.0
 11
23.232405
 21
27.887675
 31
0.0
 11
23.291392
 21
27.781246
 31
0.0
 11
23.494985
 21
27.635172
 31
0.0
 11
23.743759
 21
27.453522
 31
0.0
 11
23.921193
 21
27.253823
 31
0.0
 11
23.988874
 21
27.079310
 31
0.0
 11
23.921193
 21
26.940362
 31
0.0
 11
23.743759
 21
26.833902
 31
0.0
 11
23.494985
 21
26.782979
 31
0.0
 11
23.298999
 21
26.742244
 31
0.0
 11
23.369554
 21
26.657547
 31
0.0
 11
23.706652
 21
26.528889
 31
0.0
 11
24.641915
 21
26.304528
 31
0.0
 11
25.209098
 21
26.346214
 31
0.0
 11
25.399985
 21
26.653344
 31
0.0
 11
25.566209
 21
27.133633
 31
0.0
 11
25.964404
 21
27.272387
 31
0.0
 11
26.443852
 21
27.017086
 31
0.0
 11
26.652346
 21
26.713675
 31
0.0
 11
26.730194
 21
26.360421
 31
0.0
 11
26.673434
 21
25.975304
 31
0.0
 11
26.516499
 21
25.596967
 31
0.0
 11
26.328058
 21
25.538421
 31
0.0
 11
26.009427
 21
25.769009
 31
0.0
 11
25.687190
 21
25.969640
 31
0.0
 11
25.341094
 21
26.030482
 31
0.0
 11
24.976652
 21
25.950566
 31
0.0
 11
24.354238
 21
25.737162
 31
0.0
 11
24.085682
 21
25.751452
 31
0.0
 11
24.148637
 21
25.994623
 31
0.0
 11
24.167391
 21
26.151917
 31
0.0
 11
23.948111
 21
26.192164
 31
0.0
 11
23.478977
 21
26.117536
 31
0.0
 11
22.888348
 21
26.035773
 31
0.0
 11
22.622213
 21
26.238774
 31
0.0
 11
22.501058
 21
26.863468
 31
0.0
 11
22.439991
 21
27.044581
 31
0.0
 11
22.390619
 21
26.620207
 31
0.0
 11
22.363630
 21
25.682222
 31
0.0
 11
22.367606
 21
24.294343
 31
0.0
 11
22.463459
 21
23.947516
 31
0.0
 11
22.714502
 21
24.412222
 31
0.0
 11
22.884563
 21
24.867698
 31
0.0
 11
22.971735
 21
25.247914
 31
0.0
 11
22.957146
 21
25.470556
 31
0.0
 11
22.930102
 21
25.577173
 31
0.0
 11
22.984620
 21
25.653216
 31
0.0
 11
23.108897
 21
25.682222
 31
0.0
 11
23.477924
 21
25.521021
 31
0.0
 11
23.608989
 21
25.145888
 31
0.0
 11
23.445246
 21
24.719527
 31
0.0
 11
23.351063
 21
24.139763
 31
0.0
 11
24.062227
 21
23.810258
 31
0.0
 11
25.387728
 21
23.819514
 31
0.0
 11
26.310722
 21
23.902068
 31
0.0
 11
26.799582
 21
23.791168
 31
0.0
 11
27.088357
 21
23.433717
 31
0.0
 11
27.221942
 21
23.028751
 31
0.0
 11
27.041956
 21
22.699525
 31
0.0
 11
26.467485
 21
22.298037
 31
0.0
 11
25.942848
 21
22.011771
 31
0.0
 11
25.457947
 21
21.804227
 31
0.0
 11
25.117763
 21
21.720337
 31
0.0
 11
25.039890
 21
21.641416
 31
0.0
 11
25.242672
 21
21.446901
 31
0.0
 11
25.682207
 21
21.178904
 31
0.0
 11
26.377802
 21
20.846197
 31
0.0
 11
26.801164
 21
20.830132
 31
0.0
 11
27.229818
 21
21.120178
 31
0.0
 11
27.559553
 21
21.414841
 31
0.0
 11
27.885849
 21
21.735716
 31
0.0
 11
28.138063
 21
22.013333
 31
0.0
  0
LWPOLYLINE
  5
12a
100
AcDbEntity
  8
0
 62
7
100
AcDbPolyline
 90
2
 70
0
 10
28.138063
 20
22.013333
 30
0.0
 10
28.138063
 20
22.013333
 30
0.0
  0
SPLINE
  5
12b
100
AcDbEntity
  8
0
 62
7
100
AcDbSpline
 70
0
 71
3
 72
16
 73
12
 74
10
 40
0.000000
 40
0.000000
 40
0.000000
 40
0.000000
 40
0.646996
 40
1.085349
 40
1.665286
 40
1.962473
 40
2.263627
 40
2.589682
 40
3.211036
 40
3.624093
 40
4.247235
 40
4.247235
 40
4.247235
 40
4.247235
 10
27.368505
 20
26.824261
 30
0.0
 10
27.269006
 20
27.032765
 30
0.0
 10
27.102093
 20
27.382535
 30
0.0
 10
27.469697
 20
27.931621
 30
0.0
 10
27.980377
 20
27.834473
 30
0.0
 10
28.310834
 20
27.620327
 30
0.0
 10
28.458846
 20
27.328774
 30
0.0
 10
28.459155
 20
26.917228
 30
0.0
 10
28.334787
 20
26.400900
 30
0.0
 10
27.675885
 20
26.291842
 30
0.0
 10
27.483937
 20
26.624318
 30
0.0
 10
27.368505
 20
26.824261
 30
0.0
 11
27.368505
 21
26.824261
 31
0.0
 11
27.214458
 21
27.452650
 31
0.0
 11
27.470044
 21
27.808782
 31
0.0
 11
28.048827
 21
27.772220
 31
0.0
 11
28.291958
 21
27.601319
 31
0.0
 11
28.431742
 21
27.334571
 31
0.0
 11
28.448796
 21
27.008963
 31
0.0
 11
28.201497
 21
26.438941
 31
0.0
 11
27.794349
 21
26.369329
 31
0.0
 11
27.368505
 21
26.824261
 31
0.0
  0
LWPOLYLINE
  5
12c
100
AcDbEntity
  8
0
 62
7
100
AcDbPolyline
 90
2
 70
0
 10
27.368505
 20
26.824261
 30
0.0
 10
27.368505
 20
26.824261
 30
0.0
  0
SPLINE
  5
12d
100
AcDbEntity
  8
0
 62
7
100
AcDbSpline
 70
0
 71
3
 72
19
 73
15
 74
13
 40
0.000000
 40
0.000000
 40
0.000000
 40
0.000000
 40
0.386901
 40
0.715890
 40
1.109510
 40
1.705769
 40
2.261478
 40
3.060993
 40
3.403728
 40
3.636908
 40
3.710756
 40
3.819756
 40
4.066041
 40
4.397026
 40
4.397026
 40
4.397026
 40
4.397026
 10
29.421653
 20
27.292507
 30
0.0
 10
29.293267
 20
27.324742
 30
0.0
 10
29.055713
 20
27.384387
 30
0.0
 10
28.814226
 20
27.698319
 30
0.0
 10
28.744335
 20
28.126885
 30
0.0
 10
28.974263
 20
28.760269
 30
0.0
 10
29.758668
 20
28.473334
 30
0.0
 10
29.970611
 20
27.932641
 30
0.0
 10
30.048608
 20
27.460518
 30
0.0
 10
30.072250
 20
27.279379
 30
0.0
 10
30.106271
 20
27.094398
 30
0.0
 10
29.920882
 20
27.216380
 30
0.0
 10
29.727860
 20
27.217115
 30
0.0
 10
29.533240
 20
27.265033
 30
0.0
 10
29.421653
 20
27.292507
 30
0.0
 11
29.421653
 21
27.292507
 31
0.0
 11
29.060370
 21
27.430955
 31
0.0
 11
28.852956
 21
27.686323
 31
0.0
 11
28.786653
 21
28.074318
 31
0.0
 11
29.058436
 21
28.605034
 31
0.0
 11
29.597520
 21
28.470125
 31
0.0
 11
29.989509
 21
27.773297
 31
0.0
 11
30.050676
 21
27.436064
 31
0.0
 11
30.086086
 21
27.205588
 31
0.0
 11
30.088072
 21
27.131767
 31
0.0
 11
29.985232
 21
27.167887
 31
0.0
 11
29.745812
 21
27.225634
 31
0.0
 11
29.421653
 21
27.292507
 31
0.0
  0
LWPOLYLINE
  5
12e
100
AcDbEntity
  8
0
 62
7
100
AcDbPolyline
 90
2
 70
0
 10
29.421653
 20
27.292507
 30
0.0
 10
29.421653
 20
27.292507
 30
0.0
  0
SPLINE
  5
12f
100
AcDbEntity
  8
0
 62
7
100
AcDbSpline
 70
0
 71
3
 72
16
 73
12
 74
10
 40
0.000000
 40
0.000000
 40
0.000000
 40
0.000000
 40
0.699772
 40
1.138719
 40
1.565191
 40
2.284448
 40
2.837981
 40
3.449238
 40
4.068689
 40
4.417344
 40
4.870756
 40
4.870756
 40
4.870756
 40
4.870756
 10
30.369070
 20
28.386415
 30
0.0
 10
30.288889
 20
28.603360
 30
0.0
 10
30.158414
 20
28.956386
 30
0.0
 10
30.258086
 20
29.548925
 30
0.0
 10
30.840294
 20
29.685683
 30
0.0
 10
31.410305
 20
29.542436
 30
0.0
 10
31.820795
 20
28.935723
 30
0.0
 10
31.467550
 20
28.364255
 30
0.0
 10
31.093348
 20
27.995507
 30
0.0
 10
30.542428
 20
27.947767
 30
0.0
 10
30.431677
 20
28.227999
 30
0.0
 10
30.369070
 20
28.386415
 30
0.0
 11
30.369070
 21
28.386415
 31
0.0
 11
30.205186
 21
29.066727
 31
0.0
 11
30.326500
 21
29.488576
 31
0.0
 11
30.727653
 21
29.633333
 31
0.0
 11
31.418110
 21
29.431840
 31
0.0
 11
31.698827
 21
28.954769
 31
0.0
 11
31.457347
 21
28.393234
 31
0.0
 11
30.969485
 21
28.011512
 31
0.0
 11
30.620837
 21
28.009328
 31
0.0
 11
30.369070
 21
28.386415
 31
0.0
  0
LWPOLYLINE
  5
130
100
AcDbEntity
  8
0
 62
7
100
AcDbPolyline
 90
2
 70
0
 10
30.369070
 20
28.386415
 30
0.0
 10
30.369070
 20
28.386415
 30
0.0
  0
SPLINE
  5
131
100
AcDbEntity
  8
0
 62
7
100
AcDbSpline
 70
0
 71
3
 72
22
 73
18
 74
16
 40
0.000000
 40
0.000000
 40
0.000000
 40
0.000000
 40
0.287233
 40
0.661457
 40
1.297977
 40
1.955310
 40
2.630577
 40
3.177608
 40
3.628799
 40
3.892869
 40
4.129604
 40
4.664693
 40
5.571351
 40
6.745866
 40
7.519876
 40
7.952563
 40
8.374130
 40
8.374130
 40
8.374130
 40
8.374130
 10
20.267026
 20
22.373409
 30
0.0
 10
20.263297
 20
22.476021
 30
0.0
 10
20.254711
 20
22.712325
 30
0.0
 10
19.802376
 20
22.910196
 30
0.0
 10
19.278687
 20
23.006414
 30
0.0
 10
18.622925
 20
23.112633
 30
0.0
 10
18.008821
 20
23.219494
 30
0.0
 10
17.456034
 20
23.319354
 30
0.0
 10
17.050993
 20
23.393434
 30
0.0
 10
16.702334
 20
23.325696
 30
0.0
 10
16.590847
 20
22.938075
 30
0.0
 10
17.060658
 20
22.496284
 30
0.0
 10
17.835270
 20
22.159101
 30
0.0
 10
18.784729
 20
21.941402
 30
0.0
 10
19.546175
 20
21.810152
 30
0.0
 10
20.146632
 20
21.929545
 30
0.0
 10
20.227244
 20
22.226744
 30
0.0
 10
20.267026
 20
22.373409
 30
0.0
 11
20.267026
 21
22.373409
 31
0.0
 11
20.213993
 21
22.655703
 31
0.0
 11
19.898570
 21
22.857080
 31
0.0
 11
19.279248
 21
23.004042
 31
0.0
 11
18.630943
 21
23.112609
 31
0.0
 11
17.965580
 21
23.227836
 31
0.0
 11
17.427207
 21
23.324778
 31
0.0
 11
16.978039
 21
23.367461
 31
0.0
 11
16.728333
 21
23.281556
 31
0.0
 11
16.651096
 21
23.057775
 31
0.0
 11
16.959867
 21
22.620761
 31
0.0
 11
17.770366
 21
22.214411
 31
0.0
 11
18.908874
 21
21.925822
 31
0.0
 11
19.679647
 21
21.855107
 31
0.0
 11
20.090594
 21
21.990537
 31
0.0
 11
20.267026
 21
22.373409
 31
0.0
  0
LWPOLYLINE
  5
132
100
AcDbEntity
  8
0
 62
7
100
AcDbPolyline
 90
2
 70
0
 10
20.267026
 20
22.373409
 30
0.0
 10
20.267026
 20
22.373409
 30
0.0
  0
SPLINE
  5
133
100
AcDbEntity
  8
0
 62
7
100
AcDbSpline
 70
0
 71
3
 72
16
 73
12
 74
10
 40
0.000000
 40
0.000000
 40
0.000000
 40
0.000000
 40
0.955721
 40
1.310202
 40
2.412974
 40
4.093052
 40
4.897720
 40
5.295154
 40
5.971943
 40
7.227570
 40
8.583222
 40
8.583222
 40
8.583222
 40
8.583222
 10
25.696222
 20
22.443914
 30
0.0
 10
26.105309
 20
22.583250
 30
0.0
 10
26.666127
 20
22.774265
 30
0.0
 10
26.143779
 20
23.600811
 30
0.0
 10
24.925756
 20
23.149623
 30
0.0
 10
23.848458
 20
23.065267
 30
0.0
 10
22.834903
 20
22.968827
 30
0.0
 10
22.420914
 20
22.306027
 30
0.0
 10
23.417539
 20
21.907481
 30
0.0
 10
24.414217
 20
22.019649
 30
0.0
 10
25.258112
 20
22.298926
 30
0.0
 10
25.696222
 20
22.443914
 30
0.0
 11
25.696222
 21
22.443914
 31
0.0
 11
26.474161
 21
22.999085
 31
0.0
 11
26.290955
 21
23.302552
 31
0.0
 11
25.188318
 21
23.285218
 31
0.0
 11
23.527222
 21
23.033383
 31
0.0
 11
22.762431
 21
22.783215
 31
0.0
 11
22.577763
 21
22.431290
 31
0.0
 11
23.140388
 21
22.055130
 31
0.0
 11
24.396005
 21
22.060213
 31
0.0
 11
25.696222
 21
22.443914
 31
0.0
  0
LWPOLYLINE
  5
134
100
AcDbEntity
  8
0
 62
7
100
AcDbPolyline
 90
2
 70
0
 10
25.696222
 20
22.443914
 30
0.0
 10
25.696222
 20
22.443914
 30
0.0
  0
SPLINE
  5
135
100
AcDbEntity
  8
0
 62
7
100
AcDbSpline
 70
0
 71
3
 72
19
 73
15
 74
13
 40
0.000000
 40
0.000000
 40
0.000000
 40
0.000000
 40
0.147939
 40
0.295619
 40
0.451052
 40
0.583470
 40
0.694282
 40
0.843975
 40
1.020653
 40
1.168334
 40
1.263169
 40
1.336827
 40
1.447639
 40
1.590815
 40
1.590815
 40
1.590815
 40
1.590815
 10
26.528874
 20
26.246667
 30
0.0
 10
26.520433
 20
26.296522
 30
0.0
 10
26.503565
 20
26.396146
 30
0.0
 10
26.382581
 20
26.503004
 30
0.0
 10
26.240830
 20
26.539884
 30
0.0
 10
26.095207
 20
26.512161
 30
0.0
 10
26.039100
 20
26.373407
 30
0.0
 10
26.106418
 20
26.234658
 30
0.0
 10
26.202045
 20
26.107989
 30
0.0
 10
26.297753
 20
26.014577
 30
0.0
 10
26.398103
 20
25.945241
 30
0.0
 10
26.484633
 20
26.008775
 30
0.0
 10
26.519131
 20
26.114445
 30
0.0
 10
26.525362
 20
26.199001
 30
0.0
 10
26.528874
 20
26.246667
 30
0.0
 11
26.528874
 21
26.246667
 31
0.0
 11
26.487916
 21
26.388823
 31
0.0
 11
26.380542
 21
26.490214
 31
0.0
 11
26.229998
 21
26.528889
 31
0.0
 11
26.103353
 21
26.490214
 31
0.0
 11
26.058641
 21
26.388823
 31
0.0
 11
26.105541
 21
26.246667
 31
0.0
 11
26.210453
 21
26.104510
 31
0.0
 11
26.317829
 21
26.003119
 31
0.0
 11
26.404420
 21
25.964444
 31
0.0
 11
26.467108
 21
26.003119
 31
0.0
 11
26.511819
 21
26.104510
 31
0.0
 11
26.528874
 21
26.246667
 31
0.0
  0
LWPOLYLINE
  5
136
100
AcDbEntity
  8
0
 62
7
100
AcDbPolyline
 90
2
 70
0
 10
26.528874
 20
26.246667
 30
0.0
 10
26.528874
 20
26.246667
 30
0.0
  0
SPLINE
  5
137
100
AcDbEntity
  8
0
 62
7
100
AcDbSpline
 70
0
 71
3
 72
16
 73
12
 74
10
 40
0.000000
 40
0.000000
 40
0.000000
 40
0.000000
 40
0.112363
 40
0.345876
 40
0.847487
 40
1.329046
 40
1.511237
 40
1.689407
 40
2.080654
 40
2.486223
 40
2.824217
 40
2.824217
 40
2.824217
 40
2.824217
 10
20.796131
 20
29.848290
 30
0.0
 10
20.772550
 20
29.890690
 30
0.0
 10
20.699963
 20
30.021204
 30
0.0
 10
20.680726
 20
29.533472
 30
0.0
 10
20.674666
 20
29.220889
 30
0.0
 10
20.663528
 20
28.895366
 30
0.0
 10
20.733598
 20
28.460423
 30
0.0
 10
20.839320
 20
28.841162
 30
0.0
 10
20.844906
 20
29.093317
 30
0.0
 10
20.858653
 20
29.496254
 30
0.0
 10
20.815665
 20
29.738277
 30
0.0
 10
20.796125
 20
29.848290
 30
0.0
 11
20.796131
 21
29.848290
 31
0.0
 11
20.732220
 21
29.940707
 31
0.0
 11
20.688126
 21
29.711395
 31
0.0
 11
20.673395
 21
29.210000
 31
0.0
 11
20.693083
 21
28.728844
 31
0.0
 11
20.739223
 21
28.552592
 31
0.0
 11
20.801826
 21
28.719402
 31
0.0
 11
20.846050
 21
29.108141
 31
0.0
 11
20.844003
 21
29.513705
 31
0.0
 11
20.796125
 21
29.848290
 31
0.0
  0
LWPOLYLINE
  5
138
100
AcDbEntity
  8
0
 62
7
100
AcDbPolyline
 90
2
 70
0
 10
20.796125
 20
29.848290
 30
0.0
 10
20.796131
 20
29.848290
 30
0.0
  0
SPLINE
  5
139
100
AcDbEntity
  8
0
 62
7
100
AcDbSpline
 70
0
 71
3
 72
16
 73
12
 74
10
 40
0.000000
 40
0.000000
 40
0.000000
 40
0.000000
 40
0.158295
 40
0.390618
 40
0.943557
 40
1.496496
 40
1.728819
 40
1.887114
 40
2.296449
 40
2.752708
 40
3.162042
 40
3.162042
 40
3.162042
 40
3.162042
 10
22.212508
 20
29.986111
 30
0.0
 10
22.190001
 20
30.055967
 30
0.0
 10
22.134463
 20
30.228347
 30
0.0
 10
22.087275
 20
29.706994
 30
0.0
 10
22.091453
 20
29.350134
 30
0.0
 10
22.089573
 20
28.998004
 30
0.0
 10
22.131478
 20
28.470512
 30
0.0
 10
22.260418
 20
28.840583
 30
0.0
 10
22.252741
 20
29.120870
 30
0.0
 10
22.271241
 20
29.568391
 30
0.0
 10
22.231365
 20
29.851996
 30
0.0
 10
22.212508
 20
29.986111
 30
0.0
 11
22.212508
 21
29.986111
 31
0.0
 11
22.150901
 21
30.131926
 31
0.0
 11
22.106961
 21
29.903796
 31
0.0
 11
22.090201
 21
29.351111
 31
0.0
 11
22.106961
 21
28.798426
 31
0.0
 11
22.150901
 21
28.570296
 31
0.0
 11
22.212508
 21
28.716111
 31
0.0
 11
22.257353
 21
29.122981
 31
0.0
 11
22.257353
 21
29.579241
 31
0.0
 11
22.212508
 21
29.986111
 31
0.0
  0
LWPOLYLINE
  5
13a
100
AcDbEntity
  8
0
 62
7
100
AcDbPolyline
 90
2
 70
0
 10
22.212508
 20
29.986111
 30
0.0
 10
22.212508
 20
29.986111
 30
0.0
  0
SPLINE
  5
13b
100
AcDbEntity
  8
0
 62
7
100
AcDbSpline
 70
0
 71
3
 72
22
 73
18
 74
16
 40
0.000000
 40
0.000000
 40
0.000000
 40
0.000000
 40
0.512893
 40
1.129924
 40
1.733087
 40
3.040700
 40
4.260915
 40
5.397598
 40
6.791122
 40
8.276567
 40
9.628317
 40
10.744635
 40
11.847759
 40
13.109591
 40
13.751193
 40
14.403635
 40
14.939943
 40
14.939943
 40
14.939943
 40
14.939943
 10
20.035917
 20
29.280556
 30
0.0
 10
20.015749
 20
29.450646
 30
0.0
 10
19.971318
 20
29.825361
 30
0.0
 10
19.774237
 20
30.375418
 30
0.0
 10
19.351838
 20
31.102275
 30
0.0
 10
18.890812
 20
32.062095
 30
0.0
 10
18.903093
 20
33.322802
 30
0.0
 10
19.473062
 20
34.510878
 30
0.0
 10
20.779291
 20
35.097653
 30
0.0
 10
22.223401
 20
35.079107
 30
0.0
 10
23.452033
 20
34.398814
 30
0.0
 10
23.977037
 20
33.271249
 30
0.0
 10
23.986619
 20
32.071642
 30
0.0
 10
23.521945
 20
31.160972
 30
0.0
 10
23.125113
 20
30.410041
 30
0.0
 10
22.925921
 20
29.826958
 30
0.0
 10
22.881217
 20
29.432526
 30
0.0
 10
22.861049
 20
29.254577
 30
0.0
 11
20.035917
 21
29.280556
 31
0.0
 11
19.958093
 21
29.787510
 31
0.0
 11
19.756003
 21
30.370508
 31
0.0
 11
19.473332
 21
30.903333
 31
0.0
 11
18.979809
 21
32.114237
 31
0.0
 11
18.997263
 21
33.334327
 31
0.0
 11
19.522529
 21
34.342366
 31
0.0
 11
20.760220
 21
34.982703
 31
0.0
 11
22.245262
 21
34.948106
 31
0.0
 11
23.403960
 21
34.251940
 31
0.0
 11
23.897979
 21
33.250885
 31
0.0
 11
23.905241
 21
32.147784
 31
0.0
 11
23.425493
 21
30.980710
 31
0.0
 11
23.141568
 21
30.405350
 31
0.0
 11
22.938786
 21
29.785221
 31
0.0
 11
22.861049
 21
29.254577
 31
0.0
  0
LWPOLYLINE
  5
13c
100
AcDbEntity
  8
0
 62
7
100
AcDbPolyline
 90
3
 70
0
 10
22.861049
 20
29.254577
 30
0.0
 10
22.859920
 20
28.452486
 30
0.0
 10
23.777142
 20
28.996669
 30
0.0
  0
SPLINE
  5
13d
100
AcDbEntity
  8
0
 62
7
100
AcDbSpline
 70
0
 71
3
 72
28
 73
24
 74
22
 40
0.000000
 40
0.000000
 40
0.000000
 40
0.000000
 40
0.620811
 40
1.071828
 40
1.436623
 40
3.069015
 40
3.914072
 40
4.834741
 40
5.707899
 40
6.382801
 40
7.494526
 40
8.484426
 40
9.571112
 40
10.530928
 40
13.068840
 40
15.966911
 40
19.050417
 40
20.543434
 40
21.734902
 40
22.367546
 40
22.677830
 40
23.271906
 40
24.666221
 40
24.666221
 40
24.666221
 40
24.666221
 10
23.777142
 20
28.996669
 30
0.0
 10
23.950087
 20
29.107963
 30
0.0
 10
24.248674
 20
29.300112
 30
0.0
 10
24.586685
 20
29.675987
 30
0.0
 10
24.635074
 20
30.520388
 30
0.0
 10
24.300602
 20
31.406646
 30
0.0
 10
24.379179
 20
32.602922
 30
0.0
 10
25.008700
 20
33.255256
 30
0.0
 10
25.504698
 20
33.939956
 30
0.0
 10
26.394747
 20
34.207030
 30
0.0
 10
27.321033
 20
34.104184
 30
0.0
 10
28.373202
 20
33.962910
 30
0.0
 10
29.357378
 20
33.707645
 30
0.0
 10
30.772795
 20
33.129898
 30
0.0
 10
32.743707
 20
32.306802
 30
0.0
 10
35.521220
 20
31.664462
 30
0.0
 10
37.998768
 20
31.351144
 30
0.0
 10
39.903141
 20
31.169174
 30
0.0
 10
41.026836
 20
31.096054
 30
0.0
 10
41.689699
 20
30.922566
 30
0.0
 10
42.276108
 20
30.971526
 30
0.0
 10
42.214813
 20
31.947655
 30
0.0
 10
42.223840
 20
32.555035
 30
0.0
 10
42.230170
 20
32.980947
 30
0.0
 11
23.777142
 21
28.996669
 31
0.0
 11
24.280407
 21
29.360168
 31
0.0
 11
24.553234
 21
29.719308
 31
0.0
 11
24.600862
 21
30.080981
 31
0.0
 11
24.359394
 21
31.695415
 31
0.0
 11
24.464559
 21
32.533902
 31
0.0
 11
25.002246
 21
33.281247
 31
0.0
 11
25.610385
 21
33.907802
 31
0.0
 11
26.248312
 21
34.128125
 31
0.0
 11
27.359556
 21
34.095397
 31
0.0
 11
28.338486
 21
33.948438
 31
0.0
 11
29.389626
 21
33.672770
 31
0.0
 11
30.285411
 21
33.328073
 31
0.0
 11
32.653885
 21
32.416302
 31
0.0
 11
35.468408
 21
31.725451
 31
0.0
 11
38.523254
 21
31.306018
 31
0.0
 11
40.009837
 21
31.167553
 31
0.0
 11
41.194200
 21
31.037634
 31
0.0
 11
41.819934
 21
30.944386
 31
0.0
 11
42.124379
 21
31.004302
 31
0.0
 11
42.241690
 21
31.586680
 31
0.0
 11
42.230170
 21
32.980947
 31
0.0
  0
LWPOLYLINE
  5
13e
100
AcDbEntity
  8
0
 62
7
100
AcDbPolyline
 90
7
 70
0
 10
42.230170
 20
32.980947
 30
0.0
 10
42.165947
 20
35.136667
 30
0.0
 10
21.435711
 20
35.136667
 30
0.0
 10
0.705476
 20
35.136667
 30
0.0
 10
0.622082
 20
33.067027
 30
0.0
 10
0.538688
 20
30.997387
 30
0.0
 10
3.444304
 20
31.181973
 30
0.0
  0
SPLINE
  5
13f
100
AcDbEntity
  8
0
 62
7
100
AcDbSpline
 70
0
 71
3
 72
28
 73
24
 74
22
 40
0.000000
 40
0.000000
 40
0.000000
 40
0.000000
 40
1.565336
 40
2.871660
 40
3.639369
 40
4.231757
 40
5.069250
 40
5.971160
 40
7.001493
 40
8.179665
 40
9.254830
 40
11.441989
 40
13.221125
 40
14.606906
 40
15.775841
 40
16.956885
 40
18.050550
 40
18.546263
 40
18.935059
 40
19.599667
 40
20.554966
 40
20.958276
 40
21.610497
 40
21.610497
 40
21.610497
 40
21.610497
 10
3.444304
 20
31.181973
 30
0.0
 10
3.964725
 20
31.220648
 30
0.0
 10
4.919455
 20
31.291598
 30
0.0
 10
6.125126
 20
31.424054
 30
0.0
 10
7.003113
 20
31.576828
 30
0.0
 10
7.699512
 20
31.807466
 30
0.0
 10
8.454952
 20
31.991955
 30
0.0
 10
9.356560
 20
32.190687
 30
0.0
 10
10.357963
 20
32.460925
 30
0.0
 10
11.396147
 20
32.812771
 30
0.0
 10
12.753506
 20
33.400984
 30
0.0
 10
14.327933
 20
34.016010
 30
0.0
 10
16.125931
 20
34.209342
 30
0.0
 10
17.585465
 20
33.757011
 30
0.0
 10
18.342963
 20
32.699061
 30
0.0
 10
18.636844
 20
31.559742
 30
0.0
 10
18.468984
 20
30.630558
 30
0.0
 10
18.084821
 20
30.038763
 30
0.0
 10
18.287060
 20
29.507387
 30
0.0
 10
18.843684
 20
29.127420
 30
0.0
 10
19.273051
 20
28.560325
 30
0.0
 10
20.091744
 20
28.578540
 30
0.0
 10
20.057189
 20
29.012443
 30
0.0
 10
20.035838
 20
29.280556
 30
0.0
 11
3.444304
 21
31.181973
 31
0.0
 11
5.004561
 21
31.307971
 31
0.0
 11
6.301908
 21
31.460854
 31
0.0
 11
7.055476
 21
31.607523
 31
0.0
 11
7.623579
 21
31.775402
 31
0.0
 11
8.434706
 21
31.983887
 31
0.0
 11
9.313253
 21
32.187842
 31
0.0
 11
10.307585
 21
32.457823
 31
0.0
 11
11.422254
 21
32.839403
 31
0.0
 11
12.415940
 21
33.249973
 31
0.0
 11
14.483878
 21
33.962220
 31
0.0
 11
16.258907
 21
34.083039
 31
0.0
 11
17.557760
 21
33.599956
 31
0.0
 11
18.272228
 21
32.674783
 31
0.0
 11
18.554816
 21
31.528045
 31
0.0
 11
18.332204
 21
30.457275
 31
0.0
 11
18.154279
 21
29.994594
 31
0.0
 11
18.272083
 21
29.624074
 31
0.0
 11
18.745439
 21
29.157557
 31
0.0
 11
19.521125
 21
28.599968
 31
0.0
 11
19.922616
 21
28.638237
 31
0.0
 11
20.035838
 21
29.280556
 31
0.0
  0
LWPOLYLINE
  5
140
100
AcDbEntity
  8
0
 62
7
100
AcDbPolyline
 90
2
 70
0
 10
20.035838
 20
29.280556
 30
0.0
 10
20.035917
 20
29.280556
 30
0.0
  0
SPLINE
  5
141
100
AcDbEntity
  8
0
 62
7
100
AcDbSpline
 70
0
 71
3
 72
16
 73
12
 74
10
 40
0.000000
 40
0.000000
 40
0.000000
 40
0.000000
 40
0.108182
 40
0.244849
 40
0.552516
 40
0.860182
 40
0.996849
 40
1.105031
 40
1.337019
 40
1.590496
 40
1.822483
 40
1.822483
 40
1.822483
 40
1.822483
 10
23.329132
 20
33.090556
 30
0.0
 10
23.303239
 20
33.131419
 30
0.0
 10
23.244637
 20
33.223904
 30
0.0
 10
23.181476
 20
32.951959
 30
0.0
 10
23.189744
 20
32.737490
 30
0.0
 10
23.183545
 20
32.524427
 30
0.0
 10
23.241640
 20
32.250531
 30
0.0
 10
23.371762
 20
32.436592
 30
0.0
 10
23.381126
 20
32.611579
 30
0.0
 10
23.395941
 20
32.860561
 30
0.0
 10
23.350734
 20
33.016187
 30
0.0
 10
23.329132
 20
33.090556
 30
0.0
 11
23.329132
 21
33.090556
 31
0.0
 11
23.257431
 21
33.171564
 31
0.0
 11
23.206291
 21
33.044825
 31
0.0
 11
23.186784
 21
32.737778
 31
0.0
 11
23.206291
 21
32.430730
 31
0.0
 11
23.257431
 21
32.303992
 31
0.0
 11
23.329132
 21
32.385000
 31
0.0
 11
23.381328
 21
32.611039
 31
0.0
 11
23.381328
 21
32.864516
 31
0.0
 11
23.329132
 21
33.090556
 31
0.0
  0
LWPOLYLINE
  5
142
100
AcDbEntity
  8
0
 62
7
100
AcDbPolyline
 90
2
 70
0
 10
23.329132
 20
33.090556
 30
0.0
 10
23.329132
 20
33.090556
 30
0.0
  0
ENDSEC
  0
SECTION
  2
OBJECTS
  0
DICTIONARY
  5
C
330
0
100
AcDbDictionary
  3
ACAD_GROUP
350
D
  3
ACAD_MLINESTYLE
350
17
  0
DICTIONARY
  5
D
330
C
100
AcDbDictionary
  0
DICTIONARY
  5
1A
330
C
100
AcDbDictionary
  0
DICTIONARY
  5
17
330
C
100
AcDbDictionary
  3
STANDARD
350
18
  0
DICTIONARY
  5
19
330
C
100
AcDbDictionary
  0
ENDSEC
  0
EOF
