0
SECTION
2
ENTITIES
0
LINE
8
2
62
3
10
0.055485
20
-1.526373
30
0.0
11
0.001387
21
-1.51127
31
0.0
0
LINE
8
2
62
3
10
0.001387
20
-1.51127
30
0.0
11
-0.050468
21
-1.488745
31
0.0
0
LINE
8
2
62
3
10
-0.050468
20
-1.488745
30
0.0
11
-0.085256
21
-1.464064
31
0.0
0
LINE
8
2
62
3
10
-0.085256
20
-1.464064
30
0.0
11
-0.096976
21
-1.437188
31
0.0
0
LINE
8
2
62
3
10
-0.096976
20
-1.437188
30
0.0
11
-0.108809
21
-1.390982
31
0.0
0
LINE
8
2
62
3
10
-0.108809
20
-1.390982
30
0.0
11
-0.118765
21
-1.348053
31
0.0
0
LINE
8
2
62
3
10
-0.118765
20
-1.348053
30
0.0
11
-0.129306
21
-1.31976
31
0.0
0
LINE
8
2
62
3
10
-0.129306
20
-1.31976
30
0.0
11
-0.141982
21
-1.303104
31
0.0
0
LINE
8
2
62
3
10
-0.141982
20
-1.303104
30
0.0
11
-0.158342
21
-1.295087
31
0.0
0
LINE
8
2
62
3
10
-0.158342
20
-1.295087
30
0.0
11
-0.177459
21
-1.296331
31
0.0
0
LINE
8
2
62
3
10
-0.177459
20
-1.296331
30
0.0
11
-0.200832
21
-1.312614
31
0.0
0
LINE
8
2
62
3
10
-0.200832
20
-1.312614
30
0.0
11
-0.223294
21
-1.328097
31
0.0
0
LINE
8
2
62
3
10
-0.223294
20
-1.328097
30
0.0
11
-0.242233
21
-1.334538
31
0.0
0
LINE
8
2
62
3
10
-0.242233
20
-1.334538
30
0.0
11
-0.255559
21
-1.331356
31
0.0
0
LINE
8
2
62
3
10
-0.255559
20
-1.331356
30
0.0
11
-0.269587
21
-1.321912
31
0.0
0
LINE
8
2
62
3
10
-0.269587
20
-1.321912
30
0.0
11
-0.299377
21
-1.284831
31
0.0
0
LINE
8
2
62
3
10
-0.299377
20
-1.284831
30
0.0
11
-0.330851
21
-1.224489
31
0.0
0
LINE
8
2
62
3
10
-0.330851
20
-1.224489
30
0.0
11
-0.363259
21
-1.142081
31
0.0
0
LINE
8
2
62
3
10
-0.363259
20
-1.142081
30
0.0
11
-0.385414
21
-1.090122
31
0.0
0
LINE
8
2
62
3
10
-0.385414
20
-1.090122
30
0.0
11
-0.405695
21
-1.212023
31
0.0
0
LINE
8
2
62
3
10
-0.405695
20
-1.212023
30
0.0
11
-0.419165
21
-1.303459
31
0.0
0
LINE
8
2
62
3
10
-0.419165
20
-1.303459
30
0.0
11
-0.428457
21
-1.347621
31
0.0
0
LINE
8
2
62
3
10
-0.428457
20
-1.347621
30
0.0
11
-0.433518
21
-1.357625
31
0.0
0
LINE
8
2
62
3
10
-0.433518
20
-1.357625
30
0.0
11
-0.439915
21
-1.362593
31
0.0
0
LINE
8
2
62
3
10
-0.439915
20
-1.362593
30
0.0
11
-0.459886
21
-1.366461
31
0.0
0
LINE
8
2
62
3
10
-0.459886
20
-1.366461
30
0.0
11
-0.483814
21
-1.371757
31
0.0
0
LINE
8
2
62
3
10
-0.483814
20
-1.371757
30
0.0
11
-0.498846
21
-1.380388
31
0.0
0
LINE
8
2
62
3
10
-0.498846
20
-1.380388
30
0.0
11
-0.50889
21
-1.396156
31
0.0
0
LINE
8
2
62
3
10
-0.50889
20
-1.396156
30
0.0
11
-0.51785
21
-1.42286
31
0.0
0
LINE
8
2
62
3
10
-0.51785
20
-1.42286
30
0.0
11
-0.530479
21
-1.453646
31
0.0
0
LINE
8
2
62
3
10
-0.530479
20
-1.453646
30
0.0
11
-0.545627
21
-1.473828
31
0.0
0
LINE
8
2
62
3
10
-0.545627
20
-1.473828
30
0.0
11
-0.561848
21
-1.482089
31
0.0
0
LINE
8
2
62
3
10
-0.561848
20
-1.482089
30
0.0
11
-0.588389
21
-1.490369
31
0.0
0
LINE
8
2
62
3
10
-0.588389
20
-1.490369
30
0.0
11
-0.663838
21
-1.505619
31
0.0
0
LINE
8
2
62
3
10
-0.663838
20
-1.505619
30
0.0
11
-0.754796
21
-1.516844
31
0.0
0
LINE
8
2
62
3
10
-0.754796
20
-1.516844
30
0.0
11
-0.844083
21
-1.521311
31
0.0
0
LINE
8
2
62
3
10
-0.844083
20
-1.521311
30
0.0
11
-0.916948
21
-1.519377
31
0.0
0
LINE
8
2
62
3
10
-0.916948
20
-1.519377
30
0.0
11
-0.945902
21
-1.512824
31
0.0
0
LINE
8
2
62
3
10
-0.945902
20
-1.512824
30
0.0
11
-0.973324
21
-1.459908
31
0.0
0
LINE
8
2
62
3
10
-0.973324
20
-1.459908
30
0.0
11
-0.990764
21
-1.426285
31
0.0
0
LINE
8
2
62
3
10
-0.990764
20
-1.426285
30
0.0
11
-1.006691
21
-1.412295
31
0.0
0
LINE
8
2
62
3
10
-1.006691
20
-1.412295
30
0.0
11
-1.014304
21
-1.412604
31
0.0
0
LINE
8
2
62
3
10
-1.014304
20
-1.412604
30
0.0
11
-1.0218
21
-1.417749
31
0.0
0
LINE
8
2
62
3
10
-1.0218
20
-1.417749
30
0.0
11
-1.036788
21
-1.442454
31
0.0
0
LINE
8
2
62
3
10
-1.036788
20
-1.442454
30
0.0
11
-1.050014
21
-1.467435
31
0.0
0
LINE
8
2
62
3
10
-1.050014
20
-1.467435
30
0.0
11
-1.062352
21
-1.4835
31
0.0
0
LINE
8
2
62
3
10
-1.062352
20
-1.4835
30
0.0
11
-1.077734
21
-1.490277
31
0.0
0
LINE
8
2
62
3
10
-1.077734
20
-1.490277
30
0.0
11
-1.09936
21
-1.491538
31
0.0
0
LINE
8
2
62
3
10
-1.09936
20
-1.491538
30
0.0
11
-1.125585
21
-1.487834
31
0.0
0
LINE
8
2
62
3
10
-1.125585
20
-1.487834
30
0.0
11
-1.154769
21
-1.47972
31
0.0
0
LINE
8
2
62
3
10
-1.154769
20
-1.47972
30
0.0
11
-1.215434
21
-1.452472
31
0.0
0
LINE
8
2
62
3
10
-1.215434
20
-1.452472
30
0.0
11
-1.24363
21
-1.434444
31
0.0
0
LINE
8
2
62
3
10
-1.24363
20
-1.434444
30
0.0
11
-1.26821
21
-1.414217
31
0.0
0
LINE
8
2
62
3
10
-1.26821
20
-1.414217
30
0.0
11
-1.284447
21
-1.397814
31
0.0
0
LINE
8
2
62
3
10
-1.284447
20
-1.397814
30
0.0
11
-1.293324
21
-1.384602
31
0.0
0
LINE
8
2
62
3
10
-1.293324
20
-1.384602
30
0.0
11
-1.297055
21
-1.369639
31
0.0
0
LINE
8
2
62
3
10
-1.297055
20
-1.369639
30
0.0
11
-1.297852
21
-1.347977
31
0.0
0
LINE
8
2
62
3
10
-1.297852
20
-1.347977
30
0.0
11
-1.299094
21
-1.310582
31
0.0
0
LINE
8
2
62
3
10
-1.299094
20
-1.310582
30
0.0
11
-1.303723
21
-1.289356
31
0.0
0
LINE
8
2
62
3
10
-1.303723
20
-1.289356
30
0.0
11
-1.313442
21
-1.280757
31
0.0
0
LINE
8
2
62
3
10
-1.313442
20
-1.280757
30
0.0
11
-1.329958
21
-1.28124
31
0.0
0
LINE
8
2
62
3
10
-1.329958
20
-1.28124
30
0.0
11
-1.342755
21
-1.282762
31
0.0
0
LINE
8
2
62
3
10
-1.342755
20
-1.282762
30
0.0
11
-1.35224
21
-1.280843
31
0.0
0
LINE
8
2
62
3
10
-1.35224
20
-1.280843
30
0.0
11
-1.37103
21
-1.262141
31
0.0
0
LINE
8
2
62
3
10
-1.37103
20
-1.262141
30
0.0
11
-1.390006
21
-1.232579
31
0.0
0
LINE
8
2
62
3
10
-1.390006
20
-1.232579
30
0.0
11
-1.408022
21
-1.196143
31
0.0
0
LINE
8
2
62
3
10
-1.408022
20
-1.196143
30
0.0
11
-1.42315
21
-1.157219
31
0.0
0
LINE
8
2
62
3
10
-1.42315
20
-1.157219
30
0.0
11
-1.433462
21
-1.12019
31
0.0
0
LINE
8
2
62
3
10
-1.433462
20
-1.12019
30
0.0
11
-1.438092
21
-1.081535
31
0.0
0
LINE
8
2
62
3
10
-1.438092
20
-1.081535
30
0.0
11
-1.432237
21
-1.044261
31
0.0
0
LINE
8
2
62
3
10
-1.432237
20
-1.044261
30
0.0
11
-1.426376
21
-1.010678
31
0.0
0
LINE
8
2
62
3
10
-1.426376
20
-1.010678
30
0.0
11
-1.430206
21
-1.002368
31
0.0
0
LINE
8
2
62
3
10
-1.430206
20
-1.002368
30
0.0
11
-1.439343
21
-0.994066
31
0.0
0
LINE
8
2
62
3
10
-1.439343
20
-0.994066
30
0.0
11
-1.452335
21
-0.97577
31
0.0
0
LINE
8
2
62
3
10
-1.452335
20
-0.97577
30
0.0
11
-1.460496
21
-0.941242
31
0.0
0
LINE
8
2
62
3
10
-1.460496
20
-0.941242
30
0.0
11
-1.464869
21
-0.882749
31
0.0
0
LINE
8
2
62
3
10
-1.464869
20
-0.882749
30
0.0
11
-1.466493
21
-0.79256
31
0.0
0
LINE
8
2
62
3
10
-1.466493
20
-0.79256
30
0.0
11
-1.466004
21
-0.726518
31
0.0
0
LINE
8
2
62
3
10
-1.466004
20
-0.726518
30
0.0
11
-1.462392
21
-0.685743
31
0.0
0
LINE
8
2
62
3
10
-1.462392
20
-0.685743
30
0.0
11
-1.453796
21
-0.660113
31
0.0
0
LINE
8
2
62
3
10
-1.453796
20
-0.660113
30
0.0
11
-1.438354
21
-0.639503
31
0.0
0
LINE
8
2
62
3
10
-1.438354
20
-0.639503
30
0.0
11
-1.431366
21
-0.630882
31
0.0
0
LINE
8
2
62
3
10
-1.431366
20
-0.630882
30
0.0
11
-1.429135
21
-0.623068
31
0.0
0
LINE
8
2
62
3
10
-1.429135
20
-0.623068
30
0.0
11
-1.439235
21
-0.594636
31
0.0
0
LINE
8
2
62
3
10
-1.439235
20
-0.594636
30
0.0
11
-1.448941
21
-0.563003
31
0.0
0
LINE
8
2
62
3
10
-1.448941
20
-0.563003
30
0.0
11
-1.452978
21
-0.530054
31
0.0
0
LINE
8
2
62
3
10
-1.452978
20
-0.530054
30
0.0
11
-1.45057
21
-0.491308
31
0.0
0
LINE
8
2
62
3
10
-1.45057
20
-0.491308
30
0.0
11
-1.443904
21
-0.450002
31
0.0
0
LINE
8
2
62
3
10
-1.443904
20
-0.450002
30
0.0
11
-1.421137
21
-0.368914
31
0.0
0
LINE
8
2
62
3
10
-1.421137
20
-0.368914
30
0.0
11
-1.391361
21
-0.305206
31
0.0
0
LINE
8
2
62
3
10
-1.391361
20
-0.305206
30
0.0
11
-1.375931
21
-0.285624
31
0.0
0
LINE
8
2
62
3
10
-1.375931
20
-0.285624
30
0.0
11
-1.361255
21
-0.277292
31
0.0
0
LINE
8
2
62
3
10
-1.361255
20
-0.277292
30
0.0
11
-1.342043
21
-0.272492
31
0.0
0
LINE
8
2
62
3
10
-1.342043
20
-0.272492
30
0.0
11
-1.331314
21
-0.262821
31
0.0
0
LINE
8
2
62
3
10
-1.331314
20
-0.262821
30
0.0
11
-1.327542
21
-0.245435
31
0.0
0
LINE
8
2
62
3
10
-1.327542
20
-0.245435
30
0.0
11
-1.329202
21
-0.217486
31
0.0
0
LINE
8
2
62
3
10
-1.329202
20
-0.217486
30
0.0
11
-1.32982
21
-0.17632
31
0.0
0
LINE
8
2
62
3
10
-1.32982
20
-0.17632
30
0.0
11
-1.314284
21
-0.137045
31
0.0
0
LINE
8
2
62
3
10
-1.314284
20
-0.137045
30
0.0
11
-1.288127
21
-0.095882
31
0.0
0
LINE
8
2
62
3
10
-1.288127
20
-0.095882
30
0.0
11
-1.252539
21
-0.057324
31
0.0
0
LINE
8
2
62
3
10
-1.252539
20
-0.057324
30
0.0
11
-1.207284
21
-0.02115
31
0.0
0
LINE
8
2
62
3
10
-1.207284
20
-0.02115
30
0.0
11
-1.152122
21
0.012861
31
0.0
0
LINE
8
2
62
3
10
-1.152122
20
0.012861
30
0.0
11
-1.050811
21
0.072605
31
0.0
0
LINE
8
2
62
3
10
-1.050811
20
0.072605
30
0.0
11
-1.00495
21
0.101592
31
0.0
0
LINE
8
2
62
3
10
-1.00495
20
0.101592
30
0.0
11
-0.995887
21
0.109427
31
0.0
0
LINE
8
2
62
3
10
-0.995887
20
0.109427
30
0.0
11
-0.992263
21
0.122955
31
0.0
0
LINE
8
2
62
3
10
-0.992263
20
0.122955
30
0.0
11
-1.000524
21
0.181606
31
0.0
0
LINE
8
2
62
3
10
-1.000524
20
0.181606
30
0.0
11
-1.008478
21
0.251668
31
0.0
0
LINE
8
2
62
3
10
-1.008478
20
0.251668
30
0.0
11
-1.007539
21
0.269781
31
0.0
0
LINE
8
2
62
3
10
-1.007539
20
0.269781
30
0.0
11
-1.003285
21
0.283403
31
0.0
0
LINE
8
2
62
3
10
-1.003285
20
0.283403
30
0.0
11
-0.976208
21
0.313777
31
0.0
0
LINE
8
2
62
3
10
-0.976208
20
0.313777
30
0.0
11
-0.943938
21
0.343828
31
0.0
0
LINE
8
2
62
3
10
-0.943938
20
0.343828
30
0.0
11
-0.930359
21
0.436304
31
0.0
0
LINE
8
2
62
3
10
-0.930359
20
0.436304
30
0.0
11
-0.917659
21
0.507631
31
0.0
0
LINE
8
2
62
3
10
-0.917659
20
0.507631
30
0.0
11
-0.906192
21
0.549257
31
0.0
0
LINE
8
2
62
3
10
-0.906192
20
0.549257
30
0.0
11
-0.891191
21
0.570098
31
0.0
0
LINE
8
2
62
3
10
-0.891191
20
0.570098
30
0.0
11
-0.866086
21
0.59042
31
0.0
0
LINE
8
2
62
3
10
-0.866086
20
0.59042
30
0.0
11
-0.826473
21
0.613153
31
0.0
0
LINE
8
2
62
3
10
-0.826473
20
0.613153
30
0.0
11
-0.767952
21
0.641224
31
0.0
0
LINE
8
2
62
3
10
-0.767952
20
0.641224
30
0.0
11
-0.686176
21
0.678574
31
0.0
0
LINE
8
2
62
3
10
-0.248287
20
1.233911
30
0.0
11
-0.151202
21
1.286122
31
0.0
0
LINE
8
2
62
3
10
-0.151202
20
1.286122
30
0.0
11
-0.053128
21
1.33405
31
0.0
0
LINE
8
2
62
3
10
-0.053128
20
1.33405
30
0.0
11
0.018585
21
1.363661
31
0.0
0
LINE
8
2
62
3
10
0.018585
20
1.363661
30
0.0
11
0.048133
21
1.370186
31
0.0
0
LINE
8
2
62
3
10
0.048133
20
1.370186
30
0.0
11
0.079709
21
1.365804
31
0.0
0
LINE
8
2
62
3
10
0.079709
20
1.365804
30
0.0
11
0.127167
21
1.346337
31
0.0
0
LINE
8
2
62
3
10
0.127167
20
1.346337
30
0.0
11
0.204362
21
1.307602
31
0.0
0
LINE
8
2
62
3
10
0.204362
20
1.307602
30
0.0
11
0.29421
21
1.261358
31
0.0
0
LINE
8
2
62
3
10
0.29421
20
1.261358
30
0.0
11
0.445436
21
1.352192
31
0.0
0
LINE
8
2
62
3
10
0.445436
20
1.352192
30
0.0
11
0.639699
21
1.470868
31
0.0
0
LINE
8
2
62
3
10
0.639699
20
1.470868
30
0.0
11
0.729316
21
1.531853
31
0.0
0
LINE
8
2
62
3
10
0.729316
20
1.531853
30
0.0
11
0.756419
21
1.548401
31
0.0
0
LINE
8
2
62
3
10
0.756419
20
1.548401
30
0.0
11
0.784501
21
1.549141
31
0.0
0
LINE
8
2
62
3
10
0.784501
20
1.549141
30
0.0
11
0.813345
21
1.541122
31
0.0
0
LINE
8
2
62
3
10
0.813345
20
1.541122
30
0.0
11
0.84104
21
1.526013
31
0.0
0
LINE
8
2
62
3
10
0.84104
20
1.526013
30
0.0
11
0.864727
21
1.505778
31
0.0
0
LINE
8
2
62
3
10
0.864727
20
1.505778
30
0.0
11
0.881548
21
1.482385
31
0.0
0
LINE
8
2
62
3
10
0.881548
20
1.482385
30
0.0
11
0.899734
21
1.453847
31
0.0
0
LINE
8
2
62
3
10
0.899734
20
1.453847
30
0.0
11
0.92417
21
1.423262
31
0.0
0
LINE
8
2
62
3
10
0.92417
20
1.423262
30
0.0
11
0.947672
21
1.398869
31
0.0
0
LINE
8
2
62
3
10
0.947672
20
1.398869
30
0.0
11
0.963056
21
1.388907
31
0.0
0
LINE
8
2
62
3
10
0.963056
20
1.388907
30
0.0
11
0.972918
21
1.392866
31
0.0
0
LINE
8
2
62
3
10
0.972918
20
1.392866
30
0.0
11
0.984143
21
1.402383
31
0.0
0
LINE
8
2
62
3
10
0.984143
20
1.402383
30
0.0
11
0.99821
21
1.41327
31
0.0
0
LINE
8
2
62
3
10
0.99821
20
1.41327
30
0.0
11
1.014907
21
1.42052
31
0.0
0
LINE
8
2
62
3
10
1.014907
20
1.42052
30
0.0
11
1.030821
21
1.42781
31
0.0
0
LINE
8
2
62
3
10
1.030821
20
1.42781
30
0.0
11
1.04301
21
1.438794
31
0.0
0
LINE
8
2
62
3
10
1.04301
20
1.438794
30
0.0
11
1.055527
21
1.44863
31
0.0
0
LINE
8
2
62
3
10
1.055527
20
1.44863
30
0.0
11
1.072831
21
1.452407
31
0.0
0
LINE
8
2
62
3
10
1.072831
20
1.452407
30
0.0
11
1.088615
21
1.448694
31
0.0
0
LINE
8
2
62
3
10
1.088615
20
1.448694
30
0.0
11
1.103257
21
1.437215
31
0.0
0
LINE
8
2
62
3
10
1.103257
20
1.437215
30
0.0
11
1.117226
21
1.417457
31
0.0
0
LINE
8
2
62
3
10
1.117226
20
1.417457
30
0.0
11
1.130991
21
1.388907
31
0.0
0
LINE
8
2
62
3
10
1.130991
20
1.388907
30
0.0
11
1.150471
21
1.361287
31
0.0
0
LINE
8
2
62
3
10
1.150471
20
1.361287
30
0.0
11
1.182951
21
1.32952
31
0.0
0
LINE
8
2
62
3
10
1.182951
20
1.32952
30
0.0
11
1.271394
21
1.249401
31
0.0
0
LINE
8
2
62
3
10
1.271394
20
1.249401
30
0.0
11
1.314003
21
1.21213
31
0.0
0
LINE
8
2
62
3
10
1.314003
20
1.21213
30
0.0
11
1.326602
21
1.207485
31
0.0
0
LINE
8
2
62
3
10
1.326602
20
1.207485
30
0.0
11
1.339313
21
1.208615
31
0.0
0
LINE
8
2
62
3
10
1.339313
20
1.208615
30
0.0
11
1.358029
21
1.209507
31
0.0
0
LINE
8
2
62
3
10
1.358029
20
1.209507
30
0.0
11
1.37148
21
1.202219
31
0.0
0
LINE
8
2
62
3
10
1.37148
20
1.202219
30
0.0
11
1.380823
21
1.185204
31
0.0
0
LINE
8
2
62
3
10
1.380823
20
1.185204
30
0.0
11
1.387105
21
1.158027
31
0.0
0
LINE
8
2
62
3
10
1.387105
20
1.158027
30
0.0
11
1.389778
21
1.12443
31
0.0
0
LINE
8
2
62
3
10
1.389778
20
1.12443
30
0.0
11
1.388288
21
1.088151
31
0.0
0
LINE
8
2
62
3
10
1.388288
20
1.088151
30
0.0
11
1.387667
21
1.054213
31
0.0
0
LINE
8
2
62
3
10
1.387667
20
1.054213
30
0.0
11
1.392277
21
1.045872
31
0.0
0
LINE
8
2
62
3
10
1.392277
20
1.045872
30
0.0
11
1.401364
21
1.038766
31
0.0
0
LINE
8
2
62
3
10
1.401364
20
1.038766
30
0.0
11
1.420345
21
1.022029
31
0.0
0
LINE
8
2
62
3
10
1.420345
20
1.022029
30
0.0
11
1.434654
21
1.000327
31
0.0
0
LINE
8
2
62
3
10
1.434654
20
1.000327
30
0.0
11
1.443662
21
0.974928
31
0.0
0
LINE
8
2
62
3
10
1.443662
20
0.974928
30
0.0
11
1.44674
21
0.947102
31
0.0
0
LINE
8
2
62
3
10
1.44674
20
0.947102
30
0.0
11
1.440353
21
0.891841
31
0.0
0
LINE
8
2
62
3
10
1.440353
20
0.891841
30
0.0
11
1.425034
21
0.816378
31
0.0
0
LINE
8
2
62
3
10
1.425034
20
0.816378
30
0.0
11
1.406159
21
0.743974
31
0.0
0
LINE
8
2
62
3
10
1.406159
20
0.743974
30
0.0
11
1.389108
21
0.697889
31
0.0
0
LINE
8
2
62
3
10
1.389108
20
0.697889
30
0.0
11
1.372772
21
0.669224
31
0.0
0
LINE
8
2
62
3
10
1.372772
20
0.669224
30
0.0
11
1.389558
21
0.639246
31
0.0
0
LINE
8
2
62
3
10
1.389558
20
0.639246
30
0.0
11
1.412543
21
0.597435
31
0.0
0
LINE
8
2
62
3
10
1.412543
20
0.597435
30
0.0
11
1.42319
21
0.57118
31
0.0
0
LINE
8
2
62
3
10
1.42319
20
0.57118
30
0.0
11
1.424676
21
0.547378
31
0.0
0
LINE
8
2
62
3
10
1.424676
20
0.547378
30
0.0
11
1.420176
21
0.512925
31
0.0
0
LINE
8
2
62
3
10
1.420176
20
0.512925
30
0.0
11
1.41232
21
0.473431
31
0.0
0
LINE
8
2
62
3
10
1.41232
20
0.473431
30
0.0
11
1.401347
21
0.439276
31
0.0
0
LINE
8
2
62
3
10
1.401347
20
0.439276
30
0.0
11
1.387974
21
0.412263
31
0.0
0
LINE
8
2
62
3
10
1.317474
20
0.37515
30
0.0
11
1.306937
21
0.358011
31
0.0
0
LINE
8
2
62
3
10
1.306937
20
0.358011
30
0.0
11
1.299869
21
0.315949
31
0.0
0
LINE
8
2
62
3
10
1.27607
20
0.146232
30
0.0
11
1.259943
21
0.148141
31
0.0
0
LINE
8
2
62
3
10
1.259943
20
0.148141
30
0.0
11
1.223101
21
0.165255
31
0.0
0
LINE
8
2
62
3
10
0.700894
20
0.397551
30
0.0
11
0.676146
21
0.440958
31
0.0
0
LINE
8
2
62
3
10
0.676146
20
0.440958
30
0.0
11
0.656634
21
0.475146
31
0.0
0
LINE
8
2
62
3
10
0.656634
20
0.475146
30
0.0
11
0.651879
21
0.487018
31
0.0
0
LINE
8
2
62
3
10
0.651879
20
0.487018
30
0.0
11
0.640426
21
0.502158
31
0.0
0
LINE
8
2
62
3
10
0.640426
20
0.502158
30
0.0
11
0.626494
21
0.515784
31
0.0
0
LINE
8
2
62
3
10
0.626494
20
0.515784
30
0.0
11
0.614302
21
0.523118
31
0.0
0
LINE
8
2
62
3
10
0.614302
20
0.523118
30
0.0
11
0.594601
21
0.520771
31
0.0
0
LINE
8
2
62
3
10
0.594601
20
0.520771
30
0.0
11
0.566979
21
0.509353
31
0.0
0
LINE
8
2
62
3
10
0.566979
20
0.509353
30
0.0
11
0.529981
21
0.494563
31
0.0
0
LINE
8
2
62
3
10
0.529981
20
0.494563
30
0.0
11
0.499102
21
0.492838
31
0.0
0
LINE
8
2
62
3
10
0.499102
20
0.492838
30
0.0
11
0.474236
21
0.504196
31
0.0
0
LINE
8
2
62
3
10
0.474236
20
0.504196
30
0.0
11
0.455278
21
0.528655
31
0.0
0
LINE
8
2
62
3
10
0.455278
20
0.528655
30
0.0
11
0.439832
21
0.593928
31
0.0
0
LINE
8
2
62
3
10
0.439832
20
0.593928
30
0.0
11
0.430909
21
0.674388
31
0.0
0
LINE
8
2
62
3
10
0.430909
20
0.674388
30
0.0
11
0.425647
21
0.682738
31
0.0
0
LINE
8
2
62
3
10
0.425647
20
0.682738
30
0.0
11
0.411178
21
0.69251
31
0.0
0
LINE
8
2
62
3
10
0.411178
20
0.69251
30
0.0
11
0.361992
21
0.713704
31
0.0
0
LINE
8
2
62
3
10
0.361992
20
0.713704
30
0.0
11
0.298086
21
0.732728
31
0.0
0
LINE
8
2
62
3
10
0.298086
20
0.732728
30
0.0
11
0.234199
21
0.744343
31
0.0
0
LINE
8
2
62
3
10
0.234199
20
0.744343
30
0.0
11
0.196832
21
0.74567
31
0.0
0
LINE
8
2
62
3
10
0.196832
20
0.74567
30
0.0
11
0.177893
21
0.737207
31
0.0
0
LINE
8
2
62
3
10
0.177893
20
0.737207
30
0.0
11
0.157955
21
0.702349
31
0.0
0
LINE
8
2
62
3
10
0.157955
20
0.702349
30
0.0
11
0.128131
21
0.634936
31
0.0
0
LINE
8
2
62
3
10
0.128131
20
0.634936
30
0.0
11
0.098879
21
0.568514
31
0.0
0
LINE
8
2
62
3
10
0.098879
20
0.568514
30
0.0
11
0.073763
21
0.524586
31
0.0
0
LINE
8
2
62
3
10
0.073763
20
0.524586
30
0.0
11
0.05078
21
0.500312
31
0.0
0
LINE
8
2
62
3
10
0.05078
20
0.500312
30
0.0
11
0.039463
21
0.494657
31
0.0
0
LINE
8
2
62
3
10
0.039463
20
0.494657
30
0.0
11
0.027927
21
0.492851
31
0.0
0
LINE
8
2
62
3
10
0.027927
20
0.492851
30
0.0
11
0.007561
21
0.496006
31
0.0
0
LINE
8
2
62
3
10
0.007561
20
0.496006
30
0.0
11
-0.011348
21
0.50572
31
0.0
0
LINE
8
2
62
3
10
-0.011348
20
0.50572
30
0.0
11
-0.029329
21
0.522374
31
0.0
0
LINE
8
2
62
3
10
-0.029329
20
0.522374
30
0.0
11
-0.046911
21
0.546344
31
0.0
0
LINE
8
2
62
3
10
-0.046911
20
0.546344
30
0.0
11
-0.062963
21
0.568949
31
0.0
0
LINE
8
2
62
3
10
-0.062963
20
0.568949
30
0.0
11
-0.07614
21
0.579726
31
0.0
0
LINE
8
2
62
3
10
-0.07614
20
0.579726
30
0.0
11
-0.088687
21
0.579604
31
0.0
0
LINE
8
2
62
3
10
-0.088687
20
0.579604
30
0.0
11
-0.102847
21
0.569515
31
0.0
0
LINE
8
2
62
3
10
-0.102847
20
0.569515
30
0.0
11
-0.15554
21
0.50097
31
0.0
0
LINE
8
2
62
3
10
-0.15554
20
0.50097
30
0.0
11
-0.221439
21
0.394965
31
0.0
0
LINE
8
2
62
3
10
-0.221439
20
0.394965
30
0.0
11
-0.254801
21
0.335883
31
0.0
0
LINE
8
2
62
3
10
-0.254801
20
0.335883
30
0.0
11
-0.246257
21
0.2906
31
0.0
0
LINE
8
2
62
3
10
-0.246257
20
0.2906
30
0.0
11
-0.241301
21
0.251342
31
0.0
0
LINE
8
2
62
3
10
-0.241301
20
0.251342
30
0.0
11
-0.243204
21
0.216543
31
0.0
0
LINE
8
2
62
3
10
-0.243204
20
0.216543
30
0.0
11
-0.252742
21
0.181457
31
0.0
0
LINE
8
2
62
3
10
-0.252742
20
0.181457
30
0.0
11
-0.270695
21
0.141337
31
0.0
0
LINE
8
2
62
3
10
-0.270695
20
0.141337
30
0.0
11
-0.291011
21
0.104473
31
0.0
0
LINE
8
2
62
3
10
-0.291011
20
0.104473
30
0.0
11
-0.309278
21
0.079919
31
0.0
0
LINE
8
2
62
3
10
-0.309278
20
0.079919
30
0.0
11
-0.328549
21
0.064415
31
0.0
0
LINE
8
2
62
3
10
-0.328549
20
0.064415
30
0.0
11
-0.351877
21
0.054703
31
0.0
0
LINE
8
2
62
3
10
-0.351877
20
0.054703
30
0.0
11
-0.374695
21
0.043933
31
0.0
0
LINE
8
2
62
3
10
-0.374695
20
0.043933
30
0.0
11
-0.387054
21
0.027966
31
0.0
0
LINE
8
2
62
3
10
-0.387054
20
0.027966
30
0.0
11
-0.404262
21
-0.039102
31
0.0
0
LINE
8
2
62
3
10
-0.404262
20
-0.039102
30
0.0
11
-0.419388
21
-0.128489
31
0.0
0
LINE
8
2
62
3
10
-0.419388
20
-0.128489
30
0.0
11
-0.420536
21
-0.164698
31
0.0
0
LINE
8
2
62
3
10
-0.420536
20
-0.164698
30
0.0
11
-0.415957
21
-0.17621
31
0.0
0
LINE
8
2
62
3
10
-0.415957
20
-0.17621
30
0.0
11
-0.406869
21
-0.188461
31
0.0
0
LINE
8
2
62
3
10
-0.406869
20
-0.188461
30
0.0
11
-0.386582
21
-0.21601
31
0.0
0
LINE
8
2
62
3
10
-0.386582
20
-0.21601
30
0.0
11
-0.373775
21
-0.242527
31
0.0
0
LINE
8
2
62
3
10
-0.373775
20
-0.242527
30
0.0
11
-0.367166
21
-0.271688
31
0.0
0
LINE
8
2
62
3
10
-0.367166
20
-0.271688
30
0.0
11
-0.365474
21
-0.307169
31
0.0
0
LINE
8
2
62
3
10
-0.365474
20
-0.307169
30
0.0
11
-0.367366
21
-0.347383
31
0.0
0
LINE
8
2
62
3
10
-0.367366
20
-0.347383
30
0.0
11
-0.373271
21
-0.379475
31
0.0
0
LINE
8
2
62
3
10
-0.373271
20
-0.379475
30
0.0
11
-0.3847
21
-0.408807
31
0.0
0
LINE
8
2
62
3
10
-0.3847
20
-0.408807
30
0.0
11
-0.403168
21
-0.44074
31
0.0
0
LINE
8
2
62
3
10
-0.403168
20
-0.44074
30
0.0
11
-0.426394
21
-0.476907
31
0.0
0
LINE
8
2
62
3
10
-0.426394
20
-0.476907
30
0.0
11
-0.428568
21
-0.611891
31
0.0
0
LINE
8
2
62
3
10
-0.428568
20
-0.611891
30
0.0
11
-0.430741
21
-0.746875
31
0.0
0
LINE
8
2
62
3
10
-0.430741
20
-0.746875
30
0.0
11
-0.409022
21
-0.755872
31
0.0
0
LINE
8
2
62
3
10
-0.409022
20
-0.755872
30
0.0
11
-0.377758
21
-0.776553
31
0.0
0
LINE
8
2
62
3
10
-0.377758
20
-0.776553
30
0.0
11
-0.354758
21
-0.808781
31
0.0
0
LINE
8
2
62
3
10
-0.354758
20
-0.808781
30
0.0
11
-0.340483
21
-0.851624
31
0.0
0
LINE
8
2
62
3
10
-0.340483
20
-0.851624
30
0.0
11
-0.335398
21
-0.904149
31
0.0
0
LINE
8
2
62
3
10
-0.335398
20
-0.904149
30
0.0
11
-0.338647
21
-0.946438
31
0.0
0
LINE
8
2
62
3
10
-0.338647
20
-0.946438
30
0.0
11
-0.350775
21
-0.979715
31
0.0
0
LINE
8
2
62
3
10
-0.350775
20
-0.979715
30
0.0
11
-0.361826
21
-1.005125
31
0.0
0
LINE
8
2
62
3
10
-0.361826
20
-1.005125
30
0.0
11
-0.366422
21
-1.024505
31
0.0
0
LINE
8
2
62
3
10
-0.366422
20
-1.024505
30
0.0
11
-0.358607
21
-1.06008
31
0.0
0
LINE
8
2
62
3
10
-0.358607
20
-1.06008
30
0.0
11
-0.33949
21
-1.119522
31
0.0
0
LINE
8
2
62
3
10
-0.33949
20
-1.119522
30
0.0
11
-0.315567
21
-1.184114
31
0.0
0
LINE
8
2
62
3
10
-0.315567
20
-1.184114
30
0.0
11
-0.293333
21
-1.23514
31
0.0
0
LINE
8
2
62
3
10
-0.293333
20
-1.23514
30
0.0
11
-0.27289
21
-1.269933
31
0.0
0
LINE
8
2
62
3
10
-0.27289
20
-1.269933
30
0.0
11
-0.25588
21
-1.290053
31
0.0
0
LINE
8
2
62
3
10
-0.25588
20
-1.290053
30
0.0
11
-0.247182
21
-1.294517
31
0.0
0
LINE
8
2
62
3
10
-0.247182
20
-1.294517
30
0.0
11
-0.238848
21
-1.294138
31
0.0
0
LINE
8
2
62
3
10
-0.238848
20
-1.294138
30
0.0
11
-0.211478
21
-1.274798
31
0.0
0
LINE
8
2
62
3
10
-0.211478
20
-1.274798
30
0.0
11
-0.188311
21
-1.257735
31
0.0
0
LINE
8
2
62
3
10
-0.188311
20
-1.257735
30
0.0
11
-0.170044
21
-1.251259
31
0.0
0
LINE
8
2
62
3
10
-0.170044
20
-1.251259
30
0.0
11
-0.152918
21
-1.255089
31
0.0
0
LINE
8
2
62
3
10
-0.152918
20
-1.255089
30
0.0
11
-0.133171
21
-1.268944
31
0.0
0
LINE
8
2
62
3
10
-0.133171
20
-1.268944
30
0.0
11
-0.115323
21
-1.287271
31
0.0
0
LINE
8
2
62
3
10
-0.115323
20
-1.287271
30
0.0
11
-0.102491
21
-1.309071
31
0.0
0
LINE
8
2
62
3
10
-0.102491
20
-1.309071
30
0.0
11
-0.093552
21
-1.3369
31
0.0
0
LINE
8
2
62
3
10
-0.093552
20
-1.3369
30
0.0
11
-0.087386
21
-1.373315
31
0.0
0
LINE
8
2
62
3
10
-0.087386
20
-1.373315
30
0.0
11
-0.078794
21
-1.411666
31
0.0
0
LINE
8
2
62
3
10
-0.078794
20
-1.411666
30
0.0
11
-0.059907
21
-1.437853
31
0.0
0
LINE
8
2
62
3
10
-0.059907
20
-1.437853
30
0.0
11
-0.033377
21
-1.456158
31
0.0
0
LINE
8
2
62
3
10
-0.033377
20
-1.456158
30
0.0
11
0.004591
21
-1.472868
31
0.0
0
LINE
8
2
62
3
10
0.004591
20
-1.472868
30
0.0
11
0.045937
21
-1.485048
31
0.0
0
LINE
8
2
62
3
10
0.065112
20
-0.953967
30
0.0
11
0.006934
21
-0.926919
31
0.0
0
LINE
8
2
62
3
10
0.006934
20
-0.926919
30
0.0
11
-0.041802
21
-0.892384
31
0.0
0
LINE
8
2
62
3
10
-0.041802
20
-0.892384
30
0.0
11
-0.080808
21
-0.850613
31
0.0
0
LINE
8
2
62
3
10
-0.080808
20
-0.850613
30
0.0
11
-0.109795
21
-0.801858
31
0.0
0
LINE
8
2
62
3
10
-0.109795
20
-0.801858
30
0.0
11
-0.133688
21
-0.736097
31
0.0
0
LINE
8
2
62
3
10
-0.133688
20
-0.736097
30
0.0
11
-0.152528
21
-0.656577
31
0.0
0
LINE
8
2
62
3
10
-0.152528
20
-0.656577
30
0.0
11
-0.166096
21
-0.567287
31
0.0
0
LINE
8
2
62
3
10
-0.166096
20
-0.567287
30
0.0
11
-0.174176
21
-0.472217
31
0.0
0
LINE
8
2
62
3
10
-0.174176
20
-0.472217
30
0.0
11
-0.17655
21
-0.375356
31
0.0
0
LINE
8
2
62
3
10
-0.17655
20
-0.375356
30
0.0
11
-0.173001
21
-0.280695
31
0.0
0
LINE
8
2
62
3
10
-0.173001
20
-0.280695
30
0.0
11
-0.163311
21
-0.192222
31
0.0
0
LINE
8
2
62
3
10
-0.163311
20
-0.192222
30
0.0
11
-0.147264
21
-0.113926
31
0.0
0
LINE
8
2
62
3
10
-0.147264
20
-0.113926
30
0.0
11
-0.129707
21
-0.055533
31
0.0
0
LINE
8
2
62
3
10
-0.129707
20
-0.055533
30
0.0
11
-0.109904
21
-0.002761
31
0.0
0
LINE
8
2
62
3
10
-0.109904
20
-0.002761
30
0.0
11
-0.087859
21
0.044382
31
0.0
0
LINE
8
2
62
3
10
-0.087859
20
0.044382
30
0.0
11
-0.063575
21
0.085891
31
0.0
0
LINE
8
2
62
3
10
-0.063575
20
0.085891
30
0.0
11
-0.037057
21
0.121761
31
0.0
0
LINE
8
2
62
3
10
-0.037057
20
0.121761
30
0.0
11
-0.008308
21
0.151985
31
0.0
0
LINE
8
2
62
3
10
-0.008308
20
0.151985
30
0.0
11
0.022668
21
0.176558
31
0.0
0
LINE
8
2
62
3
10
0.022668
20
0.176558
30
0.0
11
0.055867
21
0.195474
31
0.0
0
LINE
8
2
62
3
10
0.055867
20
0.195474
30
0.0
11
0.101225
21
0.209698
31
0.0
0
LINE
8
2
62
3
10
0.101225
20
0.209698
30
0.0
11
0.153098
21
0.214973
31
0.0
0
LINE
8
2
62
3
10
0.153098
20
0.214973
30
0.0
11
0.20463
21
0.211198
31
0.0
0
LINE
8
2
62
3
10
0.20463
20
0.211198
30
0.0
11
0.248961
21
0.198276
31
0.0
0
LINE
8
2
62
3
10
0.248961
20
0.198276
30
0.0
11
0.294753
21
0.171145
31
0.0
0
LINE
8
2
62
3
10
0.294753
20
0.171145
30
0.0
11
0.333457
21
0.134234
31
0.0
0
LINE
8
2
62
3
10
0.333457
20
0.134234
30
0.0
11
0.365383
21
0.086639
31
0.0
0
LINE
8
2
62
3
10
0.365383
20
0.086639
30
0.0
11
0.390841
21
0.027457
31
0.0
0
LINE
8
2
62
3
10
0.390841
20
0.027457
30
0.0
11
0.410139
21
-0.044217
31
0.0
0
LINE
8
2
62
3
10
0.410139
20
-0.044217
30
0.0
11
0.423587
21
-0.129288
31
0.0
0
LINE
8
2
62
3
10
0.423587
20
-0.129288
30
0.0
11
0.431494
21
-0.228658
31
0.0
0
LINE
8
2
62
3
10
0.431494
20
-0.228658
30
0.0
11
0.434169
21
-0.343232
31
0.0
0
LINE
8
2
62
3
10
0.434169
20
-0.343232
30
0.0
11
0.431628
21
-0.490754
31
0.0
0
LINE
8
2
62
3
10
0.431628
20
-0.490754
30
0.0
11
0.426702
21
-0.534771
31
0.0
0
LINE
8
2
62
3
10
0.426702
20
-0.534771
30
0.0
11
0.417976
21
-0.578792
31
0.0
0
LINE
8
2
62
3
10
0.417976
20
-0.578792
30
0.0
11
0.401824
21
-0.641995
31
0.0
0
LINE
8
2
62
3
10
0.401824
20
-0.641995
30
0.0
11
0.382723
21
-0.701987
31
0.0
0
LINE
8
2
62
3
10
0.382723
20
-0.701987
30
0.0
11
0.362062
21
-0.754834
31
0.0
0
LINE
8
2
62
3
10
0.362062
20
-0.754834
30
0.0
11
0.341226
21
-0.7966
31
0.0
0
LINE
8
2
62
3
10
0.341226
20
-0.7966
30
0.0
11
0.316213
21
-0.831668
31
0.0
0
LINE
8
2
62
3
10
0.316213
20
-0.831668
30
0.0
11
0.281837
21
-0.869642
31
0.0
0
LINE
8
2
62
3
10
0.281837
20
-0.869642
30
0.0
11
0.242738
21
-0.905839
31
0.0
0
LINE
8
2
62
3
10
0.242738
20
-0.905839
30
0.0
11
0.203554
21
-0.935574
31
0.0
0
LINE
8
2
62
3
10
0.203554
20
-0.935574
30
0.0
11
0.168245
21
-0.955132
31
0.0
0
LINE
8
2
62
3
10
0.168245
20
-0.955132
30
0.0
11
0.135322
21
-0.964462
31
0.0
0
LINE
8
2
62
3
10
0.135322
20
-0.964462
30
0.0
11
0.101904
21
-0.963946
31
0.0
0
LINE
8
2
62
3
10
0.101904
20
-0.963946
30
0.0
11
0.065112
21
-0.953967
31
0.0
0
LINE
8
2
62
3
10
0.195274
20
-0.898316
30
0.0
11
0.251171
21
-0.854067
31
0.0
0
LINE
8
2
62
3
10
0.251171
20
-0.854067
30
0.0
11
0.299026
21
-0.79875
31
0.0
0
LINE
8
2
62
3
10
0.299026
20
-0.79875
30
0.0
11
0.338881
21
-0.73231
31
0.0
0
LINE
8
2
62
3
10
0.338881
20
-0.73231
30
0.0
11
0.370775
21
-0.654691
31
0.0
0
LINE
8
2
62
3
10
0.370775
20
-0.654691
30
0.0
11
0.385957
21
-0.597702
31
0.0
0
LINE
8
2
62
3
10
0.385957
20
-0.597702
30
0.0
11
0.379462
21
-0.607729
31
0.0
0
LINE
8
2
62
3
10
0.379462
20
-0.607729
30
0.0
11
0.364622
21
-0.645072
31
0.0
0
LINE
8
2
62
3
10
0.364622
20
-0.645072
30
0.0
11
0.345741
21
-0.690146
31
0.0
0
LINE
8
2
62
3
10
0.345741
20
-0.690146
30
0.0
11
0.323793
21
-0.730811
31
0.0
0
LINE
8
2
62
3
10
0.323793
20
-0.730811
30
0.0
11
0.299267
21
-0.766574
31
0.0
0
LINE
8
2
62
3
10
0.299267
20
-0.766574
30
0.0
11
0.272655
21
-0.796947
31
0.0
0
LINE
8
2
62
3
10
0.272655
20
-0.796947
30
0.0
11
0.244445
21
-0.821439
31
0.0
0
LINE
8
2
62
3
10
0.244445
20
-0.821439
30
0.0
11
0.215129
21
-0.839558
31
0.0
0
LINE
8
2
62
3
10
0.215129
20
-0.839558
30
0.0
11
0.185195
21
-0.850816
31
0.0
0
LINE
8
2
62
3
10
0.185195
20
-0.850816
30
0.0
11
0.155135
21
-0.85472
31
0.0
0
LINE
8
2
62
3
10
0.155135
20
-0.85472
30
0.0
11
0.133461
21
-0.848834
31
0.0
0
LINE
8
2
62
3
10
0.133461
20
-0.848834
30
0.0
11
0.105266
21
-0.833354
31
0.0
0
LINE
8
2
62
3
10
0.105266
20
-0.833354
30
0.0
11
0.075785
21
-0.811652
31
0.0
0
LINE
8
2
62
3
10
0.075785
20
-0.811652
30
0.0
11
0.050251
21
-0.787104
31
0.0
0
LINE
8
2
62
3
10
0.050251
20
-0.787104
30
0.0
11
0.027522
21
-0.756631
31
0.0
0
LINE
8
2
62
3
10
0.027522
20
-0.756631
30
0.0
11
0.00735
21
-0.720362
31
0.0
0
LINE
8
2
62
3
10
0.00735
20
-0.720362
30
0.0
11
-0.010229
21
-0.679033
31
0.0
0
LINE
8
2
62
3
10
-0.010229
20
-0.679033
30
0.0
11
-0.025181
21
-0.633381
31
0.0
0
LINE
8
2
62
3
10
-0.025181
20
-0.633381
30
0.0
11
-0.047061
21
-0.532055
31
0.0
0
LINE
8
2
62
3
10
-0.047061
20
-0.532055
30
0.0
11
-0.058005
21
-0.422279
31
0.0
0
LINE
8
2
62
3
10
-0.058005
20
-0.422279
30
0.0
11
-0.057731
21
-0.309948
31
0.0
0
LINE
8
2
62
3
10
-0.057731
20
-0.309948
30
0.0
11
-0.045955
21
-0.200956
31
0.0
0
LINE
8
2
62
3
10
-0.045955
20
-0.200956
30
0.0
11
-0.022395
21
-0.101197
31
0.0
0
LINE
8
2
62
3
10
-0.022395
20
-0.101197
30
0.0
11
-0.006107
21
-0.056622
31
0.0
0
LINE
8
2
62
3
10
-0.006107
20
-0.056622
30
0.0
11
0.013233
21
-0.016565
31
0.0
0
LINE
8
2
62
3
10
0.013233
20
-0.016565
30
0.0
11
0.036079
21
0.016469
31
0.0
0
LINE
8
2
62
3
10
0.036079
20
0.016469
30
0.0
11
0.065109
21
0.049317
31
0.0
0
LINE
8
2
62
3
10
0.065109
20
0.049317
30
0.0
11
0.104143
21
0.081308
31
0.0
0
LINE
8
2
62
3
10
0.104143
20
0.081308
30
0.0
11
0.143621
21
0.101931
31
0.0
0
LINE
8
2
62
3
10
0.143621
20
0.101931
30
0.0
11
0.182779
21
0.111333
31
0.0
0
LINE
8
2
62
3
10
0.182779
20
0.111333
30
0.0
11
0.22085
21
0.109662
31
0.0
0
LINE
8
2
62
3
10
0.22085
20
0.109662
30
0.0
11
0.257067
21
0.097064
31
0.0
0
LINE
8
2
62
3
10
0.257067
20
0.097064
30
0.0
11
0.290664
21
0.073687
31
0.0
0
LINE
8
2
62
3
10
0.290664
20
0.073687
30
0.0
11
0.320875
21
0.039678
31
0.0
0
LINE
8
2
62
3
10
0.320875
20
0.039678
30
0.0
11
0.346934
21
-0.004815
31
0.0
0
LINE
8
2
62
3
10
0.346934
20
-0.004815
30
0.0
11
0.370499
21
-0.068641
31
0.0
0
LINE
8
2
62
3
10
0.370499
20
-0.068641
30
0.0
11
0.401762
21
-0.198593
31
0.0
0
LINE
8
2
62
3
10
0.401762
20
-0.198593
30
0.0
11
0.405599
21
-0.213222
31
0.0
0
LINE
8
2
62
3
10
0.405599
20
-0.213222
30
0.0
11
0.407292
21
-0.214209
31
0.0
0
LINE
8
2
62
3
10
0.407292
20
-0.214209
30
0.0
11
0.405308
21
-0.184859
31
0.0
0
LINE
8
2
62
3
10
0.405308
20
-0.184859
30
0.0
11
0.387305
21
-0.068065
31
0.0
0
LINE
8
2
62
3
10
0.387305
20
-0.068065
30
0.0
11
0.373101
21
-0.010146
31
0.0
0
LINE
8
2
62
3
10
0.373101
20
-0.010146
30
0.0
11
0.35488
21
0.039686
31
0.0
0
LINE
8
2
62
3
10
0.35488
20
0.039686
30
0.0
11
0.332532
21
0.081546
31
0.0
0
LINE
8
2
62
3
10
0.332532
20
0.081546
30
0.0
11
0.305947
21
0.115549
31
0.0
0
LINE
8
2
62
3
10
0.305947
20
0.115549
30
0.0
11
0.275016
21
0.141809
31
0.0
0
LINE
8
2
62
3
10
0.275016
20
0.141809
30
0.0
11
0.23963
21
0.160442
31
0.0
0
LINE
8
2
62
3
10
0.23963
20
0.160442
30
0.0
11
0.199678
21
0.171561
31
0.0
0
LINE
8
2
62
3
10
0.199678
20
0.171561
30
0.0
11
0.155052
21
0.175282
31
0.0
0
LINE
8
2
62
3
10
0.155052
20
0.175282
30
0.0
11
0.103333
21
0.171446
31
0.0
0
LINE
8
2
62
3
10
0.103333
20
0.171446
30
0.0
11
0.058154
21
0.153692
31
0.0
0
LINE
8
2
62
3
10
0.058154
20
0.153692
30
0.0
11
0.031094
21
0.137542
31
0.0
0
LINE
8
2
62
3
10
0.031094
20
0.137542
30
0.0
11
0.005598
21
0.117042
31
0.0
0
LINE
8
2
62
3
10
0.005598
20
0.117042
30
0.0
11
-0.018265
21
0.092411
31
0.0
0
LINE
8
2
62
3
10
-0.018265
20
0.092411
30
0.0
11
-0.040425
21
0.06387
31
0.0
0
LINE
8
2
62
3
10
-0.040425
20
0.06387
30
0.0
11
-0.079361
21
-0.004064
31
0.0
0
LINE
8
2
62
3
10
-0.079361
20
-0.004064
30
0.0
11
-0.110657
21
-0.084999
31
0.0
0
LINE
8
2
62
3
10
-0.110657
20
-0.084999
30
0.0
11
-0.133761
21
-0.177178
31
0.0
0
LINE
8
2
62
3
10
-0.133761
20
-0.177178
30
0.0
11
-0.14812
21
-0.278839
31
0.0
0
LINE
8
2
62
3
10
-0.14812
20
-0.278839
30
0.0
11
-0.15318
21
-0.388224
31
0.0
0
LINE
8
2
62
3
10
-0.15318
20
-0.388224
30
0.0
11
-0.148389
21
-0.503572
31
0.0
0
LINE
8
2
62
3
10
-0.148389
20
-0.503572
30
0.0
11
-0.139575
21
-0.585944
31
0.0
0
LINE
8
2
62
3
10
-0.139575
20
-0.585944
30
0.0
11
-0.12768
21
-0.656721
31
0.0
0
LINE
8
2
62
3
10
-0.12768
20
-0.656721
30
0.0
11
-0.112188
21
-0.717005
31
0.0
0
LINE
8
2
62
3
10
-0.112188
20
-0.717005
30
0.0
11
-0.092583
21
-0.767897
31
0.0
0
LINE
8
2
62
3
10
-0.092583
20
-0.767897
30
0.0
11
-0.068347
21
-0.810497
31
0.0
0
LINE
8
2
62
3
10
-0.068347
20
-0.810497
30
0.0
11
-0.038966
21
-0.845906
31
0.0
0
LINE
8
2
62
3
10
-0.038966
20
-0.845906
30
0.0
11
-0.003923
21
-0.875224
31
0.0
0
LINE
8
2
62
3
10
-0.003923
20
-0.875224
30
0.0
11
0.037299
21
-0.899553
31
0.0
0
LINE
8
2
62
3
10
0.037299
20
-0.899553
30
0.0
11
0.083823
21
-0.919263
31
0.0
0
LINE
8
2
62
3
10
0.083823
20
-0.919263
30
0.0
11
0.121727
21
-0.925657
31
0.0
0
LINE
8
2
62
3
10
0.121727
20
-0.925657
30
0.0
11
0.156911
21
-0.918691
31
0.0
0
LINE
8
2
62
3
10
0.156911
20
-0.918691
30
0.0
11
0.195274
21
-0.898316
31
0.0
0
LINE
8
2
62
3
10
0.216077
20
-0.802192
30
0.0
11
0.226054
21
-0.791912
31
0.0
0
LINE
8
2
62
3
10
0.226054
20
-0.791912
30
0.0
11
0.214963
21
-0.781372
31
0.0
0
LINE
8
2
62
3
10
0.214963
20
-0.781372
30
0.0
11
0.19812
21
-0.760136
31
0.0
0
LINE
8
2
62
3
10
0.19812
20
-0.760136
30
0.0
11
0.176641
21
-0.721836
31
0.0
0
LINE
8
2
62
3
10
0.176641
20
-0.721836
30
0.0
11
0.156084
21
-0.677409
31
0.0
0
LINE
8
2
62
3
10
0.156084
20
-0.677409
30
0.0
11
0.142005
21
-0.637794
31
0.0
0
LINE
8
2
62
3
10
0.142005
20
-0.637794
30
0.0
11
0.128956
21
-0.561469
31
0.0
0
LINE
8
2
62
3
10
0.128956
20
-0.561469
30
0.0
11
0.125346
21
-0.472106
31
0.0
0
LINE
8
2
62
3
10
0.125346
20
-0.472106
30
0.0
11
0.13106
21
-0.379599
31
0.0
0
LINE
8
2
62
3
10
0.13106
20
-0.379599
30
0.0
11
0.145984
21
-0.293843
31
0.0
0
LINE
8
2
62
3
10
0.145984
20
-0.293843
30
0.0
11
0.169932
21
-0.214318
31
0.0
0
LINE
8
2
62
3
10
0.169932
20
-0.214318
30
0.0
11
0.198367
21
-0.152681
31
0.0
0
LINE
8
2
62
3
10
0.198367
20
-0.152681
30
0.0
11
0.231816
21
-0.108032
31
0.0
0
LINE
8
2
62
3
10
0.231816
20
-0.108032
30
0.0
11
0.250584
21
-0.091795
31
0.0
0
LINE
8
2
62
3
10
0.250584
20
-0.091795
30
0.0
11
0.270803
21
-0.079467
31
0.0
0
LINE
8
2
62
3
10
0.270803
20
-0.079467
30
0.0
11
0.301803
21
-0.067226
31
0.0
0
LINE
8
2
62
3
10
0.301803
20
-0.067226
30
0.0
11
0.312243
21
-0.067294
31
0.0
0
LINE
8
2
62
3
10
0.312243
20
-0.067294
30
0.0
11
0.322816
21
-0.070911
31
0.0
0
LINE
8
2
62
3
10
0.322816
20
-0.070911
30
0.0
11
0.34375
21
-0.076384
31
0.0
0
LINE
8
2
62
3
10
0.34375
20
-0.076384
30
0.0
11
0.341914
21
-0.06195
31
0.0
0
LINE
8
2
62
3
10
0.341914
20
-0.06195
30
0.0
11
0.329164
21
-0.034826
31
0.0
0
LINE
8
2
62
3
10
0.329164
20
-0.034826
30
0.0
11
0.310221
21
-0.003692
31
0.0
0
LINE
8
2
62
3
10
0.310221
20
-0.003692
30
0.0
11
0.289807
21
0.022772
31
0.0
0
LINE
8
2
62
3
10
0.289807
20
0.022772
30
0.0
11
0.252532
21
0.056294
31
0.0
0
LINE
8
2
62
3
10
0.252532
20
0.056294
30
0.0
11
0.234537
21
0.06674
31
0.0
0
LINE
8
2
62
3
10
0.234537
20
0.06674
30
0.0
11
0.216517
21
0.073083
31
0.0
0
LINE
8
2
62
3
10
0.216517
20
0.073083
30
0.0
11
0.198133
21
0.075405
31
0.0
0
LINE
8
2
62
3
10
0.198133
20
0.075405
30
0.0
11
0.179045
21
0.073786
31
0.0
0
LINE
8
2
62
3
10
0.179045
20
0.073786
30
0.0
11
0.137402
21
0.059048
31
0.0
0
LINE
8
2
62
3
10
0.137402
20
0.059048
30
0.0
11
0.107649
21
0.041333
31
0.0
0
LINE
8
2
62
3
10
0.107649
20
0.041333
30
0.0
11
0.08144
21
0.019033
31
0.0
0
LINE
8
2
62
3
10
0.08144
20
0.019033
30
0.0
11
0.057082
21
-0.009555
31
0.0
0
LINE
8
2
62
3
10
0.057082
20
-0.009555
30
0.0
11
0.032883
21
-0.046135
31
0.0
0
LINE
8
2
62
3
10
0.032883
20
-0.046135
30
0.0
11
0.013322
21
-0.083149
31
0.0
0
LINE
8
2
62
3
10
0.013322
20
-0.083149
30
0.0
11
-0.001687
21
-0.123055
31
0.0
0
LINE
8
2
62
3
10
-0.001687
20
-0.123055
30
0.0
11
-0.013715
21
-0.170949
31
0.0
0
LINE
8
2
62
3
10
-0.013715
20
-0.170949
30
0.0
11
-0.024332
21
-0.231932
31
0.0
0
LINE
8
2
62
3
10
-0.024332
20
-0.231932
30
0.0
11
-0.033582
21
-0.325173
31
0.0
0
LINE
8
2
62
3
10
-0.033582
20
-0.325173
30
0.0
11
-0.033657
21
-0.416984
31
0.0
0
LINE
8
2
62
3
10
-0.033657
20
-0.416984
30
0.0
11
-0.025177
21
-0.504978
31
0.0
0
LINE
8
2
62
3
10
-0.025177
20
-0.504978
30
0.0
11
-0.008758
21
-0.586772
31
0.0
0
LINE
8
2
62
3
10
-0.008758
20
-0.586772
30
0.0
11
0.014981
21
-0.659981
31
0.0
0
LINE
8
2
62
3
10
0.014981
20
-0.659981
30
0.0
11
0.045422
21
-0.722218
31
0.0
0
LINE
8
2
62
3
10
0.045422
20
-0.722218
30
0.0
11
0.081947
21
-0.771099
31
0.0
0
LINE
8
2
62
3
10
0.081947
20
-0.771099
30
0.0
11
0.102298
21
-0.789786
31
0.0
0
LINE
8
2
62
3
10
0.102298
20
-0.789786
30
0.0
11
0.123939
21
-0.80424
31
0.0
0
LINE
8
2
62
3
10
0.123939
20
-0.80424
30
0.0
11
0.144656
21
-0.810319
31
0.0
0
LINE
8
2
62
3
10
0.144656
20
-0.810319
30
0.0
11
0.171617
21
-0.8119
31
0.0
0
LINE
8
2
62
3
10
0.171617
20
-0.8119
30
0.0
11
0.197773
21
-0.809139
31
0.0
0
LINE
8
2
62
3
10
0.197773
20
-0.809139
30
0.0
11
0.216077
21
-0.802192
31
0.0
0
LINE
8
2
62
3
10
0.29743
20
-0.711189
30
0.0
11
0.315583
21
-0.680957
31
0.0
0
LINE
8
2
62
3
10
0.315583
20
-0.680957
30
0.0
11
0.333543
21
-0.638957
31
0.0
0
LINE
8
2
62
3
10
0.333543
20
-0.638957
30
0.0
11
0.367586
21
-0.523149
31
0.0
0
LINE
8
2
62
3
10
0.367586
20
-0.523149
30
0.0
11
0.374973
21
-0.462554
31
0.0
0
LINE
8
2
62
3
10
0.374973
20
-0.462554
30
0.0
11
0.379195
21
-0.373335
31
0.0
0
LINE
8
2
62
3
10
0.379195
20
-0.373335
30
0.0
11
0.379522
21
-0.284173
31
0.0
0
LINE
8
2
62
3
10
0.379522
20
-0.284173
30
0.0
11
0.375221
21
-0.223749
31
0.0
0
LINE
8
2
62
3
10
0.375221
20
-0.223749
30
0.0
11
0.365627
21
-0.185375
31
0.0
0
LINE
8
2
62
3
10
0.365627
20
-0.185375
30
0.0
11
0.352786
21
-0.152921
31
0.0
0
LINE
8
2
62
3
10
0.352786
20
-0.152921
30
0.0
11
0.337684
21
-0.128401
31
0.0
0
LINE
8
2
62
3
10
0.337684
20
-0.128401
30
0.0
11
0.321311
21
-0.113828
31
0.0
0
LINE
8
2
62
3
10
0.321311
20
-0.113828
30
0.0
11
0.307352
21
-0.109325
31
0.0
0
LINE
8
2
62
3
10
0.307352
20
-0.109325
30
0.0
11
0.292601
21
-0.11009
31
0.0
0
LINE
8
2
62
3
10
0.292601
20
-0.11009
30
0.0
11
0.277322
21
-0.115905
31
0.0
0
LINE
8
2
62
3
10
0.277322
20
-0.115905
30
0.0
11
0.26178
21
-0.126548
31
0.0
0
LINE
8
2
62
3
10
0.26178
20
-0.126548
30
0.0
11
0.230962
21
-0.161439
31
0.0
0
LINE
8
2
62
3
10
0.230962
20
-0.161439
30
0.0
11
0.202264
21
-0.213002
31
0.0
0
LINE
8
2
62
3
10
0.202264
20
-0.213002
30
0.0
11
0.17808
21
-0.27759
31
0.0
0
LINE
8
2
62
3
10
0.17808
20
-0.27759
30
0.0
11
0.161287
21
-0.346905
31
0.0
0
LINE
8
2
62
3
10
0.161287
20
-0.346905
30
0.0
11
0.151837
21
-0.418571
31
0.0
0
LINE
8
2
62
3
10
0.151837
20
-0.418571
30
0.0
11
0.149679
21
-0.490211
31
0.0
0
LINE
8
2
62
3
10
0.149679
20
-0.490211
30
0.0
11
0.154765
21
-0.559446
31
0.0
0
LINE
8
2
62
3
10
0.154765
20
-0.559446
30
0.0
11
0.167045
21
-0.623901
31
0.0
0
LINE
8
2
62
3
10
0.167045
20
-0.623901
30
0.0
11
0.186469
21
-0.681198
31
0.0
0
LINE
8
2
62
3
10
0.186469
20
-0.681198
30
0.0
11
0.212989
21
-0.728961
31
0.0
0
LINE
8
2
62
3
10
0.212989
20
-0.728961
30
0.0
11
0.231155
21
-0.745823
31
0.0
0
LINE
8
2
62
3
10
0.231155
20
-0.745823
30
0.0
11
0.251389
21
-0.748459
31
0.0
0
LINE
8
2
62
3
10
0.251389
20
-0.748459
30
0.0
11
0.273534
21
-0.736904
31
0.0
0
LINE
8
2
62
3
10
0.273534
20
-0.736904
30
0.0
11
0.29743
21
-0.711189
31
0.0
0
LINE
8
2
62
3
10
0.272254
20
-0.54906
30
0.0
11
0.259774
21
-0.523519
31
0.0
0
LINE
8
2
62
3
10
0.259774
20
-0.523519
30
0.0
11
0.251735
21
-0.493118
31
0.0
0
LINE
8
2
62
3
10
0.251735
20
-0.493118
30
0.0
11
0.248006
21
-0.45968
31
0.0
0
LINE
8
2
62
3
10
0.248006
20
-0.45968
30
0.0
11
0.248455
21
-0.425027
31
0.0
0
LINE
8
2
62
3
10
0.248455
20
-0.425027
30
0.0
11
0.252951
21
-0.390982
31
0.0
0
LINE
8
2
62
3
10
0.252951
20
-0.390982
30
0.0
11
0.261363
21
-0.35937
31
0.0
0
LINE
8
2
62
3
10
0.261363
20
-0.35937
30
0.0
11
0.273559
21
-0.332012
31
0.0
0
LINE
8
2
62
3
10
0.273559
20
-0.332012
30
0.0
11
0.289409
21
-0.310732
31
0.0
0
LINE
8
2
62
3
10
0.289409
20
-0.310732
30
0.0
11
0.307652
21
-0.297203
31
0.0
0
LINE
8
2
62
3
10
0.307652
20
-0.297203
30
0.0
11
0.323938
21
-0.295557
31
0.0
0
LINE
8
2
62
3
10
0.323938
20
-0.295557
30
0.0
11
0.338852
21
-0.305959
31
0.0
0
LINE
8
2
62
3
10
0.338852
20
-0.305959
30
0.0
11
0.35298
21
-0.328574
31
0.0
0
LINE
8
2
62
3
10
0.35298
20
-0.328574
30
0.0
11
0.361141
21
-0.351762
31
0.0
0
LINE
8
2
62
3
10
0.361141
20
-0.351762
30
0.0
11
0.365805
21
-0.379082
31
0.0
0
LINE
8
2
62
3
10
0.365805
20
-0.379082
30
0.0
11
0.365337
21
-0.439712
31
0.0
0
LINE
8
2
62
3
10
0.365337
20
-0.439712
30
0.0
11
0.352965
21
-0.497655
31
0.0
0
LINE
8
2
62
3
10
0.352965
20
-0.497655
30
0.0
11
0.342748
21
-0.521616
31
0.0
0
LINE
8
2
62
3
10
0.342748
20
-0.521616
30
0.0
11
0.330075
21
-0.540102
31
0.0
0
LINE
8
2
62
3
10
0.330075
20
-0.540102
30
0.0
11
0.312843
21
-0.555467
31
0.0
0
LINE
8
2
62
3
10
0.312843
20
-0.555467
30
0.0
11
0.297234
21
-0.562117
31
0.0
0
LINE
8
2
62
3
10
0.297234
20
-0.562117
30
0.0
11
0.283591
21
-0.559999
31
0.0
0
LINE
8
2
62
3
10
0.283591
20
-0.559999
30
0.0
11
0.272254
21
-0.54906
31
0.0
0
LINE
8
2
62
3
10
0.327439
20
-0.485957
30
0.0
11
0.334809
21
-0.465236
31
0.0
0
LINE
8
2
62
3
10
0.334809
20
-0.465236
30
0.0
11
0.339323
21
-0.440737
31
0.0
0
LINE
8
2
62
3
10
0.339323
20
-0.440737
30
0.0
11
0.34045
21
-0.388973
31
0.0
0
LINE
8
2
62
3
10
0.34045
20
-0.388973
30
0.0
11
0.332143
21
-0.347795
31
0.0
0
LINE
8
2
62
3
10
0.332143
20
-0.347795
30
0.0
11
0.324865
21
-0.33653
31
0.0
0
LINE
8
2
62
3
10
0.324865
20
-0.33653
30
0.0
11
0.315725
21
-0.334336
31
0.0
0
LINE
8
2
62
3
10
0.315725
20
-0.334336
30
0.0
11
0.30426
21
-0.345805
31
0.0
0
LINE
8
2
62
3
10
0.30426
20
-0.345805
30
0.0
11
0.290926
21
-0.369805
31
0.0
0
LINE
8
2
62
3
10
0.290926
20
-0.369805
30
0.0
11
0.279008
21
-0.399368
31
0.0
0
LINE
8
2
62
3
10
0.279008
20
-0.399368
30
0.0
11
0.271793
21
-0.427524
31
0.0
0
LINE
8
2
62
3
10
0.271793
20
-0.427524
30
0.0
11
0.271025
21
-0.457219
31
0.0
0
LINE
8
2
62
3
10
0.271025
20
-0.457219
30
0.0
11
0.275412
21
-0.487048
31
0.0
0
LINE
8
2
62
3
10
0.275412
20
-0.487048
30
0.0
11
0.284866
21
-0.510934
31
0.0
0
LINE
8
2
62
3
10
0.284866
20
-0.510934
30
0.0
11
0.290783
21
-0.514713
31
0.0
0
LINE
8
2
62
3
10
0.290783
20
-0.514713
30
0.0
11
0.298954
21
-0.514769
31
0.0
0
LINE
8
2
62
3
10
0.298954
20
-0.514769
30
0.0
11
0.313784
21
-0.506132
31
0.0
0
LINE
8
2
62
3
10
0.313784
20
-0.506132
30
0.0
11
0.327439
21
-0.485957
31
0.0
0
LINE
8
2
62
3
10
-0.65534
20
-1.464257
30
0.0
11
-0.58009
21
-1.447658
31
0.0
0
LINE
8
2
62
3
10
-0.58009
20
-1.447658
30
0.0
11
-0.56123
21
-1.441006
31
0.0
0
LINE
8
2
62
3
10
-0.56123
20
-1.441006
30
0.0
11
-0.553707
21
-1.435115
31
0.0
0
LINE
8
2
62
3
10
-0.553707
20
-1.435115
30
0.0
11
-0.555095
21
-1.420318
31
0.0
0
LINE
8
2
62
3
10
-0.555095
20
-1.420318
30
0.0
11
-0.567547
21
-1.394655
31
0.0
0
LINE
8
2
62
3
10
-0.567547
20
-1.394655
30
0.0
11
-0.629638
21
-1.303839
31
0.0
0
LINE
8
2
62
3
10
-0.629638
20
-1.303839
30
0.0
11
-0.67538
21
-1.241772
31
0.0
0
LINE
8
2
62
3
10
-0.67538
20
-1.241772
30
0.0
11
-0.712355
21
-1.307558
31
0.0
0
LINE
8
2
62
3
10
-0.712355
20
-1.307558
30
0.0
11
-0.747148
21
-1.367033
31
0.0
0
LINE
8
2
62
3
10
-0.747148
20
-1.367033
30
0.0
11
-0.775228
21
-1.408349
31
0.0
0
LINE
8
2
62
3
10
-0.775228
20
-1.408349
30
0.0
11
-0.8009
21
-1.437114
31
0.0
0
LINE
8
2
62
3
10
-0.8009
20
-1.437114
30
0.0
11
-0.828467
21
-1.458941
31
0.0
0
LINE
8
2
62
3
10
-0.828467
20
-1.458941
30
0.0
11
-0.86365
21
-1.482704
31
0.0
0
LINE
8
2
62
3
10
-0.86365
20
-1.482704
30
0.0
11
-0.808259
21
-1.482704
31
0.0
0
LINE
8
2
62
3
10
-0.808259
20
-1.482704
30
0.0
11
-0.74049
21
-1.477285
31
0.0
0
LINE
8
2
62
3
10
-0.74049
20
-1.477285
30
0.0
11
-0.65534
21
-1.464257
31
0.0
0
LINE
8
2
62
3
10
-1.067779
20
-1.442135
30
0.0
11
-1.056914
21
-1.413957
31
0.0
0
LINE
8
2
62
3
10
-1.056914
20
-1.413957
30
0.0
11
-1.04397
21
-1.392764
31
0.0
0
LINE
8
2
62
3
10
-1.04397
20
-1.392764
30
0.0
11
-1.029561
21
-1.378683
31
0.0
0
LINE
8
2
62
3
10
-1.029561
20
-1.378683
30
0.0
11
-1.014301
21
-1.371839
31
0.0
0
LINE
8
2
62
3
10
-1.014301
20
-1.371839
30
0.0
11
-0.998803
21
-1.372358
31
0.0
0
LINE
8
2
62
3
10
-0.998803
20
-1.372358
30
0.0
11
-0.983681
21
-1.380367
31
0.0
0
LINE
8
2
62
3
10
-0.983681
20
-1.380367
30
0.0
11
-0.969547
21
-1.395992
31
0.0
0
LINE
8
2
62
3
10
-0.969547
20
-1.395992
30
0.0
11
-0.957016
21
-1.419359
31
0.0
0
LINE
8
2
62
3
10
-0.957016
20
-1.419359
30
0.0
11
-0.94395
21
-1.443419
31
0.0
0
LINE
8
2
62
3
10
-0.94395
20
-1.443419
30
0.0
11
-0.928161
21
-1.453901
31
0.0
0
LINE
8
2
62
3
10
-0.928161
20
-1.453901
30
0.0
11
-0.905264
21
-1.451748
31
0.0
0
LINE
8
2
62
3
10
-0.905264
20
-1.451748
30
0.0
11
-0.870873
21
-1.437906
31
0.0
0
LINE
8
2
62
3
10
-0.870873
20
-1.437906
30
0.0
11
-0.834564
21
-1.414577
31
0.0
0
LINE
8
2
62
3
10
-0.834564
20
-1.414577
30
0.0
11
-0.79797
21
-1.379503
31
0.0
0
LINE
8
2
62
3
10
-0.79797
20
-1.379503
30
0.0
11
-0.763935
21
-1.335855
31
0.0
0
LINE
8
2
62
3
10
-0.763935
20
-1.335855
30
0.0
11
-0.735302
21
-1.2868
31
0.0
0
LINE
8
2
62
3
10
-0.735302
20
-1.2868
30
0.0
11
-0.720254
21
-1.25486
31
0.0
0
LINE
8
2
62
3
10
-0.720254
20
-1.25486
30
0.0
11
-0.71252
21
-1.230951
31
0.0
0
LINE
8
2
62
3
10
-0.71252
20
-1.230951
30
0.0
11
-0.709991
21
-1.204782
31
0.0
0
LINE
8
2
62
3
10
-0.709991
20
-1.204782
30
0.0
11
-0.710559
21
-1.16606
31
0.0
0
LINE
8
2
62
3
10
-0.710559
20
-1.16606
30
0.0
11
-0.709181
21
-1.102913
31
0.0
0
LINE
8
2
62
3
10
-0.709181
20
-1.102913
30
0.0
11
-0.699555
21
-1.062622
31
0.0
0
LINE
8
2
62
3
10
-0.699555
20
-1.062622
30
0.0
11
-0.691145
21
-1.049991
31
0.0
0
LINE
8
2
62
3
10
-0.691145
20
-1.049991
30
0.0
11
-0.680069
21
-1.041806
31
0.0
0
LINE
8
2
62
3
10
-0.680069
20
-1.041806
30
0.0
11
-0.666126
21
-1.037644
31
0.0
0
LINE
8
2
62
3
10
-0.666126
20
-1.037644
30
0.0
11
-0.649114
21
-1.037083
31
0.0
0
LINE
8
2
62
3
10
-0.649114
20
-1.037083
30
0.0
11
-0.627999
21
-1.035557
31
0.0
0
LINE
8
2
62
3
10
-0.627999
20
-1.035557
30
0.0
11
-0.614919
21
-1.029492
31
0.0
0
LINE
8
2
62
3
10
-0.614919
20
-1.029492
30
0.0
11
-0.588206
21
-0.964004
31
0.0
0
LINE
8
2
62
3
10
-0.588206
20
-0.964004
30
0.0
11
-0.572245
21
-0.901772
31
0.0
0
LINE
8
2
62
3
10
-0.572245
20
-0.901772
30
0.0
11
-0.565615
21
-0.822049
31
0.0
0
LINE
8
2
62
3
10
-0.565615
20
-0.822049
30
0.0
11
-0.567026
21
-0.703803
31
0.0
0
LINE
8
2
62
3
10
-0.567026
20
-0.703803
30
0.0
11
-0.570729
21
-0.68545
31
0.0
0
LINE
8
2
62
3
10
-0.570729
20
-0.68545
30
0.0
11
-0.57712
21
-0.672488
31
0.0
0
LINE
8
2
62
3
10
-0.57712
20
-0.672488
30
0.0
11
-0.589189
21
-0.660951
31
0.0
0
LINE
8
2
62
3
10
-0.589189
20
-0.660951
30
0.0
11
-0.609924
21
-0.646871
31
0.0
0
LINE
8
2
62
3
10
-0.609924
20
-0.646871
30
0.0
11
-0.641969
21
-0.621827
31
0.0
0
LINE
8
2
62
3
10
-0.641969
20
-0.621827
30
0.0
11
-0.650115
21
-0.609519
31
0.0
0
LINE
8
2
62
3
10
-0.650115
20
-0.609519
30
0.0
11
-0.655483
21
-0.594511
31
0.0
0
LINE
8
2
62
3
10
-0.655483
20
-0.594511
30
0.0
11
-0.65905
21
-0.565391
31
0.0
0
LINE
8
2
62
3
10
-0.65905
20
-0.565391
30
0.0
11
-0.655605
21
-0.533434
31
0.0
0
LINE
8
2
62
3
10
-0.655605
20
-0.533434
30
0.0
11
-0.645649
21
-0.501056
31
0.0
0
LINE
8
2
62
3
10
-0.645649
20
-0.501056
30
0.0
11
-0.629686
21
-0.470671
31
0.0
0
LINE
8
2
62
3
10
-0.629686
20
-0.470671
30
0.0
11
-0.619614
21
-0.453748
31
0.0
0
LINE
8
2
62
3
10
-0.619614
20
-0.453748
30
0.0
11
-0.614687
21
-0.437681
31
0.0
0
LINE
8
2
62
3
10
-0.614687
20
-0.437681
30
0.0
11
-0.615881
21
-0.378948
31
0.0
0
LINE
8
2
62
3
10
-0.615881
20
-0.378948
30
0.0
11
-0.623014
21
-0.318658
31
0.0
0
LINE
8
2
62
3
10
-0.623014
20
-0.318658
30
0.0
11
-0.633888
21
-0.26349
31
0.0
0
LINE
8
2
62
3
10
-0.633888
20
-0.26349
30
0.0
11
-0.649029
21
-0.216526
31
0.0
0
LINE
8
2
62
3
10
-0.649029
20
-0.216526
30
0.0
11
-0.669297
21
-0.166764
31
0.0
0
LINE
8
2
62
3
10
-0.669297
20
-0.166764
30
0.0
11
-0.690291
21
-0.124069
31
0.0
0
LINE
8
2
62
3
10
-0.690291
20
-0.124069
30
0.0
11
-0.707608
21
-0.098304
31
0.0
0
LINE
8
2
62
3
10
-0.707608
20
-0.098304
30
0.0
11
-0.714843
21
-0.092125
31
0.0
0
LINE
8
2
62
3
10
-0.714843
20
-0.092125
30
0.0
11
-0.722057
21
-0.090227
31
0.0
0
LINE
8
2
62
3
10
-0.722057
20
-0.090227
30
0.0
11
-0.748892
21
-0.099688
31
0.0
0
LINE
8
2
62
3
10
-0.748892
20
-0.099688
30
0.0
11
-0.776602
21
-0.10899
31
0.0
0
LINE
8
2
62
3
10
-0.776602
20
-0.10899
30
0.0
11
-0.797406
21
-0.103036
31
0.0
0
LINE
8
2
62
3
10
-0.797406
20
-0.103036
30
0.0
11
-0.812292
21
-0.090847
31
0.0
0
LINE
8
2
62
3
10
-0.812292
20
-0.090847
30
0.0
11
-0.823164
21
-0.071976
31
0.0
0
LINE
8
2
62
3
10
-0.823164
20
-0.071976
30
0.0
11
-0.829854
21
-0.046841
31
0.0
0
LINE
8
2
62
3
10
-0.829854
20
-0.046841
30
0.0
11
-0.832197
21
-0.01586
31
0.0
0
LINE
8
2
62
3
10
-0.832197
20
-0.01586
30
0.0
11
-0.837736
21
0.025147
31
0.0
0
LINE
8
2
62
3
10
-0.837736
20
0.025147
30
0.0
11
-0.851214
21
0.036222
31
0.0
0
LINE
8
2
62
3
10
-0.851214
20
0.036222
30
0.0
11
-0.875412
21
0.04633
31
0.0
0
LINE
8
2
62
3
10
-0.875412
20
0.04633
30
0.0
11
-0.907403
21
0.054517
31
0.0
0
LINE
8
2
62
3
10
-0.907403
20
0.054517
30
0.0
11
-0.944265
21
0.059832
31
0.0
0
LINE
8
2
62
3
10
-0.944265
20
0.059832
30
0.0
11
-0.985042
21
0.061045
31
0.0
0
LINE
8
2
62
3
10
-0.985042
20
0.061045
30
0.0
11
-1.011121
21
0.053545
31
0.0
0
LINE
8
2
62
3
10
-1.011121
20
0.053545
30
0.0
11
-1.027033
21
0.034461
31
0.0
0
LINE
8
2
62
3
10
-1.027033
20
0.034461
30
0.0
11
-1.037311
21
0.000924
31
0.0
0
LINE
8
2
62
3
10
-1.037311
20
0.000924
30
0.0
11
-1.046462
21
-0.034582
31
0.0
0
LINE
8
2
62
3
10
-1.046462
20
-0.034582
30
0.0
11
-1.056774
21
-0.060014
31
0.0
0
LINE
8
2
62
3
10
-1.056774
20
-0.060014
30
0.0
11
-1.068983
21
-0.076754
31
0.0
0
LINE
8
2
62
3
10
-1.068983
20
-0.076754
30
0.0
11
-1.083831
21
-0.086187
31
0.0
0
LINE
8
2
62
3
10
-1.083831
20
-0.086187
30
0.0
11
-1.101878
21
-0.090196
31
0.0
0
LINE
8
2
62
3
10
-1.101878
20
-0.090196
30
0.0
11
-1.118728
21
-0.087491
31
0.0
0
LINE
8
2
62
3
10
-1.118728
20
-0.087491
30
0.0
11
-1.135487
21
-0.077659
31
0.0
0
LINE
8
2
62
3
10
-1.135487
20
-0.077659
30
0.0
11
-1.153259
21
-0.060289
31
0.0
0
LINE
8
2
62
3
10
-1.153259
20
-0.060289
30
0.0
11
-1.174567
21
-0.035975
31
0.0
0
LINE
8
2
62
3
10
-1.174567
20
-0.035975
30
0.0
11
-1.204578
21
-0.058044
31
0.0
0
LINE
8
2
62
3
10
-1.204578
20
-0.058044
30
0.0
11
-1.235568
21
-0.087362
31
0.0
0
LINE
8
2
62
3
10
-1.235568
20
-0.087362
30
0.0
11
-1.267936
21
-0.126858
31
0.0
0
LINE
8
2
62
3
10
-1.267936
20
-0.126858
30
0.0
11
-1.286981
21
-0.154526
31
0.0
0
LINE
8
2
62
3
10
-1.286981
20
-0.154526
30
0.0
11
-1.296907
21
-0.174565
31
0.0
0
LINE
8
2
62
3
10
-1.296907
20
-0.174565
30
0.0
11
-1.300684
21
-0.195956
31
0.0
0
LINE
8
2
62
3
10
-1.300684
20
-0.195956
30
0.0
11
-1.301283
21
-0.227681
31
0.0
0
LINE
8
2
62
3
10
-1.301283
20
-0.227681
30
0.0
11
-1.303696
21
-0.266034
31
0.0
0
LINE
8
2
62
3
10
-1.303696
20
-0.266034
30
0.0
11
-1.311324
21
-0.292034
31
0.0
0
LINE
8
2
62
3
10
-1.311324
20
-0.292034
30
0.0
11
-1.324747
21
-0.306808
31
0.0
0
LINE
8
2
62
3
10
-1.324747
20
-0.306808
30
0.0
11
-1.344547
21
-0.311482
31
0.0
0
LINE
8
2
62
3
10
-1.344547
20
-0.311482
30
0.0
11
-1.357913
21
-0.314982
31
0.0
0
LINE
8
2
62
3
10
-1.357913
20
-0.314982
30
0.0
11
-1.370001
21
-0.326695
31
0.0
0
LINE
8
2
62
3
10
-1.370001
20
-0.326695
30
0.0
11
-1.382127
21
-0.34844
31
0.0
0
LINE
8
2
62
3
10
-1.382127
20
-0.34844
30
0.0
11
-1.395609
21
-0.382038
31
0.0
0
LINE
8
2
62
3
10
-1.395609
20
-0.382038
30
0.0
11
-1.415985
21
-0.446188
31
0.0
0
LINE
8
2
62
3
10
-1.415985
20
-0.446188
30
0.0
11
-1.425013
21
-0.497858
31
0.0
0
LINE
8
2
62
3
10
-1.425013
20
-0.497858
30
0.0
11
-1.423031
21
-0.541639
31
0.0
0
LINE
8
2
62
3
10
-1.423031
20
-0.541639
30
0.0
11
-1.410379
21
-0.582119
31
0.0
0
LINE
8
2
62
3
10
-1.410379
20
-0.582119
30
0.0
11
-1.39893
21
-0.615943
31
0.0
0
LINE
8
2
62
3
10
-1.39893
20
-0.615943
30
0.0
11
-1.400679
21
-0.629227
31
0.0
0
LINE
8
2
62
3
10
-1.400679
20
-0.629227
30
0.0
11
-1.407037
21
-0.647395
31
0.0
0
LINE
8
2
62
3
10
-1.407037
20
-0.647395
30
0.0
11
-1.419322
21
-0.672037
31
0.0
0
LINE
8
2
62
3
10
-1.419322
20
-0.672037
30
0.0
11
-1.432234
21
-0.687751
31
0.0
0
LINE
8
2
62
3
10
-1.432234
20
-0.687751
30
0.0
11
-1.43949
21
-0.695977
31
0.0
0
LINE
8
2
62
3
10
-1.43949
20
-0.695977
30
0.0
11
-1.443159
21
-0.714039
31
0.0
0
LINE
8
2
62
3
10
-1.443159
20
-0.714039
30
0.0
11
-1.442884
21
-0.818235
31
0.0
0
LINE
8
2
62
3
10
-1.442884
20
-0.818235
30
0.0
11
-1.438129
21
-0.92539
31
0.0
0
LINE
8
2
62
3
10
-1.438129
20
-0.92539
30
0.0
11
-1.432608
21
-0.945888
31
0.0
0
LINE
8
2
62
3
10
-1.432608
20
-0.945888
30
0.0
11
-1.422761
21
-0.960057
31
0.0
0
LINE
8
2
62
3
10
-1.422761
20
-0.960057
30
0.0
11
-1.408327
21
-0.982427
31
0.0
0
LINE
8
2
62
3
10
-1.408327
20
-0.982427
30
0.0
11
-1.400892
21
-1.006592
31
0.0
0
LINE
8
2
62
3
10
-1.400892
20
-1.006592
30
0.0
11
-1.400549
21
-1.031973
31
0.0
0
LINE
8
2
62
3
10
-1.400549
20
-1.031973
30
0.0
11
-1.407388
21
-1.057992
31
0.0
0
LINE
8
2
62
3
10
-1.407388
20
-1.057992
30
0.0
11
-1.413541
21
-1.082782
31
0.0
0
LINE
8
2
62
3
10
-1.413541
20
-1.082782
30
0.0
11
-1.412096
21
-1.110037
31
0.0
0
LINE
8
2
62
3
10
-1.412096
20
-1.110037
30
0.0
11
-1.402558
21
-1.142453
31
0.0
0
LINE
8
2
62
3
10
-1.402558
20
-1.142453
30
0.0
11
-1.38443
21
-1.182725
31
0.0
0
LINE
8
2
62
3
10
-1.38443
20
-1.182725
30
0.0
11
-1.367086
21
-1.214896
31
0.0
0
LINE
8
2
62
3
10
-1.367086
20
-1.214896
30
0.0
11
-1.352969
21
-1.232668
31
0.0
0
LINE
8
2
62
3
10
-1.352969
20
-1.232668
30
0.0
11
-1.338118
21
-1.239391
31
0.0
0
LINE
8
2
62
3
10
-1.338118
20
-1.239391
30
0.0
11
-1.318574
21
-1.238414
31
0.0
0
LINE
8
2
62
3
10
-1.318574
20
-1.238414
30
0.0
11
-1.297572
21
-1.238325
31
0.0
0
LINE
8
2
62
3
10
-1.297572
20
-1.238325
30
0.0
11
-1.284744
21
-1.248273
31
0.0
0
LINE
8
2
62
3
10
-1.284744
20
-1.248273
30
0.0
11
-1.278335
21
-1.271266
31
0.0
0
LINE
8
2
62
3
10
-1.278335
20
-1.271266
30
0.0
11
-1.276589
21
-1.31031
31
0.0
0
LINE
8
2
62
3
10
-1.276589
20
-1.31031
30
0.0
11
-1.276034
21
-1.337378
31
0.0
0
LINE
8
2
62
3
10
-1.276034
20
-1.337378
30
0.0
11
-1.272917
21
-1.354433
31
0.0
0
LINE
8
2
62
3
10
-1.272917
20
-1.354433
30
0.0
11
-1.265058
21
-1.367444
31
0.0
0
LINE
8
2
62
3
10
-1.265058
20
-1.367444
30
0.0
11
-1.250279
21
-1.382379
31
0.0
0
LINE
8
2
62
3
10
-1.250279
20
-1.382379
30
0.0
11
-1.226546
21
-1.401611
31
0.0
0
LINE
8
2
62
3
10
-1.226546
20
-1.401611
30
0.0
11
-1.19919
21
-1.418754
31
0.0
0
LINE
8
2
62
3
10
-1.19919
20
-1.418754
30
0.0
11
-1.141379
21
-1.444232
31
0.0
0
LINE
8
2
62
3
10
-1.141379
20
-1.444232
30
0.0
11
-1.114811
21
-1.451293
31
0.0
0
LINE
8
2
62
3
10
-1.114811
20
-1.451293
30
0.0
11
-1.092393
21
-1.453722
31
0.0
0
LINE
8
2
62
3
10
-1.092393
20
-1.453722
30
0.0
11
-1.076068
21
-1.450881
31
0.0
0
LINE
8
2
62
3
10
-1.076068
20
-1.450881
30
0.0
11
-1.067779
21
-1.442135
31
0.0
0
LINE
8
2
62
3
10
-1.105664
20
-1.09382
30
0.0
11
-1.141226
21
-1.070194
31
0.0
0
LINE
8
2
62
3
10
-1.141226
20
-1.070194
30
0.0
11
-1.172318
21
-1.036726
31
0.0
0
LINE
8
2
62
3
10
-1.172318
20
-1.036726
30
0.0
11
-1.198954
21
-0.993396
31
0.0
0
LINE
8
2
62
3
10
-1.198954
20
-0.993396
30
0.0
11
-1.22115
21
-0.940185
31
0.0
0
LINE
8
2
62
3
10
-1.22115
20
-0.940185
30
0.0
11
-1.234487
21
-0.899147
31
0.0
0
LINE
8
2
62
3
10
-1.234487
20
-0.899147
30
0.0
11
-1.241404
21
-0.864716
31
0.0
0
LINE
8
2
62
3
10
-1.241404
20
-0.864716
30
0.0
11
-1.244348
21
-0.745399
31
0.0
0
LINE
8
2
62
3
10
-1.244348
20
-0.745399
30
0.0
11
-1.241444
21
-0.630157
31
0.0
0
LINE
8
2
62
3
10
-1.241444
20
-0.630157
30
0.0
11
-1.236541
21
-0.594082
31
0.0
0
LINE
8
2
62
3
10
-1.236541
20
-0.594082
30
0.0
11
-1.228128
21
-0.558426
31
0.0
0
LINE
8
2
62
3
10
-1.228128
20
-0.558426
30
0.0
11
-1.200986
21
-0.478643
31
0.0
0
LINE
8
2
62
3
10
-1.200986
20
-0.478643
30
0.0
11
-1.166534
21
-0.410482
31
0.0
0
LINE
8
2
62
3
10
-1.166534
20
-0.410482
30
0.0
11
-1.127275
21
-0.358037
31
0.0
0
LINE
8
2
62
3
10
-1.127275
20
-0.358037
30
0.0
11
-1.106625
21
-0.338987
31
0.0
0
LINE
8
2
62
3
10
-1.106625
20
-0.338987
30
0.0
11
-1.085711
21
-0.3254
31
0.0
0
LINE
8
2
62
3
10
-1.085711
20
-0.3254
30
0.0
11
-1.051379
21
-0.313051
31
0.0
0
LINE
8
2
62
3
10
-1.051379
20
-0.313051
30
0.0
11
-1.012239
21
-0.306604
31
0.0
0
LINE
8
2
62
3
10
-1.012239
20
-0.306604
30
0.0
11
-0.975257
21
-0.306644
31
0.0
0
LINE
8
2
62
3
10
-0.975257
20
-0.306644
30
0.0
11
-0.947399
21
-0.313757
31
0.0
0
LINE
8
2
62
3
10
-0.947399
20
-0.313757
30
0.0
11
-0.921852
21
-0.331045
31
0.0
0
LINE
8
2
62
3
10
-0.921852
20
-0.331045
30
0.0
11
-0.89881
21
-0.355029
31
0.0
0
LINE
8
2
62
3
10
-0.89881
20
-0.355029
30
0.0
11
-0.878399
21
-0.385409
31
0.0
0
LINE
8
2
62
3
10
-0.878399
20
-0.385409
30
0.0
11
-0.860743
21
-0.421881
31
0.0
0
LINE
8
2
62
3
10
-0.860743
20
-0.421881
30
0.0
11
-0.845967
21
-0.464144
31
0.0
0
LINE
8
2
62
3
10
-0.845967
20
-0.464144
30
0.0
11
-0.834196
21
-0.511894
31
0.0
0
LINE
8
2
62
3
10
-0.834196
20
-0.511894
30
0.0
11
-0.825553
21
-0.56483
31
0.0
0
LINE
8
2
62
3
10
-0.825553
20
-0.56483
30
0.0
11
-0.820163
21
-0.622648
31
0.0
0
LINE
8
2
62
3
10
-0.820163
20
-0.622648
30
0.0
11
-0.819207
21
-0.68329
31
0.0
0
LINE
8
2
62
3
10
-0.819207
20
-0.68329
30
0.0
11
-0.823374
21
-0.745508
31
0.0
0
LINE
8
2
62
3
10
-0.823374
20
-0.745508
30
0.0
11
-0.832221
21
-0.807571
31
0.0
0
LINE
8
2
62
3
10
-0.832221
20
-0.807571
30
0.0
11
-0.845304
21
-0.867752
31
0.0
0
LINE
8
2
62
3
10
-0.845304
20
-0.867752
30
0.0
11
-0.862179
21
-0.92432
31
0.0
0
LINE
8
2
62
3
10
-0.862179
20
-0.92432
30
0.0
11
-0.882404
21
-0.975547
31
0.0
0
LINE
8
2
62
3
10
-0.882404
20
-0.975547
30
0.0
11
-0.905533
21
-1.019703
31
0.0
0
LINE
8
2
62
3
10
-0.905533
20
-1.019703
30
0.0
11
-0.931124
21
-1.055058
31
0.0
0
LINE
8
2
62
3
10
-0.931124
20
-1.055058
30
0.0
11
-0.94925
21
-1.072706
31
0.0
0
LINE
8
2
62
3
10
-0.94925
20
-1.072706
30
0.0
11
-0.969357
21
-1.086902
31
0.0
0
LINE
8
2
62
3
10
-0.969357
20
-1.086902
30
0.0
11
-0.990983
21
-1.097543
31
0.0
0
LINE
8
2
62
3
10
-0.990983
20
-1.097543
30
0.0
11
-1.013663
21
-1.104526
31
0.0
0
LINE
8
2
62
3
10
-1.013663
20
-1.104526
30
0.0
11
-1.036935
21
-1.107748
31
0.0
0
LINE
8
2
62
3
10
-1.036935
20
-1.107748
30
0.0
11
-1.060334
21
-1.107107
31
0.0
0
LINE
8
2
62
3
10
-1.060334
20
-1.107107
30
0.0
11
-1.083399
21
-1.102498
31
0.0
0
LINE
8
2
62
3
10
-1.083399
20
-1.102498
30
0.0
11
-1.105664
21
-1.09382
31
0.0
0
LINE
8
2
62
3
10
-0.979316
20
-1.051375
30
0.0
11
-0.939292
21
-1.01374
31
0.0
0
LINE
8
2
62
3
10
-0.939292
20
-1.01374
30
0.0
11
-0.923251
21
-0.993749
31
0.0
0
LINE
8
2
62
3
10
-0.923251
20
-0.993749
30
0.0
11
-0.916755
21
-0.980759
31
0.0
0
LINE
8
2
62
3
10
-0.916755
20
-0.980759
30
0.0
11
-0.920097
21
-0.976752
31
0.0
0
LINE
8
2
62
3
10
-0.920097
20
-0.976752
30
0.0
11
-0.929103
21
-0.978774
31
0.0
0
LINE
8
2
62
3
10
-0.929103
20
-0.978774
30
0.0
11
-0.954202
21
-0.985328
31
0.0
0
LINE
8
2
62
3
10
-0.954202
20
-0.985328
30
0.0
11
-0.986493
21
-0.987441
31
0.0
0
LINE
8
2
62
3
10
-0.986493
20
-0.987441
30
0.0
11
-1.019758
21
-0.985131
31
0.0
0
LINE
8
2
62
3
10
-1.019758
20
-0.985131
30
0.0
11
-1.047781
21
-0.978417
31
0.0
0
LINE
8
2
62
3
10
-1.047781
20
-0.978417
30
0.0
11
-1.080047
21
-0.959839
31
0.0
0
LINE
8
2
62
3
10
-1.080047
20
-0.959839
30
0.0
11
-1.110456
21
-0.931041
31
0.0
0
LINE
8
2
62
3
10
-1.110456
20
-0.931041
30
0.0
11
-1.13592
21
-0.895577
31
0.0
0
LINE
8
2
62
3
10
-1.13592
20
-0.895577
30
0.0
11
-1.153347
21
-0.857002
31
0.0
0
LINE
8
2
62
3
10
-1.153347
20
-0.857002
30
0.0
11
-1.164359
21
-0.799095
31
0.0
0
LINE
8
2
62
3
10
-1.164359
20
-0.799095
30
0.0
11
-1.167462
21
-0.727895
31
0.0
0
LINE
8
2
62
3
10
-1.167462
20
-0.727895
30
0.0
11
-1.162788
21
-0.6555
31
0.0
0
LINE
8
2
62
3
10
-1.162788
20
-0.6555
30
0.0
11
-1.150469
21
-0.594008
31
0.0
0
LINE
8
2
62
3
10
-1.150469
20
-0.594008
30
0.0
11
-1.132821
21
-0.544952
31
0.0
0
LINE
8
2
62
3
10
-1.132821
20
-0.544952
30
0.0
11
-1.111431
21
-0.49757
31
0.0
0
LINE
8
2
62
3
10
-1.111431
20
-0.49757
30
0.0
11
-1.088928
21
-0.457125
31
0.0
0
LINE
8
2
62
3
10
-1.088928
20
-0.457125
30
0.0
11
-1.067943
21
-0.42888
31
0.0
0
LINE
8
2
62
3
10
-1.067943
20
-0.42888
30
0.0
11
-1.035827
21
-0.405183
31
0.0
0
LINE
8
2
62
3
10
-1.035827
20
-0.405183
30
0.0
11
-0.997215
21
-0.391629
31
0.0
0
LINE
8
2
62
3
10
-0.997215
20
-0.391629
30
0.0
11
-0.957934
21
-0.3894
31
0.0
0
LINE
8
2
62
3
10
-0.957934
20
-0.3894
30
0.0
11
-0.939864
21
-0.392901
31
0.0
0
LINE
8
2
62
3
10
-0.939864
20
-0.392901
30
0.0
11
-0.923811
21
-0.399676
31
0.0
0
LINE
8
2
62
3
10
-0.923811
20
-0.399676
30
0.0
11
-0.906625
21
-0.408281
31
0.0
0
LINE
8
2
62
3
10
-0.906625
20
-0.408281
30
0.0
11
-0.899761
21
-0.408607
31
0.0
0
LINE
8
2
62
3
10
-0.899761
20
-0.408607
30
0.0
11
-0.917135
21
-0.384724
31
0.0
0
LINE
8
2
62
3
10
-0.917135
20
-0.384724
30
0.0
11
-0.941937
21
-0.362107
31
0.0
0
LINE
8
2
62
3
10
-0.941937
20
-0.362107
30
0.0
11
-0.965499
21
-0.349235
31
0.0
0
LINE
8
2
62
3
10
-0.965499
20
-0.349235
30
0.0
11
-0.991202
21
-0.344931
31
0.0
0
LINE
8
2
62
3
10
-0.991202
20
-0.344931
30
0.0
11
-1.022431
21
-0.348014
31
0.0
0
LINE
8
2
62
3
10
-1.022431
20
-0.348014
30
0.0
11
-1.075348
21
-0.362345
31
0.0
0
LINE
8
2
62
3
10
-1.075348
20
-0.362345
30
0.0
11
-1.098836
21
-0.378256
31
0.0
0
LINE
8
2
62
3
10
-1.098836
20
-0.378256
30
0.0
11
-1.121404
21
-0.401107
31
0.0
0
LINE
8
2
62
3
10
-1.121404
20
-0.401107
30
0.0
11
-1.142685
21
-0.430167
31
0.0
0
LINE
8
2
62
3
10
-1.142685
20
-0.430167
30
0.0
11
-1.16231
21
-0.464707
31
0.0
0
LINE
8
2
62
3
10
-1.16231
20
-0.464707
30
0.0
11
-1.195127
21
-0.547313
31
0.0
0
LINE
8
2
62
3
10
-1.195127
20
-0.547313
30
0.0
11
-1.216912
21
-0.643093
31
0.0
0
LINE
8
2
62
3
10
-1.216912
20
-0.643093
30
0.0
11
-1.225282
21
-0.724912
31
0.0
0
LINE
8
2
62
3
10
-1.225282
20
-0.724912
30
0.0
11
-1.224126
21
-0.800159
31
0.0
0
LINE
8
2
62
3
10
-1.224126
20
-0.800159
30
0.0
11
-1.213256
21
-0.871097
31
0.0
0
LINE
8
2
62
3
10
-1.213256
20
-0.871097
30
0.0
11
-1.192488
21
-0.939986
31
0.0
0
LINE
8
2
62
3
10
-1.192488
20
-0.939986
30
0.0
11
-1.17479
21
-0.977084
31
0.0
0
LINE
8
2
62
3
10
-1.17479
20
-0.977084
30
0.0
11
-1.152224
21
-1.008768
31
0.0
0
LINE
8
2
62
3
10
-1.152224
20
-1.008768
30
0.0
11
-1.125947
21
-1.034434
31
0.0
0
LINE
8
2
62
3
10
-1.125947
20
-1.034434
30
0.0
11
-1.097113
21
-1.053479
31
0.0
0
LINE
8
2
62
3
10
-1.097113
20
-1.053479
30
0.0
11
-1.066877
21
-1.0653
31
0.0
0
LINE
8
2
62
3
10
-1.066877
20
-1.0653
30
0.0
11
-1.036395
21
-1.069292
31
0.0
0
LINE
8
2
62
3
10
-1.036395
20
-1.069292
30
0.0
11
-1.006823
21
-1.064851
31
0.0
0
LINE
8
2
62
3
10
-1.006823
20
-1.064851
30
0.0
11
-0.979316
21
-1.051375
31
0.0
0
LINE
8
2
62
3
10
-0.980255
20
-0.951335
30
0.0
11
-0.994561
21
-0.919524
31
0.0
0
LINE
8
2
62
3
10
-0.994561
20
-0.919524
30
0.0
11
-1.011623
21
-0.868886
31
0.0
0
LINE
8
2
62
3
10
-1.011623
20
-0.868886
30
0.0
11
-1.020992
21
-0.806226
31
0.0
0
LINE
8
2
62
3
10
-1.020992
20
-0.806226
30
0.0
11
-1.022277
21
-0.736399
31
0.0
0
LINE
8
2
62
3
10
-1.022277
20
-0.736399
30
0.0
11
-1.015087
21
-0.66426
31
0.0
0
LINE
8
2
62
3
10
-1.015087
20
-0.66426
30
0.0
11
-1.007844
21
-0.632647
31
0.0
0
LINE
8
2
62
3
10
-1.007844
20
-0.632647
30
0.0
11
-0.996906
21
-0.602236
31
0.0
0
LINE
8
2
62
3
10
-0.996906
20
-0.602236
30
0.0
11
-0.967054
21
-0.549238
31
0.0
0
LINE
8
2
62
3
10
-0.967054
20
-0.549238
30
0.0
11
-0.949692
21
-0.528761
31
0.0
0
LINE
8
2
62
3
10
-0.949692
20
-0.528761
30
0.0
11
-0.931743
21
-0.513706
31
0.0
0
LINE
8
2
62
3
10
-0.931743
20
-0.513706
30
0.0
11
-0.913981
21
-0.505126
31
0.0
0
LINE
8
2
62
3
10
-0.913981
20
-0.505126
30
0.0
11
-0.897184
21
-0.504078
31
0.0
0
LINE
8
2
62
3
10
-0.897184
20
-0.504078
30
0.0
11
-0.881683
21
-0.504344
31
0.0
0
LINE
8
2
62
3
10
-0.881683
20
-0.504344
30
0.0
11
-0.87848
21
-0.496897
31
0.0
0
LINE
8
2
62
3
10
-0.87848
20
-0.496897
30
0.0
11
-0.887562
21
-0.481793
31
0.0
0
LINE
8
2
62
3
10
-0.887562
20
-0.481793
30
0.0
11
-0.908913
21
-0.459087
31
0.0
0
LINE
8
2
62
3
10
-0.908913
20
-0.459087
30
0.0
11
-0.935953
21
-0.436429
31
0.0
0
LINE
8
2
62
3
10
-0.935953
20
-0.436429
30
0.0
11
-0.95973
21
-0.425446
31
0.0
0
LINE
8
2
62
3
10
-0.95973
20
-0.425446
30
0.0
11
-0.983766
21
-0.425318
31
0.0
0
LINE
8
2
62
3
10
-0.983766
20
-0.425318
30
0.0
11
-1.011583
21
-0.435227
31
0.0
0
LINE
8
2
62
3
10
-1.011583
20
-0.435227
30
0.0
11
-1.031882
21
-0.447378
31
0.0
0
LINE
8
2
62
3
10
-1.031882
20
-0.447378
30
0.0
11
-1.050891
21
-0.463677
31
0.0
0
LINE
8
2
62
3
10
-1.050891
20
-0.463677
30
0.0
11
-1.084575
21
-0.506826
31
0.0
0
LINE
8
2
62
3
10
-1.084575
20
-0.506826
30
0.0
11
-1.111705
21
-0.560897
31
0.0
0
LINE
8
2
62
3
10
-1.111705
20
-0.560897
30
0.0
11
-1.131355
21
-0.622112
31
0.0
0
LINE
8
2
62
3
10
-1.131355
20
-0.622112
30
0.0
11
-1.142596
21
-0.686693
31
0.0
0
LINE
8
2
62
3
10
-1.142596
20
-0.686693
30
0.0
11
-1.144501
21
-0.750862
31
0.0
0
LINE
8
2
62
3
10
-1.144501
20
-0.750862
30
0.0
11
-1.136143
21
-0.810841
31
0.0
0
LINE
8
2
62
3
10
-1.136143
20
-0.810841
30
0.0
11
-1.116593
21
-0.862853
31
0.0
0
LINE
8
2
62
3
10
-1.116593
20
-0.862853
30
0.0
11
-1.091561
21
-0.899925
31
0.0
0
LINE
8
2
62
3
10
-1.091561
20
-0.899925
30
0.0
11
-1.062276
21
-0.928514
31
0.0
0
LINE
8
2
62
3
10
-1.062276
20
-0.928514
30
0.0
11
-1.030916
21
-0.946934
31
0.0
0
LINE
8
2
62
3
10
-1.030916
20
-0.946934
30
0.0
11
-0.999658
21
-0.953494
31
0.0
0
LINE
8
2
62
3
10
-0.999658
20
-0.953494
30
0.0
11
-0.980255
21
-0.951335
31
0.0
0
LINE
8
2
62
3
10
-0.908684
20
-0.909187
30
0.0
11
-0.877674
21
-0.872351
31
0.0
0
LINE
8
2
62
3
10
-0.877674
20
-0.872351
30
0.0
11
-0.865342
21
-0.852122
31
0.0
0
LINE
8
2
62
3
10
-0.865342
20
-0.852122
30
0.0
11
-0.860337
21
-0.838324
31
0.0
0
LINE
8
2
62
3
10
-0.860337
20
-0.838324
30
0.0
11
-0.866412
21
-0.835529
31
0.0
0
LINE
8
2
62
3
10
-0.866412
20
-0.835529
30
0.0
11
-0.881055
21
-0.837028
31
0.0
0
LINE
8
2
62
3
10
-0.881055
20
-0.837028
30
0.0
11
-0.900105
21
-0.83709
31
0.0
0
LINE
8
2
62
3
10
-0.900105
20
-0.83709
30
0.0
11
-0.912805
21
-0.8203
31
0.0
0
LINE
8
2
62
3
10
-0.912805
20
-0.8203
30
0.0
11
-0.919294
21
-0.802666
31
0.0
0
LINE
8
2
62
3
10
-0.919294
20
-0.802666
30
0.0
11
-0.922545
21
-0.78217
31
0.0
0
LINE
8
2
62
3
10
-0.922545
20
-0.78217
30
0.0
11
-0.920156
21
-0.737275
31
0.0
0
LINE
8
2
62
3
10
-0.920156
20
-0.737275
30
0.0
11
-0.907277
21
-0.694989
31
0.0
0
LINE
8
2
62
3
10
-0.907277
20
-0.694989
30
0.0
11
-0.897417
21
-0.677753
31
0.0
0
LINE
8
2
62
3
10
-0.897417
20
-0.677753
30
0.0
11
-0.885551
21
-0.664684
31
0.0
0
LINE
8
2
62
3
10
-0.885551
20
-0.664684
30
0.0
11
-0.87304
21
-0.658279
31
0.0
0
LINE
8
2
62
3
10
-0.87304
20
-0.658279
30
0.0
11
-0.859834
21
-0.66292
31
0.0
0
LINE
8
2
62
3
10
-0.859834
20
-0.66292
30
0.0
11
-0.843377
21
-0.671315
31
0.0
0
LINE
8
2
62
3
10
-0.843377
20
-0.671315
30
0.0
11
-0.841382
21
-0.658222
31
0.0
0
LINE
8
2
62
3
10
-0.841382
20
-0.658222
30
0.0
11
-0.844351
21
-0.628056
31
0.0
0
LINE
8
2
62
3
10
-0.844351
20
-0.628056
30
0.0
11
-0.850358
21
-0.594489
31
0.0
0
LINE
8
2
62
3
10
-0.850358
20
-0.594489
30
0.0
11
-0.857479
21
-0.571192
31
0.0
0
LINE
8
2
62
3
10
-0.857479
20
-0.571192
30
0.0
11
-0.868025
21
-0.557494
31
0.0
0
LINE
8
2
62
3
10
-0.868025
20
-0.557494
30
0.0
11
-0.882274
21
-0.548685
31
0.0
0
LINE
8
2
62
3
10
-0.882274
20
-0.548685
30
0.0
11
-0.898914
21
-0.545282
31
0.0
0
LINE
8
2
62
3
10
-0.898914
20
-0.545282
30
0.0
11
-0.916636
21
-0.547805
31
0.0
0
LINE
8
2
62
3
10
-0.916636
20
-0.547805
30
0.0
11
-0.934667
21
-0.560281
31
0.0
0
LINE
8
2
62
3
10
-0.934667
20
-0.560281
30
0.0
11
-0.954058
21
-0.584373
31
0.0
0
LINE
8
2
62
3
10
-0.954058
20
-0.584373
30
0.0
11
-0.971837
21
-0.615654
31
0.0
0
LINE
8
2
62
3
10
-0.971837
20
-0.615654
30
0.0
11
-0.985034
21
-0.649699
31
0.0
0
LINE
8
2
62
3
10
-0.985034
20
-0.649699
30
0.0
11
-0.993863
21
-0.701897
31
0.0
0
LINE
8
2
62
3
10
-0.993863
20
-0.701897
30
0.0
11
-0.996667
21
-0.766832
31
0.0
0
LINE
8
2
62
3
10
-0.996667
20
-0.766832
30
0.0
11
-0.993491
21
-0.828811
31
0.0
0
LINE
8
2
62
3
10
-0.993491
20
-0.828811
30
0.0
11
-0.984382
21
-0.87214
31
0.0
0
LINE
8
2
62
3
10
-0.984382
20
-0.87214
30
0.0
11
-0.967496
21
-0.904838
31
0.0
0
LINE
8
2
62
3
10
-0.967496
20
-0.904838
30
0.0
11
-0.950221
21
-0.921437
31
0.0
0
LINE
8
2
62
3
10
-0.950221
20
-0.921437
30
0.0
11
-0.940983
21
-0.923921
31
0.0
0
LINE
8
2
62
3
10
-0.940983
20
-0.923921
30
0.0
11
-0.931103
21
-0.922649
31
0.0
0
LINE
8
2
62
3
10
-0.931103
20
-0.922649
30
0.0
11
-0.908684
21
-0.909187
31
0.0
0
LINE
8
2
62
3
10
-0.87797
20
-0.785968
30
0.0
11
-0.867899
21
-0.754414
31
0.0
0
LINE
8
2
62
3
10
-0.867899
20
-0.754414
30
0.0
11
-0.863872
21
-0.726709
31
0.0
0
LINE
8
2
62
3
10
-0.863872
20
-0.726709
30
0.0
11
-0.866053
21
-0.707026
31
0.0
0
LINE
8
2
62
3
10
-0.866053
20
-0.707026
30
0.0
11
-0.869522
21
-0.701497
31
0.0
0
LINE
8
2
62
3
10
-0.869522
20
-0.701497
30
0.0
11
-0.874603
21
-0.699538
31
0.0
0
LINE
8
2
62
3
10
-0.874603
20
-0.699538
30
0.0
11
-0.883604
21
-0.709559
31
0.0
0
LINE
8
2
62
3
10
-0.883604
20
-0.709559
30
0.0
11
-0.892875
21
-0.732998
31
0.0
0
LINE
8
2
62
3
10
-0.892875
20
-0.732998
30
0.0
11
-0.899316
21
-0.759915
31
0.0
0
LINE
8
2
62
3
10
-0.899316
20
-0.759915
30
0.0
11
-0.899824
21
-0.78037
31
0.0
0
LINE
8
2
62
3
10
-0.899824
20
-0.78037
30
0.0
11
-0.895212
21
-0.79252
31
0.0
0
LINE
8
2
62
3
10
-0.895212
20
-0.79252
30
0.0
11
-0.889627
21
-0.797606
31
0.0
0
LINE
8
2
62
3
10
-0.889627
20
-0.797606
30
0.0
11
-0.883677
21
-0.795474
31
0.0
0
LINE
8
2
62
3
10
-0.883677
20
-0.795474
30
0.0
11
-0.87797
21
-0.785968
31
0.0
0
LINE
8
2
62
3
10
-0.512381
20
-1.342971
30
0.0
11
-0.493422
21
-1.317133
31
0.0
0
LINE
8
2
62
3
10
-0.493422
20
-1.317133
30
0.0
11
-0.516187
21
-1.269884
31
0.0
0
LINE
8
2
62
3
10
-0.516187
20
-1.269884
30
0.0
11
-0.567331
21
-1.187149
31
0.0
0
LINE
8
2
62
3
10
-0.567331
20
-1.187149
30
0.0
11
-0.621128
21
-1.108493
31
0.0
0
LINE
8
2
62
3
10
-0.621128
20
-1.108493
30
0.0
11
-0.640981
21
-1.083059
31
0.0
0
LINE
8
2
62
3
10
-0.640981
20
-1.083059
30
0.0
11
-0.65185
21
-1.073482
31
0.0
0
LINE
8
2
62
3
10
-0.65185
20
-1.073482
30
0.0
11
-0.662652
21
-1.07676
31
0.0
0
LINE
8
2
62
3
10
-0.662652
20
-1.07676
30
0.0
11
-0.673309
21
-1.085523
31
0.0
0
LINE
8
2
62
3
10
-0.673309
20
-1.085523
30
0.0
11
-0.682344
21
-1.098167
31
0.0
0
LINE
8
2
62
3
10
-0.682344
20
-1.098167
30
0.0
11
-0.688281
21
-1.113087
31
0.0
0
LINE
8
2
62
3
10
-0.688281
20
-1.113087
30
0.0
11
-0.689548
21
-1.126497
31
0.0
0
LINE
8
2
62
3
10
-0.689548
20
-1.126497
30
0.0
11
-0.686947
21
-1.142534
31
0.0
0
LINE
8
2
62
3
10
-0.686947
20
-1.142534
30
0.0
11
-0.668777
21
-1.185
31
0.0
0
LINE
8
2
62
3
10
-0.668777
20
-1.185
30
0.0
11
-0.631047
21
-1.245501
31
0.0
0
LINE
8
2
62
3
10
-0.631047
20
-1.245501
30
0.0
11
-0.571033
21
-1.329055
31
0.0
0
LINE
8
2
62
3
10
-0.571033
20
-1.329055
30
0.0
11
-0.55139
21
-1.352551
31
0.0
0
LINE
8
2
62
3
10
-0.55139
20
-1.352551
30
0.0
11
-0.538839
21
-1.362485
31
0.0
0
LINE
8
2
62
3
10
-0.538839
20
-1.362485
30
0.0
11
-0.527974
21
-1.356866
31
0.0
0
LINE
8
2
62
3
10
-0.527974
20
-1.356866
30
0.0
11
-0.512381
21
-1.342971
31
0.0
0
LINE
8
2
62
3
10
-0.4363
20
-1.242266
30
0.0
11
-0.416622
21
-1.100163
31
0.0
0
LINE
8
2
62
3
10
-0.416622
20
-1.100163
30
0.0
11
-0.40908
21
-1.032868
31
0.0
0
LINE
8
2
62
3
10
-0.40908
20
-1.032868
30
0.0
11
-0.409103
21
-1.008307
31
0.0
0
LINE
8
2
62
3
10
-0.409103
20
-1.008307
30
0.0
11
-0.412745
21
-0.985386
31
0.0
0
LINE
8
2
62
3
10
-0.412745
20
-0.985386
30
0.0
11
-0.434155
21
-0.931214
31
0.0
0
LINE
8
2
62
3
10
-0.434155
20
-0.931214
30
0.0
11
-0.479848
21
-0.843848
31
0.0
0
LINE
8
2
62
3
10
-0.479848
20
-0.843848
30
0.0
11
-0.524458
21
-0.76431
31
0.0
0
LINE
8
2
62
3
10
-0.524458
20
-0.76431
30
0.0
11
-0.531659
21
-0.759203
31
0.0
0
LINE
8
2
62
3
10
-0.531659
20
-0.759203
30
0.0
11
-0.534013
21
-0.770093
31
0.0
0
LINE
8
2
62
3
10
-0.534013
20
-0.770093
30
0.0
11
-0.54198
21
-0.855145
31
0.0
0
LINE
8
2
62
3
10
-0.54198
20
-0.855145
30
0.0
11
-0.552974
21
-0.92536
31
0.0
0
LINE
8
2
62
3
10
-0.552974
20
-0.92536
30
0.0
11
-0.568087
21
-0.98623
31
0.0
0
LINE
8
2
62
3
10
-0.568087
20
-0.98623
30
0.0
11
-0.588414
21
-1.043243
31
0.0
0
LINE
8
2
62
3
10
-0.588414
20
-1.043243
30
0.0
11
-0.600585
21
-1.072975
31
0.0
0
LINE
8
2
62
3
10
-0.600585
20
-1.072975
30
0.0
11
-0.573805
21
-1.117326
31
0.0
0
LINE
8
2
62
3
10
-0.573805
20
-1.117326
30
0.0
11
-0.48808
21
-1.252017
31
0.0
0
LINE
8
2
62
3
10
-0.48808
20
-1.252017
30
0.0
11
-0.462482
21
-1.285808
31
0.0
0
LINE
8
2
62
3
10
-0.462482
20
-1.285808
30
0.0
11
-0.450405
21
-1.294343
31
0.0
0
LINE
8
2
62
3
10
-0.450405
20
-1.294343
30
0.0
11
-0.443471
21
-1.276255
31
0.0
0
LINE
8
2
62
3
10
-0.443471
20
-1.276255
30
0.0
11
-0.4363
21
-1.242266
31
0.0
0
LINE
8
2
62
3
10
-0.363688
20
-0.931195
30
0.0
11
-0.360773
21
-0.903632
31
0.0
0
LINE
8
2
62
3
10
-0.360773
20
-0.903632
30
0.0
11
-0.362558
21
-0.872184
31
0.0
0
LINE
8
2
62
3
10
-0.362558
20
-0.872184
30
0.0
11
-0.3673
21
-0.850469
31
0.0
0
LINE
8
2
62
3
10
-0.3673
20
-0.850469
30
0.0
11
-0.377108
21
-0.832111
31
0.0
0
LINE
8
2
62
3
10
-0.377108
20
-0.832111
30
0.0
11
-0.396862
21
-0.81051
31
0.0
0
LINE
8
2
62
3
10
-0.396862
20
-0.81051
30
0.0
11
-0.431446
21
-0.779066
31
0.0
0
LINE
8
2
62
3
10
-0.431446
20
-0.779066
30
0.0
11
-0.446494
21
-0.757787
31
0.0
0
LINE
8
2
62
3
10
-0.446494
20
-0.757787
30
0.0
11
-0.454
21
-0.721194
31
0.0
0
LINE
8
2
62
3
10
-0.454
20
-0.721194
30
0.0
11
-0.463561
21
-0.679307
31
0.0
0
LINE
8
2
62
3
10
-0.463561
20
-0.679307
30
0.0
11
-0.486182
21
-0.638138
31
0.0
0
LINE
8
2
62
3
10
-0.486182
20
-0.638138
30
0.0
11
-0.555591
21
-0.547719
31
0.0
0
LINE
8
2
62
3
10
-0.555591
20
-0.547719
30
0.0
11
-0.58853
21
-0.510248
31
0.0
0
LINE
8
2
62
3
10
-0.58853
20
-0.510248
30
0.0
11
-0.606069
21
-0.494926
31
0.0
0
LINE
8
2
62
3
10
-0.606069
20
-0.494926
30
0.0
11
-0.615054
21
-0.504844
31
0.0
0
LINE
8
2
62
3
10
-0.615054
20
-0.504844
30
0.0
11
-0.624558
21
-0.527981
31
0.0
0
LINE
8
2
62
3
10
-0.624558
20
-0.527981
30
0.0
11
-0.631325
21
-0.554415
31
0.0
0
LINE
8
2
62
3
10
-0.631325
20
-0.554415
30
0.0
11
-0.632098
21
-0.574224
31
0.0
0
LINE
8
2
62
3
10
-0.632098
20
-0.574224
30
0.0
11
-0.620087
21
-0.592229
31
0.0
0
LINE
8
2
62
3
10
-0.620087
20
-0.592229
30
0.0
11
-0.596995
21
-0.612474
31
0.0
0
LINE
8
2
62
3
10
-0.596995
20
-0.612474
30
0.0
11
-0.568416
21
-0.635871
31
0.0
0
LINE
8
2
62
3
10
-0.568416
20
-0.635871
30
0.0
11
-0.541772
21
-0.669278
31
0.0
0
LINE
8
2
62
3
10
-0.541772
20
-0.669278
30
0.0
11
-0.507836
21
-0.726494
31
0.0
0
LINE
8
2
62
3
10
-0.507836
20
-0.726494
30
0.0
11
-0.457382
21
-0.821322
31
0.0
0
LINE
8
2
62
3
10
-0.457382
20
-0.821322
30
0.0
11
-0.403783
21
-0.919093
31
0.0
0
LINE
8
2
62
3
10
-0.403783
20
-0.919093
30
0.0
11
-0.377235
21
-0.95837
31
0.0
0
LINE
8
2
62
3
10
-0.377235
20
-0.95837
30
0.0
11
-0.370251
21
-0.949407
31
0.0
0
LINE
8
2
62
3
10
-0.370251
20
-0.949407
30
0.0
11
-0.363688
21
-0.931195
31
0.0
0
LINE
8
2
62
3
10
-0.424076
20
-0.417764
30
0.0
11
-0.408273
21
-0.393774
31
0.0
0
LINE
8
2
62
3
10
-0.408273
20
-0.393774
30
0.0
11
-0.4017
21
-0.375195
31
0.0
0
LINE
8
2
62
3
10
-0.4017
20
-0.375195
30
0.0
11
-0.408883
21
-0.348049
31
0.0
0
LINE
8
2
62
3
10
-0.408883
20
-0.348049
30
0.0
11
-0.427764
21
-0.310475
31
0.0
0
LINE
8
2
62
3
10
-0.427764
20
-0.310475
30
0.0
11
-0.454344
21
-0.269394
31
0.0
0
LINE
8
2
62
3
10
-0.454344
20
-0.269394
30
0.0
11
-0.484622
21
-0.231726
31
0.0
0
LINE
8
2
62
3
10
-0.484622
20
-0.231726
30
0.0
11
-0.53891
21
-0.177758
31
0.0
0
LINE
8
2
62
3
10
-0.53891
20
-0.177758
30
0.0
11
-0.595954
21
-0.128925
31
0.0
0
LINE
8
2
62
3
10
-0.595954
20
-0.128925
30
0.0
11
-0.642882
21
-0.095416
31
0.0
0
LINE
8
2
62
3
10
-0.642882
20
-0.095416
30
0.0
11
-0.658532
21
-0.087594
31
0.0
0
LINE
8
2
62
3
10
-0.658532
20
-0.087594
30
0.0
11
-0.666828
21
-0.087425
31
0.0
0
LINE
8
2
62
3
10
-0.666828
20
-0.087425
30
0.0
11
-0.645939
21
-0.146263
31
0.0
0
LINE
8
2
62
3
10
-0.645939
20
-0.146263
30
0.0
11
-0.624645
21
-0.203625
31
0.0
0
LINE
8
2
62
3
10
-0.624645
20
-0.203625
30
0.0
11
-0.607602
21
-0.264133
31
0.0
0
LINE
8
2
62
3
10
-0.607602
20
-0.264133
30
0.0
11
-0.595244
21
-0.325982
31
0.0
0
LINE
8
2
62
3
10
-0.595244
20
-0.325982
30
0.0
11
-0.588005
21
-0.387368
31
0.0
0
LINE
8
2
62
3
10
-0.588005
20
-0.387368
30
0.0
11
-0.583114
21
-0.452671
31
0.0
0
LINE
8
2
62
3
10
-0.583114
20
-0.452671
30
0.0
11
-0.522393
21
-0.53409
31
0.0
0
LINE
8
2
62
3
10
-0.522393
20
-0.53409
30
0.0
11
-0.461672
21
-0.615509
31
0.0
0
LINE
8
2
62
3
10
-0.461672
20
-0.615509
30
0.0
11
-0.454062
21
-0.530559
31
0.0
0
LINE
8
2
62
3
10
-0.454062
20
-0.530559
30
0.0
11
-0.44425
21
-0.454124
31
0.0
0
LINE
8
2
62
3
10
-0.44425
20
-0.454124
30
0.0
11
-0.436592
21
-0.435202
31
0.0
0
LINE
8
2
62
3
10
-0.436592
20
-0.435202
30
0.0
11
-0.424076
21
-0.417764
31
0.0
0
LINE
8
2
62
3
10
-0.390248
20
-0.273623
30
0.0
11
-0.400764
21
-0.252225
31
0.0
0
LINE
8
2
62
3
10
-0.400764
20
-0.252225
30
0.0
11
-0.420375
21
-0.223368
31
0.0
0
LINE
8
2
62
3
10
-0.420375
20
-0.223368
30
0.0
11
-0.442025
21
-0.188341
31
0.0
0
LINE
8
2
62
3
10
-0.442025
20
-0.188341
30
0.0
11
-0.445224
21
-0.17188
31
0.0
0
LINE
8
2
62
3
10
-0.445224
20
-0.17188
30
0.0
11
-0.445497
21
-0.149799
31
0.0
0
LINE
8
2
62
3
10
-0.445497
20
-0.149799
30
0.0
11
-0.440419
21
-0.099635
31
0.0
0
LINE
8
2
62
3
10
-0.440419
20
-0.099635
30
0.0
11
-0.429428
21
-0.034551
31
0.0
0
LINE
8
2
62
3
10
-0.429428
20
-0.034551
30
0.0
11
-0.416211
21
0.026269
31
0.0
0
LINE
8
2
62
3
10
-0.416211
20
0.026269
30
0.0
11
-0.404459
21
0.063639
31
0.0
0
LINE
8
2
62
3
10
-0.404459
20
0.063639
30
0.0
11
-0.39034
21
0.079698
31
0.0
0
LINE
8
2
62
3
10
-0.39034
20
0.079698
30
0.0
11
-0.368309
21
0.090966
31
0.0
0
LINE
8
2
62
3
10
-0.368309
20
0.090966
30
0.0
11
-0.344766
21
0.101054
31
0.0
0
LINE
8
2
62
3
10
-0.344766
20
0.101054
30
0.0
11
-0.324989
21
0.115466
31
0.0
0
LINE
8
2
62
3
10
-0.324989
20
0.115466
30
0.0
11
-0.307904
21
0.135197
31
0.0
0
LINE
8
2
62
3
10
-0.307904
20
0.135197
30
0.0
11
-0.292439
21
0.16124
31
0.0
0
LINE
8
2
62
3
10
-0.292439
20
0.16124
30
0.0
11
-0.276246
21
0.196766
31
0.0
0
LINE
8
2
62
3
10
-0.276246
20
0.196766
30
0.0
11
-0.267958
21
0.226671
31
0.0
0
LINE
8
2
62
3
10
-0.267958
20
0.226671
30
0.0
11
-0.266674
21
0.25659
31
0.0
0
LINE
8
2
62
3
10
-0.266674
20
0.25659
30
0.0
11
-0.271492
21
0.292159
31
0.0
0
LINE
8
2
62
3
10
-0.271492
20
0.292159
30
0.0
11
-0.276285
21
0.322717
31
0.0
0
LINE
8
2
62
3
10
-0.276285
20
0.322717
30
0.0
11
-0.276134
21
0.346203
31
0.0
0
LINE
8
2
62
3
10
-0.276134
20
0.346203
30
0.0
11
-0.269979
21
0.370672
31
0.0
0
LINE
8
2
62
3
10
-0.269979
20
0.370672
30
0.0
11
-0.256763
21
0.404179
31
0.0
0
LINE
8
2
62
3
10
-0.256763
20
0.404179
30
0.0
11
-0.256422
21
0.409536
31
0.0
0
LINE
8
2
62
3
10
-0.256422
20
0.409536
30
0.0
11
-0.263456
21
0.408915
31
0.0
0
LINE
8
2
62
3
10
-0.263456
20
0.408915
30
0.0
11
-0.306965
21
0.387275
31
0.0
0
LINE
8
2
62
3
10
-0.306965
20
0.387275
30
0.0
11
-0.465697
21
0.303852
31
0.0
0
LINE
8
2
62
3
10
-0.465697
20
0.303852
30
0.0
11
-0.502148
21
0.288553
31
0.0
0
LINE
8
2
62
3
10
-0.502148
20
0.288553
30
0.0
11
-0.516799
21
0.287629
31
0.0
0
LINE
8
2
62
3
10
-0.516799
20
0.287629
30
0.0
11
-0.520282
21
0.311353
31
0.0
0
LINE
8
2
62
3
10
-0.520282
20
0.311353
30
0.0
11
-0.5151
21
0.371017
31
0.0
0
LINE
8
2
62
3
10
-0.5151
20
0.371017
30
0.0
11
-0.50283
21
0.508726
31
0.0
0
LINE
8
2
62
3
10
-0.50283
20
0.508726
30
0.0
11
-0.502227
21
0.56235
31
0.0
0
LINE
8
2
62
3
10
-0.502227
20
0.56235
30
0.0
11
-0.506715
21
0.569347
31
0.0
0
LINE
8
2
62
3
10
-0.506715
20
0.569347
30
0.0
11
-0.515951
21
0.570457
31
0.0
0
LINE
8
2
62
3
10
-0.515951
20
0.570457
30
0.0
11
-0.545567
21
0.563751
31
0.0
0
LINE
8
2
62
3
10
-0.545567
20
0.563751
30
0.0
11
-0.582096
21
0.546341
31
0.0
0
LINE
8
2
62
3
10
-0.582096
20
0.546341
30
0.0
11
-0.618447
21
0.522263
31
0.0
0
LINE
8
2
62
3
10
-0.618447
20
0.522263
30
0.0
11
-0.647527
21
0.495554
31
0.0
0
LINE
8
2
62
3
10
-0.647527
20
0.495554
30
0.0
11
-0.690918
21
0.43059
31
0.0
0
LINE
8
2
62
3
10
-0.690918
20
0.43059
30
0.0
11
-0.736875
21
0.339497
31
0.0
0
LINE
8
2
62
3
10
-0.736875
20
0.339497
30
0.0
11
-0.77616
21
0.242642
31
0.0
0
LINE
8
2
62
3
10
-0.77616
20
0.242642
30
0.0
11
-0.799537
21
0.16039
31
0.0
0
LINE
8
2
62
3
10
-0.799537
20
0.16039
30
0.0
11
-0.804163
21
0.134845
31
0.0
0
LINE
8
2
62
3
10
-0.804163
20
0.134845
30
0.0
11
-0.746691
21
0.111116
31
0.0
0
LINE
8
2
62
3
10
-0.746691
20
0.111116
30
0.0
11
-0.696994
21
0.086342
31
0.0
0
LINE
8
2
62
3
10
-0.696994
20
0.086342
30
0.0
11
-0.658217
21
0.060099
31
0.0
0
LINE
8
2
62
3
10
-0.658217
20
0.060099
30
0.0
11
-0.620393
21
0.022285
31
0.0
0
LINE
8
2
62
3
10
-0.620393
20
0.022285
30
0.0
11
-0.581267
21
-0.024066
31
0.0
0
LINE
8
2
62
3
10
-0.581267
20
-0.024066
30
0.0
11
-0.547136
21
-0.070943
31
0.0
0
LINE
8
2
62
3
10
-0.547136
20
-0.070943
30
0.0
11
-0.524296
21
-0.11033
31
0.0
0
LINE
8
2
62
3
10
-0.524296
20
-0.11033
30
0.0
11
-0.500212
21
-0.151894
31
0.0
0
LINE
8
2
62
3
10
-0.500212
20
-0.151894
30
0.0
11
-0.467437
21
-0.196936
31
0.0
0
LINE
8
2
62
3
10
-0.467437
20
-0.196936
30
0.0
11
-0.410191
21
-0.27563
31
0.0
0
LINE
8
2
62
3
10
-0.410191
20
-0.27563
30
0.0
11
-0.398378
21
-0.292692
31
0.0
0
LINE
8
2
62
3
10
-0.398378
20
-0.292692
30
0.0
11
-0.390503
21
-0.297984
31
0.0
0
LINE
8
2
62
3
10
-0.390503
20
-0.297984
30
0.0
11
-0.387487
21
-0.291596
31
0.0
0
LINE
8
2
62
3
10
-0.387487
20
-0.291596
30
0.0
11
-0.390248
21
-0.273623
31
0.0
0
LINE
8
2
62
3
10
0.915382
20
0.324741
30
0.0
11
0.888626
21
0.363546
31
0.0
0
LINE
8
2
62
3
10
0.888626
20
0.363546
30
0.0
11
0.860277
21
0.394535
31
0.0
0
LINE
8
2
62
3
10
0.860277
20
0.394535
30
0.0
11
0.830184
21
0.418023
31
0.0
0
LINE
8
2
62
3
10
0.830184
20
0.418023
30
0.0
11
0.687681
21
0.499907
31
0.0
0
LINE
8
2
62
3
10
0.687681
20
0.499907
30
0.0
11
0.715654
21
0.438171
31
0.0
0
LINE
8
2
62
3
10
-0.592661
20
-0.063675
30
0.0
11
-0.651118
21
0.002109
31
0.0
0
LINE
8
2
62
3
10
-0.651118
20
0.002109
30
0.0
11
-0.70266
21
0.047728
31
0.0
0
LINE
8
2
62
3
10
-0.70266
20
0.047728
30
0.0
11
-0.727174
21
0.061957
31
0.0
0
LINE
8
2
62
3
10
-0.727174
20
0.061957
30
0.0
11
-0.758005
21
0.075368
31
0.0
0
LINE
8
2
62
3
10
-0.758005
20
0.075368
30
0.0
11
-0.796062
21
0.089209
31
0.0
0
LINE
8
2
62
3
10
-0.796062
20
0.089209
30
0.0
11
-0.82423
21
0.096141
31
0.0
0
LINE
8
2
62
3
10
-0.82423
20
0.096141
30
0.0
11
-0.844862
21
0.096515
31
0.0
0
LINE
8
2
62
3
10
-0.844862
20
0.096515
30
0.0
11
-0.860311
21
0.090685
31
0.0
0
LINE
8
2
62
3
10
-0.860311
20
0.090685
30
0.0
11
-0.865507
21
0.085823
31
0.0
0
LINE
8
2
62
3
10
-0.865507
20
0.085823
30
0.0
11
-0.863137
21
0.083737
31
0.0
0
LINE
8
2
62
3
10
-0.863137
20
0.083737
30
0.0
11
-0.824331
21
0.062591
31
0.0
0
LINE
8
2
62
3
10
-0.824331
20
0.062591
30
0.0
11
-0.797111
21
0.047695
31
0.0
0
LINE
8
2
62
3
10
-0.797111
20
0.047695
30
0.0
11
-0.775266
21
0.041424
31
0.0
0
LINE
8
2
62
3
10
-0.775266
20
0.041424
30
0.0
11
-0.749257
21
0.035685
31
0.0
0
LINE
8
2
62
3
10
-0.749257
20
0.035685
30
0.0
11
-0.715802
21
0.019819
31
0.0
0
LINE
8
2
62
3
10
-0.715802
20
0.019819
30
0.0
11
-0.677694
21
-0.0046
31
0.0
0
LINE
8
2
62
3
10
-0.677694
20
-0.0046
30
0.0
11
-0.637725
21
-0.036
31
0.0
0
LINE
8
2
62
3
10
-0.637725
20
-0.036
30
0.0
11
-0.58666
21
-0.078414
31
0.0
0
LINE
8
2
62
3
10
-0.58666
20
-0.078414
30
0.0
11
-0.592661
21
-0.063675
31
0.0
0
LINE
8
2
62
3
10
-0.730063
20
-0.052502
30
0.0
11
-0.702459
21
-0.04224
31
0.0
0
LINE
8
2
62
3
10
-0.702459
20
-0.04224
30
0.0
11
-0.690978
21
-0.034467
31
0.0
0
LINE
8
2
62
3
10
-0.690978
20
-0.034467
30
0.0
11
-0.699717
21
-0.02649
31
0.0
0
LINE
8
2
62
3
10
-0.699717
20
-0.02649
30
0.0
11
-0.720457
21
-0.015738
31
0.0
0
LINE
8
2
62
3
10
-0.720457
20
-0.015738
30
0.0
11
-0.765061
21
-0.000832
31
0.0
0
LINE
8
2
62
3
10
-0.765061
20
-0.000832
30
0.0
11
-0.785809
21
0.000317
31
0.0
0
LINE
8
2
62
3
10
-0.785809
20
0.000317
30
0.0
11
-0.797517
21
-0.002665
31
0.0
0
LINE
8
2
62
3
10
-0.797517
20
-0.002665
30
0.0
11
-0.802698
21
-0.011544
31
0.0
0
LINE
8
2
62
3
10
-0.802698
20
-0.011544
30
0.0
11
-0.803866
21
-0.028084
31
0.0
0
LINE
8
2
62
3
10
-0.803866
20
-0.028084
30
0.0
11
-0.801502
21
-0.052291
31
0.0
0
LINE
8
2
62
3
10
-0.801502
20
-0.052291
30
0.0
11
-0.797704
21
-0.059404
31
0.0
0
LINE
8
2
62
3
10
-0.797704
20
-0.059404
30
0.0
11
-0.791412
21
-0.063438
31
0.0
0
LINE
8
2
62
3
10
-0.791412
20
-0.063438
30
0.0
11
-0.769098
21
-0.063012
31
0.0
0
LINE
8
2
62
3
10
-0.769098
20
-0.063012
30
0.0
11
-0.730063
21
-0.052502
31
0.0
0
LINE
8
2
62
3
10
-1.084004
20
-0.041607
30
0.0
11
-1.074292
21
-0.028494
31
0.0
0
LINE
8
2
62
3
10
-1.074292
20
-0.028494
30
0.0
11
-1.067562
21
-0.009352
31
0.0
0
LINE
8
2
62
3
10
-1.067562
20
-0.009352
30
0.0
11
-1.062956
21
0.014084
31
0.0
0
LINE
8
2
62
3
10
-1.062956
20
0.014084
30
0.0
11
-1.090397
21
0.002355
31
0.0
0
LINE
8
2
62
3
10
-1.090397
20
0.002355
30
0.0
11
-1.126658
21
-0.013017
31
0.0
0
LINE
8
2
62
3
10
-1.126658
20
-0.013017
30
0.0
11
-1.134675
21
-0.022112
31
0.0
0
LINE
8
2
62
3
10
-1.134675
20
-0.022112
30
0.0
11
-1.132422
21
-0.034611
31
0.0
0
LINE
8
2
62
3
10
-1.132422
20
-0.034611
30
0.0
11
-1.12242
21
-0.045665
31
0.0
0
LINE
8
2
62
3
10
-1.12242
20
-0.045665
30
0.0
11
-1.107193
21
-0.050426
31
0.0
0
LINE
8
2
62
3
10
-1.107193
20
-0.050426
30
0.0
11
-1.084004
21
-0.041607
31
0.0
0
LINE
8
2
62
3
10
-0.841341
20
0.143562
30
0.0
11
-0.829034
21
0.159243
31
0.0
0
LINE
8
2
62
3
10
-0.829034
20
0.159243
30
0.0
11
-0.82165
21
0.184132
31
0.0
0
LINE
8
2
62
3
10
-0.82165
20
0.184132
30
0.0
11
-0.801828
21
0.259452
31
0.0
0
LINE
8
2
62
3
10
-0.801828
20
0.259452
30
0.0
11
-0.766329
21
0.348669
31
0.0
0
LINE
8
2
62
3
10
-0.766329
20
0.348669
30
0.0
11
-0.721647
21
0.43737
31
0.0
0
LINE
8
2
62
3
10
-0.721647
20
0.43737
30
0.0
11
-0.674278
21
0.511141
31
0.0
0
LINE
8
2
62
3
10
-0.674278
20
0.511141
30
0.0
11
-0.636111
21
0.554092
31
0.0
0
LINE
8
2
62
3
10
-0.636111
20
0.554092
30
0.0
11
-0.5922
21
0.582609
31
0.0
0
LINE
8
2
62
3
10
-0.5922
20
0.582609
30
0.0
11
-0.552694
21
0.600783
31
0.0
0
LINE
8
2
62
3
10
-0.552694
20
0.600783
30
0.0
11
-0.521983
21
0.60987
31
0.0
0
LINE
8
2
62
3
10
-0.521983
20
0.60987
30
0.0
11
-0.499102
21
0.610037
31
0.0
0
LINE
8
2
62
3
10
-0.499102
20
0.610037
30
0.0
11
-0.483085
21
0.601451
31
0.0
0
LINE
8
2
62
3
10
-0.483085
20
0.601451
30
0.0
11
-0.476446
21
0.592373
31
0.0
0
LINE
8
2
62
3
10
-0.476446
20
0.592373
30
0.0
11
-0.473184
21
0.578629
31
0.0
0
LINE
8
2
62
3
10
-0.473184
20
0.578629
30
0.0
11
-0.474733
21
0.516094
31
0.0
0
LINE
8
2
62
3
10
-0.474733
20
0.516094
30
0.0
11
-0.486855
21
0.394016
31
0.0
0
LINE
8
2
62
3
10
-0.486855
20
0.394016
30
0.0
11
-0.492216
21
0.337591
31
0.0
0
LINE
8
2
62
3
10
-0.492216
20
0.337591
30
0.0
11
-0.458199
21
0.350898
31
0.0
0
LINE
8
2
62
3
10
-0.458199
20
0.350898
30
0.0
11
-0.381671
21
0.390114
31
0.0
0
LINE
8
2
62
3
10
-0.381671
20
0.390114
30
0.0
11
-0.295395
21
0.43776
31
0.0
0
LINE
8
2
62
3
10
-0.295395
20
0.43776
30
0.0
11
-0.232137
21
0.476353
31
0.0
0
LINE
8
2
62
3
10
-0.232137
20
0.476353
30
0.0
11
-0.200292
21
0.505066
31
0.0
0
LINE
8
2
62
3
10
-0.200292
20
0.505066
30
0.0
11
-0.168637
21
0.543038
31
0.0
0
LINE
8
2
62
3
10
-0.168637
20
0.543038
30
0.0
11
-0.128502
21
0.59467
31
0.0
0
LINE
8
2
62
3
10
-0.128502
20
0.59467
30
0.0
11
-0.110308
21
0.611912
31
0.0
0
LINE
8
2
62
3
10
-0.110308
20
0.611912
30
0.0
11
-0.091254
21
0.624558
31
0.0
0
LINE
8
2
62
3
10
-0.091254
20
0.624558
30
0.0
11
-0.069761
21
0.633446
31
0.0
0
LINE
8
2
62
3
10
-0.069761
20
0.633446
30
0.0
11
-0.044248
21
0.639417
31
0.0
0
LINE
8
2
62
3
10
-0.044248
20
0.639417
30
0.0
11
0.025161
21
0.645962
31
0.0
0
LINE
8
2
62
3
10
0.025161
20
0.645962
30
0.0
11
0.077463
21
0.650653
31
0.0
0
LINE
8
2
62
3
10
0.077463
20
0.650653
30
0.0
11
0.10413
21
0.656524
31
0.0
0
LINE
8
2
62
3
10
0.10413
20
0.656524
30
0.0
11
0.119356
21
0.685316
31
0.0
0
LINE
8
2
62
3
10
0.119356
20
0.685316
30
0.0
11
0.139044
21
0.745805
31
0.0
0
LINE
8
2
62
3
10
0.139044
20
0.745805
30
0.0
11
0.16032
21
0.827976
31
0.0
0
LINE
8
2
62
3
10
0.16032
20
0.827976
30
0.0
11
0.180306
21
0.921813
31
0.0
0
LINE
8
2
62
3
10
0.180306
20
0.921813
30
0.0
11
0.213086
21
1.066452
31
0.0
0
LINE
8
2
62
3
10
0.213086
20
1.066452
30
0.0
11
0.240508
21
1.106081
31
0.0
0
LINE
8
2
62
3
10
0.240508
20
1.106081
30
0.0
11
0.281774
21
1.148097
31
0.0
0
LINE
8
2
62
3
10
0.281774
20
1.148097
30
0.0
11
0.334893
21
1.190712
31
0.0
0
LINE
8
2
62
3
10
0.334893
20
1.190712
30
0.0
11
0.397872
21
1.23214
31
0.0
0
LINE
8
2
62
3
10
0.397872
20
1.23214
30
0.0
11
0.443666
21
1.255917
31
0.0
0
LINE
8
2
62
3
10
0.443666
20
1.255917
30
0.0
11
0.497991
21
1.279312
31
0.0
0
LINE
8
2
62
3
10
0.497991
20
1.279312
30
0.0
11
0.547771
21
1.297145
31
0.0
0
LINE
8
2
62
3
10
0.547771
20
1.297145
30
0.0
11
0.579934
21
1.30424
31
0.0
0
LINE
8
2
62
3
10
0.579934
20
1.30424
30
0.0
11
0.596256
21
1.298356
31
0.0
0
LINE
8
2
62
3
10
0.596256
20
1.298356
30
0.0
11
0.61445
21
1.283518
31
0.0
0
LINE
8
2
62
3
10
0.61445
20
1.283518
30
0.0
11
0.630334
21
1.263949
31
0.0
0
LINE
8
2
62
3
10
0.630334
20
1.263949
30
0.0
11
0.639724
21
1.243874
31
0.0
0
LINE
8
2
62
3
10
0.639724
20
1.243874
30
0.0
11
0.640567
21
1.20738
31
0.0
0
LINE
8
2
62
3
10
0.640567
20
1.20738
30
0.0
11
0.635602
21
1.1475
31
0.0
0
LINE
8
2
62
3
10
0.635602
20
1.1475
30
0.0
11
0.629909
21
1.067557
31
0.0
0
LINE
8
2
62
3
10
0.629909
20
1.067557
30
0.0
11
0.672855
21
1.082249
31
0.0
0
LINE
8
2
62
3
10
0.672855
20
1.082249
30
0.0
11
0.712931
21
1.097486
31
0.0
0
LINE
8
2
62
3
10
0.712931
20
1.097486
30
0.0
11
0.746524
21
1.100923
31
0.0
0
LINE
8
2
62
3
10
0.746524
20
1.100923
30
0.0
11
0.780903
21
1.091969
31
0.0
0
LINE
8
2
62
3
10
0.780903
20
1.091969
30
0.0
11
0.823335
21
1.070034
31
0.0
0
LINE
8
2
62
3
10
0.823335
20
1.070034
30
0.0
11
0.864264
21
1.048661
31
0.0
0
LINE
8
2
62
3
10
0.864264
20
1.048661
30
0.0
11
0.884663
21
1.042951
31
0.0
0
LINE
8
2
62
3
10
0.884663
20
1.042951
30
0.0
11
0.918383
21
1.17808
31
0.0
0
LINE
8
2
62
3
10
0.918383
20
1.17808
30
0.0
11
0.950615
21
1.327611
31
0.0
0
LINE
8
2
62
3
10
0.950615
20
1.327611
30
0.0
11
0.951854
21
1.338479
31
0.0
0
LINE
8
2
62
3
10
0.951854
20
1.338479
30
0.0
11
0.949607
21
1.347566
31
0.0
0
LINE
8
2
62
3
10
0.949607
20
1.347566
30
0.0
11
0.931006
21
1.367894
31
0.0
0
LINE
8
2
62
3
10
0.931006
20
1.367894
30
0.0
11
0.90229
21
1.38862
31
0.0
0
LINE
8
2
62
3
10
0.90229
20
1.38862
30
0.0
11
0.897071
21
1.384304
31
0.0
0
LINE
8
2
62
3
10
0.897071
20
1.384304
30
0.0
11
0.891156
21
1.364216
31
0.0
0
LINE
8
2
62
3
10
0.891156
20
1.364216
30
0.0
11
0.868546
21
1.237893
31
0.0
0
LINE
8
2
62
3
10
0.868546
20
1.237893
30
0.0
11
0.843466
21
1.107721
31
0.0
0
LINE
8
2
62
3
10
0.843466
20
1.107721
30
0.0
11
0.799314
21
1.112322
31
0.0
0
LINE
8
2
62
3
10
0.799314
20
1.112322
30
0.0
11
0.764981
21
1.123212
31
0.0
0
LINE
8
2
62
3
10
0.764981
20
1.123212
30
0.0
11
0.733853
21
1.139724
31
0.0
0
LINE
8
2
62
3
10
0.733853
20
1.139724
30
0.0
11
0.70958
21
1.159471
31
0.0
0
LINE
8
2
62
3
10
0.70958
20
1.159471
30
0.0
11
0.695812
21
1.180062
31
0.0
0
LINE
8
2
62
3
10
0.695812
20
1.180062
30
0.0
11
0.694145
21
1.226812
31
0.0
0
LINE
8
2
62
3
10
0.694145
20
1.226812
30
0.0
11
0.702954
21
1.332545
31
0.0
0
LINE
8
2
62
3
10
0.702954
20
1.332545
30
0.0
11
0.714023
21
1.466518
31
0.0
0
LINE
8
2
62
3
10
0.714023
20
1.466518
30
0.0
11
0.640227
21
1.425491
31
0.0
0
LINE
8
2
62
3
10
0.640227
20
1.425491
30
0.0
11
0.384995
21
1.273455
31
0.0
0
LINE
8
2
62
3
10
0.384995
20
1.273455
30
0.0
11
0.050495
21
1.076106
31
0.0
0
LINE
8
2
62
3
10
0.050495
20
1.076106
30
0.0
11
-0.02381
21
1.035899
31
0.0
0
LINE
8
2
62
3
10
-0.02381
20
1.035899
30
0.0
11
-0.050511
21
1.026528
31
0.0
0
LINE
8
2
62
3
10
-0.050511
20
1.026528
30
0.0
11
-0.053815
21
1.044815
31
0.0
0
LINE
8
2
62
3
10
-0.053815
20
1.044815
30
0.0
11
-0.053747
21
1.088542
31
0.0
0
LINE
8
2
62
3
10
-0.053747
20
1.088542
30
0.0
11
-0.044401
21
1.223101
31
0.0
0
LINE
8
2
62
3
10
-0.044401
20
1.223101
30
0.0
11
-0.036265
21
1.262777
31
0.0
0
LINE
8
2
62
3
10
-0.036265
20
1.262777
30
0.0
11
-0.027328
21
1.276525
31
0.0
0
LINE
8
2
62
3
10
-0.027328
20
1.276525
30
0.0
11
-0.012512
21
1.291893
31
0.0
0
LINE
8
2
62
3
10
-0.012512
20
1.291893
30
0.0
11
0.004336
21
1.310579
31
0.0
0
LINE
8
2
62
3
10
0.004336
20
1.310579
30
0.0
11
0.007357
21
1.316264
31
0.0
0
LINE
8
2
62
3
10
0.007357
20
1.316264
30
0.0
11
0.005968
21
1.318351
31
0.0
0
LINE
8
2
62
3
10
0.005968
20
1.318351
30
0.0
11
-0.105304
21
1.268463
31
0.0
0
LINE
8
2
62
3
10
-0.105304
20
1.268463
30
0.0
11
-0.251915
21
1.192877
31
0.0
0
LINE
8
2
62
3
10
-0.251915
20
1.192877
30
0.0
11
-0.281608
21
1.174485
31
0.0
0
LINE
8
2
62
3
10
-0.281608
20
1.174485
30
0.0
11
-0.291296
21
1.163941
31
0.0
0
LINE
8
2
62
3
10
-0.291296
20
1.163941
30
0.0
11
-0.299089
21
1.148445
31
0.0
0
LINE
8
2
62
3
10
-0.299089
20
1.148445
30
0.0
11
-0.313619
21
1.09044
31
0.0
0
LINE
8
2
62
3
10
-0.313619
20
1.09044
30
0.0
11
-0.334457
21
0.976157
31
0.0
0
LINE
8
2
62
3
10
-0.334457
20
0.976157
30
0.0
11
-0.367064
21
0.812549
31
0.0
0
LINE
8
2
62
3
10
-0.367064
20
0.812549
30
0.0
11
-0.377591
21
0.793637
31
0.0
0
LINE
8
2
62
3
10
-0.377591
20
0.793637
30
0.0
11
-0.404596
21
0.773104
31
0.0
0
LINE
8
2
62
3
10
-0.404596
20
0.773104
30
0.0
11
-0.461202
21
0.743004
31
0.0
0
LINE
8
2
62
3
10
-0.461202
20
0.743004
30
0.0
11
-0.560528
21
0.695392
31
0.0
0
LINE
8
2
62
3
10
-0.560528
20
0.695392
30
0.0
11
-0.845435
21
0.55863
31
0.0
0
LINE
8
2
62
3
10
-0.845435
20
0.55863
30
0.0
11
-0.879575
21
0.536299
31
0.0
0
LINE
8
2
62
3
10
-0.879575
20
0.536299
30
0.0
11
-0.887398
21
0.520051
31
0.0
0
LINE
8
2
62
3
10
-0.887398
20
0.520051
30
0.0
11
-0.90239
21
0.450518
31
0.0
0
LINE
8
2
62
3
10
-0.90239
20
0.450518
30
0.0
11
-0.913618
21
0.38182
31
0.0
0
LINE
8
2
62
3
10
-0.913618
20
0.38182
30
0.0
11
-0.91736
21
0.358983
31
0.0
0
LINE
8
2
62
3
10
-0.91736
20
0.358983
30
0.0
11
-0.885488
21
0.363351
31
0.0
0
LINE
8
2
62
3
10
-0.885488
20
0.363351
30
0.0
11
-0.857071
21
0.364163
31
0.0
0
LINE
8
2
62
3
10
-0.857071
20
0.364163
30
0.0
11
-0.850851
21
0.358607
31
0.0
0
LINE
8
2
62
3
10
-0.850851
20
0.358607
30
0.0
11
-0.845741
21
0.347383
31
0.0
0
LINE
8
2
62
3
10
-0.845741
20
0.347383
30
0.0
11
-0.840847
21
0.314444
31
0.0
0
LINE
8
2
62
3
10
-0.840847
20
0.314444
30
0.0
11
-0.84059
21
0.261902
31
0.0
0
LINE
8
2
62
3
10
-0.84059
20
0.261902
30
0.0
11
-0.846405
21
0.201969
31
0.0
0
LINE
8
2
62
3
10
-0.846405
20
0.201969
30
0.0
11
-0.853514
21
0.18397
31
0.0
0
LINE
8
2
62
3
10
-0.853514
20
0.18397
30
0.0
11
-0.865778
21
0.164888
31
0.0
0
LINE
8
2
62
3
10
-0.865778
20
0.164888
30
0.0
11
-0.883117
21
0.137273
31
0.0
0
LINE
8
2
62
3
10
-0.883117
20
0.137273
30
0.0
11
-0.88095
21
0.133618
31
0.0
0
LINE
8
2
62
3
10
-0.88095
20
0.133618
30
0.0
11
-0.872319
21
0.133018
31
0.0
0
LINE
8
2
62
3
10
-0.872319
20
0.133018
30
0.0
11
-0.856651
21
0.136115
31
0.0
0
LINE
8
2
62
3
10
-0.856651
20
0.136115
30
0.0
11
-0.841341
21
0.143562
31
0.0
0
LINE
8
2
62
3
10
-0.305991
20
0.921476
30
0.0
11
-0.30601
21
0.960531
31
0.0
0
LINE
8
2
62
3
10
-0.30601
20
0.960531
30
0.0
11
-0.299664
21
1.023571
31
0.0
0
LINE
8
2
62
3
10
-0.299664
20
1.023571
30
0.0
11
-0.289889
21
1.087478
31
0.0
0
LINE
8
2
62
3
10
-0.289889
20
1.087478
30
0.0
11
-0.27962
21
1.129135
31
0.0
0
LINE
8
2
62
3
10
-0.27962
20
1.129135
30
0.0
11
-0.265597
21
1.152489
31
0.0
0
LINE
8
2
62
3
10
-0.265597
20
1.152489
30
0.0
11
-0.243273
21
1.174598
31
0.0
0
LINE
8
2
62
3
10
-0.243273
20
1.174598
30
0.0
11
-0.211991
21
1.195996
31
0.0
0
LINE
8
2
62
3
10
-0.211991
20
1.195996
30
0.0
11
-0.171093
21
1.217218
31
0.0
0
LINE
8
2
62
3
10
-0.171093
20
1.217218
30
0.0
11
-0.133039
21
1.232611
31
0.0
0
LINE
8
2
62
3
10
-0.133039
20
1.232611
30
0.0
11
-0.103333
21
1.239788
31
0.0
0
LINE
8
2
62
3
10
-0.103333
20
1.239788
30
0.0
11
-0.082792
21
1.238651
31
0.0
0
LINE
8
2
62
3
10
-0.082792
20
1.238651
30
0.0
11
-0.072235
21
1.229101
31
0.0
0
LINE
8
2
62
3
10
-0.072235
20
1.229101
30
0.0
11
-0.072359
21
1.19062
31
0.0
0
LINE
8
2
62
3
10
-0.072359
20
1.19062
30
0.0
11
-0.078931
21
1.114448
31
0.0
0
LINE
8
2
62
3
10
-0.078931
20
1.114448
30
0.0
11
-0.090093
21
1.011435
31
0.0
0
LINE
8
2
62
3
10
-0.090093
20
1.011435
30
0.0
11
-0.116759
21
0.988319
31
0.0
0
LINE
8
2
62
3
10
-0.116759
20
0.988319
30
0.0
11
-0.152966
21
0.964106
31
0.0
0
LINE
8
2
62
3
10
-0.152966
20
0.964106
30
0.0
11
-0.205593
21
0.935652
31
0.0
0
LINE
8
2
62
3
10
-0.205593
20
0.935652
30
0.0
11
-0.256707
21
0.91197
31
0.0
0
LINE
8
2
62
3
10
-0.256707
20
0.91197
30
0.0
11
-0.288372
21
0.902074
31
0.0
0
LINE
8
2
62
3
10
-0.288372
20
0.902074
30
0.0
11
-0.299485
21
0.906936
31
0.0
0
LINE
8
2
62
3
10
-0.299485
20
0.906936
30
0.0
11
-0.305991
21
0.921476
31
0.0
0
LINE
8
2
62
3
10
-0.192134
20
0.987151
30
0.0
11
-0.140206
21
1.015892
31
0.0
0
LINE
8
2
62
3
10
-0.140206
20
1.015892
30
0.0
11
-0.116442
21
1.034802
31
0.0
0
LINE
8
2
62
3
10
-0.116442
20
1.034802
30
0.0
11
-0.105047
21
1.10146
31
0.0
0
LINE
8
2
62
3
10
-0.105047
20
1.10146
30
0.0
11
-0.098451
21
1.175952
31
0.0
0
LINE
8
2
62
3
10
-0.098451
20
1.175952
30
0.0
11
-0.100738
21
1.201084
31
0.0
0
LINE
8
2
62
3
10
-0.100738
20
1.201084
30
0.0
11
-0.105485
21
1.203506
31
0.0
0
LINE
8
2
62
3
10
-0.105485
20
1.203506
30
0.0
11
-0.114186
21
1.201702
31
0.0
0
LINE
8
2
62
3
10
-0.114186
20
1.201702
30
0.0
11
-0.180227
21
1.169778
31
0.0
0
LINE
8
2
62
3
10
-0.180227
20
1.169778
30
0.0
11
-0.240515
21
1.130055
31
0.0
0
LINE
8
2
62
3
10
-0.240515
20
1.130055
30
0.0
11
-0.252943
21
1.11331
31
0.0
0
LINE
8
2
62
3
10
-0.252943
20
1.11331
30
0.0
11
-0.262594
21
1.086998
31
0.0
0
LINE
8
2
62
3
10
-0.262594
20
1.086998
30
0.0
11
-0.278125
21
0.988504
31
0.0
0
LINE
8
2
62
3
10
-0.278125
20
0.988504
30
0.0
11
-0.279333
21
0.959632
31
0.0
0
LINE
8
2
62
3
10
-0.279333
20
0.959632
30
0.0
11
-0.27723
21
0.953357
31
0.0
0
LINE
8
2
62
3
10
-0.27723
20
0.953357
30
0.0
11
-0.273179
21
0.951437
31
0.0
0
LINE
8
2
62
3
10
-0.273179
20
0.951437
30
0.0
11
-0.192134
21
0.987151
31
0.0
0
LINE
8
2
62
3
10
-0.910397
20
0.171463
30
0.0
11
-0.889871
21
0.186122
31
0.0
0
LINE
8
2
62
3
10
-0.889871
20
0.186122
30
0.0
11
-0.8755
21
0.206585
31
0.0
0
LINE
8
2
62
3
10
-0.8755
20
0.206585
30
0.0
11
-0.866418
21
0.234652
31
0.0
0
LINE
8
2
62
3
10
-0.866418
20
0.234652
30
0.0
11
-0.861754
21
0.272119
31
0.0
0
LINE
8
2
62
3
10
-0.861754
20
0.272119
30
0.0
11
-0.8611
21
0.316216
31
0.0
0
LINE
8
2
62
3
10
-0.8611
20
0.316216
30
0.0
11
-0.865285
21
0.322386
31
0.0
0
LINE
8
2
62
3
10
-0.865285
20
0.322386
30
0.0
11
-0.873775
21
0.323518
31
0.0
0
LINE
8
2
62
3
10
-0.873775
20
0.323518
30
0.0
11
-0.890985
21
0.31982
31
0.0
0
LINE
8
2
62
3
10
-0.890985
20
0.31982
30
0.0
11
-0.915187
21
0.309989
31
0.0
0
LINE
8
2
62
3
10
-0.915187
20
0.309989
30
0.0
11
-0.968319
21
0.27949
31
0.0
0
LINE
8
2
62
3
10
-0.968319
20
0.27949
30
0.0
11
-0.979271
21
0.27081
31
0.0
0
LINE
8
2
62
3
10
-0.979271
20
0.27081
30
0.0
11
-0.984653
21
0.261832
31
0.0
0
LINE
8
2
62
3
10
-0.984653
20
0.261832
30
0.0
11
-0.983616
21
0.225731
31
0.0
0
LINE
8
2
62
3
10
-0.983616
20
0.225731
30
0.0
11
-0.975674
21
0.173587
31
0.0
0
LINE
8
2
62
3
10
-0.975674
20
0.173587
30
0.0
11
-0.967579
21
0.164731
31
0.0
0
LINE
8
2
62
3
10
-0.967579
20
0.164731
30
0.0
11
-0.951854
21
0.161355
31
0.0
0
LINE
8
2
62
3
10
-0.951854
20
0.161355
30
0.0
11
-0.93172
21
0.163564
31
0.0
0
LINE
8
2
62
3
10
-0.93172
20
0.163564
30
0.0
11
-0.910397
21
0.171463
31
0.0
0
LINE
8
2
62
3
10
1.274179
20
0.306858
30
0.0
11
1.284217
21
0.461101
31
0.0
0
LINE
8
2
62
3
10
1.284217
20
0.461101
30
0.0
11
1.284269
21
0.503435
31
0.0
0
LINE
8
2
62
3
10
1.284269
20
0.503435
30
0.0
11
1.180354
21
0.578306
31
0.0
0
LINE
8
2
62
3
10
1.180354
20
0.578306
30
0.0
11
1.005041
21
0.702149
31
0.0
0
LINE
8
2
62
3
10
1.005041
20
0.702149
30
0.0
11
0.933494
21
0.746851
31
0.0
0
LINE
8
2
62
3
10
0.933494
20
0.746851
30
0.0
11
0.928466
21
0.731689
31
0.0
0
LINE
8
2
62
3
10
0.928466
20
0.731689
30
0.0
11
0.923636
21
0.684871
31
0.0
0
LINE
8
2
62
3
10
0.923636
20
0.684871
30
0.0
11
0.913969
21
0.488272
31
0.0
0
LINE
8
2
62
3
10
0.913969
20
0.488272
30
0.0
11
0.910532
21
0.395498
31
0.0
0
LINE
8
2
62
3
10
0.910532
20
0.395498
30
0.0
11
0.965263
21
0.360586
31
0.0
0
LINE
8
2
62
3
10
0.965263
20
0.360586
30
0.0
11
1.156332
21
0.245947
31
0.0
0
LINE
8
2
62
3
10
1.156332
20
0.245947
30
0.0
11
1.230004
21
0.205814
31
0.0
0
LINE
8
2
62
3
10
1.230004
20
0.205814
30
0.0
11
1.26183
21
0.192585
31
0.0
0
LINE
8
2
62
3
10
1.26183
20
0.192585
30
0.0
11
1.274179
21
0.306858
31
0.0
0
LINE
8
2
62
3
10
1.356717
20
0.427587
30
0.0
11
1.377913
21
0.46051
31
0.0
0
LINE
8
2
62
3
10
1.377913
20
0.46051
30
0.0
11
1.391499
21
0.499335
31
0.0
0
LINE
8
2
62
3
10
1.391499
20
0.499335
30
0.0
11
1.396079
21
0.538098
31
0.0
0
LINE
8
2
62
3
10
1.396079
20
0.538098
30
0.0
11
1.390256
21
0.570837
31
0.0
0
LINE
8
2
62
3
10
1.390256
20
0.570837
30
0.0
11
1.379667
21
0.586834
31
0.0
0
LINE
8
2
62
3
10
1.379667
20
0.586834
30
0.0
11
1.358977
21
0.60955
31
0.0
0
LINE
8
2
62
3
10
1.358977
20
0.60955
30
0.0
11
1.292651
21
0.671024
31
0.0
0
LINE
8
2
62
3
10
1.292651
20
0.671024
30
0.0
11
1.201993
21
0.747018
31
0.0
0
LINE
8
2
62
3
10
1.201993
20
0.747018
30
0.0
11
1.097716
21
0.829296
31
0.0
0
LINE
8
2
62
3
10
1.097716
20
0.829296
30
0.0
11
0.990536
21
0.909617
31
0.0
0
LINE
8
2
62
3
10
0.990536
20
0.909617
30
0.0
11
0.891166
21
0.979743
31
0.0
0
LINE
8
2
62
3
10
0.891166
20
0.979743
30
0.0
11
0.810322
21
1.031436
31
0.0
0
LINE
8
2
62
3
10
0.810322
20
1.031436
30
0.0
11
0.758717
21
1.056456
31
0.0
0
LINE
8
2
62
3
10
0.758717
20
1.056456
30
0.0
11
0.730979
21
1.060387
31
0.0
0
LINE
8
2
62
3
10
0.730979
20
1.060387
30
0.0
11
0.703137
21
1.055884
31
0.0
0
LINE
8
2
62
3
10
0.703137
20
1.055884
30
0.0
11
0.671353
21
1.041746
31
0.0
0
LINE
8
2
62
3
10
0.671353
20
1.041746
30
0.0
11
0.631787
21
1.016775
31
0.0
0
LINE
8
2
62
3
10
0.631787
20
1.016775
30
0.0
11
0.596782
21
0.989842
31
0.0
0
LINE
8
2
62
3
10
0.596782
20
0.989842
30
0.0
11
0.571425
21
0.963976
31
0.0
0
LINE
8
2
62
3
10
0.571425
20
0.963976
30
0.0
11
0.556012
21
0.939542
31
0.0
0
LINE
8
2
62
3
10
0.556012
20
0.939542
30
0.0
11
0.55084
21
0.916905
31
0.0
0
LINE
8
2
62
3
10
0.55084
20
0.916905
30
0.0
11
0.559179
21
0.869931
31
0.0
0
LINE
8
2
62
3
10
0.559179
20
0.869931
30
0.0
11
0.568001
21
0.847614
31
0.0
0
LINE
8
2
62
3
10
0.568001
20
0.847614
30
0.0
11
0.578559
21
0.830338
31
0.0
0
LINE
8
2
62
3
10
0.578559
20
0.830338
30
0.0
11
0.591856
21
0.813917
31
0.0
0
LINE
8
2
62
3
10
0.591856
20
0.813917
30
0.0
11
0.674401
21
0.841085
31
0.0
0
LINE
8
2
62
3
10
0.674401
20
0.841085
30
0.0
11
0.740865
21
0.860277
31
0.0
0
LINE
8
2
62
3
10
0.740865
20
0.860277
30
0.0
11
0.776733
21
0.864295
31
0.0
0
LINE
8
2
62
3
10
0.776733
20
0.864295
30
0.0
11
0.804191
21
0.853248
31
0.0
0
LINE
8
2
62
3
10
0.804191
20
0.853248
30
0.0
11
0.842422
21
0.832243
31
0.0
0
LINE
8
2
62
3
10
0.842422
20
0.832243
30
0.0
11
0.883039
21
0.810193
31
0.0
0
LINE
8
2
62
3
10
0.883039
20
0.810193
30
0.0
11
0.916233
21
0.796632
31
0.0
0
LINE
8
2
62
3
10
0.916233
20
0.796632
30
0.0
11
0.951254
21
0.779263
31
0.0
0
LINE
8
2
62
3
10
0.951254
20
0.779263
30
0.0
11
1.015176
21
0.738442
31
0.0
0
LINE
8
2
62
3
10
1.015176
20
0.738442
30
0.0
11
1.226615
21
0.588528
31
0.0
0
LINE
8
2
62
3
10
1.226615
20
0.588528
30
0.0
11
1.3128
21
0.525454
31
0.0
0
LINE
8
2
62
3
10
1.3128
20
0.525454
30
0.0
11
1.3128
21
0.478814
31
0.0
0
LINE
8
2
62
3
10
1.3128
20
0.478814
30
0.0
11
1.316027
21
0.441507
31
0.0
0
LINE
8
2
62
3
10
1.316027
20
0.441507
30
0.0
11
1.325065
21
0.419784
31
0.0
0
LINE
8
2
62
3
10
1.325065
20
0.419784
30
0.0
11
1.331462
21
0.415118
31
0.0
0
LINE
8
2
62
3
10
1.331462
20
0.415118
30
0.0
11
1.33895
21
0.414769
31
0.0
0
LINE
8
2
62
3
10
1.33895
20
0.414769
30
0.0
11
1.356717
21
0.427587
31
0.0
0
LINE
8
2
62
3
10
0.889691
20
0.532401
30
0.0
11
0.896355
21
0.684056
31
0.0
0
LINE
8
2
62
3
10
0.896355
20
0.684056
30
0.0
11
0.896522
21
0.751789
31
0.0
0
LINE
8
2
62
3
10
0.896522
20
0.751789
30
0.0
11
0.836619
21
0.791653
31
0.0
0
LINE
8
2
62
3
10
0.836619
20
0.791653
30
0.0
11
0.767828
21
0.831516
31
0.0
0
LINE
8
2
62
3
10
0.767828
20
0.831516
30
0.0
11
0.688879
21
0.806471
31
0.0
0
LINE
8
2
62
3
10
0.688879
20
0.806471
30
0.0
11
0.630827
21
0.788696
31
0.0
0
LINE
8
2
62
3
10
0.630827
20
0.788696
30
0.0
11
0.59363
21
0.783543
31
0.0
0
LINE
8
2
62
3
10
0.59363
20
0.783543
30
0.0
11
0.579833
21
0.785722
31
0.0
0
LINE
8
2
62
3
10
0.579833
20
0.785722
30
0.0
11
0.569984
21
0.790846
31
0.0
0
LINE
8
2
62
3
10
0.569984
20
0.790846
30
0.0
11
0.552297
21
0.818172
31
0.0
0
LINE
8
2
62
3
10
0.552297
20
0.818172
30
0.0
11
0.533019
21
0.872308
31
0.0
0
LINE
8
2
62
3
10
0.533019
20
0.872308
30
0.0
11
0.52904
21
0.924464
31
0.0
0
LINE
8
2
62
3
10
0.52904
20
0.924464
30
0.0
11
0.532735
21
0.949073
31
0.0
0
LINE
8
2
62
3
10
0.532735
20
0.949073
30
0.0
11
0.540193
21
0.972315
31
0.0
0
LINE
8
2
62
3
10
0.540193
20
0.972315
30
0.0
11
0.551392
21
0.9939
31
0.0
0
LINE
8
2
62
3
10
0.551392
20
0.9939
30
0.0
11
0.566311
21
1.013536
31
0.0
0
LINE
8
2
62
3
10
0.566311
20
1.013536
30
0.0
11
0.58375
21
1.038483
31
0.0
0
LINE
8
2
62
3
10
0.58375
20
1.038483
30
0.0
11
0.596188
21
1.071807
31
0.0
0
LINE
8
2
62
3
10
0.596188
20
1.071807
30
0.0
11
0.6051
21
1.119077
31
0.0
0
LINE
8
2
62
3
10
0.6051
20
1.119077
30
0.0
11
0.611963
21
1.185859
31
0.0
0
LINE
8
2
62
3
10
0.611963
20
1.185859
30
0.0
11
0.613392
21
1.224777
31
0.0
0
LINE
8
2
62
3
10
0.613392
20
1.224777
30
0.0
11
0.608636
21
1.247916
31
0.0
0
LINE
8
2
62
3
10
0.608636
20
1.247916
30
0.0
11
0.59577
21
1.259016
31
0.0
0
LINE
8
2
62
3
10
0.59577
20
1.259016
30
0.0
11
0.572867
21
1.261821
31
0.0
0
LINE
8
2
62
3
10
0.572867
20
1.261821
30
0.0
11
0.54841
21
1.258229
31
0.0
0
LINE
8
2
62
3
10
0.54841
20
1.258229
30
0.0
11
0.517178
21
1.248264
31
0.0
0
LINE
8
2
62
3
10
0.517178
20
1.248264
30
0.0
11
0.441889
21
1.213246
31
0.0
0
LINE
8
2
62
3
10
0.441889
20
1.213246
30
0.0
11
0.362001
21
1.164833
31
0.0
0
LINE
8
2
62
3
10
0.362001
20
1.164833
30
0.0
11
0.292514
21
1.11109
31
0.0
0
LINE
8
2
62
3
10
0.292514
20
1.11109
30
0.0
11
0.259402
21
1.076731
31
0.0
0
LINE
8
2
62
3
10
0.259402
20
1.076731
30
0.0
11
0.23646
21
1.039604
31
0.0
0
LINE
8
2
62
3
10
0.23646
20
1.039604
30
0.0
11
0.219759
21
0.99123
31
0.0
0
LINE
8
2
62
3
10
0.219759
20
0.99123
30
0.0
11
0.205367
21
0.923135
31
0.0
0
LINE
8
2
62
3
10
0.205367
20
0.923135
30
0.0
11
0.191831
21
0.831651
31
0.0
0
LINE
8
2
62
3
10
0.191831
20
0.831651
30
0.0
11
0.192062
21
0.809976
31
0.0
0
LINE
8
2
62
3
10
0.192062
20
0.809976
30
0.0
11
0.196692
21
0.800591
31
0.0
0
LINE
8
2
62
3
10
0.196692
20
0.800591
30
0.0
11
0.283122
21
0.790033
31
0.0
0
LINE
8
2
62
3
10
0.283122
20
0.790033
30
0.0
11
0.358045
21
0.780561
31
0.0
0
LINE
8
2
62
3
10
0.358045
20
0.780561
30
0.0
11
0.43415
21
0.765929
31
0.0
0
LINE
8
2
62
3
10
0.43415
20
0.765929
30
0.0
11
0.502163
21
0.748216
31
0.0
0
LINE
8
2
62
3
10
0.502163
20
0.748216
30
0.0
11
0.552813
21
0.729504
31
0.0
0
LINE
8
2
62
3
10
0.552813
20
0.729504
30
0.0
11
0.599293
21
0.699615
31
0.0
0
LINE
8
2
62
3
10
0.599293
20
0.699615
30
0.0
11
0.660924
21
0.651542
31
0.0
0
LINE
8
2
62
3
10
0.660924
20
0.651542
30
0.0
11
0.718267
21
0.601341
31
0.0
0
LINE
8
2
62
3
10
0.718267
20
0.601341
30
0.0
11
0.751884
21
0.565069
31
0.0
0
LINE
8
2
62
3
10
0.751884
20
0.565069
30
0.0
11
0.785109
21
0.510867
31
0.0
0
LINE
8
2
62
3
10
0.785109
20
0.510867
30
0.0
11
0.806445
21
0.484454
31
0.0
0
LINE
8
2
62
3
10
0.806445
20
0.484454
30
0.0
11
0.834621
21
0.459987
31
0.0
0
LINE
8
2
62
3
10
0.834621
20
0.459987
30
0.0
11
0.861051
21
0.443851
31
0.0
0
LINE
8
2
62
3
10
0.861051
20
0.443851
30
0.0
11
0.870927
21
0.440902
31
0.0
0
LINE
8
2
62
3
10
0.870927
20
0.440902
30
0.0
11
0.877147
21
0.442431
31
0.0
0
LINE
8
2
62
3
10
0.877147
20
0.442431
30
0.0
11
0.883326
21
0.471354
31
0.0
0
LINE
8
2
62
3
10
0.883326
20
0.471354
30
0.0
11
0.889691
21
0.532401
31
0.0
0
LINE
8
2
62
3
10
0.739761
20
0.529893
30
0.0
11
0.72728
21
0.540277
31
0.0
0
LINE
8
2
62
3
10
0.72728
20
0.540277
30
0.0
11
0.697642
21
0.556444
31
0.0
0
LINE
8
2
62
3
10
0.697642
20
0.556444
30
0.0
11
0.608908
21
0.59683
31
0.0
0
LINE
8
2
62
3
10
0.608908
20
0.59683
30
0.0
11
0.517581
21
0.632466
31
0.0
0
LINE
8
2
62
3
10
0.517581
20
0.632466
30
0.0
11
0.484703
21
0.642694
31
0.0
0
LINE
8
2
62
3
10
0.484703
20
0.642694
30
0.0
11
0.467686
21
0.644764
31
0.0
0
LINE
8
2
62
3
10
0.467686
20
0.644764
30
0.0
11
0.460771
21
0.636922
31
0.0
0
LINE
8
2
62
3
10
0.460771
20
0.636922
30
0.0
11
0.458768
21
0.622381
31
0.0
0
LINE
8
2
62
3
10
0.458768
20
0.622381
30
0.0
11
0.466364
21
0.58275
31
0.0
0
LINE
8
2
62
3
10
0.466364
20
0.58275
30
0.0
11
0.484199
21
0.544967
31
0.0
0
LINE
8
2
62
3
10
0.484199
20
0.544967
30
0.0
11
0.494996
21
0.532736
31
0.0
0
LINE
8
2
62
3
10
0.494996
20
0.532736
30
0.0
11
0.506001
21
0.528129
31
0.0
0
LINE
8
2
62
3
10
0.506001
20
0.528129
30
0.0
11
0.566474
21
0.549981
31
0.0
0
LINE
8
2
62
3
10
0.566474
20
0.549981
30
0.0
11
0.602865
21
0.563902
31
0.0
0
LINE
8
2
62
3
10
0.602865
20
0.563902
30
0.0
11
0.630757
21
0.567602
31
0.0
0
LINE
8
2
62
3
10
0.630757
20
0.567602
30
0.0
11
0.657329
21
0.560653
31
0.0
0
LINE
8
2
62
3
10
0.657329
20
0.560653
30
0.0
11
0.689761
21
0.542628
31
0.0
0
LINE
8
2
62
3
10
0.689761
20
0.542628
30
0.0
11
0.729911
21
0.522347
31
0.0
0
LINE
8
2
62
3
10
0.729911
20
0.522347
30
0.0
11
0.738889
21
0.522574
31
0.0
0
LINE
8
2
62
3
10
0.738889
20
0.522574
30
0.0
11
0.739761
21
0.529893
31
0.0
0
LINE
8
2
62
3
10
0.040652
20
0.538707
30
0.0
11
0.056045
21
0.553675
31
0.0
0
LINE
8
2
62
3
10
0.056045
20
0.553675
30
0.0
11
0.070837
21
0.574079
31
0.0
0
LINE
8
2
62
3
10
0.070837
20
0.574079
30
0.0
11
0.080819
21
0.593208
31
0.0
0
LINE
8
2
62
3
10
0.080819
20
0.593208
30
0.0
11
0.081785
21
0.604347
31
0.0
0
LINE
8
2
62
3
10
0.081785
20
0.604347
30
0.0
11
0.061215
21
0.607753
31
0.0
0
LINE
8
2
62
3
10
0.061215
20
0.607753
30
0.0
11
0.021501
21
0.608831
31
0.0
0
LINE
8
2
62
3
10
0.021501
20
0.608831
30
0.0
11
-0.018209
21
0.607615
31
0.0
0
LINE
8
2
62
3
10
-0.018209
20
0.607615
30
0.0
11
-0.038765
21
0.604138
31
0.0
0
LINE
8
2
62
3
10
-0.038765
20
0.604138
30
0.0
11
-0.035315
21
0.591411
31
0.0
0
LINE
8
2
62
3
10
-0.035315
20
0.591411
30
0.0
11
-0.021493
21
0.56833
31
0.0
0
LINE
8
2
62
3
10
-0.021493
20
0.56833
30
0.0
11
-0.004316
21
0.545326
31
0.0
0
LINE
8
2
62
3
10
-0.004316
20
0.545326
30
0.0
11
0.009201
21
0.53283
31
0.0
0
LINE
8
2
62
3
10
0.009201
20
0.53283
30
0.0
11
0.024151
21
0.529454
31
0.0
0
LINE
8
2
62
3
10
0.024151
20
0.529454
30
0.0
11
0.040652
21
0.538707
31
0.0
0
LINE
8
2
62
3
10
1.330011
20
0.719076
30
0.0
11
1.317375
21
0.730268
31
0.0
0
LINE
8
2
62
3
10
1.317375
20
0.730268
30
0.0
11
1.307468
21
0.735026
31
0.0
0
LINE
8
2
62
3
10
1.307468
20
0.735026
30
0.0
11
1.301002
21
0.733221
31
0.0
0
LINE
8
2
62
3
10
1.301002
20
0.733221
30
0.0
11
1.298689
21
0.724726
31
0.0
0
LINE
8
2
62
3
10
1.298689
20
0.724726
30
0.0
11
1.321371
21
0.695156
31
0.0
0
LINE
8
2
62
3
10
1.321371
20
0.695156
30
0.0
11
1.340607
21
0.678866
31
0.0
0
LINE
8
2
62
3
10
1.340607
20
0.678866
30
0.0
11
1.344563
21
0.679708
31
0.0
0
LINE
8
2
62
3
10
1.344563
20
0.679708
30
0.0
11
1.346717
21
0.685813
31
0.0
0
LINE
8
2
62
3
10
1.346717
20
0.685813
30
0.0
11
1.343046
21
0.70092
31
0.0
0
LINE
8
2
62
3
10
1.343046
20
0.70092
30
0.0
11
1.330011
21
0.719076
31
0.0
0
LINE
8
2
62
3
10
-0.4073
20
0.815949
30
0.0
11
-0.396918
21
0.829139
31
0.0
0
LINE
8
2
62
3
10
-0.396918
20
0.829139
30
0.0
11
-0.388421
21
0.848244
31
0.0
0
LINE
8
2
62
3
10
-0.388421
20
0.848244
30
0.0
11
-0.370258
21
0.924127
31
0.0
0
LINE
8
2
62
3
10
-0.370258
20
0.924127
30
0.0
11
-0.353437
21
1.020301
31
0.0
0
LINE
8
2
62
3
10
-0.542006
20
0.743649
30
0.0
11
-0.495657
21
0.764808
31
0.0
0
LINE
8
2
62
3
10
-0.495657
20
0.764808
30
0.0
11
-0.441131
21
0.793049
31
0.0
0
LINE
8
2
62
3
10
-0.441131
20
0.793049
30
0.0
11
-0.4073
21
0.815949
31
0.0
0
LINE
8
2
62
3
10
1.407824
20
0.860018
30
0.0
11
1.419809
21
0.926441
31
0.0
0
LINE
8
2
62
3
10
1.419809
20
0.926441
30
0.0
11
1.422592
21
0.962843
31
0.0
0
LINE
8
2
62
3
10
1.422592
20
0.962843
30
0.0
11
1.412739
21
0.978938
31
0.0
0
LINE
8
2
62
3
10
1.412739
20
0.978938
30
0.0
11
1.394346
21
0.996535
31
0.0
0
LINE
8
2
62
3
10
1.394346
20
0.996535
30
0.0
11
1.372247
21
1.010737
31
0.0
0
LINE
8
2
62
3
10
1.372247
20
1.010737
30
0.0
11
1.36719
21
1.008868
31
0.0
0
LINE
8
2
62
3
10
1.36719
20
1.008868
30
0.0
11
1.362581
21
1.001583
31
0.0
0
LINE
8
2
62
3
10
1.362581
20
1.001583
30
0.0
11
1.340883
21
0.925605
31
0.0
0
LINE
8
2
62
3
10
1.340883
20
0.925605
30
0.0
11
1.32064
21
0.822379
31
0.0
0
LINE
8
2
62
3
10
1.32064
20
0.822379
30
0.0
11
1.315026
21
0.781324
31
0.0
0
LINE
8
2
62
3
10
1.315026
20
0.781324
30
0.0
11
1.343899
21
0.756595
31
0.0
0
LINE
8
2
62
3
10
1.343899
20
0.756595
30
0.0
11
1.372772
21
0.731865
31
0.0
0
LINE
8
2
62
3
10
1.372772
20
0.731865
30
0.0
11
1.381029
21
0.75204
31
0.0
0
LINE
8
2
62
3
10
1.381029
20
0.75204
30
0.0
11
1.407824
21
0.860018
31
0.0
0
LINE
8
2
62
3
10
1.297758
20
0.847393
30
0.0
11
1.318348
21
0.956783
31
0.0
0
LINE
8
2
62
3
10
1.318348
20
0.956783
30
0.0
11
1.318503
21
0.975231
31
0.0
0
LINE
8
2
62
3
10
1.318503
20
0.975231
30
0.0
11
1.313075
21
0.979685
31
0.0
0
LINE
8
2
62
3
10
1.313075
20
0.979685
30
0.0
11
1.292653
21
0.994327
31
0.0
0
LINE
8
2
62
3
10
1.292653
20
0.994327
30
0.0
11
1.282006
21
1.002957
31
0.0
0
LINE
8
2
62
3
10
1.282006
20
1.002957
30
0.0
11
1.275565
21
1.003146
31
0.0
0
LINE
8
2
62
3
10
1.275565
20
1.003146
30
0.0
11
1.249047
21
0.889475
31
0.0
0
LINE
8
2
62
3
10
1.249047
20
0.889475
30
0.0
11
1.225976
21
0.781626
31
0.0
0
LINE
8
2
62
3
10
1.225976
20
0.781626
30
0.0
11
1.246014
21
0.760711
31
0.0
0
LINE
8
2
62
3
10
1.246014
20
0.760711
30
0.0
11
1.270747
21
0.739796
31
0.0
0
LINE
8
2
62
3
10
1.270747
20
0.739796
30
0.0
11
1.280618
21
0.771402
31
0.0
0
LINE
8
2
62
3
10
1.280618
20
0.771402
30
0.0
11
1.297758
21
0.847393
31
0.0
0
LINE
8
2
62
3
10
1.232107
20
0.942061
30
0.0
11
1.246519
21
1.037973
31
0.0
0
LINE
8
2
62
3
10
1.246519
20
1.037973
30
0.0
11
1.244751
21
1.058282
31
0.0
0
LINE
8
2
62
3
10
1.244751
20
1.058282
30
0.0
11
1.237174
21
1.064335
31
0.0
0
LINE
8
2
62
3
10
1.237174
20
1.064335
30
0.0
11
1.22667
21
1.051673
31
0.0
0
LINE
8
2
62
3
10
1.22667
20
1.051673
30
0.0
11
1.211331
21
1.021183
31
0.0
0
LINE
8
2
62
3
10
1.211331
20
1.021183
30
0.0
11
1.186312
21
0.951462
31
0.0
0
LINE
8
2
62
3
10
1.186312
20
0.951462
30
0.0
11
1.179931
21
0.907523
31
0.0
0
LINE
8
2
62
3
10
1.179931
20
0.907523
30
0.0
11
1.177826
21
0.863064
31
0.0
0
LINE
8
2
62
3
10
1.177826
20
0.863064
30
0.0
11
1.17999
21
0.827401
31
0.0
0
LINE
8
2
62
3
10
1.17999
20
0.827401
30
0.0
11
1.186415
21
0.809848
31
0.0
0
LINE
8
2
62
3
10
1.186415
20
0.809848
30
0.0
11
1.191668
21
0.808141
31
0.0
0
LINE
8
2
62
3
10
1.191668
20
0.808141
30
0.0
11
1.196608
21
0.810358
31
0.0
0
LINE
8
2
62
3
10
1.196608
20
0.810358
30
0.0
11
1.206438
21
0.829139
31
0.0
0
LINE
8
2
62
3
10
1.206438
20
0.829139
30
0.0
11
1.232107
21
0.942061
31
0.0
0
LINE
8
2
62
3
10
1.157082
20
0.908111
30
0.0
11
1.160447
21
0.946639
31
0.0
0
LINE
8
2
62
3
10
1.160447
20
0.946639
30
0.0
11
1.168908
21
0.988174
31
0.0
0
LINE
8
2
62
3
10
1.168908
20
0.988174
30
0.0
11
1.181416
21
1.028617
31
0.0
0
LINE
8
2
62
3
10
1.181416
20
1.028617
30
0.0
11
1.196923
21
1.063868
31
0.0
0
LINE
8
2
62
3
10
1.196923
20
1.063868
30
0.0
11
1.208625
21
1.087362
31
0.0
0
LINE
8
2
62
3
10
1.208625
20
1.087362
30
0.0
11
1.212962
21
1.102457
31
0.0
0
LINE
8
2
62
3
10
1.212962
20
1.102457
30
0.0
11
1.210179
21
1.113234
31
0.0
0
LINE
8
2
62
3
10
1.210179
20
1.113234
30
0.0
11
1.200521
21
1.123771
31
0.0
0
LINE
8
2
62
3
10
1.200521
20
1.123771
30
0.0
11
1.192283
21
1.129439
31
0.0
0
LINE
8
2
62
3
10
1.192283
20
1.129439
30
0.0
11
1.184693
21
1.125896
31
0.0
0
LINE
8
2
62
3
10
1.184693
20
1.125896
30
0.0
11
1.156505
21
1.074408
31
0.0
0
LINE
8
2
62
3
10
1.156505
20
1.074408
30
0.0
11
1.139253
21
1.038176
31
0.0
0
LINE
8
2
62
3
10
1.139253
20
1.038176
30
0.0
11
1.129985
21
1.011265
31
0.0
0
LINE
8
2
62
3
10
1.129985
20
1.011265
30
0.0
11
1.125999
21
0.98229
31
0.0
0
LINE
8
2
62
3
10
1.125999
20
0.98229
30
0.0
11
1.124595
21
0.939865
31
0.0
0
LINE
8
2
62
3
10
1.124595
20
0.939865
30
0.0
11
1.125716
21
0.878891
31
0.0
0
LINE
8
2
62
3
10
1.125716
20
0.878891
30
0.0
11
1.129017
21
0.864202
31
0.0
0
LINE
8
2
62
3
10
1.129017
20
0.864202
30
0.0
11
1.134702
21
0.855402
31
0.0
0
LINE
8
2
62
3
10
1.134702
20
0.855402
30
0.0
11
1.145236
21
0.84769
31
0.0
0
LINE
8
2
62
3
10
1.145236
20
0.84769
30
0.0
11
1.151395
21
0.857112
31
0.0
0
LINE
8
2
62
3
10
1.151395
20
0.857112
30
0.0
11
1.157082
21
0.908111
31
0.0
0
LINE
8
2
62
3
10
1.094078
20
0.919092
30
0.0
11
1.099494
21
0.979121
31
0.0
0
LINE
8
2
62
3
10
1.099494
20
0.979121
30
0.0
11
1.113424
21
1.041972
31
0.0
0
LINE
8
2
62
3
10
1.113424
20
1.041972
30
0.0
11
1.132387
21
1.095347
31
0.0
0
LINE
8
2
62
3
10
1.132387
20
1.095347
30
0.0
11
1.142669
21
1.114639
31
0.0
0
LINE
8
2
62
3
10
1.142669
20
1.114639
30
0.0
11
1.152904
21
1.126951
31
0.0
0
LINE
8
2
62
3
10
1.152904
20
1.126951
30
0.0
11
1.161611
21
1.137899
31
0.0
0
LINE
8
2
62
3
10
1.161611
20
1.137899
30
0.0
11
1.164138
21
1.149964
31
0.0
0
LINE
8
2
62
3
10
1.164138
20
1.149964
30
0.0
11
1.160569
21
1.161269
31
0.0
0
LINE
8
2
62
3
10
1.160569
20
1.161269
30
0.0
11
1.150986
21
1.169936
31
0.0
0
LINE
8
2
62
3
10
1.150986
20
1.169936
30
0.0
11
1.133367
21
1.176669
31
0.0
0
LINE
8
2
62
3
10
1.133367
20
1.176669
30
0.0
11
1.130184
21
1.173946
31
0.0
0
LINE
8
2
62
3
10
1.130184
20
1.173946
30
0.0
11
1.129356
21
1.16697
31
0.0
0
LINE
8
2
62
3
10
1.129356
20
1.16697
30
0.0
11
1.111727
21
1.130722
31
0.0
0
LINE
8
2
62
3
10
1.111727
20
1.130722
30
0.0
11
1.095378
21
1.100146
31
0.0
0
LINE
8
2
62
3
10
1.095378
20
1.100146
30
0.0
11
1.08225
21
1.06319
31
0.0
0
LINE
8
2
62
3
10
1.08225
20
1.06319
30
0.0
11
1.072652
21
1.023077
31
0.0
0
LINE
8
2
62
3
10
1.072652
20
1.023077
30
0.0
11
1.066893
21
0.98303
31
0.0
0
LINE
8
2
62
3
10
1.066893
20
0.98303
30
0.0
11
1.065283
21
0.946273
31
0.0
0
LINE
8
2
62
3
10
1.065283
20
0.946273
30
0.0
11
1.06813
21
0.916027
31
0.0
0
LINE
8
2
62
3
10
1.06813
20
0.916027
30
0.0
11
1.075744
21
0.895516
31
0.0
0
LINE
8
2
62
3
10
1.075744
20
0.895516
30
0.0
11
1.081435
21
0.889918
31
0.0
0
LINE
8
2
62
3
10
1.081435
20
0.889918
30
0.0
11
1.088434
21
0.887962
31
0.0
0
LINE
8
2
62
3
10
1.088434
20
0.887962
30
0.0
11
1.09242
21
0.897107
31
0.0
0
LINE
8
2
62
3
10
1.09242
20
0.897107
30
0.0
11
1.094078
21
0.919092
31
0.0
0
LINE
8
2
62
3
10
1.051754
20
1.063343
30
0.0
11
1.083787
21
1.142542
31
0.0
0
LINE
8
2
62
3
10
1.083787
20
1.142542
30
0.0
11
1.108189
21
1.194703
31
0.0
0
LINE
8
2
62
3
10
1.108189
20
1.194703
30
0.0
11
1.103026
21
1.197512
31
0.0
0
LINE
8
2
62
3
10
1.103026
20
1.197512
30
0.0
11
1.090621
21
1.198286
31
0.0
0
LINE
8
2
62
3
10
1.090621
20
1.198286
30
0.0
11
1.062604
21
1.194009
31
0.0
0
LINE
8
2
62
3
10
1.062604
20
1.194009
30
0.0
11
1.053375
21
1.187312
31
0.0
0
LINE
8
2
62
3
10
1.053375
20
1.187312
30
0.0
11
1.044214
21
1.174573
31
0.0
0
LINE
8
2
62
3
10
1.044214
20
1.174573
30
0.0
11
1.026631
21
1.132616
31
0.0
0
LINE
8
2
62
3
10
1.026631
20
1.132616
30
0.0
11
1.010921
21
1.071437
31
0.0
0
LINE
8
2
62
3
10
1.010921
20
1.071437
30
0.0
11
0.998148
21
0.994338
31
0.0
0
LINE
8
2
62
3
10
0.998148
20
0.994338
30
0.0
11
0.996799
21
0.959206
31
0.0
0
LINE
8
2
62
3
10
0.996799
20
0.959206
30
0.0
11
1.002321
21
0.949696
31
0.0
0
LINE
8
2
62
3
10
1.002321
20
0.949696
30
0.0
11
1.013632
21
0.93971
31
0.0
0
LINE
8
2
62
3
10
1.013632
20
0.93971
30
0.0
11
1.034106
21
0.923344
31
0.0
0
LINE
8
2
62
3
10
1.034106
20
0.923344
30
0.0
11
1.039115
21
0.977973
31
0.0
0
LINE
8
2
62
3
10
1.039115
20
0.977973
30
0.0
11
1.051754
21
1.063343
31
0.0
0
LINE
8
2
62
3
10
0.980664
20
1.047436
30
0.0
11
1.005178
21
1.160443
31
0.0
0
LINE
8
2
62
3
10
1.005178
20
1.160443
30
0.0
11
1.012478
21
1.199512
31
0.0
0
LINE
8
2
62
3
10
1.012478
20
1.199512
30
0.0
11
1.008377
21
1.226564
31
0.0
0
LINE
8
2
62
3
10
1.008377
20
1.226564
30
0.0
11
1.003582
21
1.260089
31
0.0
0
LINE
8
2
62
3
10
1.003582
20
1.260089
30
0.0
11
1.004445
21
1.312291
31
0.0
0
LINE
8
2
62
3
10
1.004445
20
1.312291
30
0.0
11
1.005539
21
1.355532
31
0.0
0
LINE
8
2
62
3
10
1.005539
20
1.355532
30
0.0
11
1.002456
21
1.37133
31
0.0
0
LINE
8
2
62
3
10
1.002456
20
1.37133
30
0.0
11
0.995092
21
1.358601
31
0.0
0
LINE
8
2
62
3
10
0.995092
20
1.358601
30
0.0
11
0.984879
21
1.329998
31
0.0
0
LINE
8
2
62
3
10
0.984879
20
1.329998
30
0.0
11
0.959961
21
1.24114
31
0.0
0
LINE
8
2
62
3
10
0.959961
20
1.24114
30
0.0
11
0.935808
21
1.136687
31
0.0
0
LINE
8
2
62
3
10
0.935808
20
1.136687
30
0.0
11
0.920526
21
1.048574
31
0.0
0
LINE
8
2
62
3
10
0.920526
20
1.048574
30
0.0
11
0.918437
21
1.026507
31
0.0
0
LINE
8
2
62
3
10
0.918437
20
1.026507
30
0.0
11
0.919825
21
1.012936
31
0.0
0
LINE
8
2
62
3
10
0.919825
20
1.012936
30
0.0
11
0.926325
21
1.002992
31
0.0
0
LINE
8
2
62
3
10
0.926325
20
1.002992
30
0.0
11
0.93957
21
0.991805
31
0.0
0
LINE
8
2
62
3
10
0.93957
20
0.991805
30
0.0
11
0.965234
21
0.975489
31
0.0
0
LINE
8
2
62
3
10
0.965234
20
0.975489
30
0.0
11
0.980664
21
1.047436
31
0.0
0
LINE
8
2
62
3
10
1.348825
20
1.053814
30
0.0
11
1.359116
21
1.087647
31
0.0
0
LINE
8
2
62
3
10
1.359116
20
1.087647
30
0.0
11
1.360776
21
1.126134
31
0.0
0
LINE
8
2
62
3
10
1.360776
20
1.126134
30
0.0
11
1.357379
21
1.153344
31
0.0
0
LINE
8
2
62
3
10
1.357379
20
1.153344
30
0.0
11
1.350514
21
1.165776
31
0.0
0
LINE
8
2
62
3
10
1.350514
20
1.165776
30
0.0
11
1.339736
21
1.163691
31
0.0
0
LINE
8
2
62
3
10
1.339736
20
1.163691
30
0.0
11
1.324602
21
1.147349
31
0.0
0
LINE
8
2
62
3
10
1.324602
20
1.147349
30
0.0
11
1.314675
21
1.124354
31
0.0
0
LINE
8
2
62
3
10
1.314675
20
1.124354
30
0.0
11
1.307712
21
1.091146
31
0.0
0
LINE
8
2
62
3
10
1.307712
20
1.091146
30
0.0
11
1.305099
21
1.057404
31
0.0
0
LINE
8
2
62
3
10
1.305099
20
1.057404
30
0.0
11
1.308218
21
1.032806
31
0.0
0
LINE
8
2
62
3
10
1.308218
20
1.032806
30
0.0
11
1.315908
21
1.022875
31
0.0
0
LINE
8
2
62
3
10
1.315908
20
1.022875
30
0.0
11
1.326171
21
1.023548
31
0.0
0
LINE
8
2
62
3
10
1.326171
20
1.023548
30
0.0
11
1.33761
21
1.034102
31
0.0
0
LINE
8
2
62
3
10
1.33761
20
1.034102
30
0.0
11
1.348825
21
1.053814
31
0.0
0
LINE
8
2
62
3
10
0.042078
20
1.110908
30
0.0
11
0.087435
21
1.141662
31
0.0
0
LINE
8
2
62
3
10
0.087435
20
1.141662
30
0.0
11
0.1063
21
1.160135
31
0.0
0
LINE
8
2
62
3
10
0.1063
20
1.160135
30
0.0
11
0.088661
21
1.216725
31
0.0
0
LINE
8
2
62
3
10
0.088661
20
1.216725
30
0.0
11
0.071022
21
1.276858
31
0.0
0
LINE
8
2
62
3
10
0.071022
20
1.276858
30
0.0
11
0.069239
21
1.286308
31
0.0
0
LINE
8
2
62
3
10
0.069239
20
1.286308
30
0.0
11
0.062723
21
1.289329
31
0.0
0
LINE
8
2
62
3
10
0.062723
20
1.289329
30
0.0
11
0.028511
21
1.275927
31
0.0
0
LINE
8
2
62
3
10
0.028511
20
1.275927
30
0.0
11
0.002646
21
1.259449
31
0.0
0
LINE
8
2
62
3
10
0.002646
20
1.259449
30
0.0
11
-0.012904
21
1.237822
31
0.0
0
LINE
8
2
62
3
10
-0.012904
20
1.237822
30
0.0
11
-0.02131
21
1.203653
31
0.0
0
LINE
8
2
62
3
10
-0.02131
20
1.203653
30
0.0
11
-0.025747
21
1.149551
31
0.0
0
LINE
8
2
62
3
10
-0.025747
20
1.149551
30
0.0
11
-0.026007
21
1.071407
31
0.0
0
LINE
8
2
62
3
10
-0.026007
20
1.071407
30
0.0
11
0.042078
21
1.110908
31
0.0
0
LINE
8
2
62
3
10
1.289898
20
1.13438
30
0.0
11
1.297148
21
1.172659
31
0.0
0
LINE
8
2
62
3
10
1.297148
20
1.172659
30
0.0
11
1.260877
21
1.211248
31
0.0
0
LINE
8
2
62
3
10
1.260877
20
1.211248
30
0.0
11
1.187396
21
1.280702
31
0.0
0
LINE
8
2
62
3
10
1.187396
20
1.280702
30
0.0
11
1.154548
21
1.30758
31
0.0
0
LINE
8
2
62
3
10
1.154548
20
1.30758
30
0.0
11
1.136883
21
1.318351
31
0.0
0
LINE
8
2
62
3
10
1.136883
20
1.318351
30
0.0
11
1.130469
21
1.309292
31
0.0
0
LINE
8
2
62
3
10
1.130469
20
1.309292
30
0.0
11
1.123265
21
1.28751
31
0.0
0
LINE
8
2
62
3
10
1.123265
20
1.28751
30
0.0
11
1.111844
21
1.24694
31
0.0
0
LINE
8
2
62
3
10
1.111844
20
1.24694
30
0.0
11
1.116543
21
1.235609
31
0.0
0
LINE
8
2
62
3
10
1.116543
20
1.235609
30
0.0
11
1.135785
21
1.221487
31
0.0
0
LINE
8
2
62
3
10
1.135785
20
1.221487
30
0.0
11
1.171497
21
1.192799
31
0.0
0
LINE
8
2
62
3
10
1.171497
20
1.192799
30
0.0
11
1.218604
21
1.145908
31
0.0
0
LINE
8
2
62
3
10
1.218604
20
1.145908
30
0.0
11
1.2589
21
1.105112
31
0.0
0
LINE
8
2
62
3
10
1.2589
20
1.105112
30
0.0
11
1.278236
21
1.091078
31
0.0
0
LINE
8
2
62
3
10
1.278236
20
1.091078
30
0.0
11
1.289898
21
1.13438
31
0.0
0
LINE
8
2
62
3
10
0.850592
20
1.293773
30
0.0
11
0.86285
21
1.389493
31
0.0
0
LINE
8
2
62
3
10
0.86285
20
1.389493
30
0.0
11
0.863983
21
1.442852
31
0.0
0
LINE
8
2
62
3
10
0.863983
20
1.442852
30
0.0
11
0.859586
21
1.459408
31
0.0
0
LINE
8
2
62
3
10
0.859586
20
1.459408
30
0.0
11
0.851457
21
1.472286
31
0.0
0
LINE
8
2
62
3
10
0.851457
20
1.472286
30
0.0
11
0.822733
21
1.49623
31
0.0
0
LINE
8
2
62
3
10
0.822733
20
1.49623
30
0.0
11
0.800473
21
1.509449
31
0.0
0
LINE
8
2
62
3
10
0.800473
20
1.509449
30
0.0
11
0.782411
21
1.513612
31
0.0
0
LINE
8
2
62
3
10
0.782411
20
1.513612
30
0.0
11
0.76828
21
1.508711
31
0.0
0
LINE
8
2
62
3
10
0.76828
20
1.508711
30
0.0
11
0.757814
21
1.49474
31
0.0
0
LINE
8
2
62
3
10
0.757814
20
1.49474
30
0.0
11
0.747335
21
1.451626
31
0.0
0
LINE
8
2
62
3
10
0.747335
20
1.451626
30
0.0
11
0.734893
21
1.375375
31
0.0
0
LINE
8
2
62
3
10
0.734893
20
1.375375
30
0.0
11
0.724491
21
1.293675
31
0.0
0
LINE
8
2
62
3
10
0.724491
20
1.293675
30
0.0
11
0.720134
21
1.234213
31
0.0
0
LINE
8
2
62
3
10
0.720134
20
1.234213
30
0.0
11
0.722901
21
1.200236
31
0.0
0
LINE
8
2
62
3
10
0.722901
20
1.200236
30
0.0
11
0.732481
21
1.182745
31
0.0
0
LINE
8
2
62
3
10
0.732481
20
1.182745
30
0.0
11
0.77046
21
1.159002
31
0.0
0
LINE
8
2
62
3
10
0.77046
20
1.159002
30
0.0
11
0.790581
21
1.151975
31
0.0
0
LINE
8
2
62
3
10
0.790581
20
1.151975
30
0.0
11
0.808892
21
1.1493
31
0.0
0
LINE
8
2
62
3
10
0.808892
20
1.1493
30
0.0
11
0.830623
21
1.149018
31
0.0
0
LINE
8
2
62
3
10
0.830623
20
1.149018
30
0.0
11
0.850592
21
1.293773
31
0.0
0
LINE
8
2
62
3
10
0.196379
20
1.202987
30
0.0
11
0.253736
21
1.238122
31
0.0
0
LINE
8
2
62
3
10
0.253736
20
1.238122
30
0.0
11
0.239313
21
1.248726
31
0.0
0
LINE
8
2
62
3
10
0.239313
20
1.248726
30
0.0
11
0.199534
21
1.267273
31
0.0
0
LINE
8
2
62
3
10
0.199534
20
1.267273
30
0.0
11
0.153607
21
1.285517
31
0.0
0
LINE
8
2
62
3
10
0.153607
20
1.285517
30
0.0
11
0.12074
21
1.295213
31
0.0
0
LINE
8
2
62
3
10
0.12074
20
1.295213
30
0.0
11
0.101605
21
1.296707
31
0.0
0
LINE
8
2
62
3
10
0.101605
20
1.296707
30
0.0
11
0.093753
21
1.291452
31
0.0
0
LINE
8
2
62
3
10
0.093753
20
1.291452
30
0.0
11
0.096036
21
1.274967
31
0.0
0
LINE
8
2
62
3
10
0.096036
20
1.274967
30
0.0
11
0.107307
21
1.242769
31
0.0
0
LINE
8
2
62
3
10
0.107307
20
1.242769
30
0.0
11
0.128299
21
1.18606
31
0.0
0
LINE
8
2
62
3
10
0.128299
20
1.18606
30
0.0
11
0.137996
21
1.170185
31
0.0
0
LINE
8
2
62
3
10
0.137996
20
1.170185
30
0.0
11
0.196379
21
1.202987
31
0.0
0
LINE
8
2
62
3
10
1.065229
20
1.241693
30
0.0
11
1.081317
21
1.263227
31
0.0
0
LINE
8
2
62
3
10
1.081317
20
1.263227
30
0.0
11
1.093312
21
1.288596
31
0.0
0
LINE
8
2
62
3
10
1.093312
20
1.288596
30
0.0
11
1.10094
21
1.317044
31
0.0
0
LINE
8
2
62
3
10
1.10094
20
1.317044
30
0.0
11
1.103926
21
1.347817
31
0.0
0
LINE
8
2
62
3
10
1.103926
20
1.347817
30
0.0
11
1.101495
21
1.383551
31
0.0
0
LINE
8
2
62
3
10
1.101495
20
1.383551
30
0.0
11
1.089171
21
1.403974
31
0.0
0
LINE
8
2
62
3
10
1.089171
20
1.403974
30
0.0
11
1.074427
21
1.414997
31
0.0
0
LINE
8
2
62
3
10
1.074427
20
1.414997
30
0.0
11
1.062327
21
1.410073
31
0.0
0
LINE
8
2
62
3
10
1.062327
20
1.410073
30
0.0
11
1.050816
21
1.398104
31
0.0
0
LINE
8
2
62
3
10
1.050816
20
1.398104
30
0.0
11
1.042566
21
1.382507
31
0.0
0
LINE
8
2
62
3
10
1.042566
20
1.382507
30
0.0
11
1.030843
21
1.327273
31
0.0
0
LINE
8
2
62
3
10
1.030843
20
1.327273
30
0.0
11
1.028144
21
1.290832
31
0.0
0
LINE
8
2
62
3
10
1.028144
20
1.290832
30
0.0
11
1.030027
21
1.258537
31
0.0
0
LINE
8
2
62
3
10
1.030027
20
1.258537
30
0.0
11
1.035794
21
1.235449
31
0.0
0
LINE
8
2
62
3
10
1.035794
20
1.235449
30
0.0
11
1.044746
21
1.226629
31
0.0
0
LINE
8
2
62
3
10
1.044746
20
1.226629
30
0.0
11
1.065229
21
1.241693
31
0.0
0
LINE
8
2
62
3
10
0.345033
20
-1.553658
30
0.0
11
0.318092
21
-1.545755
31
0.0
0
LINE
8
2
62
3
10
0.318092
20
-1.545755
30
0.0
11
0.297691
21
-1.532964
31
0.0
0
LINE
8
2
62
3
10
0.297691
20
-1.532964
30
0.0
11
0.281995
21
-1.513654
31
0.0
0
LINE
8
2
62
3
10
0.281995
20
-1.513654
30
0.0
11
0.269169
21
-1.486192
31
0.0
0
LINE
8
2
62
3
10
0.269169
20
-1.486192
30
0.0
11
0.254467
21
-1.439746
31
0.0
0
LINE
8
2
62
3
10
0.254467
20
-1.439746
30
0.0
11
0.247426
21
-1.431873
31
0.0
0
LINE
8
2
62
3
10
0.247426
20
-1.431873
30
0.0
11
0.23051
21
-1.422782
31
0.0
0
LINE
8
2
62
3
10
0.23051
20
-1.422782
30
0.0
11
0.210027
21
-1.415274
31
0.0
0
LINE
8
2
62
3
10
0.210027
20
-1.415274
30
0.0
11
0.192287
21
-1.412149
31
0.0
0
LINE
8
2
62
3
10
0.192287
20
-1.412149
30
0.0
11
0.179532
21
-1.415583
31
0.0
0
LINE
8
2
62
3
10
0.179532
20
-1.415583
30
0.0
11
0.167883
21
-1.425716
31
0.0
0
LINE
8
2
62
3
10
0.167883
20
-1.425716
30
0.0
11
0.157549
21
-1.442295
31
0.0
0
LINE
8
2
62
3
10
0.157549
20
-1.442295
30
0.0
11
0.148739
21
-1.465065
31
0.0
0
LINE
8
2
62
3
10
0.148739
20
-1.465065
30
0.0
11
0.138606
21
-1.492652
31
0.0
0
LINE
8
2
62
3
10
0.138606
20
-1.492652
30
0.0
11
0.127479
21
-1.511392
31
0.0
0
LINE
8
2
62
3
10
0.127479
20
-1.511392
30
0.0
11
0.114048
21
-1.5229
31
0.0
0
LINE
8
2
62
3
10
0.114048
20
-1.5229
30
0.0
11
0.097
21
-1.52879
31
0.0
0
LINE
8
2
62
3
10
0.986667
20
0.241428
30
0.0
11
1.027708
21
0.134542
31
0.0
0
LINE
8
2
62
3
10
1.027708
20
0.134542
30
0.0
11
1.037634
21
0.097016
31
0.0
0
LINE
8
2
62
3
10
1.037634
20
0.097016
30
0.0
11
1.054707
21
0.014352
31
0.0
0
LINE
8
2
62
3
10
1.054707
20
0.014352
30
0.0
11
1.074241
21
-0.077729
31
0.0
0
LINE
8
2
62
3
10
1.074241
20
-0.077729
30
0.0
11
1.089582
21
-0.184482
31
0.0
0
LINE
8
2
62
3
10
1.089582
20
-0.184482
30
0.0
11
1.087843
21
-0.211596
31
0.0
0
LINE
8
2
62
3
10
1.087843
20
-0.211596
30
0.0
11
1.078297
21
-0.242745
31
0.0
0
LINE
8
2
62
3
10
1.078297
20
-0.242745
30
0.0
11
1.068108
21
-0.278127
31
0.0
0
LINE
8
2
62
3
10
1.068108
20
-0.278127
30
0.0
11
1.067999
21
-0.315046
31
0.0
0
LINE
8
2
62
3
10
1.067999
20
-0.315046
30
0.0
11
1.078366
21
-0.35653
31
0.0
0
LINE
8
2
62
3
10
1.078366
20
-0.35653
30
0.0
11
1.099605
21
-0.405606
31
0.0
0
LINE
8
2
62
3
10
1.099605
20
-0.405606
30
0.0
11
1.127527
21
-0.465435
31
0.0
0
LINE
8
2
62
3
10
1.127527
20
-0.465435
30
0.0
11
1.139952
21
-0.501982
31
0.0
0
LINE
8
2
62
3
10
1.139952
20
-0.501982
30
0.0
11
1.153648
21
-0.547843
31
0.0
0
LINE
8
2
62
3
10
1.153648
20
-0.547843
30
0.0
11
1.163311
21
-0.607753
31
0.0
0
LINE
8
2
62
3
10
1.163311
20
-0.607753
30
0.0
11
1.162885
21
-0.690759
31
0.0
0
LINE
8
2
62
3
10
1.162885
20
-0.690759
30
0.0
11
1.152433
21
-0.795779
31
0.0
0
LINE
8
2
62
3
10
1.152433
20
-0.795779
30
0.0
11
1.132017
21
-0.921733
31
0.0
0
LINE
8
2
62
3
10
1.132017
20
-0.921733
30
0.0
11
1.117465
21
-1.027621
31
0.0
0
LINE
8
2
62
3
10
1.117465
20
-1.027621
30
0.0
11
1.108211
21
-1.084065
31
0.0
0
LINE
8
2
62
3
10
1.108211
20
-1.084065
30
0.0
11
1.094723
21
-1.116753
31
0.0
0
LINE
8
2
62
3
10
1.094723
20
-1.116753
30
0.0
11
1.089159
21
-1.130296
31
0.0
0
LINE
8
2
62
3
10
1.089159
20
-1.130296
30
0.0
11
1.081404
21
-1.140289
31
0.0
0
LINE
8
2
62
3
10
1.081404
20
-1.140289
30
0.0
11
1.051439
21
-1.156944
31
0.0
0
LINE
8
2
62
3
10
1.051439
20
-1.156944
30
0.0
11
1.022802
21
-1.172723
31
0.0
0
LINE
8
2
62
3
10
1.022802
20
-1.172723
30
0.0
11
1.008753
21
-1.191284
31
0.0
0
LINE
8
2
62
3
10
1.008753
20
-1.191284
30
0.0
11
0.989789
21
-1.267418
31
0.0
0
LINE
8
2
62
3
10
0.989789
20
-1.267418
30
0.0
11
0.975544
21
-1.374873
31
0.0
0
LINE
8
2
62
3
10
0.975544
20
-1.374873
30
0.0
11
0.969125
21
-1.446958
31
0.0
0
LINE
8
2
62
3
10
0.74188
20
-1.539365
30
0.0
11
0.723589
21
-1.526797
31
0.0
0
LINE
8
2
62
3
10
0.723589
20
-1.526797
30
0.0
11
0.710106
21
-1.50526
31
0.0
0
LINE
8
2
62
3
10
0.710106
20
-1.50526
30
0.0
11
0.698297
21
-1.484394
31
0.0
0
LINE
8
2
62
3
10
0.698297
20
-1.484394
30
0.0
11
0.68894
21
-1.475809
31
0.0
0
LINE
8
2
62
3
10
0.68894
20
-1.475809
30
0.0
11
0.680271
21
-1.482603
31
0.0
0
LINE
8
2
62
3
10
0.680271
20
-1.482603
30
0.0
11
0.670116
21
-1.498711
31
0.0
0
LINE
8
2
62
3
10
0.670116
20
-1.498711
30
0.0
11
0.655928
21
-1.518434
31
0.0
0
LINE
8
2
62
3
10
0.655928
20
-1.518434
30
0.0
11
0.637559
21
-1.53392
31
0.0
0
LINE
8
2
62
3
10
0.637559
20
-1.53392
30
0.0
11
0.617691
21
-1.541255
31
0.0
0
LINE
8
2
62
3
10
0.617691
20
-1.541255
30
0.0
11
0.586727
21
-1.547627
31
0.0
0
LINE
8
2
62
3
10
0.586727
20
-1.547627
30
0.0
11
0.504159
21
-1.556624
31
0.0
0
LINE
8
2
62
3
10
0.504159
20
-1.556624
30
0.0
11
0.41516
21
-1.559204
31
0.0
0
LINE
8
2
62
3
10
0.41516
20
-1.559204
30
0.0
11
0.345033
21
-1.553658
31
0.0
0
LINE
8
2
62
3
10
0.522578
20
-1.517778
30
0.0
11
0.608447
21
-1.503889
31
0.0
0
LINE
8
2
62
3
10
0.608447
20
-1.503889
30
0.0
11
0.628862
21
-1.49538
31
0.0
0
LINE
8
2
62
3
10
0.628862
20
-1.49538
30
0.0
11
0.635467
21
-1.485484
31
0.0
0
LINE
8
2
62
3
10
0.635467
20
-1.485484
30
0.0
11
0.617026
21
-1.44002
31
0.0
0
LINE
8
2
62
3
10
0.617026
20
-1.44002
30
0.0
11
0.586568
21
-1.383926
31
0.0
0
LINE
8
2
62
3
10
0.586568
20
-1.383926
30
0.0
11
0.5787
21
-1.37809
31
0.0
0
LINE
8
2
62
3
10
0.5787
20
-1.37809
30
0.0
11
0.568267
21
-1.389177
31
0.0
0
LINE
8
2
62
3
10
0.568267
20
-1.389177
30
0.0
11
0.505305
21
-1.447792
31
0.0
0
LINE
8
2
62
3
10
0.505305
20
-1.447792
30
0.0
11
0.423994
21
-1.513059
31
0.0
0
LINE
8
2
62
3
10
0.423994
20
-1.513059
30
0.0
11
0.406549
21
-1.525038
31
0.0
0
LINE
8
2
62
3
10
0.406549
20
-1.525038
30
0.0
11
0.43105
21
-1.524915
31
0.0
0
LINE
8
2
62
3
10
0.43105
20
-1.524915
30
0.0
11
0.522578
21
-1.517778
31
0.0
0
LINE
8
2
62
3
10
0.425796
20
-1.464303
30
0.0
11
0.47469
21
-1.427102
31
0.0
0
LINE
8
2
62
3
10
0.47469
20
-1.427102
30
0.0
11
0.521091
21
-1.386131
31
0.0
0
LINE
8
2
62
3
10
0.521091
20
-1.386131
30
0.0
11
0.558994
21
-1.344718
31
0.0
0
LINE
8
2
62
3
10
0.558994
20
-1.344718
30
0.0
11
0.562462
21
-1.331685
31
0.0
0
LINE
8
2
62
3
10
0.562462
20
-1.331685
30
0.0
11
0.56014
21
-1.315575
31
0.0
0
LINE
8
2
62
3
10
0.56014
20
-1.315575
30
0.0
11
0.555084
21
-1.260211
31
0.0
0
LINE
8
2
62
3
10
0.555084
20
-1.260211
30
0.0
11
0.562121
21
-1.206402
31
0.0
0
LINE
8
2
62
3
10
0.562121
20
-1.206402
30
0.0
11
0.58038
21
-1.157681
31
0.0
0
LINE
8
2
62
3
10
0.58038
20
-1.157681
30
0.0
11
0.60899
21
-1.117579
31
0.0
0
LINE
8
2
62
3
10
0.60899
20
-1.117579
30
0.0
11
0.625982
21
-1.102626
31
0.0
0
LINE
8
2
62
3
10
0.625982
20
-1.102626
30
0.0
11
0.641486
21
-1.095973
31
0.0
0
LINE
8
2
62
3
10
0.641486
20
-1.095973
30
0.0
11
0.658191
21
-1.097164
31
0.0
0
LINE
8
2
62
3
10
0.658191
20
-1.097164
30
0.0
11
0.678787
21
-1.105743
31
0.0
0
LINE
8
2
62
3
10
0.678787
20
-1.105743
30
0.0
11
0.696987
21
-1.112408
31
0.0
0
LINE
8
2
62
3
10
0.696987
20
-1.112408
30
0.0
11
0.710617
21
-1.112855
31
0.0
0
LINE
8
2
62
3
10
0.710617
20
-1.112855
30
0.0
11
0.720164
21
-1.103855
31
0.0
0
LINE
8
2
62
3
10
0.720164
20
-1.103855
30
0.0
11
0.73227
21
-1.084208
31
0.0
0
LINE
8
2
62
3
10
0.73227
20
-1.084208
30
0.0
11
0.761306
21
-1.020111
31
0.0
0
LINE
8
2
62
3
10
0.761306
20
-1.020111
30
0.0
11
0.792014
21
-0.934842
31
0.0
0
LINE
8
2
62
3
10
0.792014
20
-0.934842
30
0.0
11
0.818681
21
-0.842678
31
0.0
0
LINE
8
2
62
3
10
0.818681
20
-0.842678
30
0.0
11
0.833187
21
-0.784736
31
0.0
0
LINE
8
2
62
3
10
0.833187
20
-0.784736
30
0.0
11
0.80761
21
-0.744753
31
0.0
0
LINE
8
2
62
3
10
0.80761
20
-0.744753
30
0.0
11
0.774702
21
-0.685106
31
0.0
0
LINE
8
2
62
3
10
0.774702
20
-0.685106
30
0.0
11
0.757227
21
-0.631053
31
0.0
0
LINE
8
2
62
3
10
0.757227
20
-0.631053
30
0.0
11
0.754322
21
-0.578057
31
0.0
0
LINE
8
2
62
3
10
0.754322
20
-0.578057
30
0.0
11
0.765122
21
-0.521578
31
0.0
0
LINE
8
2
62
3
10
0.765122
20
-0.521578
30
0.0
11
0.776405
21
-0.490175
31
0.0
0
LINE
8
2
62
3
10
0.776405
20
-0.490175
30
0.0
11
0.790811
21
-0.465909
31
0.0
0
LINE
8
2
62
3
10
0.790811
20
-0.465909
30
0.0
11
0.810483
21
-0.446002
31
0.0
0
LINE
8
2
62
3
10
0.810483
20
-0.446002
30
0.0
11
0.837565
21
-0.427677
31
0.0
0
LINE
8
2
62
3
10
0.837565
20
-0.427677
30
0.0
11
0.870386
21
-0.408443
31
0.0
0
LINE
8
2
62
3
10
0.870386
20
-0.408443
30
0.0
11
0.865981
21
-0.322921
31
0.0
0
LINE
8
2
62
3
10
0.865981
20
-0.322921
30
0.0
11
0.848914
21
-0.121751
31
0.0
0
LINE
8
2
62
3
10
0.848914
20
-0.121751
30
0.0
11
0.838366
21
-0.05425
31
0.0
0
LINE
8
2
62
3
10
0.838366
20
-0.05425
30
0.0
11
0.828446
21
-0.024478
31
0.0
0
LINE
8
2
62
3
10
0.828446
20
-0.024478
30
0.0
11
0.790808
21
-0.011641
31
0.0
0
LINE
8
2
62
3
10
0.790808
20
-0.011641
30
0.0
11
0.768723
21
-0.0047
31
0.0
0
LINE
8
2
62
3
10
0.768723
20
-0.0047
30
0.0
11
0.751029
21
0.008047
31
0.0
0
LINE
8
2
62
3
10
0.751029
20
0.008047
30
0.0
11
0.737499
21
0.02683
31
0.0
0
LINE
8
2
62
3
10
0.737499
20
0.02683
30
0.0
11
0.727905
21
0.051879
31
0.0
0
LINE
8
2
62
3
10
0.727905
20
0.051879
30
0.0
11
0.721201
21
0.088957
31
0.0
0
LINE
8
2
62
3
10
0.721201
20
0.088957
30
0.0
11
0.720866
21
0.126725
31
0.0
0
LINE
8
2
62
3
10
0.720866
20
0.126725
30
0.0
11
0.726818
21
0.164112
31
0.0
0
LINE
8
2
62
3
10
0.726818
20
0.164112
30
0.0
11
0.738979
21
0.200046
31
0.0
0
LINE
8
2
62
3
10
0.738979
20
0.200046
30
0.0
11
0.752067
21
0.235125
31
0.0
0
LINE
8
2
62
3
10
0.752067
20
0.235125
30
0.0
11
0.757541
21
0.260018
31
0.0
0
LINE
8
2
62
3
10
0.757541
20
0.260018
30
0.0
11
0.748856
21
0.290933
31
0.0
0
LINE
8
2
62
3
10
0.748856
20
0.290933
30
0.0
11
0.727552
21
0.34216
31
0.0
0
LINE
8
2
62
3
10
0.0826
20
-1.48976
30
0.0
11
0.096135
21
-1.488854
31
0.0
0
LINE
8
2
62
3
10
0.096135
20
-1.488854
30
0.0
11
0.105176
21
-1.484552
31
0.0
0
LINE
8
2
62
3
10
0.105176
20
-1.484552
30
0.0
11
0.120544
21
-1.456246
31
0.0
0
LINE
8
2
62
3
10
0.120544
20
-1.456246
30
0.0
11
0.142304
21
-1.409313
31
0.0
0
LINE
8
2
62
3
10
0.142304
20
-1.409313
30
0.0
11
0.162579
21
-1.382981
31
0.0
0
LINE
8
2
62
3
10
0.162579
20
-1.382981
30
0.0
11
0.173526
21
-1.376419
31
0.0
0
LINE
8
2
62
3
10
0.173526
20
-1.376419
30
0.0
11
0.185741
21
-1.373662
31
0.0
0
LINE
8
2
62
3
10
0.185741
20
-1.373662
30
0.0
11
0.216163
21
-1.377767
31
0.0
0
LINE
8
2
62
3
10
0.216163
20
-1.377767
30
0.0
11
0.241959
21
-1.387767
31
0.0
0
LINE
8
2
62
3
10
0.241959
20
-1.387767
30
0.0
11
0.261544
21
-1.403253
31
0.0
0
LINE
8
2
62
3
10
0.261544
20
-1.403253
30
0.0
11
0.276986
21
-1.426511
31
0.0
0
LINE
8
2
62
3
10
0.276986
20
-1.426511
30
0.0
11
0.29035
21
-1.459829
31
0.0
0
LINE
8
2
62
3
10
0.29035
20
-1.459829
30
0.0
11
0.30555
21
-1.505504
31
0.0
0
LINE
8
2
62
3
10
0.30555
20
-1.505504
30
0.0
11
0.340338
21
-1.502161
31
0.0
0
LINE
8
2
62
3
10
0.340338
20
-1.502161
30
0.0
11
0.378475
21
-1.492244
31
0.0
0
LINE
8
2
62
3
10
0.378475
20
-1.492244
30
0.0
11
0.425796
21
-1.464303
31
0.0
0
LINE
8
2
62
3
10
0.878899
20
-1.479643
30
0.0
11
0.903086
21
-1.457442
31
0.0
0
LINE
8
2
62
3
10
0.903086
20
-1.457442
30
0.0
11
0.925227
21
-1.43153
31
0.0
0
LINE
8
2
62
3
10
0.925227
20
-1.43153
30
0.0
11
0.936053
21
-1.414976
31
0.0
0
LINE
8
2
62
3
10
0.936053
20
-1.414976
30
0.0
11
0.942319
21
-1.399684
31
0.0
0
LINE
8
2
62
3
10
0.942319
20
-1.399684
30
0.0
11
0.945911
21
-1.355467
31
0.0
0
LINE
8
2
62
3
10
0.945911
20
-1.355467
30
0.0
11
0.938763
21
-1.255767
31
0.0
0
LINE
8
2
62
3
10
0.938763
20
-1.255767
30
0.0
11
0.919314
21
-1.128701
31
0.0
0
LINE
8
2
62
3
10
0.919314
20
-1.128701
30
0.0
11
0.890557
21
-0.990724
31
0.0
0
LINE
8
2
62
3
10
0.890557
20
-0.990724
30
0.0
11
0.855483
21
-0.858288
31
0.0
0
LINE
8
2
62
3
10
0.855483
20
-0.858288
30
0.0
11
0.849137
21
-0.837121
31
0.0
0
LINE
8
2
62
3
10
0.849137
20
-0.837121
30
0.0
11
0.840553
21
-0.868871
31
0.0
0
LINE
8
2
62
3
10
0.840553
20
-0.868871
30
0.0
11
0.798514
21
-0.998819
31
0.0
0
LINE
8
2
62
3
10
0.798514
20
-0.998819
30
0.0
11
0.752431
21
-1.10605
31
0.0
0
LINE
8
2
62
3
10
0.752431
20
-1.10605
30
0.0
11
0.721987
21
-1.163313
31
0.0
0
LINE
8
2
62
3
10
0.721987
20
-1.163313
30
0.0
11
0.739324
21
-1.215005
31
0.0
0
LINE
8
2
62
3
10
0.739324
20
-1.215005
30
0.0
11
0.751551
21
-1.263593
31
0.0
0
LINE
8
2
62
3
10
0.751551
20
-1.263593
30
0.0
11
0.756597
21
-1.315432
31
0.0
0
LINE
8
2
62
3
10
0.756597
20
-1.315432
30
0.0
11
0.75448
21
-1.37118
31
0.0
0
LINE
8
2
62
3
10
0.75448
20
-1.37118
30
0.0
11
0.745217
21
-1.431493
31
0.0
0
LINE
8
2
62
3
10
0.745217
20
-1.431493
30
0.0
11
0.738275
21
-1.474901
31
0.0
0
LINE
8
2
62
3
10
0.738275
20
-1.474901
30
0.0
11
0.738263
21
-1.497609
31
0.0
0
LINE
8
2
62
3
10
0.738263
20
-1.497609
30
0.0
11
0.755787
21
-1.50277
31
0.0
0
LINE
8
2
62
3
10
0.755787
20
-1.50277
30
0.0
11
0.79822
21
-1.502389
31
0.0
0
LINE
8
2
62
3
10
0.79822
20
-1.502389
30
0.0
11
0.847865
21
-1.4962
31
0.0
0
LINE
8
2
62
3
10
0.847865
20
-1.4962
30
0.0
11
0.863693
21
-1.489786
31
0.0
0
LINE
8
2
62
3
10
0.863693
20
-1.489786
30
0.0
11
0.878899
21
-1.479643
31
0.0
0
LINE
8
2
62
3
10
0.667217
20
-1.440371
30
0.0
11
0.676443
21
-1.435388
31
0.0
0
LINE
8
2
62
3
10
0.676443
20
-1.435388
30
0.0
11
0.692502
21
-1.433315
31
0.0
0
LINE
8
2
62
3
10
0.692502
20
-1.433315
30
0.0
11
0.708941
21
-1.429339
31
0.0
0
LINE
8
2
62
3
10
0.708941
20
-1.429339
30
0.0
11
0.720104
21
-1.415308
31
0.0
0
LINE
8
2
62
3
10
0.720104
20
-1.415308
30
0.0
11
0.727401
21
-1.388068
31
0.0
0
LINE
8
2
62
3
10
0.727401
20
-1.388068
30
0.0
11
0.732244
21
-1.344464
31
0.0
0
LINE
8
2
62
3
10
0.732244
20
-1.344464
30
0.0
11
0.732612
21
-1.30593
31
0.0
0
LINE
8
2
62
3
10
0.732612
20
-1.30593
30
0.0
11
0.727011
21
-1.268716
31
0.0
0
LINE
8
2
62
3
10
0.727011
20
-1.268716
30
0.0
11
0.71472
21
-1.229742
31
0.0
0
LINE
8
2
62
3
10
0.71472
20
-1.229742
30
0.0
11
0.695014
21
-1.185928
31
0.0
0
LINE
8
2
62
3
10
0.695014
20
-1.185928
30
0.0
11
0.680799
21
-1.160689
31
0.0
0
LINE
8
2
62
3
10
0.680799
20
-1.160689
30
0.0
11
0.667815
21
-1.145443
31
0.0
0
LINE
8
2
62
3
10
0.667815
20
-1.145443
30
0.0
11
0.654512
21
-1.138905
31
0.0
0
LINE
8
2
62
3
10
0.654512
20
-1.138905
30
0.0
11
0.639343
21
-1.139792
31
0.0
0
LINE
8
2
62
3
10
0.639343
20
-1.139792
30
0.0
11
0.621252
21
-1.152033
31
0.0
0
LINE
8
2
62
3
10
0.621252
20
-1.152033
30
0.0
11
0.603252
21
-1.176457
31
0.0
0
LINE
8
2
62
3
10
0.603252
20
-1.176457
30
0.0
11
0.588652
21
-1.207445
31
0.0
0
LINE
8
2
62
3
10
0.588652
20
-1.207445
30
0.0
11
0.580756
21
-1.239376
31
0.0
0
LINE
8
2
62
3
10
0.580756
20
-1.239376
30
0.0
11
0.581053
21
-1.264352
31
0.0
0
LINE
8
2
62
3
10
0.581053
20
-1.264352
30
0.0
11
0.588597
21
-1.296346
31
0.0
0
LINE
8
2
62
3
10
0.588597
20
-1.296346
30
0.0
11
0.633441
21
-1.406857
31
0.0
0
LINE
8
2
62
3
10
0.633441
20
-1.406857
30
0.0
11
0.653801
21
-1.44381
31
0.0
0
LINE
8
2
62
3
10
0.653801
20
-1.44381
30
0.0
11
0.660835
21
-1.446602
31
0.0
0
LINE
8
2
62
3
10
0.660835
20
-1.446602
30
0.0
11
0.667217
21
-1.440371
31
0.0
0
LINE
8
2
62
3
10
0.977646
20
-1.19519
30
0.0
11
0.989288
21
-1.169249
31
0.0
0
LINE
8
2
62
3
10
0.989288
20
-1.169249
30
0.0
11
1.003225
21
-1.148113
31
0.0
0
LINE
8
2
62
3
10
1.003225
20
-1.148113
30
0.0
11
1.01981
21
-1.13134
31
0.0
0
LINE
8
2
62
3
10
1.01981
20
-1.13134
30
0.0
11
1.039397
21
-1.118492
31
0.0
0
LINE
8
2
62
3
10
1.039397
20
-1.118492
30
0.0
11
1.053139
21
-1.106986
31
0.0
0
LINE
8
2
62
3
10
1.053139
20
-1.106986
30
0.0
11
1.058324
21
-1.083795
31
0.0
0
LINE
8
2
62
3
10
1.058324
20
-1.083795
30
0.0
11
1.055306
21
-1.037595
31
0.0
0
LINE
8
2
62
3
10
1.055306
20
-1.037595
30
0.0
11
1.04444
21
-0.957065
31
0.0
0
LINE
8
2
62
3
10
1.04444
20
-0.957065
30
0.0
11
1.017037
21
-0.806953
31
0.0
0
LINE
8
2
62
3
10
1.017037
20
-0.806953
30
0.0
11
1.000095
21
-0.742133
31
0.0
0
LINE
8
2
62
3
10
1.000095
20
-0.742133
30
0.0
11
0.979936
21
-0.679589
31
0.0
0
LINE
8
2
62
3
10
0.979936
20
-0.679589
30
0.0
11
0.932214
21
-0.565174
31
0.0
0
LINE
8
2
62
3
10
0.932214
20
-0.565174
30
0.0
11
0.883927
21
-0.468671
31
0.0
0
LINE
8
2
62
3
10
0.883927
20
-0.468671
30
0.0
11
0.873999
21
-0.452999
31
0.0
0
LINE
8
2
62
3
10
0.873999
20
-0.452999
30
0.0
11
0.847122
21
-0.46671
31
0.0
0
LINE
8
2
62
3
10
0.847122
20
-0.46671
30
0.0
11
0.823143
21
-0.481986
31
0.0
0
LINE
8
2
62
3
10
0.823143
20
-0.481986
30
0.0
11
0.805165
21
-0.500936
31
0.0
0
LINE
8
2
62
3
10
0.805165
20
-0.500936
30
0.0
11
0.792075
21
-0.525101
31
0.0
0
LINE
8
2
62
3
10
0.792075
20
-0.525101
30
0.0
11
0.782765
21
-0.556023
31
0.0
0
LINE
8
2
62
3
10
0.782765
20
-0.556023
30
0.0
11
0.77814
21
-0.590482
31
0.0
0
LINE
8
2
62
3
10
0.77814
20
-0.590482
30
0.0
11
0.78205
21
-0.623381
31
0.0
0
LINE
8
2
62
3
10
0.78205
20
-0.623381
30
0.0
11
0.796102
21
-0.661032
31
0.0
0
LINE
8
2
62
3
10
0.796102
20
-0.661032
30
0.0
11
0.821904
21
-0.709746
31
0.0
0
LINE
8
2
62
3
10
0.821904
20
-0.709746
30
0.0
11
0.858403
21
-0.790457
31
0.0
0
LINE
8
2
62
3
10
0.858403
20
-0.790457
30
0.0
11
0.894875
21
-0.900078
31
0.0
0
LINE
8
2
62
3
10
0.894875
20
-0.900078
30
0.0
11
0.926991
21
-1.023875
31
0.0
0
LINE
8
2
62
3
10
0.926991
20
-1.023875
30
0.0
11
0.950423
21
-1.147117
31
0.0
0
LINE
8
2
62
3
10
0.950423
20
-1.147117
30
0.0
11
0.96389
21
-1.228704
31
0.0
0
LINE
8
2
62
3
10
0.96389
20
-1.228704
30
0.0
11
0.977646
21
-1.19519
31
0.0
0
LINE
8
2
62
3
10
1.093936
20
-0.979996
30
0.0
11
1.116306
21
-0.860693
31
0.0
0
LINE
8
2
62
3
10
1.116306
20
-0.860693
30
0.0
11
1.131819
21
-0.744812
31
0.0
0
LINE
8
2
62
3
10
1.131819
20
-0.744812
30
0.0
11
1.138759
21
-0.648575
31
0.0
0
LINE
8
2
62
3
10
1.138759
20
-0.648575
30
0.0
11
1.135409
21
-0.588205
31
0.0
0
LINE
8
2
62
3
10
1.135409
20
-0.588205
30
0.0
11
1.104368
21
-0.502279
31
0.0
0
LINE
8
2
62
3
10
1.104368
20
-0.502279
30
0.0
11
1.048543
21
-0.373781
31
0.0
0
LINE
8
2
62
3
10
1.048543
20
-0.373781
30
0.0
11
0.986229
21
-0.242883
31
0.0
0
LINE
8
2
62
3
10
0.986229
20
-0.242883
30
0.0
11
0.935724
21
-0.149757
31
0.0
0
LINE
8
2
62
3
10
0.935724
20
-0.149757
30
0.0
11
0.91277
21
-0.115003
31
0.0
0
LINE
8
2
62
3
10
0.91277
20
-0.115003
30
0.0
11
0.885988
21
-0.082176
31
0.0
0
LINE
8
2
62
3
10
0.885988
20
-0.082176
30
0.0
11
0.870812
21
-0.066056
31
0.0
0
LINE
8
2
62
3
10
0.870812
20
-0.066056
30
0.0
11
0.871369
21
-0.078649
31
0.0
0
LINE
8
2
62
3
10
0.871369
20
-0.078649
30
0.0
11
0.893392
21
-0.353026
31
0.0
0
LINE
8
2
62
3
10
0.893392
20
-0.353026
30
0.0
11
0.896847
21
-0.391748
31
0.0
0
LINE
8
2
62
3
10
0.896847
20
-0.391748
30
0.0
11
0.903466
21
-0.42322
31
0.0
0
LINE
8
2
62
3
10
0.903466
20
-0.42322
30
0.0
11
0.940149
21
-0.511776
31
0.0
0
LINE
8
2
62
3
10
0.940149
20
-0.511776
30
0.0
11
0.986475
21
-0.61853
31
0.0
0
LINE
8
2
62
3
10
0.986475
20
-0.61853
30
0.0
11
1.019424
21
-0.710451
31
0.0
0
LINE
8
2
62
3
10
1.019424
20
-0.710451
30
0.0
11
1.043218
21
-0.801128
31
0.0
0
LINE
8
2
62
3
10
1.043218
20
-0.801128
30
0.0
11
1.062079
21
-0.904149
31
0.0
0
LINE
8
2
62
3
10
1.062079
20
-0.904149
30
0.0
11
1.077037
21
-0.995068
31
0.0
0
LINE
8
2
62
3
10
1.077037
20
-0.995068
30
0.0
11
1.083471
21
-1.017038
31
0.0
0
LINE
8
2
62
3
10
1.083471
20
-1.017038
30
0.0
11
1.093936
21
-0.979996
31
0.0
0
LINE
8
2
62
3
10
1.051426
20
-0.210799
30
0.0
11
1.044129
21
-0.180868
31
0.0
0
LINE
8
2
62
3
10
1.044129
20
-0.180868
30
0.0
11
1.02371
21
-0.134176
31
0.0
0
LINE
8
2
62
3
10
1.02371
20
-0.134176
30
0.0
11
0.956211
21
-0.011656
31
0.0
0
LINE
8
2
62
3
10
0.956211
20
-0.011656
30
0.0
11
0.874338
21
0.114465
31
0.0
0
LINE
8
2
62
3
10
0.874338
20
0.114465
30
0.0
11
0.835953
21
0.165658
31
0.0
0
LINE
8
2
62
3
10
0.835953
20
0.165658
30
0.0
11
0.803502
21
0.20189
31
0.0
0
LINE
8
2
62
3
10
0.803502
20
0.20189
30
0.0
11
0.779268
21
0.224901
31
0.0
0
LINE
8
2
62
3
10
0.779268
20
0.224901
30
0.0
11
0.766961
21
0.199093
31
0.0
0
LINE
8
2
62
3
10
0.766961
20
0.199093
30
0.0
11
0.750148
21
0.149783
31
0.0
0
LINE
8
2
62
3
10
0.750148
20
0.149783
30
0.0
11
0.745613
21
0.102408
31
0.0
0
LINE
8
2
62
3
10
0.745613
20
0.102408
30
0.0
11
0.75315
21
0.062963
31
0.0
0
LINE
8
2
62
3
10
0.75315
20
0.062963
30
0.0
11
0.76138
21
0.048089
31
0.0
0
LINE
8
2
62
3
10
0.76138
20
0.048089
30
0.0
11
0.77255
21
0.037447
31
0.0
0
LINE
8
2
62
3
10
0.77255
20
0.037447
30
0.0
11
0.794897
21
0.028091
31
0.0
0
LINE
8
2
62
3
10
0.794897
20
0.028091
30
0.0
11
0.825335
21
0.020858
31
0.0
0
LINE
8
2
62
3
10
0.825335
20
0.020858
30
0.0
11
0.864313
21
0.01234
31
0.0
0
LINE
8
2
62
3
10
0.864313
20
0.01234
30
0.0
11
0.931033
21
-0.087619
31
0.0
0
LINE
8
2
62
3
10
0.931033
20
-0.087619
30
0.0
11
1.004286
21
-0.210816
31
0.0
0
LINE
8
2
62
3
10
1.004286
20
-0.210816
30
0.0
11
1.03141
21
-0.259461
31
0.0
0
LINE
8
2
62
3
10
1.03141
20
-0.259461
30
0.0
11
1.037224
21
-0.260124
31
0.0
0
LINE
8
2
62
3
10
1.037224
20
-0.260124
30
0.0
11
1.042607
21
-0.249835
31
0.0
0
LINE
8
2
62
3
10
1.042607
20
-0.249835
30
0.0
11
1.051426
21
-0.210799
31
0.0
0
LINE
8
2
62
3
10
1.055022
20
-0.108635
30
0.0
11
1.030557
21
0.00249
31
0.0
0
LINE
8
2
62
3
10
1.030557
20
0.00249
30
0.0
11
0.987602
21
0.158291
31
0.0
0
LINE
8
2
62
3
10
0.987602
20
0.158291
30
0.0
11
0.964718
21
0.222427
31
0.0
0
LINE
8
2
62
3
10
0.964718
20
0.222427
30
0.0
11
0.940695
21
0.277806
31
0.0
0
LINE
8
2
62
3
10
0.768653
20
0.321193
30
0.0
11
0.795985
21
0.266786
31
0.0
0
LINE
8
2
62
3
10
0.795985
20
0.266786
30
0.0
11
0.837721
21
0.21466
31
0.0
0
LINE
8
2
62
3
10
0.837721
20
0.21466
30
0.0
11
0.880429
21
0.162267
31
0.0
0
LINE
8
2
62
3
10
0.880429
20
0.162267
30
0.0
11
0.927109
21
0.094987
31
0.0
0
LINE
8
2
62
3
10
0.927109
20
0.094987
30
0.0
11
0.97426
21
0.018193
31
0.0
0
LINE
8
2
62
3
10
0.97426
20
0.018193
30
0.0
11
1.018384
21
-0.062742
31
0.0
0
LINE
8
2
62
3
10
1.018384
20
-0.062742
30
0.0
11
1.057356
21
-0.135061
31
0.0
0
LINE
8
2
62
3
10
1.057356
20
-0.135061
30
0.0
11
1.055022
21
-0.108635
31
0.0
0
LINE
8
2
62
3
10
0.936049
20
-1.580814
30
0.0
11
0.865753
21
-1.578141
31
0.0
0
LINE
8
2
62
3
10
1.041683
20
-1.535029
30
0.0
11
1.126912
21
-1.51764
31
0.0
0
LINE
8
2
62
3
10
1.126912
20
-1.51764
30
0.0
11
1.146962
21
-1.508303
31
0.0
0
LINE
8
2
62
3
10
1.146962
20
-1.508303
30
0.0
11
1.153157
21
-1.498145
31
0.0
0
LINE
8
2
62
3
10
1.153157
20
-1.498145
30
0.0
11
1.132872
21
-1.453473
31
0.0
0
LINE
8
2
62
3
10
1.132872
20
-1.453473
30
0.0
11
1.100145
21
-1.398673
31
0.0
0
LINE
8
2
62
3
10
1.100145
20
-1.398673
30
0.0
11
1.092045
21
-1.393163
31
0.0
0
LINE
8
2
62
3
10
1.092045
20
-1.393163
30
0.0
11
1.082074
21
-1.404668
31
0.0
0
LINE
8
2
62
3
10
1.082074
20
-1.404668
30
0.0
11
1.021562
21
-1.465808
31
0.0
0
LINE
8
2
62
3
10
1.021562
20
-1.465808
30
0.0
11
0.942988
21
-1.534346
31
0.0
0
LINE
8
2
62
3
10
0.942988
20
-1.534346
30
0.0
11
0.926048
21
-1.547028
31
0.0
0
LINE
8
2
62
3
10
0.926048
20
-1.547028
30
0.0
11
0.950523
21
-1.545904
31
0.0
0
LINE
8
2
62
3
10
0.950523
20
-1.545904
30
0.0
11
1.041683
21
-1.535029
31
0.0
0
LINE
8
2
62
3
10
0.990126
20
-1.446388
30
0.0
11
1.034813
21
-1.403553
31
0.0
0
LINE
8
2
62
3
10
1.034813
20
-1.403553
30
0.0
11
1.07099
21
-1.360625
31
0.0
0
LINE
8
2
62
3
10
1.07099
20
-1.360625
30
0.0
11
1.073922
21
-1.347461
31
0.0
0
LINE
8
2
62
3
10
1.073922
20
-1.347461
30
0.0
11
1.070944
21
-1.33146
31
0.0
0
LINE
8
2
62
3
10
1.070944
20
-1.33146
30
0.0
11
1.063627
21
-1.276349
31
0.0
0
LINE
8
2
62
3
10
1.063627
20
-1.276349
30
0.0
11
1.068458
21
-1.222297
31
0.0
0
LINE
8
2
62
3
10
1.068458
20
-1.222297
30
0.0
11
1.084709
21
-1.172869
31
0.0
0
LINE
8
2
62
3
10
1.084709
20
-1.172869
30
0.0
11
1.111655
21
-1.131631
31
0.0
0
LINE
8
2
62
3
10
1.111655
20
-1.131631
30
0.0
11
1.128022
21
-1.115996
31
0.0
0
LINE
8
2
62
3
10
1.128022
20
-1.115996
30
0.0
11
1.14324
21
-1.108714
31
0.0
0
LINE
8
2
62
3
10
1.14324
20
-1.108714
30
0.0
11
1.15998
21
-1.109221
31
0.0
0
LINE
8
2
62
3
10
1.15998
20
-1.109221
30
0.0
11
1.18091
21
-1.11695
31
0.0
0
LINE
8
2
62
3
10
1.18091
20
-1.11695
30
0.0
11
1.199367
21
-1.122865
31
0.0
0
LINE
8
2
62
3
10
1.199367
20
-1.122865
30
0.0
11
1.213004
21
-1.122754
31
0.0
0
LINE
8
2
62
3
10
1.213004
20
-1.122754
30
0.0
11
1.222175
21
-1.113372
31
0.0
0
LINE
8
2
62
3
10
1.222175
20
-1.113372
30
0.0
11
1.233468
21
-1.093246
31
0.0
0
LINE
8
2
62
3
10
1.233468
20
-1.093246
30
0.0
11
1.259858
21
-1.028015
31
0.0
0
LINE
8
2
62
3
10
1.259858
20
-1.028015
30
0.0
11
1.287052
21
-0.941562
31
0.0
0
LINE
8
2
62
3
10
1.287052
20
-0.941562
30
0.0
11
1.309928
21
-0.848385
31
0.0
0
LINE
8
2
62
3
10
1.309928
20
-0.848385
30
0.0
11
1.322052
21
-0.789897
31
0.0
0
LINE
8
2
62
3
10
1.322052
20
-0.789897
30
0.0
11
1.294861
21
-0.750994
31
0.0
0
LINE
8
2
62
3
10
1.294861
20
-0.750994
30
0.0
11
1.259541
21
-0.692742
31
0.0
0
LINE
8
2
62
3
10
1.259541
20
-0.692742
30
0.0
11
1.23987
21
-0.63945
31
0.0
0
LINE
8
2
62
3
10
1.23987
20
-0.63945
30
0.0
11
1.2348
21
-0.586617
31
0.0
0
LINE
8
2
62
3
10
1.2348
20
-0.586617
30
0.0
11
1.243281
21
-0.529744
31
0.0
0
LINE
8
2
62
3
10
1.243281
20
-0.529744
30
0.0
11
1.25327
21
-0.497905
31
0.0
0
LINE
8
2
62
3
10
1.25327
20
-0.497905
30
0.0
11
1.266672
21
-0.47307
31
0.0
0
LINE
8
2
62
3
10
1.266672
20
-0.47307
30
0.0
11
1.285513
21
-0.452376
31
0.0
0
LINE
8
2
62
3
10
1.285513
20
-0.452376
30
0.0
11
1.311823
21
-0.432958
31
0.0
0
LINE
8
2
62
3
10
1.311823
20
-0.432958
30
0.0
11
1.34383
21
-0.412398
31
0.0
0
LINE
8
2
62
3
10
1.34383
20
-0.412398
30
0.0
11
1.335931
21
-0.327127
31
0.0
0
LINE
8
2
62
3
10
1.335931
20
-0.327127
30
0.0
11
1.310651
21
-0.126824
31
0.0
0
LINE
8
2
62
3
10
1.310651
20
-0.126824
30
0.0
11
1.297351
21
-0.059811
31
0.0
0
LINE
8
2
62
3
10
1.297351
20
-0.059811
30
0.0
11
1.286222
21
-0.03047
31
0.0
0
LINE
8
2
62
3
10
1.286222
20
-0.03047
30
0.0
11
1.24809
21
-0.019182
31
0.0
0
LINE
8
2
62
3
10
1.24809
20
-0.019182
30
0.0
11
1.225739
21
-0.01315
31
0.0
0
LINE
8
2
62
3
10
1.225739
20
-0.01315
30
0.0
11
1.207539
21
-0.001137
31
0.0
0
LINE
8
2
62
3
10
1.207539
20
-0.001137
30
0.0
11
1.193252
21
0.017076
31
0.0
0
LINE
8
2
62
3
10
1.193252
20
0.017076
30
0.0
11
1.182641
21
0.041712
31
0.0
0
LINE
8
2
62
3
10
1.182641
20
0.041712
30
0.0
11
1.174427
21
0.078484
31
0.0
0
LINE
8
2
62
3
10
1.174427
20
0.078484
30
0.0
11
1.172547
21
0.116207
31
0.0
0
LINE
8
2
62
3
10
1.172547
20
0.116207
30
0.0
11
1.176966
21
0.153807
31
0.0
0
LINE
8
2
62
3
10
1.396146
20
-1.482354
30
0.0
11
1.419405
21
-1.459181
31
0.0
0
LINE
8
2
62
3
10
1.419405
20
-1.459181
30
0.0
11
1.440468
21
-1.432386
31
0.0
0
LINE
8
2
62
3
10
1.440468
20
-1.432386
30
0.0
11
1.450607
21
-1.415403
31
0.0
0
LINE
8
2
62
3
10
1.450607
20
-1.415403
30
0.0
11
1.456243
21
-1.399868
31
0.0
0
LINE
8
2
62
3
10
1.456243
20
-1.399868
30
0.0
11
1.458024
21
-1.35554
31
0.0
0
LINE
8
2
62
3
10
1.458024
20
-1.35554
30
0.0
11
1.446804
21
-1.256216
31
0.0
0
LINE
8
2
62
3
10
1.446804
20
-1.256216
30
0.0
11
1.422175
21
-1.130053
31
0.0
0
LINE
8
2
62
3
10
1.422175
20
-1.130053
30
0.0
11
1.387798
21
-0.993367
31
0.0
0
LINE
8
2
62
3
10
1.387798
20
-0.993367
30
0.0
11
1.347338
21
-0.862476
31
0.0
0
LINE
8
2
62
3
10
1.347338
20
-0.862476
30
0.0
11
1.340131
21
-0.841586
31
0.0
0
LINE
8
2
62
3
10
1.340131
20
-0.841586
30
0.0
11
1.332852
21
-0.873661
31
0.0
0
LINE
8
2
62
3
10
1.332852
20
-0.873661
30
0.0
11
1.296164
21
-1.005219
31
0.0
0
LINE
8
2
62
3
10
1.296164
20
-1.005219
30
0.0
11
1.254505
21
-1.114246
31
0.0
0
LINE
8
2
62
3
10
1.254505
20
-1.114246
30
0.0
11
1.226428
21
-1.172706
31
0.0
0
LINE
8
2
62
3
10
1.226428
20
-1.172706
30
0.0
11
1.245864
21
-1.223645
31
0.0
0
LINE
8
2
62
3
10
1.245864
20
-1.223645
30
0.0
11
1.260069
21
-1.271692
31
0.0
0
LINE
8
2
62
3
10
1.260069
20
-1.271692
30
0.0
11
1.26723
21
-1.323282
31
0.0
0
LINE
8
2
62
3
10
1.26723
20
-1.323282
30
0.0
11
1.267395
21
-1.37907
31
0.0
0
LINE
8
2
62
3
10
1.267395
20
-1.37907
30
0.0
11
1.260606
21
-1.439711
31
0.0
0
LINE
8
2
62
3
10
1.260606
20
-1.439711
30
0.0
11
1.255445
21
-1.483367
31
0.0
0
LINE
8
2
62
3
10
1.255445
20
-1.483367
30
0.0
11
1.256362
21
-1.506056
31
0.0
0
LINE
8
2
62
3
10
1.256362
20
-1.506056
30
0.0
11
1.274083
21
-1.510497
31
0.0
0
LINE
8
2
62
3
10
1.274083
20
-1.510497
30
0.0
11
1.316465
21
-1.50838
31
0.0
0
LINE
8
2
62
3
10
1.316465
20
-1.50838
30
0.0
11
1.365815
21
-1.500166
31
0.0
0
LINE
8
2
62
3
10
1.365815
20
-1.500166
30
0.0
11
1.381367
21
-1.49311
31
0.0
0
LINE
8
2
62
3
10
1.381367
20
-1.49311
30
0.0
11
1.396146
21
-1.482354
31
0.0
0
LINE
8
2
62
3
10
1.183035
20
-1.451772
30
0.0
11
1.19205
21
-1.446415
31
0.0
0
LINE
8
2
62
3
10
1.19205
20
-1.446415
30
0.0
11
1.208011
21
-1.443688
31
0.0
0
LINE
8
2
62
3
10
1.208011
20
-1.443688
30
0.0
11
1.224273
21
-1.439043
31
0.0
0
LINE
8
2
62
3
10
1.224273
20
-1.439043
30
0.0
11
1.234853
21
-1.424567
31
0.0
0
LINE
8
2
62
3
10
1.234853
20
-1.424567
30
0.0
11
1.24103
21
-1.397051
31
0.0
0
LINE
8
2
62
3
10
1.24103
20
-1.397051
30
0.0
11
1.244085
21
-1.353285
31
0.0
0
LINE
8
2
62
3
10
1.244085
20
-1.353285
30
0.0
11
1.242876
21
-1.314768
31
0.0
0
LINE
8
2
62
3
10
1.242876
20
-1.314768
30
0.0
11
1.235759
21
-1.277814
31
0.0
0
LINE
8
2
62
3
10
1.235759
20
-1.277814
30
0.0
11
1.221884
21
-1.239376
31
0.0
0
LINE
8
2
62
3
10
1.221884
20
-1.239376
30
0.0
11
1.200402
21
-1.196405
31
0.0
0
LINE
8
2
62
3
10
1.200402
20
-1.196405
30
0.0
11
1.185167
21
-1.171769
31
0.0
0
LINE
8
2
62
3
10
1.185167
20
-1.171769
30
0.0
11
1.17157
21
-1.157066
31
0.0
0
LINE
8
2
62
3
10
1.17157
20
-1.157066
30
0.0
11
1.158012
21
-1.151078
31
0.0
0
LINE
8
2
62
3
10
1.158012
20
-1.151078
30
0.0
11
1.142891
21
-1.152584
31
0.0
0
LINE
8
2
62
3
10
1.142891
20
-1.152584
30
0.0
11
1.125316
21
-1.165555
31
0.0
0
LINE
8
2
62
3
10
1.125316
20
-1.165555
30
0.0
11
1.10833
21
-1.190695
31
0.0
0
LINE
8
2
62
3
10
1.10833
20
-1.190695
30
0.0
11
1.095009
21
-1.222254
31
0.0
0
LINE
8
2
62
3
10
1.095009
20
-1.222254
30
0.0
11
1.088426
21
-1.254481
31
0.0
0
LINE
8
2
62
3
10
1.088426
20
-1.254481
30
0.0
11
1.089744
21
-1.279424
31
0.0
0
LINE
8
2
62
3
10
1.089744
20
-1.279424
30
0.0
11
1.098591
21
-1.311082
31
0.0
0
LINE
8
2
62
3
10
1.098591
20
-1.311082
30
0.0
11
1.147917
21
-1.419667
31
0.0
0
LINE
8
2
62
3
10
1.147917
20
-1.419667
30
0.0
11
1.169771
21
-1.455757
31
0.0
0
LINE
8
2
62
3
10
1.169771
20
-1.455757
30
0.0
11
1.176913
21
-1.458258
31
0.0
0
LINE
8
2
62
3
10
1.176913
20
-1.458258
30
0.0
11
1.183035
21
-1.451772
31
0.0
0
LINE
8
2
62
3
10
1.483177
20
-1.1941
30
0.0
11
1.493748
21
-1.167705
31
0.0
0
LINE
8
2
62
3
10
1.493748
20
-1.167705
30
0.0
11
1.506809
21
-1.146016
31
0.0
0
LINE
8
2
62
3
10
1.506809
20
-1.146016
30
0.0
11
1.522694
21
-1.128579
31
0.0
0
LINE
8
2
62
3
10
1.522694
20
-1.128579
30
0.0
11
1.54174
21
-1.11494
31
0.0
0
LINE
8
2
62
3
10
1.54174
20
-1.11494
30
0.0
11
1.554999
21
-1.102883
31
0.0
0
LINE
8
2
62
3
10
1.554999
20
-1.102883
30
0.0
11
1.559231
21
-1.079498
31
0.0
0
LINE
8
2
62
3
10
1.559231
20
-1.079498
30
0.0
11
1.554327
21
-1.03346
31
0.0
0
LINE
8
2
62
3
10
1.554327
20
-1.03346
30
0.0
11
1.540176
21
-0.953443
31
0.0
0
LINE
8
2
62
3
10
1.540176
20
-0.953443
30
0.0
11
1.506657
21
-0.804577
31
0.0
0
LINE
8
2
62
3
10
1.506657
20
-0.804577
30
0.0
11
1.487078
21
-0.740503
31
0.0
0
LINE
8
2
62
3
10
1.487078
20
-0.740503
30
0.0
11
1.464378
21
-0.678837
31
0.0
0
LINE
8
2
62
3
10
1.464378
20
-0.678837
30
0.0
11
1.412016
21
-0.566469
31
0.0
0
LINE
8
2
62
3
10
1.412016
20
-0.566469
30
0.0
11
1.359823
21
-0.472022
31
0.0
0
LINE
8
2
62
3
10
1.359823
20
-0.472022
30
0.0
11
1.349262
21
-0.456769
31
0.0
0
LINE
8
2
62
3
10
1.349262
20
-0.456769
30
0.0
11
1.322968
21
-0.471568
31
0.0
0
LINE
8
2
62
3
10
1.322968
20
-0.471568
30
0.0
11
1.299634
21
-0.487811
31
0.0
0
LINE
8
2
62
3
10
1.299634
20
-0.487811
30
0.0
11
1.282446
21
-0.507481
31
0.0
0
LINE
8
2
62
3
10
1.282446
20
-0.507481
30
0.0
11
1.270356
21
-0.532161
31
0.0
0
LINE
8
2
62
3
10
1.270356
20
-0.532161
30
0.0
11
1.262318
21
-0.563438
31
0.0
0
LINE
8
2
62
3
10
1.262318
20
-0.563438
30
0.0
11
1.259106
21
-0.598058
31
0.0
0
LINE
8
2
62
3
10
1.259106
20
-0.598058
30
0.0
11
1.264359
21
-0.630769
31
0.0
0
LINE
8
2
62
3
10
1.264359
20
-0.630769
30
0.0
11
1.279939
21
-0.667813
31
0.0
0
LINE
8
2
62
3
10
1.279939
20
-0.667813
30
0.0
11
1.307712
21
-0.715431
31
0.0
0
LINE
8
2
62
3
10
1.307712
20
-0.715431
30
0.0
11
1.34748
21
-0.794583
31
0.0
0
LINE
8
2
62
3
10
1.34748
20
-0.794583
30
0.0
11
1.388405
21
-0.90262
31
0.0
0
LINE
8
2
62
3
10
1.388405
20
-0.90262
30
0.0
11
1.425558
21
-1.025
31
0.0
0
LINE
8
2
62
3
10
1.425558
20
-1.025
30
0.0
11
1.454011
21
-1.147181
31
0.0
0
LINE
8
2
62
3
10
1.454011
20
-1.147181
30
0.0
11
1.470803
21
-1.228149
31
0.0
0
LINE
8
2
62
3
10
1.470803
20
-1.228149
30
0.0
11
1.483177
21
-1.1941
31
0.0
0
LINE
8
2
62
3
10
1.590568
20
-0.97433
30
0.0
11
1.60804
21
-0.854212
31
0.0
0
LINE
8
2
62
3
10
1.60804
20
-0.854212
30
0.0
11
1.618801
21
-0.737793
31
0.0
0
LINE
8
2
62
3
10
1.618801
20
-0.737793
30
0.0
11
1.6218
21
-0.641353
31
0.0
0
LINE
8
2
62
3
10
1.6218
20
-0.641353
30
0.0
11
1.615983
21
-0.58117
31
0.0
0
LINE
8
2
62
3
10
1.615983
20
-0.58117
30
0.0
11
1.581454
21
-0.496586
31
0.0
0
LINE
8
2
62
3
10
1.581454
20
-0.496586
30
0.0
11
1.52042
21
-0.370479
31
0.0
0
LINE
8
2
62
3
10
1.52042
20
-0.370479
30
0.0
11
1.452805
21
-0.242239
31
0.0
0
LINE
8
2
62
3
10
1.452805
20
-0.242239
30
0.0
11
1.398533
21
-0.151256
31
0.0
0
LINE
8
2
62
3
10
1.398533
20
-0.151256
30
0.0
11
1.374177
21
-0.11747
31
0.0
0
LINE
8
2
62
3
10
1.374177
20
-0.11747
30
0.0
11
1.346075
21
-0.085766
31
0.0
0
LINE
8
2
62
3
10
1.346075
20
-0.085766
30
0.0
11
1.330253
21
-0.07028
31
0.0
0
LINE
8
2
62
3
10
1.330253
20
-0.07028
30
0.0
11
1.331324
21
-0.082839
31
0.0
0
LINE
8
2
62
3
10
1.331324
20
-0.082839
30
0.0
11
1.36455
21
-0.356087
31
0.0
0
LINE
8
2
62
3
10
1.36455
20
-0.356087
30
0.0
11
1.369586
21
-0.394635
31
0.0
0
LINE
8
2
62
3
10
1.369586
20
-0.394635
30
0.0
11
1.377487
21
-0.42581
31
0.0
0
LINE
8
2
62
3
10
1.377487
20
-0.42581
30
0.0
11
1.417761
21
-0.512791
31
0.0
0
LINE
8
2
62
3
10
1.417761
20
-0.512791
30
0.0
11
1.468414
21
-0.617561
31
0.0
0
LINE
8
2
62
3
10
1.468414
20
-0.617561
30
0.0
11
1.505095
21
-0.708058
31
0.0
0
LINE
8
2
62
3
10
1.505095
20
-0.708058
30
0.0
11
1.532577
21
-0.797686
31
0.0
0
LINE
8
2
62
3
10
1.532577
20
-0.797686
30
0.0
11
1.555636
21
-0.899849
31
0.0
0
LINE
8
2
62
3
10
1.555636
20
-0.899849
30
0.0
11
1.5743
21
-0.990081
31
0.0
0
LINE
8
2
62
3
10
1.5743
20
-0.990081
30
0.0
11
1.581627
21
-1.011768
31
0.0
0
LINE
8
2
62
3
10
1.581627
20
-1.011768
30
0.0
11
1.590568
21
-0.97433
31
0.0
0
LINE
8
2
62
3
10
1.516636
20
-0.207515
30
0.0
11
1.50812
21
-0.177908
31
0.0
0
LINE
8
2
62
3
10
1.50812
20
-0.177908
30
0.0
11
1.485808
21
-0.132089
31
0.0
0
LINE
8
2
62
3
10
1.485808
20
-0.132089
30
0.0
11
1.413355
21
-0.012433
31
0.0
0
LINE
8
2
62
3
10
1.413355
20
-0.012433
30
0.0
11
1.326393
21
0.110234
31
0.0
0
LINE
8
2
62
3
10
1.200862
20
0.140444
30
0.0
11
1.198268
21
0.092922
31
0.0
0
LINE
8
2
62
3
10
1.198268
20
0.092922
30
0.0
11
1.207412
21
0.053819
31
0.0
0
LINE
8
2
62
3
10
1.207412
20
0.053819
30
0.0
11
1.216244
21
0.039294
31
0.0
0
LINE
8
2
62
3
10
1.216244
20
0.039294
30
0.0
11
1.22784
21
0.029117
31
0.0
0
LINE
8
2
62
3
10
1.22784
20
0.029117
30
0.0
11
1.250551
21
0.020684
31
0.0
0
LINE
8
2
62
3
10
1.250551
20
0.020684
30
0.0
11
1.281259
21
0.014701
31
0.0
0
LINE
8
2
62
3
10
1.281259
20
0.014701
30
0.0
11
1.320553
21
0.007785
31
0.0
0
LINE
8
2
62
3
10
1.320553
20
0.007785
30
0.0
11
1.391305
21
-0.089362
31
0.0
0
LINE
8
2
62
3
10
1.391305
20
-0.089362
30
0.0
11
1.469535
21
-0.20946
31
0.0
0
LINE
8
2
62
3
10
1.469535
20
-0.20946
30
0.0
11
1.498626
21
-0.256955
31
0.0
0
LINE
8
2
62
3
10
1.498626
20
-0.256955
30
0.0
11
1.504462
21
-0.25738
31
0.0
0
LINE
8
2
62
3
10
1.504462
20
-0.25738
30
0.0
11
1.50942
21
-0.246879
31
0.0
0
LINE
8
2
62
3
10
1.50942
20
-0.246879
30
0.0
11
1.516636
21
-0.207515
31
0.0
0
LINE
8
2
62
3
10
1.516049
20
-0.105289
30
0.0
11
1.48706
21
0.004742
31
0.0
0
LINE
8
2
62
3
10
1.48706
20
0.004742
30
0.0
11
1.437769
21
0.158656
31
0.0
0
LINE
8
2
62
3
10
1.437769
20
0.158656
30
0.0
11
1.412282
21
0.221803
31
0.0
0
LINE
8
2
62
3
10
1.379916
20
0.09293
30
0.0
11
1.430169
21
0.018129
31
0.0
0
LINE
8
2
62
3
10
1.430169
20
0.018129
30
0.0
11
1.477565
21
-0.060933
31
0.0
0
LINE
8
2
62
3
10
1.477565
20
-0.060933
30
0.0
11
1.519463
21
-0.131598
31
0.0
0
LINE
8
2
62
3
10
1.519463
20
-0.131598
30
0.0
11
1.516049
21
-0.105289
31
0.0
0
LINE
8
2
62
3
10
1.465557
20
0.234377
30
0.0
11
1.508989
21
0.128441
31
0.0
0
LINE
8
2
62
3
10
1.508989
20
0.128441
30
0.0
11
1.519756
21
0.091146
31
0.0
0
LINE
8
2
62
3
10
1.519756
20
0.091146
30
0.0
11
1.538684
21
0.008888
31
0.0
0
LINE
8
2
62
3
10
1.538684
20
0.008888
30
0.0
11
1.560281
21
-0.082731
31
0.0
0
LINE
8
2
62
3
10
1.560281
20
-0.082731
30
0.0
11
1.578018
21
-0.189112
31
0.0
0
LINE
8
2
62
3
10
1.578018
20
-0.189112
30
0.0
11
1.576889
21
-0.216258
31
0.0
0
LINE
8
2
62
3
10
1.576889
20
-0.216258
30
0.0
11
1.568045
21
-0.247614
31
0.0
0
LINE
8
2
62
3
10
1.568045
20
-0.247614
30
0.0
11
1.558654
21
-0.283216
31
0.0
0
LINE
8
2
62
3
10
1.558654
20
-0.283216
30
0.0
11
1.559375
21
-0.320129
31
0.0
0
LINE
8
2
62
3
10
1.559375
20
-0.320129
30
0.0
11
1.570672
21
-0.361369
31
0.0
0
LINE
8
2
62
3
10
1.570672
20
-0.361369
30
0.0
11
1.593008
21
-0.409955
31
0.0
0
LINE
8
2
62
3
10
1.593008
20
-0.409955
30
0.0
11
1.622267
21
-0.469142
31
0.0
0
LINE
8
2
62
3
10
1.622267
20
-0.469142
30
0.0
11
1.635511
21
-0.5054
31
0.0
0
LINE
8
2
62
3
10
1.635511
20
-0.5054
30
0.0
11
1.650234
21
-0.550942
31
0.0
0
LINE
8
2
62
3
10
1.650234
20
-0.550942
30
0.0
11
1.661241
21
-0.610619
31
0.0
0
LINE
8
2
62
3
10
1.661241
20
-0.610619
30
0.0
11
1.662681
21
-0.693614
31
0.0
0
LINE
8
2
62
3
10
1.662681
20
-0.693614
30
0.0
11
1.654592
21
-0.798843
31
0.0
0
LINE
8
2
62
3
10
1.654592
20
-0.798843
30
0.0
11
1.637011
21
-0.925224
31
0.0
0
LINE
8
2
62
3
10
1.637011
20
-0.925224
30
0.0
11
1.624842
21
-1.031412
31
0.0
0
LINE
8
2
62
3
10
1.624842
20
-1.031412
30
0.0
11
1.61686
21
-1.08805
31
0.0
0
LINE
8
2
62
3
10
1.61686
20
-1.08805
30
0.0
11
1.60411
21
-1.121032
31
0.0
0
LINE
8
2
62
3
10
1.60411
20
-1.121032
30
0.0
11
1.598851
21
-1.134697
31
0.0
0
LINE
8
2
62
3
10
1.598851
20
-1.134697
30
0.0
11
1.591323
21
-1.144861
31
0.0
0
LINE
8
2
62
3
10
1.591323
20
-1.144861
30
0.0
11
1.56174
21
-1.162186
31
0.0
0
LINE
8
2
62
3
10
1.56174
20
-1.162186
30
0.0
11
1.533465
21
-1.178605
31
0.0
0
LINE
8
2
62
3
10
1.533465
20
-1.178605
30
0.0
11
1.519836
21
-1.197477
31
0.0
0
LINE
8
2
62
3
10
1.519836
20
-1.197477
30
0.0
11
1.502588
21
-1.274018
31
0.0
0
LINE
8
2
62
3
10
1.502588
20
-1.274018
30
0.0
11
1.490761
21
-1.381766
31
0.0
0
LINE
8
2
62
3
10
1.490761
20
-1.381766
30
0.0
11
1.485964
21
-1.453977
31
0.0
0
LINE
8
2
62
3
10
1.485964
20
-1.453977
30
0.0
11
1.449688
21
-1.488549
31
0.0
0
LINE
8
2
62
3
10
1.449688
20
-1.488549
30
0.0
11
1.418546
21
-1.515485
31
0.0
0
LINE
8
2
62
3
10
1.418546
20
-1.515485
30
0.0
11
1.38938
21
-1.534106
31
0.0
0
LINE
8
2
62
3
10
1.38938
20
-1.534106
30
0.0
11
1.358965
21
-1.546068
31
0.0
0
LINE
8
2
62
3
10
1.358965
20
-1.546068
30
0.0
11
1.324077
21
-1.553025
31
0.0
0
LINE
8
2
62
3
10
1.324077
20
-1.553025
30
0.0
11
1.287095
21
-1.555664
31
0.0
0
LINE
8
2
62
3
10
1.287095
20
-1.555664
30
0.0
11
1.260854
21
-1.551467
31
0.0
0
LINE
8
2
62
3
10
1.260854
20
-1.551467
30
0.0
11
1.242285
21
-1.539314
31
0.0
0
LINE
8
2
62
3
10
1.242285
20
-1.539314
30
0.0
11
1.228321
21
-1.518085
31
0.0
0
LINE
8
2
62
3
10
1.228321
20
-1.518085
30
0.0
11
1.216046
21
-1.49749
31
0.0
0
LINE
8
2
62
3
10
1.216046
20
-1.49749
30
0.0
11
1.206498
21
-1.489117
31
0.0
0
LINE
8
2
62
3
10
1.206498
20
-1.489117
30
0.0
11
1.197984
21
-1.496104
31
0.0
0
LINE
8
2
62
3
10
1.197984
20
-1.496104
30
0.0
11
1.188194
21
-1.512437
31
0.0
0
LINE
8
2
62
3
10
1.188194
20
-1.512437
30
0.0
11
1.174453
21
-1.532474
31
0.0
0
LINE
8
2
62
3
10
1.174453
20
-1.532474
30
0.0
11
1.156436
21
-1.548368
31
0.0
0
LINE
8
2
62
3
10
1.156436
20
-1.548368
30
0.0
11
1.136739
21
-1.556148
31
0.0
0
LINE
8
2
62
3
10
1.136739
20
-1.556148
30
0.0
11
1.105926
21
-1.563214
31
0.0
0
LINE
8
2
62
3
10
1.105926
20
-1.563214
30
0.0
11
1.023581
21
-1.574065
31
0.0
0
LINE
8
2
62
3
10
1.023581
20
-1.574065
30
0.0
11
0.934662
21
-1.578644
31
0.0
0
LINE
8
1
62
3
10
0.986667
20
0.241428
30
0.0
11
0.962654
21
0.31439
31
0.0
0
LINE
8
1
62
3
10
0.940695
20
0.277806
30
0.0
11
0.915382
21
0.324741
31
0.0
0
LINE
8
1
62
3
10
1.200862
20
0.140444
30
0.0
11
1.204585
21
0.175972
31
0.0
0
LINE
8
2
62
3
10
1.223101
20
0.165255
30
0.0
11
1.204585
21
0.175972
31
0.0
0
LINE
8
2
62
3
10
1.181684
20
0.191062
30
0.0
11
0.962654
21
0.31439
31
0.0
0
LINE
8
1
62
3
10
1.176966
20
0.153807
30
0.0
11
1.181684
21
0.191062
31
0.0
0
LINE
8
2
62
3
10
1.326393
20
0.110234
30
0.0
11
1.28209
21
0.164541
31
0.0
0
LINE
8
2
62
3
10
1.28209
20
0.164541
30
0.0
11
1.27607
21
0.146232
31
0.0
0
LINE
8
2
62
3
10
1.290121
20
0.211672
30
0.0
11
1.379916
21
0.09293
31
0.0
0
LINE
8
2
62
3
10
1.299869
20
0.315949
30
0.0
11
1.290121
21
0.211672
31
0.0
0
LINE
8
2
62
3
10
1.412282
20
0.221803
30
0.0
11
1.335582
21
0.3805
31
0.0
0
LINE
8
1
62
3
10
1.317474
20
0.37515
30
0.0
11
1.335582
21
0.3805
31
0.0
0
LINE
8
1
62
3
10
1.465557
20
0.234377
30
0.0
11
1.377034
21
0.399134
31
0.0
0
LINE
8
1
62
3
10
1.377034
20
0.399134
30
0.0
11
1.387974
21
0.412263
31
0.0
0
LINE
8
1
62
3
10
0.969125
20
-1.446958
30
0.0
11
0.990126
21
-1.446388
31
0.0
0
LINE
8
1
62
3
10
0.865753
20
-1.578141
30
0.0
11
0.74188
21
-1.539365
31
0.0
0
LINE
8
1
62
3
10
0.727552
20
0.34216
30
0.0
11
0.700894
21
0.397551
31
0.0
0
LINE
8
1
62
3
10
0.715654
20
0.438171
30
0.0
11
0.768653
21
0.321193
31
0.0
0
LINE
8
1
62
3
10
0.045937
20
-1.485048
30
0.0
11
0.0826
21
-1.48976
31
0.0
0
LINE
8
1
62
3
10
0.055485
20
-1.526373
30
0.0
11
0.097
21
-1.52879
31
0.0
0
LINE
8
1
62
3
10
-0.542006
20
0.743649
30
0.0
11
-0.686176
21
0.678574
31
0.0
0
LINE
8
1
62
3
10
-0.353437
20
1.020301
30
0.0
11
-0.348394
21
1.061728
31
0.0
0
LINE
8
1
62
3
10
-0.348394
20
1.061728
30
0.0
11
-0.341463
21
1.104101
31
0.0
0
LINE
8
1
62
3
10
-0.341463
20
1.104101
30
0.0
11
-0.330505
21
1.149395
31
0.0
0
LINE
8
1
62
3
10
-0.330505
20
1.149395
30
0.0
11
-0.326852
21
1.164006
31
0.0
0
LINE
8
1
62
3
10
-0.326852
20
1.164006
30
0.0
11
-0.313702
21
1.180808
31
0.0
0
LINE
8
1
62
3
10
-0.313702
20
1.180808
30
0.0
11
-0.292517
21
1.200533
31
0.0
0
LINE
8
1
62
3
10
-0.292517
20
1.200533
30
0.0
11
-0.2706
21
1.218066
31
0.0
0
LINE
8
1
62
3
10
-0.2706
20
1.218066
30
0.0
11
-0.248287
21
1.233911
31
0.0
0
ENDSEC
0
EOF
