999
"DXF R12 Output" (www.mydxf.blogspot.com)
 0 
SECTION
 2 
HEADER
 9 
$ACADVER
 1 
AC1009
 9 
$EXTMIN
 10 
 0 
 20 
 0 
 9 
$EXTMAX
 10 
 8.5 
 20 
 11 
 0 
ENDSEC
 0 
SECTION
 2 
ENTITIES
0
LINE
8
Layer 1
10
77.174714
20
0.502824
11
73.184114
21
0.890626
0
LINE
8
Layer 1
10
73.184114
20
0.890626
11
71.335209
21
1.037784
0
LINE
8
Layer 1
10
71.335209
20
1.037784
11
69.032424
21
1.396128
0
LINE
8
Layer 1
10
69.032424
20
1.396128
11
66.728216
21
1.882679
0
LINE
8
Layer 1
10
66.728216
20
1.882679
11
64.875040
21
2.414462
0
LINE
8
Layer 1
10
64.875040
20
2.414462
11
63.322148
21
2.761641
0
LINE
8
Layer 1
10
63.322148
20
2.761641
11
61.206151
21
3.019425
0
LINE
8
Layer 1
10
61.206151
20
3.019425
11
58.972560
21
3.322441
0
LINE
8
Layer 1
10
58.972560
20
3.322441
11
57.136936
21
3.778371
0
LINE
8
Layer 1
10
57.136936
20
3.778371
11
55.278018
21
4.329343
0
LINE
8
Layer 1
10
55.278018
20
4.329343
11
53.128632
21
4.760174
0
LINE
8
Layer 1
10
53.128632
20
4.760174
11
50.874654
21
5.040833
0
LINE
8
Layer 1
10
50.874654
20
5.040833
11
48.701960
21
5.141285
0
LINE
8
Layer 1
10
48.701960
20
5.141285
11
45.946780
21
5.278857
0
LINE
8
Layer 1
10
45.946780
20
5.278857
11
42.646772
21
5.609076
0
LINE
8
Layer 1
10
42.646772
20
5.609076
11
39.117031
21
5.928966
0
LINE
8
Layer 1
10
39.117031
20
5.928966
11
36.123970
21
5.748582
0
LINE
8
Layer 1
10
36.123970
20
5.748582
11
33.350798
21
5.519890
0
LINE
8
Layer 1
10
33.350798
20
5.519890
11
30.299261
21
5.421549
0
LINE
8
Layer 1
10
30.299261
20
5.421549
11
24.095969
21
5.571295
0
LINE
8
Layer 1
10
24.095969
20
5.571295
11
18.983849
21
6.108582
0
LINE
8
Layer 1
10
18.983849
20
6.108582
11
17.296276
21
6.494666
0
LINE
8
Layer 1
10
17.296276
20
6.494666
11
16.432654
21
6.944171
0
LINE
8
Layer 1
10
16.432654
20
6.944171
11
16.078661
21
7.511995
0
LINE
8
Layer 1
10
16.078661
20
7.511995
11
15.983738
21
8.038086
0
LINE
8
Layer 1
10
15.983738
20
8.038086
11
16.151963
21
8.525554
0
LINE
8
Layer 1
10
16.151963
20
8.525554
11
16.587415
21
8.977511
0
LINE
8
Layer 1
10
16.587415
20
8.977511
11
18.276309
21
9.787341
0
LINE
8
Layer 1
10
18.276309
20
9.787341
11
21.083046
21
10.492469
0
LINE
8
Layer 1
10
21.083046
20
10.492469
11
24.399158
21
11.141713
0
LINE
8
Layer 1
10
24.399158
20
11.141713
11
24.402516
21
12.727802
0
LINE
8
Layer 1
10
24.402516
20
12.727802
11
24.624638
21
14.825544
0
LINE
8
Layer 1
10
24.624638
20
14.825544
11
25.171265
21
16.948705
0
LINE
8
Layer 1
10
25.171265
20
16.948705
11
25.874914
21
18.592659
0
LINE
8
Layer 1
10
25.874914
20
18.592659
11
26.233284
21
19.077238
0
LINE
8
Layer 1
10
26.233284
20
19.077238
11
26.568103
21
19.252782
0
LINE
8
Layer 1
10
26.568103
20
19.252782
11
26.835321
21
19.178594
0
LINE
8
Layer 1
10
26.835321
20
19.178594
11
26.916938
21
18.922165
0
LINE
8
Layer 1
10
26.916938
20
18.922165
11
26.516829
21
17.659415
0
LINE
8
Layer 1
10
26.516829
20
17.659415
11
25.951635
21
15.752521
0
LINE
8
Layer 1
10
25.951635
20
15.752521
11
25.704376
21
13.788114
0
LINE
8
Layer 1
10
25.704376
20
13.788114
11
25.796604
21
12.252699
0
LINE
8
Layer 1
10
25.796604
20
12.252699
11
25.976760
21
11.797897
0
LINE
8
Layer 1
10
25.976760
20
11.797897
11
26.249869
21
11.632782
0
LINE
8
Layer 1
10
26.249869
20
11.632782
11
26.563126
21
11.466977
0
LINE
8
Layer 1
10
26.563126
20
11.466977
11
26.798055
21
11.068338
0
LINE
8
Layer 1
10
26.798055
20
11.068338
11
27.043345
21
10.669699
0
LINE
8
Layer 1
10
27.043345
20
10.669699
11
27.381516
21
10.503893
0
LINE
8
Layer 1
10
27.381516
20
10.503893
11
27.667064
21
10.386089
0
LINE
8
Layer 1
10
27.667064
20
10.386089
11
27.785833
21
10.102856
0
LINE
8
Layer 1
10
27.785833
20
10.102856
11
27.889690
21
9.908388
0
LINE
8
Layer 1
10
27.889690
20
9.908388
11
28.233828
21
9.769087
0
LINE
8
Layer 1
10
28.233828
20
9.769087
11
29.838340
21
9.608967
0
LINE
8
Layer 1
10
29.838340
20
9.608967
11
31.890843
21
9.516116
0
LINE
8
Layer 1
10
31.890843
20
9.516116
11
31.789432
21
10.378386
0
LINE
8
Layer 1
10
31.789432
20
10.378386
11
31.995048
21
12.901521
0
LINE
8
Layer 1
10
31.995048
20
12.901521
11
32.157403
21
14.206221
0
LINE
8
Layer 1
10
32.157403
20
14.206221
11
32.008228
21
14.743983
0
LINE
8
Layer 1
10
32.008228
20
14.743983
11
31.850352
21
15.279485
0
LINE
8
Layer 1
10
31.850352
20
15.279485
11
31.965158
21
16.524740
0
LINE
8
Layer 1
10
31.965158
20
16.524740
11
32.089392
21
17.803381
0
LINE
8
Layer 1
10
32.089392
20
17.803381
11
32.012062
21
18.053675
0
LINE
8
Layer 1
10
32.012062
20
18.053675
11
31.835330
21
18.123893
0
LINE
8
Layer 1
10
31.835330
20
18.123893
11
31.559575
21
18.220274
0
LINE
8
Layer 1
10
31.559575
20
18.220274
11
31.478459
21
18.554382
0
LINE
8
Layer 1
10
31.478459
20
18.554382
11
31.909797
21
20.205581
0
LINE
8
Layer 1
10
31.909797
20
20.205581
11
32.161598
21
21.156909
0
LINE
8
Layer 1
10
32.161598
20
21.156909
11
32.180205
21
21.690054
0
LINE
8
Layer 1
10
32.180205
20
21.690054
11
32.113961
21
21.760454
0
LINE
8
Layer 1
10
32.113961
20
21.760454
11
32.003700
21
21.679083
0
LINE
8
Layer 1
10
32.003700
20
21.679083
11
31.670162
21
20.998061
0
LINE
8
Layer 1
10
31.670162
20
20.998061
11
31.271849
21
20.370122
0
LINE
8
Layer 1
10
31.271849
20
20.370122
11
30.794938
21
20.069724
0
LINE
8
Layer 1
10
30.794938
20
20.069724
11
30.440000
21
20.149952
0
LINE
8
Layer 1
10
30.440000
20
20.149952
11
30.407607
21
20.663893
0
LINE
8
Layer 1
10
30.407607
20
20.663893
11
30.363968
21
21.107702
0
LINE
8
Layer 1
10
30.363968
20
21.107702
11
29.974660
21
21.227674
0
LINE
8
Layer 1
10
29.974660
20
21.227674
11
29.329041
21
21.030479
0
LINE
8
Layer 1
10
29.329041
20
21.030479
11
28.516473
21
20.522782
0
LINE
8
Layer 1
10
28.516473
20
20.522782
11
27.459268
21
19.848454
0
LINE
8
Layer 1
10
27.459268
20
19.848454
11
27.155306
21
19.778393
0
LINE
8
Layer 1
10
27.155306
20
19.778393
11
27.001998
21
19.884179
0
LINE
8
Layer 1
10
27.001998
20
19.884179
11
27.150028
21
20.616626
0
LINE
8
Layer 1
10
27.150028
20
20.616626
11
27.908724
21
22.032465
0
LINE
8
Layer 1
10
27.908724
20
22.032465
11
28.862127
21
24.051708
0
LINE
8
Layer 1
10
28.862127
20
24.051708
11
29.792845
21
26.667032
0
LINE
8
Layer 1
10
29.792845
20
26.667032
11
30.707406
21
29.706836
0
LINE
8
Layer 1
10
30.707406
20
29.706836
11
30.227262
21
31.230032
0
LINE
8
Layer 1
10
30.227262
20
31.230032
11
29.747117
21
32.753225
0
LINE
8
Layer 1
10
29.747117
20
32.753225
11
24.066039
21
35.598558
0
LINE
8
Layer 1
10
24.066039
20
35.598558
11
18.384963
21
38.443894
0
LINE
8
Layer 1
10
18.384963
20
38.443894
11
14.407063
21
38.436698
0
LINE
8
Layer 1
10
14.407063
20
38.436698
11
10.181024
21
38.568713
0
LINE
8
Layer 1
10
10.181024
20
38.568713
11
6.105757
21
38.914853
0
LINE
8
Layer 1
10
6.105757
20
38.914853
11
3.034724
21
39.378417
0
LINE
8
Layer 1
10
3.034724
20
39.378417
11
2.142503
21
39.624013
0
LINE
8
Layer 1
10
2.142503
20
39.624013
11
1.821388
21
39.862702
0
LINE
8
Layer 1
10
1.821388
20
39.862702
11
2.085187
21
40.143340
0
LINE
8
Layer 1
10
2.085187
20
40.143340
11
2.846778
21
40.469826
0
LINE
8
Layer 1
10
2.846778
20
40.469826
11
5.684503
21
41.221018
0
LINE
8
Layer 1
10
5.684503
20
41.221018
11
9.976897
21
42.037631
0
LINE
8
Layer 1
10
9.976897
20
42.037631
11
15.366294
21
42.841018
0
LINE
8
Layer 1
10
15.366294
20
42.841018
11
17.909097
21
43.205513
0
LINE
8
Layer 1
10
17.909097
20
43.205513
11
19.363932
21
43.547223
0
LINE
8
Layer 1
10
19.363932
20
43.547223
11
20.159419
21
44.021585
0
LINE
8
Layer 1
10
20.159419
20
44.021585
11
20.724178
21
44.784036
0
LINE
8
Layer 1
10
20.724178
20
44.784036
11
21.874687
21
46.093178
0
LINE
8
Layer 1
10
21.874687
20
46.093178
11
23.756394
21
47.809679
0
LINE
8
Layer 1
10
23.756394
20
47.809679
11
26.158802
21
49.816267
0
LINE
8
Layer 1
10
26.158802
20
49.816267
11
29.448802
21
49.951765
0
LINE
8
Layer 1
10
29.448802
20
49.951765
11
32.548594
21
49.953619
0
LINE
8
Layer 1
10
32.548594
20
49.953619
11
33.450007
21
49.698261
0
LINE
8
Layer 1
10
33.450007
20
49.698261
11
34.541099
21
49.177468
0
LINE
8
Layer 1
10
34.541099
20
49.177468
11
36.816044
21
47.727808
0
LINE
8
Layer 1
10
36.816044
20
47.727808
11
38.899647
21
45.766935
0
LINE
8
Layer 1
10
38.899647
20
45.766935
11
40.804830
21
43.280440
0
LINE
8
Layer 1
10
40.804830
20
43.280440
11
42.544520
21
40.253912
0
LINE
8
Layer 1
10
42.544520
20
40.253912
11
43.780320
21
37.232884
0
LINE
8
Layer 1
10
43.780320
20
37.232884
11
44.138987
21
35.747391
0
LINE
8
Layer 1
10
44.138987
20
35.747391
11
44.329471
21
34.210458
0
LINE
8
Layer 1
10
44.329471
20
34.210458
11
44.355250
21
32.570992
0
LINE
8
Layer 1
10
44.355250
20
32.570992
11
44.219803
21
30.777903
0
LINE
8
Layer 1
10
44.219803
20
30.777903
11
43.479144
21
26.526491
0
LINE
8
Layer 1
10
43.479144
20
26.526491
11
43.081649
21
24.364192
0
LINE
8
Layer 1
10
43.081649
20
24.364192
11
43.048981
21
23.816356
0
LINE
8
Layer 1
10
43.048981
20
23.816356
11
43.133817
21
23.679989
0
LINE
8
Layer 1
10
43.133817
20
23.679989
11
44.271576
21
24.431253
0
LINE
8
Layer 1
10
44.271576
20
24.431253
11
45.884933
21
25.381431
0
LINE
8
Layer 1
10
45.884933
20
25.381431
11
47.859443
21
26.250874
0
LINE
8
Layer 1
10
47.859443
20
26.250874
11
50.164874
21
27.027952
0
LINE
8
Layer 1
10
50.164874
20
27.027952
11
52.770989
21
27.701035
0
LINE
8
Layer 1
10
52.770989
20
27.701035
11
56.657105
21
28.413596
0
LINE
8
Layer 1
10
56.657105
20
28.413596
11
60.678074
21
28.566128
0
LINE
8
Layer 1
10
60.678074
20
28.566128
11
64.309865
21
28.675954
0
LINE
8
Layer 1
10
64.309865
20
28.675954
11
65.377455
21
28.865507
0
LINE
8
Layer 1
10
65.377455
20
28.865507
11
66.369136
21
29.191281
0
LINE
8
Layer 1
10
66.369136
20
29.191281
11
67.410063
21
29.530610
0
LINE
8
Layer 1
10
67.410063
20
29.530610
11
68.625228
21
29.714701
0
LINE
8
Layer 1
10
68.625228
20
29.714701
11
73.646944
21
29.786299
0
LINE
8
Layer 1
10
73.646944
20
29.786299
11
77.542222
21
29.707257
0
LINE
8
Layer 1
10
77.542222
20
29.707257
11
80.414267
21
29.335305
0
LINE
8
Layer 1
10
80.414267
20
29.335305
11
83.536262
21
28.390821
0
LINE
8
Layer 1
10
83.536262
20
28.390821
11
88.181389
21
26.594182
0
LINE
8
Layer 1
10
88.181389
20
26.594182
11
98.553053
21
22.888307
0
LINE
8
Layer 1
10
98.553053
20
22.888307
11
102.987910
21
21.323862
0
LINE
8
Layer 1
10
102.987910
20
21.323862
11
104.832497
21
20.484191
0
LINE
8
Layer 1
10
104.832497
20
20.484191
11
104.606399
21
20.198944
0
LINE
8
Layer 1
10
104.606399
20
20.198944
11
104.062801
21
19.967468
0
LINE
8
Layer 1
10
104.062801
20
19.967468
11
103.734891
21
19.830567
0
LINE
8
Layer 1
10
103.734891
20
19.830567
11
103.862391
21
19.623496
0
LINE
8
Layer 1
10
103.862391
20
19.623496
11
105.967801
21
18.668763
0
LINE
8
Layer 1
10
105.967801
20
18.668763
11
111.676386
21
16.550239
0
LINE
8
Layer 1
10
111.676386
20
16.550239
11
113.819070
21
15.750024
0
LINE
8
Layer 1
10
113.819070
20
15.750024
11
114.710275
21
15.248616
0
LINE
8
Layer 1
10
114.710275
20
15.248616
11
117.395235
21
15.056727
0
LINE
8
Layer 1
10
117.395235
20
15.056727
11
125.505275
21
15.060284
0
LINE
8
Layer 1
10
125.505275
20
15.060284
11
134.334542
21
15.069808
0
LINE
8
Layer 1
10
134.334542
20
15.069808
11
135.900469
21
14.963312
0
LINE
8
Layer 1
10
135.900469
20
14.963312
11
136.300275
21
14.762418
0
LINE
8
Layer 1
10
136.300275
20
14.762418
11
136.212785
21
14.505032
0
LINE
8
Layer 1
10
136.212785
20
14.505032
11
135.950641
21
14.280536
0
LINE
8
Layer 1
10
135.950641
20
14.280536
11
134.904337
21
13.930613
0
LINE
8
Layer 1
10
134.904337
20
13.930613
11
133.165263
21
13.713443
0
LINE
8
Layer 1
10
133.165263
20
13.713443
11
130.737316
21
13.629821
0
LINE
8
Layer 1
10
130.737316
20
13.629821
11
127.425029
21
13.480306
0
LINE
8
Layer 1
10
127.425029
20
13.480306
11
124.729164
21
13.043905
0
LINE
8
Layer 1
10
124.729164
20
13.043905
11
122.166925
21
12.632247
0
LINE
8
Layer 1
10
122.166925
20
12.632247
11
119.377051
21
12.471220
0
LINE
8
Layer 1
10
119.377051
20
12.471220
11
116.820299
21
12.566492
0
LINE
8
Layer 1
10
116.820299
20
12.566492
11
114.957425
21
12.923729
0
LINE
8
Layer 1
10
114.957425
20
12.923729
11
113.828289
21
13.199914
0
LINE
8
Layer 1
10
113.828289
20
13.199914
11
112.642287
21
13.200936
0
LINE
8
Layer 1
10
112.642287
20
13.200936
11
111.286419
21
12.914088
0
LINE
8
Layer 1
10
111.286419
20
12.914088
11
109.647685
21
12.326665
0
LINE
8
Layer 1
10
109.647685
20
12.326665
11
107.436935
21
11.646764
0
LINE
8
Layer 1
10
107.436935
20
11.646764
11
104.673310
21
11.053530
0
LINE
8
Layer 1
10
104.673310
20
11.053530
11
100.140344
21
10.180735
0
LINE
8
Layer 1
10
100.140344
20
10.180735
11
97.609872
21
9.925085
0
LINE
8
Layer 1
10
97.609872
20
9.925085
11
93.261389
21
9.804228
0
LINE
8
Layer 1
10
93.261389
20
9.804228
11
81.792494
21
9.349177
0
LINE
8
Layer 1
10
81.792494
20
9.349177
11
75.976346
21
8.988706
0
LINE
8
Layer 1
10
75.976346
20
8.988706
11
72.941389
21
8.694471
0
LINE
8
Layer 1
10
72.941389
20
8.694471
11
72.890390
21
8.652809
0
LINE
8
Layer 1
10
72.890390
20
8.652809
11
73.064473
21
8.613773
0
LINE
8
Layer 1
10
73.064473
20
8.613773
11
73.954869
21
8.561087
0
LINE
8
Layer 1
10
73.954869
20
8.561087
11
75.376582
21
8.411368
0
LINE
8
Layer 1
10
75.376582
20
8.411368
11
76.777091
21
8.097376
0
LINE
8
Layer 1
10
76.777091
20
8.097376
11
78.552894
21
7.793786
0
LINE
8
Layer 1
10
78.552894
20
7.793786
11
81.408056
21
7.842391
0
LINE
8
Layer 1
10
81.408056
20
7.842391
11
84.691251
21
7.871963
0
LINE
8
Layer 1
10
84.691251
20
7.871963
11
88.040278
21
7.645456
0
LINE
8
Layer 1
10
88.040278
20
7.645456
11
94.672500
21
7.262842
0
LINE
8
Layer 1
10
94.672500
20
7.262842
11
97.897673
21
7.098757
0
LINE
8
Layer 1
10
97.897673
20
7.098757
11
101.073173
21
6.558320
0
LINE
8
Layer 1
10
101.073173
20
6.558320
11
103.998118
21
6.028322
0
LINE
8
Layer 1
10
103.998118
20
6.028322
11
104.890064
21
6.057110
0
LINE
8
Layer 1
10
104.890064
20
6.057110
11
105.870951
21
6.251770
0
LINE
8
Layer 1
10
105.870951
20
6.251770
11
107.977242
21
6.576188
0
LINE
8
Layer 1
10
107.977242
20
6.576188
11
110.797790
21
6.757798
0
LINE
8
Layer 1
10
110.797790
20
6.757798
11
114.070304
21
6.787504
0
LINE
8
Layer 1
10
114.070304
20
6.787504
11
117.532497
21
6.656208
0
LINE
8
Layer 1
10
117.532497
20
6.656208
11
120.511825
21
6.430321
0
LINE
8
Layer 1
10
120.511825
20
6.430321
11
120.566492
21
6.391648
0
LINE
8
Layer 1
10
120.566492
20
6.391648
11
120.381699
21
6.352071
0
LINE
8
Layer 1
10
120.381699
20
6.352071
11
119.366942
21
6.254163
0
LINE
8
Layer 1
10
119.366942
20
6.254163
11
117.391386
21
6.088022
0
LINE
8
Layer 1
10
117.391386
20
6.088022
11
119.366942
21
5.997075
0
LINE
8
Layer 1
10
119.366942
20
5.997075
11
120.050226
21
5.936377
0
LINE
8
Layer 1
10
120.050226
20
5.936377
11
119.811905
21
5.849976
0
LINE
8
Layer 1
10
119.811905
20
5.849976
11
116.262497
21
5.556343
0
LINE
8
Layer 1
10
116.262497
20
5.556343
11
112.068282
21
5.175426
0
LINE
8
Layer 1
10
112.068282
20
5.175426
11
109.117934
21
4.750788
0
LINE
8
Layer 1
10
109.117934
20
4.750788
11
106.498588
21
4.359874
0
LINE
8
Layer 1
10
106.498588
20
4.359874
11
103.746946
21
4.285650
0
LINE
8
Layer 1
10
103.746946
20
4.285650
11
101.035215
21
4.522974
0
LINE
8
Layer 1
10
101.035215
20
4.522974
11
98.535603
21
5.066707
0
LINE
8
Layer 1
10
98.535603
20
5.066707
11
96.922425
21
5.508519
0
LINE
8
Layer 1
10
96.922425
20
5.508519
11
95.331866
21
5.730686
0
LINE
8
Layer 1
10
95.331866
20
5.730686
11
88.604722
21
5.773172
0
LINE
8
Layer 1
10
88.604722
20
5.773172
11
82.000341
21
5.818562
0
LINE
8
Layer 1
10
82.000341
20
5.818562
11
80.107743
21
5.989512
0
LINE
8
Layer 1
10
80.107743
20
5.989512
11
78.305908
21
6.302996
0
LINE
8
Layer 1
10
78.305908
20
6.302996
11
75.399799
21
6.742849
0
LINE
8
Layer 1
10
75.399799
20
6.742849
11
72.661464
21
6.708640
0
LINE
8
Layer 1
10
72.661464
20
6.708640
11
69.817008
21
6.686119
0
LINE
8
Layer 1
10
69.817008
20
6.686119
11
66.414819
21
7.241568
0
LINE
8
Layer 1
10
66.414819
20
7.241568
11
63.353224
21
7.751718
0
LINE
8
Layer 1
10
63.353224
20
7.751718
11
60.996065
21
7.963905
0
LINE
8
Layer 1
10
60.996065
20
7.963905
11
59.459783
21
8.063751
0
LINE
8
Layer 1
10
59.459783
20
8.063751
11
59.082614
21
8.215138
0
LINE
8
Layer 1
10
59.082614
20
8.215138
11
58.864111
21
8.457794
0
LINE
8
Layer 1
10
58.864111
20
8.457794
11
58.494458
21
8.725751
0
LINE
8
Layer 1
10
58.494458
20
8.725751
11
57.379127
21
8.874326
0
LINE
8
Layer 1
10
57.379127
20
8.874326
11
50.595087
21
8.951682
0
LINE
8
Layer 1
10
50.595087
20
8.951682
11
44.264800
21
8.874721
0
LINE
8
Layer 1
10
44.264800
20
8.874721
11
42.810186
21
8.765882
0
LINE
8
Layer 1
10
42.810186
20
8.765882
11
42.229563
21
8.598905
0
LINE
8
Layer 1
10
42.229563
20
8.598905
11
42.020655
21
8.313737
0
LINE
8
Layer 1
10
42.020655
20
8.313737
11
42.339562
21
8.246127
0
LINE
8
Layer 1
10
42.339562
20
8.246127
11
42.772676
21
8.133525
0
LINE
8
Layer 1
10
42.772676
20
8.133525
11
43.135832
21
7.862799
0
LINE
8
Layer 1
10
43.135832
20
7.862799
11
44.032000
21
7.325896
0
LINE
8
Layer 1
10
44.032000
20
7.325896
11
45.663450
21
6.912495
0
LINE
8
Layer 1
10
45.663450
20
6.912495
11
47.892894
21
6.646744
0
LINE
8
Layer 1
10
47.892894
20
6.646744
11
50.583042
21
6.552794
0
LINE
8
Layer 1
10
50.583042
20
6.552794
11
54.022420
21
6.427091
0
LINE
8
Layer 1
10
54.022420
20
6.427091
11
56.491192
21
5.850842
0
LINE
8
Layer 1
10
56.491192
20
5.850842
11
58.830643
21
5.289948
0
LINE
8
Layer 1
10
58.830643
20
5.289948
11
61.587552
21
5.145286
0
LINE
8
Layer 1
10
61.587552
20
5.145286
11
63.702201
21
5.032081
0
LINE
8
Layer 1
10
63.702201
20
5.032081
11
65.537130
21
4.685953
0
LINE
8
Layer 1
10
65.537130
20
4.685953
11
67.159304
21
4.088625
0
LINE
8
Layer 1
10
67.159304
20
4.088625
11
68.635688
21
3.221821
0
LINE
8
Layer 1
10
68.635688
20
3.221821
11
69.949548
21
2.746221
0
LINE
8
Layer 1
10
69.949548
20
2.746221
11
72.223976
21
2.269221
0
LINE
8
Layer 1
10
72.223976
20
2.269221
11
74.816575
21
1.902220
0
LINE
8
Layer 1
10
74.816575
20
1.902220
11
77.084944
21
1.756619
0
LINE
8
Layer 1
10
77.084944
20
1.756619
11
81.408056
21
1.411035
0
LINE
8
Layer 1
10
81.408056
20
1.411035
11
83.527131
21
1.099682
0
LINE
8
Layer 1
10
83.527131
20
1.099682
11
83.768562
21
0.983449
0
LINE
8
Layer 1
10
83.768562
20
0.983449
11
83.524722
21
0.878377
0
LINE
8
Layer 1
10
83.524722
20
0.878377
11
82.678056
21
0.692909
0
LINE
8
Layer 1
10
82.678056
20
0.692909
11
83.524722
21
0.626127
0
LINE
8
Layer 1
10
83.524722
20
0.626127
11
84.371389
21
0.559345
0
LINE
8
Layer 1
10
84.371389
20
0.559345
11
83.524722
21
0.343905
0
LINE
8
Layer 1
10
83.524722
20
0.343905
11
82.329520
21
0.173765
0
LINE
8
Layer 1
10
82.329520
20
0.173765
11
80.762738
21
0.146295
0
LINE
8
Layer 1
10
80.762738
20
0.146295
11
77.174722
21
0.502835
0
LINE
8
Layer 1
10
77.174722
20
0.502835
11
77.174714
21
0.502824
0
LINE
8
Layer 1
10
80.702491
20
0.921323
11
78.303603
21
1.128683
0
LINE
8
Layer 1
10
78.303603
20
1.128683
11
77.315825
21
1.116265
0
LINE
8
Layer 1
10
77.315825
20
1.116265
11
78.303603
21
0.908338
0
LINE
8
Layer 1
10
78.303603
20
0.908338
11
80.702491
21
0.700975
0
LINE
8
Layer 1
10
80.702491
20
0.700975
11
82.113603
21
0.701540
0
LINE
8
Layer 1
10
82.113603
20
0.701540
11
80.702491
21
0.921329
0
LINE
8
Layer 1
10
80.702491
20
0.921329
11
80.702491
21
0.921323
0
LINE
8
Layer 1
10
71.102209
20
1.860017
11
69.614181
21
2.264818
0
LINE
8
Layer 1
10
69.614181
20
2.264818
11
68.421098
21
2.791059
0
LINE
8
Layer 1
10
68.421098
20
2.791059
11
66.854415
21
3.645271
0
LINE
8
Layer 1
10
66.854415
20
3.645271
11
65.310682
21
4.195364
0
LINE
8
Layer 1
10
65.310682
20
4.195364
11
63.603162
21
4.489846
0
LINE
8
Layer 1
10
63.603162
20
4.489846
11
61.545114
21
4.577227
0
LINE
8
Layer 1
10
61.545114
20
4.577227
11
58.894139
21
4.702906
0
LINE
8
Layer 1
10
58.894139
20
4.702906
11
56.969451
21
5.182751
0
LINE
8
Layer 1
10
56.969451
20
5.182751
11
54.675684
21
5.708042
0
LINE
8
Layer 1
10
54.675684
20
5.708042
11
50.504714
21
5.993043
0
LINE
8
Layer 1
10
50.504714
20
5.993043
11
46.229481
21
6.289384
0
LINE
8
Layer 1
10
46.229481
20
6.289384
11
43.651235
21
6.883112
0
LINE
8
Layer 1
10
43.651235
20
6.883112
11
41.722717
21
7.695599
0
LINE
8
Layer 1
10
41.722717
20
7.695599
11
40.815085
21
7.864046
0
LINE
8
Layer 1
10
40.815085
20
7.864046
11
36.576225
21
8.178333
0
LINE
8
Layer 1
10
36.576225
20
8.178333
11
34.393578
21
8.567928
0
LINE
8
Layer 1
10
34.393578
20
8.567928
11
33.881088
21
8.747035
0
LINE
8
Layer 1
10
33.881088
20
8.747035
11
32.869945
21
8.802954
0
LINE
8
Layer 1
10
32.869945
20
8.802954
11
31.702403
21
8.737225
0
LINE
8
Layer 1
10
31.702403
20
8.737225
11
30.720716
21
8.551390
0
LINE
8
Layer 1
10
30.720716
20
8.551390
11
27.618334
21
8.125138
0
LINE
8
Layer 1
10
27.618334
20
8.125138
11
25.334180
21
7.958051
0
LINE
8
Layer 1
10
25.334180
20
7.958051
11
24.811208
21
9.160417
0
LINE
8
Layer 1
10
24.811208
20
9.160417
11
24.229711
21
10.453246
0
LINE
8
Layer 1
10
24.229711
20
10.453246
11
20.969060
21
9.921875
0
LINE
8
Layer 1
10
20.969060
20
9.921875
11
18.302287
21
9.289482
0
LINE
8
Layer 1
10
18.302287
20
9.289482
11
17.557355
21
8.980105
0
LINE
8
Layer 1
10
17.557355
20
8.980105
11
17.064744
21
8.628916
0
LINE
8
Layer 1
10
17.064744
20
8.628916
11
16.563828
21
7.993737
0
LINE
8
Layer 1
10
16.563828
20
7.993737
11
16.669918
21
7.466954
0
LINE
8
Layer 1
10
16.669918
20
7.466954
11
17.450750
21
7.041526
0
LINE
8
Layer 1
10
17.450750
20
7.041526
11
19.098087
21
6.673018
0
LINE
8
Layer 1
10
19.098087
20
6.673018
11
24.202651
21
6.153601
0
LINE
8
Layer 1
10
24.202651
20
6.153601
11
30.404361
21
6.002378
0
LINE
8
Layer 1
10
30.404361
20
6.002378
11
33.423131
21
6.094113
0
LINE
8
Layer 1
10
33.423131
20
6.094113
11
36.123970
21
6.313023
0
LINE
8
Layer 1
10
36.123970
20
6.313023
11
39.117031
21
6.493408
0
LINE
8
Layer 1
10
39.117031
20
6.493408
11
42.646772
21
6.173518
0
LINE
8
Layer 1
10
42.646772
20
6.173518
11
45.946780
21
5.843299
0
LINE
8
Layer 1
10
45.946780
20
5.843299
11
48.701960
21
5.705726
0
LINE
8
Layer 1
10
48.701960
20
5.705726
11
50.872427
21
5.605362
0
LINE
8
Layer 1
10
50.872427
20
5.605362
11
53.125609
21
5.325084
0
LINE
8
Layer 1
10
53.125609
20
5.325084
11
55.275711
21
4.894840
0
LINE
8
Layer 1
10
55.275711
20
4.894840
11
57.136936
21
4.344580
0
LINE
8
Layer 1
10
57.136936
20
4.344580
11
58.937866
21
3.893944
0
LINE
8
Layer 1
10
58.937866
20
3.893944
11
61.088047
21
3.601175
0
LINE
8
Layer 1
10
61.088047
20
3.601175
11
63.196776
21
3.338667
0
LINE
8
Layer 1
10
63.196776
20
3.338667
11
64.898047
21
2.960782
0
LINE
8
Layer 1
10
64.898047
20
2.960782
11
68.686026
21
1.997318
0
LINE
8
Layer 1
10
68.686026
20
1.997318
11
71.812491
21
1.535952
0
LINE
8
Layer 1
10
71.812491
20
1.535952
11
72.182003
21
1.555548
0
LINE
8
Layer 1
10
72.182003
20
1.555548
11
72.195629
21
1.612059
0
LINE
8
Layer 1
10
72.195629
20
1.612059
11
71.102209
21
1.860014
0
LINE
8
Layer 1
10
71.102209
20
1.860014
11
71.102209
21
1.860017
0
LINE
8
Layer 1
10
109.117926
20
5.317163
11
114.004711
21
5.988425
0
LINE
8
Layer 1
10
114.004711
20
5.988425
11
115.352670
21
6.099827
0
LINE
8
Layer 1
10
115.352670
20
6.099827
11
115.610327
21
6.134508
0
LINE
8
Layer 1
10
115.610327
20
6.134508
11
115.571598
21
6.156797
0
LINE
8
Layer 1
10
115.571598
20
6.156797
11
112.170266
21
6.146368
0
LINE
8
Layer 1
10
112.170266
20
6.146368
11
108.332972
21
5.998259
0
LINE
8
Layer 1
10
108.332972
20
5.998259
11
105.870942
21
5.694897
0
LINE
8
Layer 1
10
105.870942
20
5.694897
11
104.889863
21
5.495380
0
LINE
8
Layer 1
10
104.889863
20
5.495380
11
103.998549
21
5.461749
0
LINE
8
Layer 1
10
103.998549
20
5.461749
11
101.073164
21
5.974407
0
LINE
8
Layer 1
10
101.073164
20
5.974407
11
96.717445
21
6.737498
0
LINE
8
Layer 1
10
96.717445
20
6.737498
11
95.396170
21
6.772493
0
LINE
8
Layer 1
10
95.396170
20
6.772493
11
94.378413
21
6.601514
0
LINE
8
Layer 1
10
94.378413
20
6.601514
11
93.738000
21
6.352482
0
LINE
8
Layer 1
10
93.738000
20
6.352482
11
94.954714
21
6.275129
0
LINE
8
Layer 1
10
94.954714
20
6.275129
11
96.672740
21
6.049974
0
LINE
8
Layer 1
10
96.672740
20
6.049974
11
98.623600
21
5.573711
0
LINE
8
Layer 1
10
98.623600
20
5.573711
11
100.957158
21
5.087199
0
LINE
8
Layer 1
10
100.957158
20
5.087199
11
103.712046
21
4.876697
0
LINE
8
Layer 1
10
103.712046
20
4.876697
11
106.546292
21
4.950565
0
LINE
8
Layer 1
10
106.546292
20
4.950565
11
109.117926
21
5.317163
0
LINE
8
Layer 1
10
109.117926
20
5.317163
11
109.117926
21
5.317163
0
LINE
8
Layer 1
10
89.874714
20
6.519641
11
91.709158
21
6.702747
0
LINE
8
Layer 1
10
91.709158
20
6.702747
11
90.156936
21
6.960777
0
LINE
8
Layer 1
10
90.156936
20
6.960777
11
87.485526
21
7.151627
0
LINE
8
Layer 1
10
87.485526
20
7.151627
11
83.242491
21
7.248144
0
LINE
8
Layer 1
10
83.242491
20
7.248144
11
78.999457
21
7.367076
0
LINE
8
Layer 1
10
78.999457
20
7.367076
11
76.328047
21
7.611810
0
LINE
8
Layer 1
10
76.328047
20
7.611810
11
72.074444
21
8.210992
0
LINE
8
Layer 1
10
72.074444
20
8.210992
11
66.290774
21
8.723765
0
LINE
8
Layer 1
10
66.290774
20
8.723765
11
61.252997
21
8.986933
0
LINE
8
Layer 1
10
61.252997
20
8.986933
11
59.725057
21
8.973916
0
LINE
8
Layer 1
10
59.725057
20
8.973916
11
59.237076
21
8.837301
0
LINE
8
Layer 1
10
59.237076
20
8.837301
11
59.874768
21
8.619096
0
LINE
8
Layer 1
10
59.874768
20
8.619096
11
61.139798
21
8.528338
0
LINE
8
Layer 1
10
61.139798
20
8.528338
11
63.389668
21
8.317573
0
LINE
8
Layer 1
10
63.389668
20
8.317573
11
66.395160
21
7.810841
0
LINE
8
Layer 1
10
66.395160
20
7.810841
11
69.834988
21
7.255439
0
LINE
8
Layer 1
10
69.834988
20
7.255439
11
72.921729
21
7.251629
0
LINE
8
Layer 1
10
72.921729
20
7.251629
11
75.785537
21
7.267241
0
LINE
8
Layer 1
10
75.785537
20
7.267241
11
78.303603
21
6.868953
0
LINE
8
Layer 1
10
78.303603
20
6.868953
11
80.638476
21
6.523607
0
LINE
8
Layer 1
10
80.638476
20
6.523607
11
83.617839
21
6.342046
0
LINE
8
Layer 1
10
83.617839
20
6.342046
11
86.832861
21
6.336610
0
LINE
8
Layer 1
10
86.832861
20
6.336610
11
89.874714
21
6.519641
0
LINE
8
Layer 1
10
89.874714
20
6.519641
11
89.874714
21
6.519641
0
LINE
8
Layer 1
10
28.302794
20
8.861431
11
29.902491
21
8.912301
0
LINE
8
Layer 1
10
29.902491
20
8.912301
11
28.561936
21
9.018005
0
LINE
8
Layer 1
10
28.561936
20
9.018005
11
27.542117
21
9.196004
0
LINE
8
Layer 1
10
27.542117
20
9.196004
11
27.299764
21
9.342026
0
LINE
8
Layer 1
10
27.299764
20
9.342026
11
27.221380
21
9.531579
0
LINE
8
Layer 1
10
27.221380
20
9.531579
11
27.102612
21
9.819638
0
LINE
8
Layer 1
10
27.102612
20
9.819638
11
26.817063
21
9.939449
0
LINE
8
Layer 1
10
26.817063
20
9.939449
11
26.478892
21
10.105255
0
LINE
8
Layer 1
10
26.478892
20
10.105255
11
26.233602
21
10.503893
0
LINE
8
Layer 1
10
26.233602
20
10.503893
11
25.994076
21
10.902532
0
LINE
8
Layer 1
10
25.994076
20
10.902532
11
25.669767
21
11.068338
0
LINE
8
Layer 1
10
25.669767
20
11.068338
11
25.362155
21
11.254869
0
LINE
8
Layer 1
10
25.362155
20
11.254869
11
25.162775
21
11.703338
0
LINE
8
Layer 1
10
25.162775
20
11.703338
11
25.059407
21
11.989998
0
LINE
8
Layer 1
10
25.059407
20
11.989998
11
25.002035
21
11.430691
0
LINE
8
Layer 1
10
25.002035
20
11.430691
11
25.112807
21
10.469057
0
LINE
8
Layer 1
10
25.112807
20
10.469057
11
25.444382
21
9.525989
0
LINE
8
Layer 1
10
25.444382
20
9.525989
11
25.882536
21
8.842819
0
LINE
8
Layer 1
10
25.882536
20
8.842819
11
26.313039
21
8.660881
0
LINE
8
Layer 1
10
26.313039
20
8.660881
11
28.302794
21
8.861431
0
LINE
8
Layer 1
10
28.302794
20
8.861431
11
28.302794
21
8.861431
0
LINE
8
Layer 1
10
40.725934
20
8.838176
11
41.614714
21
9.355365
0
LINE
8
Layer 1
10
41.614714
20
9.355365
11
43.583655
21
9.483023
0
LINE
8
Layer 1
10
43.583655
20
9.483023
11
48.317491
21
9.498767
0
LINE
8
Layer 1
10
48.317491
20
9.498767
11
53.343639
21
9.473778
0
LINE
8
Layer 1
10
53.343639
20
9.473778
11
53.300102
21
9.493340
0
LINE
8
Layer 1
10
53.300102
20
9.493340
11
52.775821
21
9.525839
0
LINE
8
Layer 1
10
52.775821
20
9.525839
11
50.363603
21
9.634872
0
LINE
8
Layer 1
10
50.363603
20
9.634872
11
47.112969
21
9.840032
0
LINE
8
Layer 1
10
47.112969
20
9.840032
11
44.912564
21
10.151632
0
LINE
8
Layer 1
10
44.912564
20
10.151632
11
43.586033
21
10.608074
0
LINE
8
Layer 1
10
43.586033
20
10.608074
11
42.957019
21
11.247763
0
LINE
8
Layer 1
10
42.957019
20
11.247763
11
42.634867
21
11.742139
0
LINE
8
Layer 1
10
42.634867
20
11.742139
11
42.267384
21
12.037362
0
LINE
8
Layer 1
10
42.267384
20
12.037362
11
42.033343
21
12.067564
0
LINE
8
Layer 1
10
42.033343
20
12.067564
11
42.032024
21
11.924755
0
LINE
8
Layer 1
10
42.032024
20
11.924755
11
42.017942
21
10.947609
0
LINE
8
Layer 1
10
42.017942
20
10.947609
11
41.672253
21
10.356677
0
LINE
8
Layer 1
10
41.672253
20
10.356677
11
40.913434
21
10.062749
0
LINE
8
Layer 1
10
40.913434
20
10.062749
11
40.208526
21
9.817676
0
LINE
8
Layer 1
10
40.208526
20
9.817676
11
40.122371
21
9.372944
0
LINE
8
Layer 1
10
40.122371
20
9.372944
11
40.074062
21
8.946620
0
LINE
8
Layer 1
10
40.074062
20
8.946620
11
39.595465
21
8.731038
0
LINE
8
Layer 1
10
39.595465
20
8.731038
11
39.260733
21
8.630882
0
LINE
8
Layer 1
10
39.260733
20
8.630882
11
39.385378
21
8.566777
0
LINE
8
Layer 1
10
39.385378
20
8.566777
11
40.725934
21
8.838176
0
LINE
8
Layer 1
10
40.725934
20
8.838176
11
40.725934
21
8.838176
0
LINE
8
Layer 1
10
33.754503
20
11.712366
11
33.772418
21
13.508718
0
LINE
8
Layer 1
10
33.772418
20
13.508718
11
34.077162
21
14.456904
0
LINE
8
Layer 1
10
34.077162
20
14.456904
11
34.428716
21
14.829080
0
LINE
8
Layer 1
10
34.428716
20
14.829080
11
34.623115
21
14.686475
0
LINE
8
Layer 1
10
34.623115
20
14.686475
11
34.710825
21
14.677443
0
LINE
8
Layer 1
10
34.710825
20
14.677443
11
34.747307
21
15.178927
0
LINE
8
Layer 1
10
34.747307
20
15.178927
11
34.920398
21
16.033169
0
LINE
8
Layer 1
10
34.920398
20
16.033169
11
35.336553
21
16.872260
0
LINE
8
Layer 1
10
35.336553
20
16.872260
11
35.804326
21
17.747411
0
LINE
8
Layer 1
10
35.804326
20
17.747411
11
36.101517
21
18.688344
0
LINE
8
Layer 1
10
36.101517
20
18.688344
11
36.169403
21
19.177628
0
LINE
8
Layer 1
10
36.169403
20
19.177628
11
36.093406
21
19.256052
0
LINE
8
Layer 1
10
36.093406
20
19.256052
11
35.279666
21
17.982788
0
LINE
8
Layer 1
10
35.279666
20
17.982788
11
33.543378
21
14.368983
0
LINE
8
Layer 1
10
33.543378
20
14.368983
11
32.978652
21
12.517092
0
LINE
8
Layer 1
10
32.978652
20
12.517092
11
32.998667
21
10.895680
0
LINE
8
Layer 1
10
32.998667
20
10.895680
11
33.228005
21
9.774261
0
LINE
8
Layer 1
10
33.228005
20
9.774261
11
33.369096
21
9.510094
0
LINE
8
Layer 1
10
33.369096
20
9.510094
11
33.523140
21
9.456414
0
LINE
8
Layer 1
10
33.523140
20
9.456414
11
33.748789
21
10.065015
0
LINE
8
Layer 1
10
33.748789
20
10.065015
11
33.754503
21
11.712366
0
LINE
8
Layer 1
10
33.754503
20
11.712366
11
33.754503
21
11.712366
0
LINE
8
Layer 1
10
35.872900
20
9.891121
11
35.533411
21
10.414903
0
LINE
8
Layer 1
10
35.533411
20
10.414903
11
35.373087
21
10.949455
0
LINE
8
Layer 1
10
35.373087
20
10.949455
11
35.324982
21
11.329843
0
LINE
8
Layer 1
10
35.324982
20
11.329843
11
35.207239
21
10.976802
0
LINE
8
Layer 1
10
35.207239
20
10.976802
11
35.257867
21
10.537227
0
LINE
8
Layer 1
10
35.257867
20
10.537227
11
35.511883
21
10.007648
0
LINE
8
Layer 1
10
35.511883
20
10.007648
11
35.861483
21
9.562201
0
LINE
8
Layer 1
10
35.861483
20
9.562201
11
36.198864
21
9.375021
0
LINE
8
Layer 1
10
36.198864
20
9.375021
11
35.872900
21
9.891133
0
LINE
8
Layer 1
10
35.872900
20
9.891133
11
35.872900
21
9.891121
0
LINE
8
Layer 1
10
36.733003
20
9.876276
11
36.356629
21
10.580464
0
LINE
8
Layer 1
10
36.356629
20
10.580464
11
36.088749
21
11.569610
0
LINE
8
Layer 1
10
36.088749
20
11.569610
11
35.890631
21
12.411502
0
LINE
8
Layer 1
10
35.890631
20
12.411502
11
35.681985
21
12.761671
0
LINE
8
Layer 1
10
35.681985
20
12.761671
11
35.599038
21
12.388471
0
LINE
8
Layer 1
10
35.599038
20
12.388471
11
35.774579
21
11.525407
0
LINE
8
Layer 1
10
35.774579
20
11.525407
11
36.102757
21
10.557280
0
LINE
8
Layer 1
10
36.102757
20
10.557280
11
36.477722
21
9.868893
0
LINE
8
Layer 1
10
36.477722
20
9.868893
11
37.045530
21
9.375005
0
LINE
8
Layer 1
10
37.045530
20
9.375005
11
36.733003
21
9.876265
0
LINE
8
Layer 1
10
36.733003
20
9.876265
11
36.733003
21
9.876276
0
LINE
8
Layer 1
10
62.922491
20
9.939449
11
62.075825
21
10.154889
0
LINE
8
Layer 1
10
62.075825
20
10.154889
11
62.898974
21
10.188281
0
LINE
8
Layer 1
10
62.898974
20
10.188281
11
63.442178
21
10.250010
0
LINE
8
Layer 1
10
63.442178
20
10.250010
11
63.592270
21
10.351522
0
LINE
8
Layer 1
10
63.592270
20
10.351522
11
59.664676
21
10.104989
0
LINE
8
Layer 1
10
59.664676
20
10.104989
11
55.866936
21
9.728604
0
LINE
8
Layer 1
10
55.866936
20
9.728604
11
59.818047
21
9.726346
0
LINE
8
Layer 1
10
59.818047
20
9.726346
11
62.446823
21
9.784046
0
LINE
8
Layer 1
10
62.446823
20
9.784046
11
62.983615
21
9.851602
0
LINE
8
Layer 1
10
62.983615
20
9.851602
11
62.922491
21
9.939488
0
LINE
8
Layer 1
10
62.922491
20
9.939488
11
62.922491
21
9.939449
0
LINE
8
Layer 1
10
81.621607
20
10.396415
11
83.187095
21
10.609374
0
LINE
8
Layer 1
10
83.187095
20
10.609374
11
83.356993
21
10.739839
0
LINE
8
Layer 1
10
83.356993
20
10.739839
11
83.209799
21
10.916231
0
LINE
8
Layer 1
10
83.209799
20
10.916231
11
82.928330
21
11.343422
0
LINE
8
Layer 1
10
82.928330
20
11.343422
11
82.941021
21
11.860452
0
LINE
8
Layer 1
10
82.941021
20
11.860452
11
83.199214
21
12.296176
0
LINE
8
Layer 1
10
83.199214
20
12.296176
11
83.654248
21
12.479449
0
LINE
8
Layer 1
10
83.654248
20
12.479449
11
84.020120
21
12.287717
0
LINE
8
Layer 1
10
84.020120
20
12.287717
11
84.321134
21
11.831354
0
LINE
8
Layer 1
10
84.321134
20
11.831354
11
84.475964
21
11.288610
0
LINE
8
Layer 1
10
84.475964
20
11.288610
11
84.403283
21
10.837734
0
LINE
8
Layer 1
10
84.403283
20
10.837734
11
85.132689
21
10.752224
0
LINE
8
Layer 1
10
85.132689
20
10.752224
11
87.006388
21
10.842775
0
LINE
8
Layer 1
10
87.006388
20
10.842775
11
90.862491
21
11.309347
0
LINE
8
Layer 1
10
90.862491
20
11.309347
11
91.505820
21
11.506057
0
LINE
8
Layer 1
10
91.505820
20
11.506057
11
91.581713
21
11.572378
0
LINE
8
Layer 1
10
91.581713
20
11.572378
11
91.467297
21
11.604433
0
LINE
8
Layer 1
10
91.467297
20
11.604433
11
91.132999
21
11.726285
0
LINE
8
Layer 1
10
91.132999
20
11.726285
11
91.077610
21
11.985560
0
LINE
8
Layer 1
10
91.077610
20
11.985560
11
91.073606
21
12.143909
0
LINE
8
Layer 1
10
91.073606
20
12.143909
11
90.919004
21
12.256207
0
LINE
8
Layer 1
10
90.919004
20
12.256207
11
90.135041
21
12.351563
0
LINE
8
Layer 1
10
90.135041
20
12.351563
11
89.217844
21
12.500191
0
LINE
8
Layer 1
10
89.217844
20
12.500191
11
88.529716
21
12.842951
0
LINE
8
Layer 1
10
88.529716
20
12.842951
11
86.992606
21
13.463244
0
LINE
8
Layer 1
10
86.992606
20
13.463244
11
83.941141
21
14.140808
0
LINE
8
Layer 1
10
83.941141
20
14.140808
11
79.851324
21
14.787382
0
LINE
8
Layer 1
10
79.851324
20
14.787382
11
75.199158
21
15.314704
0
LINE
8
Layer 1
10
75.199158
20
15.314704
11
70.114008
21
15.674543
0
LINE
8
Layer 1
10
70.114008
20
15.674543
11
64.934446
21
15.819496
0
LINE
8
Layer 1
10
64.934446
20
15.819496
11
59.488917
21
15.750795
0
LINE
8
Layer 1
10
59.488917
20
15.750795
11
53.605867
21
15.469670
0
LINE
8
Layer 1
10
53.605867
20
15.469670
11
48.389096
21
15.041572
0
LINE
8
Layer 1
10
48.389096
20
15.041572
11
47.195574
21
14.775065
0
LINE
8
Layer 1
10
47.195574
20
14.775065
11
46.268090
21
14.372311
0
LINE
8
Layer 1
10
46.268090
20
14.372311
11
45.114395
21
13.692052
0
LINE
8
Layer 1
10
45.114395
20
13.692052
11
44.173679
21
12.972241
0
LINE
8
Layer 1
10
44.173679
20
12.972241
11
43.540158
21
12.296404
0
LINE
8
Layer 1
10
43.540158
20
12.296404
11
43.308047
21
11.748070
0
LINE
8
Layer 1
10
43.308047
20
11.748070
11
43.395010
21
11.466331
0
LINE
8
Layer 1
10
43.395010
20
11.466331
11
43.651712
21
11.213350
0
LINE
8
Layer 1
10
43.651712
20
11.213350
11
44.649221
21
10.794878
0
LINE
8
Layer 1
10
44.649221
20
10.794878
11
46.250348
21
10.495095
0
LINE
8
Layer 1
10
46.250348
20
10.495095
11
48.404864
21
10.316441
0
LINE
8
Layer 1
10
48.404864
20
10.316441
11
54.173154
21
10.332276
0
LINE
8
Layer 1
10
54.173154
20
10.332276
11
61.552272
21
10.861901
0
LINE
8
Layer 1
10
61.552272
20
10.861901
11
67.068635
21
11.492594
0
LINE
8
Layer 1
10
67.068635
20
11.492594
11
68.298451
21
11.744616
0
LINE
8
Layer 1
10
68.298451
20
11.744616
11
68.839653
21
12.006292
0
LINE
8
Layer 1
10
68.839653
20
12.006292
11
69.476857
21
12.425040
0
LINE
8
Layer 1
10
69.476857
20
12.425040
11
70.006587
21
12.417502
0
LINE
8
Layer 1
10
70.006587
20
12.417502
11
70.307803
21
12.039795
0
LINE
8
Layer 1
10
70.307803
20
12.039795
11
70.259468
21
11.348034
0
LINE
8
Layer 1
10
70.259468
20
11.348034
11
69.914277
21
10.913501
0
LINE
8
Layer 1
10
69.914277
20
10.913501
11
69.182917
21
10.773802
0
LINE
8
Layer 1
10
69.182917
20
10.773802
11
66.591380
21
10.358334
0
LINE
8
Layer 1
10
66.591380
20
10.358334
11
65.854687
21
10.141028
0
LINE
8
Layer 1
10
65.854687
20
10.141028
11
66.274426
21
10.036258
0
LINE
8
Layer 1
10
66.274426
20
10.036258
11
72.235825
21
10.084003
0
LINE
8
Layer 1
10
72.235825
20
10.084003
11
81.621607
21
10.396415
0
LINE
8
Layer 1
10
81.621607
20
10.396415
11
81.621607
21
10.396415
0
LINE
8
Layer 1
10
72.013597
20
10.396979
11
71.820155
21
10.762756
0
LINE
8
Layer 1
10
71.820155
20
10.762756
11
71.842539
21
11.178014
0
LINE
8
Layer 1
10
71.842539
20
11.178014
11
72.053550
21
11.550904
0
LINE
8
Layer 1
10
72.053550
20
11.550904
11
72.425986
21
11.789577
0
LINE
8
Layer 1
10
72.425986
20
11.789577
11
72.921877
21
11.781999
0
LINE
8
Layer 1
10
72.921877
20
11.781999
11
73.375527
21
11.522933
0
LINE
8
Layer 1
10
73.375527
20
11.522933
11
73.672792
21
11.113927
0
LINE
8
Layer 1
10
73.672792
20
11.113927
11
73.699531
21
10.656533
0
LINE
8
Layer 1
10
73.699531
20
10.656533
11
73.428283
21
10.428152
0
LINE
8
Layer 1
10
73.428283
20
10.428152
11
72.921490
21
10.287922
0
LINE
8
Layer 1
10
72.921490
20
10.287922
11
72.382233
21
10.267109
0
LINE
8
Layer 1
10
72.382233
20
10.267109
11
72.013597
21
10.396979
0
LINE
8
Layer 1
10
72.013597
20
10.396979
11
72.013597
21
10.396979
0
LINE
8
Layer 1
10
48.551575
20
11.119214
11
48.427674
21
11.733630
0
LINE
8
Layer 1
10
48.427674
20
11.733630
11
48.497168
21
12.157466
0
LINE
8
Layer 1
10
48.497168
20
12.157466
11
48.758772
21
12.388175
0
LINE
8
Layer 1
10
48.758772
20
12.388175
11
49.211196
21
12.423216
0
LINE
8
Layer 1
10
49.211196
20
12.423216
11
49.779047
21
12.146360
0
LINE
8
Layer 1
10
49.779047
20
12.146360
11
49.992626
21
11.638848
0
LINE
8
Layer 1
10
49.992626
20
11.638848
11
49.838693
21
11.126964
0
LINE
8
Layer 1
10
49.838693
20
11.126964
11
49.304008
21
10.836992
0
LINE
8
Layer 1
10
49.304008
20
10.836992
11
48.820523
21
10.882626
0
LINE
8
Layer 1
10
48.820523
20
10.882626
11
48.551575
21
11.119214
0
LINE
8
Layer 1
10
48.551575
20
11.119214
11
48.551575
21
11.119214
0
LINE
8
Layer 1
10
52.822486
20
10.961424
11
52.629044
21
11.327201
0
LINE
8
Layer 1
10
52.629044
20
11.327201
11
52.651428
21
11.742459
0
LINE
8
Layer 1
10
52.651428
20
11.742459
11
52.862439
21
12.115349
0
LINE
8
Layer 1
10
52.862439
20
12.115349
11
53.234875
21
12.354021
0
LINE
8
Layer 1
10
53.234875
20
12.354021
11
53.730766
21
12.346443
0
LINE
8
Layer 1
10
53.730766
20
12.346443
11
54.184416
21
12.087377
0
LINE
8
Layer 1
10
54.184416
20
12.087377
11
54.481681
21
11.678372
0
LINE
8
Layer 1
10
54.481681
20
11.678372
11
54.508420
21
11.220978
0
LINE
8
Layer 1
10
54.508420
20
11.220978
11
54.237172
21
10.992597
0
LINE
8
Layer 1
10
54.237172
20
10.992597
11
53.730379
21
10.852367
0
LINE
8
Layer 1
10
53.730379
20
10.852367
11
53.191122
21
10.831554
0
LINE
8
Layer 1
10
53.191122
20
10.831554
11
52.822486
21
10.961424
0
LINE
8
Layer 1
10
52.822486
20
10.961424
11
52.822486
21
10.961424
0
LINE
8
Layer 1
10
60.170825
20
11.373683
11
59.798370
21
11.748582
0
LINE
8
Layer 1
10
59.798370
20
11.748582
11
59.695560
21
12.205250
0
LINE
8
Layer 1
10
59.695560
20
12.205250
11
59.855123
21
12.630663
0
LINE
8
Layer 1
10
59.855123
20
12.630663
11
60.269789
21
12.911799
0
LINE
8
Layer 1
10
60.269789
20
12.911799
11
60.766422
21
12.971061
0
LINE
8
Layer 1
10
60.766422
20
12.971061
11
61.122378
21
12.807834
0
LINE
8
Layer 1
10
61.122378
20
12.807834
11
61.315493
21
12.443416
0
LINE
8
Layer 1
10
61.315493
20
12.443416
11
61.323607
21
11.899104
0
LINE
8
Layer 1
10
61.323607
20
11.899104
11
61.192682
21
11.440894
0
LINE
8
Layer 1
10
61.192682
20
11.440894
11
60.961724
21
11.202780
0
LINE
8
Layer 1
10
60.961724
20
11.202780
11
60.623512
21
11.181474
0
LINE
8
Layer 1
10
60.623512
20
11.181474
11
60.170825
21
11.373683
0
LINE
8
Layer 1
10
60.170825
20
11.373683
11
60.170825
21
11.373683
0
LINE
8
Layer 1
10
86.676196
20
11.538709
11
86.503449
21
11.874354
0
LINE
8
Layer 1
10
86.503449
20
11.874354
11
86.507966
21
12.277318
0
LINE
8
Layer 1
10
86.507966
20
12.277318
11
86.668325
21
12.647195
0
LINE
8
Layer 1
10
86.668325
20
12.647195
11
86.963106
21
12.883580
0
LINE
8
Layer 1
10
86.963106
20
12.883580
11
87.456668
21
12.849139
0
LINE
8
Layer 1
10
87.456668
20
12.849139
11
87.970674
21
12.527425
0
LINE
8
Layer 1
10
87.970674
20
12.527425
11
88.325140
21
12.078205
0
LINE
8
Layer 1
10
88.325140
20
12.078205
11
88.340085
21
11.661250
0
LINE
8
Layer 1
10
88.340085
20
11.661250
11
88.034047
21
11.456515
0
LINE
8
Layer 1
10
88.034047
20
11.456515
11
87.542623
21
11.359591
0
LINE
8
Layer 1
10
87.542623
20
11.359591
11
87.033958
21
11.382861
0
LINE
8
Layer 1
10
87.033958
20
11.382861
11
86.676196
21
11.538709
0
LINE
8
Layer 1
10
86.676196
20
11.538709
11
86.676196
21
11.538709
0
LINE
8
Layer 1
10
46.003978
20
11.985560
11
45.956270
21
12.941208
0
LINE
8
Layer 1
10
45.956270
20
12.941208
11
46.141509
21
13.223668
0
LINE
8
Layer 1
10
46.141509
20
13.223668
11
46.449598
21
13.326116
0
LINE
8
Layer 1
10
46.449598
20
13.326116
11
46.871864
21
13.165980
0
LINE
8
Layer 1
10
46.871864
20
13.165980
11
47.234251
21
12.781008
0
LINE
8
Layer 1
10
47.234251
20
12.781008
11
47.441079
21
12.314353
0
LINE
8
Layer 1
10
47.441079
20
12.314353
11
47.396665
21
11.909171
0
LINE
8
Layer 1
10
47.396665
20
11.909171
11
47.093627
21
11.694938
0
LINE
8
Layer 1
10
47.093627
20
11.694938
11
46.656503
21
11.641963
0
LINE
8
Layer 1
10
46.656503
20
11.641963
11
46.241289
21
11.741689
0
LINE
8
Layer 1
10
46.241289
20
11.741689
11
46.003978
21
11.985560
0
LINE
8
Layer 1
10
46.003978
20
11.985560
11
46.003978
21
11.985560
0
LINE
8
Layer 1
10
63.477021
20
11.931046
11
63.372236
21
12.409325
0
LINE
8
Layer 1
10
63.372236
20
12.409325
11
63.489264
21
12.962697
0
LINE
8
Layer 1
10
63.489264
20
12.962697
11
63.762744
21
13.421712
0
LINE
8
Layer 1
10
63.762744
20
13.421712
11
64.127312
21
13.616920
0
LINE
8
Layer 1
10
64.127312
20
13.616920
11
64.471409
21
13.666524
0
LINE
8
Layer 1
10
64.471409
20
13.666524
11
64.121950
21
13.913166
0
LINE
8
Layer 1
10
64.121950
20
13.913166
11
63.773141
21
14.230977
0
LINE
8
Layer 1
10
63.773141
20
14.230977
11
63.628061
21
14.591120
0
LINE
8
Layer 1
10
63.628061
20
14.591120
11
63.787387
21
14.904457
0
LINE
8
Layer 1
10
63.787387
20
14.904457
11
64.170313
21
15.142601
0
LINE
8
Layer 1
10
64.170313
20
15.142601
11
64.634260
21
15.247755
0
LINE
8
Layer 1
10
64.634260
20
15.247755
11
65.036646
21
15.162121
0
LINE
8
Layer 1
10
65.036646
20
15.162121
11
65.241736
21
14.879151
0
LINE
8
Layer 1
10
65.241736
20
14.879151
11
65.313192
21
14.458142
0
LINE
8
Layer 1
10
65.313192
20
14.458142
11
65.249706
21
14.037622
0
LINE
8
Layer 1
10
65.249706
20
14.037622
11
65.049967
21
13.756115
0
LINE
8
Layer 1
10
65.049967
20
13.756115
11
64.920283
21
13.444882
0
LINE
8
Layer 1
10
64.920283
20
13.444882
11
65.051943
21
12.869108
0
LINE
8
Layer 1
10
65.051943
20
12.869108
11
65.198136
21
12.285194
0
LINE
8
Layer 1
10
65.198136
20
12.285194
11
65.165616
21
11.891320
0
LINE
8
Layer 1
10
65.165616
20
11.891320
11
64.840878
21
11.696049
0
LINE
8
Layer 1
10
64.840878
20
11.696049
11
64.323742
21
11.640578
0
LINE
8
Layer 1
10
64.323742
20
11.640578
11
63.805391
21
11.720409
0
LINE
8
Layer 1
10
63.805391
20
11.720409
11
63.477005
21
11.931046
0
LINE
8
Layer 1
10
63.477005
20
11.931046
11
63.477021
21
11.931046
0
LINE
8
Layer 1
10
77.841218
20
12.056116
11
77.756267
21
12.561707
0
LINE
8
Layer 1
10
77.756267
20
12.561707
11
77.888113
21
12.970164
0
LINE
8
Layer 1
10
77.888113
20
12.970164
11
78.199987
21
13.226407
0
LINE
8
Layer 1
10
78.199987
20
13.226407
11
78.655119
21
13.275355
0
LINE
8
Layer 1
10
78.655119
20
13.275355
11
79.157714
21
13.034190
0
LINE
8
Layer 1
10
79.157714
20
13.034190
11
79.319859
21
12.408893
0
LINE
8
Layer 1
10
79.319859
20
12.408893
11
79.213786
21
11.781794
0
LINE
8
Layer 1
10
79.213786
20
11.781794
11
78.676003
21
11.632782
0
LINE
8
Layer 1
10
78.676003
20
11.632782
11
78.153445
21
11.757136
0
LINE
8
Layer 1
10
78.153445
20
11.757136
11
77.841218
21
12.056116
0
LINE
8
Layer 1
10
77.841218
20
12.056116
11
77.841218
21
12.056116
0
LINE
8
Layer 1
10
56.773597
20
12.372419
11
56.580155
21
12.738196
0
LINE
8
Layer 1
10
56.580155
20
12.738196
11
56.602539
21
13.153454
0
LINE
8
Layer 1
10
56.602539
20
13.153454
11
56.813550
21
13.526344
0
LINE
8
Layer 1
10
56.813550
20
13.526344
11
57.185986
21
13.765016
0
LINE
8
Layer 1
10
57.185986
20
13.765016
11
57.681877
21
13.757439
0
LINE
8
Layer 1
10
57.681877
20
13.757439
11
58.135527
21
13.498372
0
LINE
8
Layer 1
10
58.135527
20
13.498372
11
58.432792
21
13.089367
0
LINE
8
Layer 1
10
58.432792
20
13.089367
11
58.459531
21
12.631973
0
LINE
8
Layer 1
10
58.459531
20
12.631973
11
58.188283
21
12.403592
0
LINE
8
Layer 1
10
58.188283
20
12.403592
11
57.681490
21
12.263362
0
LINE
8
Layer 1
10
57.681490
20
12.263362
11
57.142233
21
12.242549
0
LINE
8
Layer 1
10
57.142233
20
12.242549
11
56.773597
21
12.372419
0
LINE
8
Layer 1
10
56.773597
20
12.372419
11
56.773597
21
12.372419
0
LINE
8
Layer 1
10
67.083511
20
12.385966
11
66.879980
21
12.561863
0
LINE
8
Layer 1
10
66.879980
20
12.561863
11
66.888501
21
12.785781
0
LINE
8
Layer 1
10
66.888501
20
12.785781
11
66.927187
21
12.968077
0
LINE
8
Layer 1
10
66.927187
20
12.968077
11
66.796183
21
13.043899
0
LINE
8
Layer 1
10
66.796183
20
13.043899
11
66.562481
21
13.190511
0
LINE
8
Layer 1
10
66.562481
20
13.190511
11
66.555712
21
13.523149
0
LINE
8
Layer 1
10
66.555712
20
13.523149
11
66.735572
21
13.881017
0
LINE
8
Layer 1
10
66.735572
20
13.881017
11
67.061752
21
14.103316
0
LINE
8
Layer 1
10
67.061752
20
14.103316
11
67.354490
21
14.256056
0
LINE
8
Layer 1
10
67.354490
20
14.256056
11
67.547715
21
14.527305
0
LINE
8
Layer 1
10
67.547715
20
14.527305
11
67.612579
21
15.372232
0
LINE
8
Layer 1
10
67.612579
20
15.372232
11
67.756912
21
15.590840
0
LINE
8
Layer 1
10
67.756912
20
15.590840
11
68.168754
21
15.569245
0
LINE
8
Layer 1
10
68.168754
20
15.569245
11
68.647711
21
15.359490
0
LINE
8
Layer 1
10
68.647711
20
15.359490
11
68.993391
21
15.013621
0
LINE
8
Layer 1
10
68.993391
20
15.013621
11
69.162509
21
14.543731
0
LINE
8
Layer 1
10
69.162509
20
14.543731
11
69.114682
21
14.190393
0
LINE
8
Layer 1
10
69.114682
20
14.190393
11
68.857483
21
13.967905
0
LINE
8
Layer 1
10
68.857483
20
13.967905
11
68.398486
21
13.890566
0
LINE
8
Layer 1
10
68.398486
20
13.890566
11
67.972501
21
13.735962
0
LINE
8
Layer 1
10
67.972501
20
13.735962
11
67.921254
21
13.144057
0
LINE
8
Layer 1
10
67.921254
20
13.144057
11
67.915066
21
12.669507
0
LINE
8
Layer 1
10
67.915066
20
12.669507
11
67.772996
21
12.384628
0
LINE
8
Layer 1
10
67.772996
20
12.384628
11
67.495620
21
12.289941
0
LINE
8
Layer 1
10
67.495620
20
12.289941
11
67.083511
21
12.385966
0
LINE
8
Layer 1
10
67.083511
20
12.385966
11
67.083511
21
12.385966
0
LINE
8
Layer 1
10
72.000641
20
12.667604
11
71.801739
21
13.025175
0
LINE
8
Layer 1
10
71.801739
20
13.025175
11
71.838832
21
13.389478
0
LINE
8
Layer 1
10
71.838832
20
13.389478
11
72.078709
21
13.681786
0
LINE
8
Layer 1
10
72.078709
20
13.681786
11
72.488165
21
13.823377
0
LINE
8
Layer 1
10
72.488165
20
13.823377
11
73.023363
21
13.750996
0
LINE
8
Layer 1
10
73.023363
20
13.750996
11
73.457319
21
13.496962
0
LINE
8
Layer 1
10
73.457319
20
13.496962
11
73.698301
21
13.143801
0
LINE
8
Layer 1
10
73.698301
20
13.143801
11
73.654576
21
12.774038
0
LINE
8
Layer 1
10
73.654576
20
12.774038
11
73.352413
21
12.578124
0
LINE
8
Layer 1
10
73.352413
20
12.578124
11
72.862421
21
12.487769
0
LINE
8
Layer 1
10
72.862421
20
12.487769
11
72.355023
21
12.513939
0
LINE
8
Layer 1
10
72.355023
20
12.513939
11
72.000641
21
12.667604
0
LINE
8
Layer 1
10
72.000641
20
12.667604
11
72.000641
21
12.667604
0
LINE
8
Layer 1
10
47.460264
20
12.936869
11
47.266822
21
13.302646
0
LINE
8
Layer 1
10
47.266822
20
13.302646
11
47.289206
21
13.717904
0
LINE
8
Layer 1
10
47.289206
20
13.717904
11
47.500216
21
14.090794
0
LINE
8
Layer 1
10
47.500216
20
14.090794
11
47.872653
21
14.329466
0
LINE
8
Layer 1
10
47.872653
20
14.329466
11
48.368544
21
14.321889
0
LINE
8
Layer 1
10
48.368544
20
14.321889
11
48.822193
21
14.062823
0
LINE
8
Layer 1
10
48.822193
20
14.062823
11
49.119459
21
13.653817
0
LINE
8
Layer 1
10
49.119459
20
13.653817
11
49.146198
21
13.196423
0
LINE
8
Layer 1
10
49.146198
20
13.196423
11
48.874950
21
12.968042
0
LINE
8
Layer 1
10
48.874950
20
12.968042
11
48.368156
21
12.827812
0
LINE
8
Layer 1
10
48.368156
20
12.827812
11
47.828900
21
12.806999
0
LINE
8
Layer 1
10
47.828900
20
12.806999
11
47.460264
21
12.936869
0
LINE
8
Layer 1
10
47.460264
20
12.936869
11
47.460264
21
12.936869
0
LINE
8
Layer 1
10
80.467307
20
12.949823
11
80.285808
21
13.302390
0
LINE
8
Layer 1
10
80.285808
20
13.302390
11
80.305536
21
13.712530
0
LINE
8
Layer 1
10
80.305536
20
13.712530
11
80.499592
21
14.082135
0
LINE
8
Layer 1
10
80.499592
20
14.082135
11
80.841077
21
14.313095
0
LINE
8
Layer 1
10
80.841077
20
14.313095
11
81.344187
21
14.397482
0
LINE
8
Layer 1
10
81.344187
20
14.397482
11
81.689974
21
14.281905
0
LINE
8
Layer 1
10
81.689974
20
14.281905
11
81.877697
21
13.966960
0
LINE
8
Layer 1
10
81.877697
20
13.966960
11
81.906618
21
13.453243
0
LINE
8
Layer 1
10
81.906618
20
13.453243
11
81.725248
21
12.920731
0
LINE
8
Layer 1
10
81.725248
20
12.920731
11
81.252418
21
12.761674
0
LINE
8
Layer 1
10
81.252418
20
12.761674
11
80.467307
21
12.949823
0
LINE
8
Layer 1
10
80.467307
20
12.949823
11
80.467307
21
12.949823
0
LINE
8
Layer 1
10
51.621549
20
13.306614
11
51.651969
21
13.544235
0
LINE
8
Layer 1
10
51.651969
20
13.544235
11
51.497095
21
13.746604
0
LINE
8
Layer 1
10
51.497095
20
13.746604
11
51.221268
21
14.053486
0
LINE
8
Layer 1
10
51.221268
20
14.053486
11
51.213174
21
14.382081
0
LINE
8
Layer 1
10
51.213174
20
14.382081
11
51.434085
21
14.627862
0
LINE
8
Layer 1
10
51.434085
20
14.627862
11
51.845269
21
14.686300
0
LINE
8
Layer 1
10
51.845269
20
14.686300
11
52.345408
21
14.378778
0
LINE
8
Layer 1
10
52.345408
20
14.378778
11
52.554621
21
13.819856
0
LINE
8
Layer 1
10
52.554621
20
13.819856
11
52.447392
21
13.283554
0
LINE
8
Layer 1
10
52.447392
20
13.283554
11
51.998205
21
13.043893
0
LINE
8
Layer 1
10
51.998205
20
13.043893
11
51.665215
21
13.121068
0
LINE
8
Layer 1
10
51.665215
20
13.121068
11
51.621549
21
13.306614
0
LINE
8
Layer 1
10
51.621549
20
13.306614
11
51.621549
21
13.306614
0
LINE
8
Layer 1
10
75.919533
20
13.396671
11
75.871826
21
14.352319
0
LINE
8
Layer 1
10
75.871826
20
14.352319
11
76.057064
21
14.634779
0
LINE
8
Layer 1
10
76.057064
20
14.634779
11
76.365154
21
14.737227
0
LINE
8
Layer 1
10
76.365154
20
14.737227
11
76.787419
21
14.577091
0
LINE
8
Layer 1
10
76.787419
20
14.577091
11
77.149807
21
14.192119
0
LINE
8
Layer 1
10
77.149807
20
14.192119
11
77.356634
21
13.725465
0
LINE
8
Layer 1
10
77.356634
20
13.725465
11
77.312221
21
13.320282
0
LINE
8
Layer 1
10
77.312221
20
13.320282
11
77.009182
21
13.106050
0
LINE
8
Layer 1
10
77.009182
20
13.106050
11
76.572059
21
13.053074
0
LINE
8
Layer 1
10
76.572059
20
13.053074
11
76.156844
21
13.152800
0
LINE
8
Layer 1
10
76.156844
20
13.152800
11
75.919533
21
13.396671
0
LINE
8
Layer 1
10
75.919533
20
13.396671
11
75.919533
21
13.396671
0
LINE
8
Layer 1
10
54.470644
20
13.678893
11
54.364943
21
14.240352
0
LINE
8
Layer 1
10
54.364943
20
14.240352
11
54.428345
21
14.662057
0
LINE
8
Layer 1
10
54.428345
20
14.662057
11
54.653834
21
14.927319
0
LINE
8
Layer 1
10
54.653834
20
14.927319
11
55.034392
21
15.019449
0
LINE
8
Layer 1
10
55.034392
20
15.019449
11
55.463815
21
14.865103
0
LINE
8
Layer 1
10
55.463815
20
14.865103
11
55.786890
21
14.486186
0
LINE
8
Layer 1
10
55.786890
20
14.486186
11
55.934285
21
14.008879
0
LINE
8
Layer 1
10
55.934285
20
14.008879
11
55.836668
21
13.559361
0
LINE
8
Layer 1
10
55.836668
20
13.559361
11
55.545527
21
13.369408
0
LINE
8
Layer 1
10
55.545527
20
13.369408
11
55.114873
21
13.335282
0
LINE
8
Layer 1
10
55.114873
20
13.335282
11
54.703611
21
13.443079
0
LINE
8
Layer 1
10
54.703611
20
13.443079
11
54.470644
21
13.678893
0
LINE
8
Layer 1
10
54.470644
20
13.678893
11
54.470644
21
13.678893
0
LINE
8
Layer 1
10
60.115089
20
13.961116
11
60.067382
21
14.916763
0
LINE
8
Layer 1
10
60.067382
20
14.916763
11
60.252620
21
15.199223
0
LINE
8
Layer 1
10
60.252620
20
15.199223
11
60.560709
21
15.301671
0
LINE
8
Layer 1
10
60.560709
20
15.301671
11
60.982975
21
15.141535
0
LINE
8
Layer 1
10
60.982975
20
15.141535
11
61.345362
21
14.756563
0
LINE
8
Layer 1
10
61.345362
20
14.756563
11
61.552190
21
14.289909
0
LINE
8
Layer 1
10
61.552190
20
14.289909
11
61.507776
21
13.884727
0
LINE
8
Layer 1
10
61.507776
20
13.884727
11
61.204738
21
13.670494
0
LINE
8
Layer 1
10
61.204738
20
13.670494
11
60.767614
21
13.617519
0
LINE
8
Layer 1
10
60.767614
20
13.617519
11
60.352400
21
13.717245
0
LINE
8
Layer 1
10
60.352400
20
13.717245
11
60.115089
21
13.961116
0
LINE
8
Layer 1
10
60.115089
20
13.961116
11
60.115089
21
13.961116
0
LINE
8
Layer 1
10
99.329155
20
10.656739
11
104.708788
21
11.610797
0
LINE
8
Layer 1
10
104.708788
20
11.610797
11
107.447352
21
12.209093
0
LINE
8
Layer 1
10
107.447352
20
12.209093
11
109.647677
21
12.891098
0
LINE
8
Layer 1
10
109.647677
20
12.891098
11
111.286410
21
13.478522
0
LINE
8
Layer 1
10
111.286410
20
13.478522
11
112.642278
21
13.765369
0
LINE
8
Layer 1
10
112.642278
20
13.765369
11
113.828280
21
13.764347
0
LINE
8
Layer 1
10
113.828280
20
13.764347
11
114.957417
21
13.488162
0
LINE
8
Layer 1
10
114.957417
20
13.488162
11
116.820290
21
13.130925
0
LINE
8
Layer 1
10
116.820290
20
13.130925
11
119.377043
21
13.035654
0
LINE
8
Layer 1
10
119.377043
20
13.035654
11
122.166917
21
13.196680
0
LINE
8
Layer 1
10
122.166917
20
13.196680
11
124.729155
21
13.608338
0
LINE
8
Layer 1
10
124.729155
20
13.608338
11
127.424402
21
14.044643
0
LINE
8
Layer 1
10
127.424402
20
14.044643
11
130.737308
21
14.192620
0
LINE
8
Layer 1
10
130.737308
20
14.192620
11
133.436717
21
14.279982
0
LINE
8
Layer 1
10
133.436717
20
14.279982
11
134.889155
21
14.462187
0
LINE
8
Layer 1
10
134.889155
20
14.462187
11
134.289018
21
14.552755
0
LINE
8
Layer 1
10
134.289018
20
14.552755
11
132.145679
21
14.602220
0
LINE
8
Layer 1
10
132.145679
20
14.602220
11
124.164711
21
14.568565
0
LINE
8
Layer 1
10
124.164711
20
14.568565
11
112.875822
21
14.425210
0
LINE
8
Layer 1
10
112.875822
20
14.425210
11
108.360266
21
13.279196
0
LINE
8
Layer 1
10
108.360266
20
13.279196
11
98.905822
21
11.199179
0
LINE
8
Layer 1
10
98.905822
20
11.199179
11
95.282249
21
10.452019
0
LINE
8
Layer 1
10
95.282249
20
10.452019
11
94.978299
21
10.300894
0
LINE
8
Layer 1
10
94.978299
20
10.300894
11
95.519158
21
10.253266
0
LINE
8
Layer 1
10
95.519158
20
10.253266
11
99.329155
21
10.656739
0
LINE
8
Layer 1
10
99.329155
20
10.656739
11
99.329155
21
10.656739
0
LINE
8
Layer 1
10
38.283320
20
11.280005
11
38.142765
21
11.721769
0
LINE
8
Layer 1
10
38.142765
20
11.721769
11
38.013612
21
11.694027
0
LINE
8
Layer 1
10
38.013612
20
11.694027
11
38.042555
21
10.964287
0
LINE
8
Layer 1
10
38.042555
20
10.964287
11
38.321163
21
10.503893
0
LINE
8
Layer 1
10
38.321163
20
10.503893
11
38.283320
21
11.280005
0
LINE
8
Layer 1
10
38.283320
20
11.280005
11
38.283320
21
11.280005
0
LINE
8
Layer 1
10
68.566936
20
11.068338
11
69.156712
21
11.248123
0
LINE
8
Layer 1
10
69.156712
20
11.248123
11
68.708047
21
11.283778
0
LINE
8
Layer 1
10
68.708047
20
11.283778
11
67.155825
21
11.068338
0
LINE
8
Layer 1
10
67.155825
20
11.068338
11
66.566049
21
10.888553
0
LINE
8
Layer 1
10
66.566049
20
10.888553
11
67.014714
21
10.852898
0
LINE
8
Layer 1
10
67.014714
20
10.852898
11
68.566936
21
11.068338
0
LINE
8
Layer 1
10
68.566936
20
11.068338
11
68.566936
21
11.068338
0
LINE
8
Layer 1
10
93.185454
20
10.981693
11
92.338787
21
10.971222
0
LINE
8
Layer 1
10
92.338787
20
10.971222
11
92.342140
21
10.875024
0
LINE
8
Layer 1
10
92.342140
20
10.875024
11
92.838047
21
10.841121
0
LINE
8
Layer 1
10
92.838047
20
10.841121
11
93.289348
21
10.886726
0
LINE
8
Layer 1
10
93.289348
20
10.886726
11
93.185454
21
10.981679
0
LINE
8
Layer 1
10
93.185454
20
10.981679
11
93.185454
21
10.981693
0
LINE
8
Layer 1
10
39.526492
20
12.079831
11
39.260317
21
12.762348
0
LINE
8
Layer 1
10
39.260317
20
12.762348
11
39.123606
21
12.487631
0
LINE
8
Layer 1
10
39.123606
20
12.487631
11
39.309789
21
11.596601
0
LINE
8
Layer 1
10
39.309789
20
11.596601
11
39.536405
21
11.222084
0
LINE
8
Layer 1
10
39.536405
20
11.222084
11
39.772717
21
11.068338
0
LINE
8
Layer 1
10
39.772717
20
11.068338
11
39.526492
21
12.079831
0
LINE
8
Layer 1
10
39.526492
20
12.079831
11
39.526492
21
12.079831
0
LINE
8
Layer 1
10
95.025269
20
11.255248
11
94.319714
21
11.255248
0
LINE
8
Layer 1
10
94.319714
20
11.255248
11
94.277821
21
11.154714
0
LINE
8
Layer 1
10
94.277821
20
11.154714
11
94.672491
21
11.112898
0
LINE
8
Layer 1
10
94.672491
20
11.112898
11
95.067162
21
11.154714
0
LINE
8
Layer 1
10
95.067162
20
11.154714
11
95.025269
21
11.255248
0
LINE
8
Layer 1
10
95.025269
20
11.255248
11
95.025269
21
11.255248
0
LINE
8
Layer 1
10
96.700964
20
11.543349
11
96.160037
21
11.521082
0
LINE
8
Layer 1
10
96.160037
20
11.521082
11
96.198513
21
11.407205
0
LINE
8
Layer 1
10
96.198513
20
11.407205
11
96.530454
21
11.372853
0
LINE
8
Layer 1
10
96.530454
20
11.372853
11
96.823423
21
11.429402
0
LINE
8
Layer 1
10
96.823423
20
11.429402
11
96.700964
21
11.543360
0
LINE
8
Layer 1
10
96.700964
20
11.543360
11
96.700964
21
11.543349
0
LINE
8
Layer 1
10
37.352492
20
13.396671
11
37.288784
21
14.719518
0
LINE
8
Layer 1
10
37.288784
20
14.719518
11
37.210824
21
14.653736
0
LINE
8
Layer 1
10
37.210824
20
14.653736
11
37.077455
21
14.172782
0
LINE
8
Layer 1
10
37.077455
20
14.172782
11
36.977639
21
12.565952
0
LINE
8
Layer 1
10
36.977639
20
12.565952
11
37.080212
21
11.903346
0
LINE
8
Layer 1
10
37.080212
20
11.903346
11
37.262695
21
11.632782
0
LINE
8
Layer 1
10
37.262695
20
11.632782
11
37.352492
21
13.396671
0
LINE
8
Layer 1
10
37.352492
20
13.396671
11
37.352492
21
13.396671
0
LINE
8
Layer 1
10
41.105469
20
12.682068
11
40.619341
21
14.666671
0
LINE
8
Layer 1
10
40.619341
20
14.666671
11
40.391490
21
15.494231
0
LINE
8
Layer 1
10
40.391490
20
15.494231
11
40.086522
21
15.839063
0
LINE
8
Layer 1
10
40.086522
20
15.839063
11
39.786482
21
15.676454
0
LINE
8
Layer 1
10
39.786482
20
15.676454
11
39.573417
21
14.981693
0
LINE
8
Layer 1
10
39.573417
20
14.981693
11
39.579115
21
14.253016
0
LINE
8
Layer 1
10
39.579115
20
14.253016
11
39.964718
21
13.961000
0
LINE
8
Layer 1
10
39.964718
20
13.961000
11
40.354023
21
13.667654
0
LINE
8
Layer 1
10
40.354023
20
13.667654
11
40.485825
21
13.067422
0
LINE
8
Layer 1
10
40.485825
20
13.067422
11
40.781101
21
12.046695
0
LINE
8
Layer 1
10
40.781101
20
12.046695
11
41.041685
21
11.756145
0
LINE
8
Layer 1
10
41.041685
20
11.756145
11
41.281110
21
11.769547
0
LINE
8
Layer 1
10
41.281110
20
11.769547
11
41.105469
21
12.682068
0
LINE
8
Layer 1
10
41.105469
20
12.682068
11
41.105469
21
12.682068
0
LINE
8
Layer 1
10
35.028291
20
12.832227
11
34.927756
21
12.874119
0
LINE
8
Layer 1
10
34.927756
20
12.874119
11
34.885940
21
12.479449
0
LINE
8
Layer 1
10
34.885940
20
12.479449
11
34.927756
21
12.084779
0
LINE
8
Layer 1
10
34.927756
20
12.084779
11
35.028291
21
12.126671
0
LINE
8
Layer 1
10
35.028291
20
12.126671
11
35.028291
21
12.832227
0
LINE
8
Layer 1
10
35.028291
20
12.832227
11
35.028291
21
12.832227
0
LINE
8
Layer 1
10
32.471891
20
12.967459
11
32.358012
21
12.928983
0
LINE
8
Layer 1
10
32.358012
20
12.928983
11
32.323662
21
12.597043
0
LINE
8
Layer 1
10
32.323662
20
12.597043
11
32.380211
21
12.304070
0
LINE
8
Layer 1
10
32.380211
20
12.304070
11
32.494169
21
12.426532
0
LINE
8
Layer 1
10
32.494169
20
12.426532
11
32.471902
21
12.967459
0
LINE
8
Layer 1
10
32.471902
20
12.967459
11
32.471891
21
12.967459
0
LINE
8
Layer 1
10
40.108291
20
13.114449
11
40.007756
21
13.156341
0
LINE
8
Layer 1
10
40.007756
20
13.156341
11
39.965940
21
12.761671
0
LINE
8
Layer 1
10
39.965940
20
12.761671
11
40.007756
21
12.367001
0
LINE
8
Layer 1
10
40.007756
20
12.367001
11
40.108291
21
12.408893
0
LINE
8
Layer 1
10
40.108291
20
12.408893
11
40.108291
21
13.114449
0
LINE
8
Layer 1
10
40.108291
20
13.114449
11
40.108291
21
13.114449
0
LINE
8
Layer 1
10
107.017953
20
13.665443
11
111.190588
21
14.759537
0
LINE
8
Layer 1
10
111.190588
20
14.759537
11
112.803508
21
15.325183
0
LINE
8
Layer 1
10
112.803508
20
15.325183
11
111.041378
21
16.004153
0
LINE
8
Layer 1
10
111.041378
20
16.004153
11
105.490865
21
18.091213
0
LINE
8
Layer 1
10
105.490865
20
18.091213
11
101.506147
21
19.831462
0
LINE
8
Layer 1
10
101.506147
20
19.831462
11
101.197558
21
19.965262
0
LINE
8
Layer 1
10
101.197558
20
19.965262
11
100.491605
21
20.008765
0
LINE
8
Layer 1
10
100.491605
20
20.008765
11
98.267525
21
19.865624
0
LINE
8
Layer 1
10
98.267525
20
19.865624
11
95.593744
21
19.483522
0
LINE
8
Layer 1
10
95.593744
20
19.483522
11
93.230099
21
18.943944
0
LINE
8
Layer 1
10
93.230099
20
18.943944
11
90.387734
21
18.176428
0
LINE
8
Layer 1
10
90.387734
20
18.176428
11
89.962240
21
18.228184
0
LINE
8
Layer 1
10
89.962240
20
18.228184
11
89.874714
21
18.530096
0
LINE
8
Layer 1
10
89.874714
20
18.530096
11
89.829093
21
18.725175
0
LINE
8
Layer 1
10
89.829093
20
18.725175
11
89.645950
21
18.786054
0
LINE
8
Layer 1
10
89.645950
20
18.786054
11
88.589417
21
18.498354
0
LINE
8
Layer 1
10
88.589417
20
18.498354
11
87.714620
21
18.254109
0
LINE
8
Layer 1
10
87.714620
20
18.254109
11
87.206892
21
18.246503
0
LINE
8
Layer 1
10
87.206892
20
18.246503
11
87.057631
21
18.478477
0
LINE
8
Layer 1
10
87.057631
20
18.478477
11
87.258231
21
18.952969
0
LINE
8
Layer 1
10
87.258231
20
18.952969
11
87.473522
21
19.437870
0
LINE
8
Layer 1
10
87.473522
20
19.437870
11
87.314418
21
19.617021
0
LINE
8
Layer 1
10
87.314418
20
19.617021
11
85.825017
21
19.061715
0
LINE
8
Layer 1
10
85.825017
20
19.061715
11
83.111489
21
17.904209
0
LINE
8
Layer 1
10
83.111489
20
17.904209
11
81.081643
21
17.277227
0
LINE
8
Layer 1
10
81.081643
20
17.277227
11
80.814697
21
17.410212
0
LINE
8
Layer 1
10
80.814697
20
17.410212
11
80.881902
21
17.727605
0
LINE
8
Layer 1
10
80.881902
20
17.727605
11
81.213278
21
18.107061
0
LINE
8
Layer 1
10
81.213278
20
18.107061
11
81.738851
21
18.426238
0
LINE
8
Layer 1
10
81.738851
20
18.426238
11
82.273945
21
18.720523
0
LINE
8
Layer 1
10
82.273945
20
18.720523
11
82.303295
21
18.907328
0
LINE
8
Layer 1
10
82.303295
20
18.907328
11
82.012807
21
19.135658
0
LINE
8
Layer 1
10
82.012807
20
19.135658
11
82.067251
21
19.534276
0
LINE
8
Layer 1
10
82.067251
20
19.534276
11
83.265129
21
20.957910
0
LINE
8
Layer 1
10
83.265129
20
20.957910
11
84.295757
21
22.070383
0
LINE
8
Layer 1
10
84.295757
20
22.070383
11
84.958462
21
22.978212
0
LINE
8
Layer 1
10
84.958462
20
22.978212
11
85.251214
21
23.812529
0
LINE
8
Layer 1
10
85.251214
20
23.812529
11
85.344202
21
24.709507
0
LINE
8
Layer 1
10
85.344202
20
24.709507
11
85.238661
21
25.502813
0
LINE
8
Layer 1
10
85.238661
20
25.502813
11
84.935828
21
26.026116
0
LINE
8
Layer 1
10
84.935828
20
26.026116
11
84.636848
21
26.420231
0
LINE
8
Layer 1
10
84.636848
20
26.420231
11
84.512494
21
26.874423
0
LINE
8
Layer 1
10
84.512494
20
26.874423
11
84.348127
21
27.268393
0
LINE
8
Layer 1
10
84.348127
20
27.268393
11
83.952946
21
27.517720
0
LINE
8
Layer 1
10
83.952946
20
27.517720
11
83.548020
21
27.540968
0
LINE
8
Layer 1
10
83.548020
20
27.540968
11
83.672243
21
27.143019
0
LINE
8
Layer 1
10
83.672243
20
27.143019
11
84.231790
21
26.448510
0
LINE
8
Layer 1
10
84.231790
20
26.448510
11
84.471696
21
25.894357
0
LINE
8
Layer 1
10
84.471696
20
25.894357
11
84.493811
21
24.878298
0
LINE
8
Layer 1
10
84.493811
20
24.878298
11
84.319680
21
23.709908
0
LINE
8
Layer 1
10
84.319680
20
23.709908
11
83.970845
21
22.698761
0
LINE
8
Layer 1
10
83.970845
20
22.698761
11
82.757029
21
21.067125
0
LINE
8
Layer 1
10
82.757029
20
21.067125
11
81.052275
21
19.454443
0
LINE
8
Layer 1
10
81.052275
20
19.454443
11
79.479898
21
18.373120
0
LINE
8
Layer 1
10
79.479898
20
18.373120
11
78.938138
21
18.191844
0
LINE
8
Layer 1
10
78.938138
20
18.191844
11
78.663216
21
18.335560
0
LINE
8
Layer 1
10
78.663216
20
18.335560
11
78.447145
21
18.622793
0
LINE
8
Layer 1
10
78.447145
20
18.622793
11
78.148857
21
18.670922
0
LINE
8
Layer 1
10
78.148857
20
18.670922
11
77.856291
21
18.498453
0
LINE
8
Layer 1
10
77.856291
20
18.498453
11
77.657387
21
18.123893
0
LINE
8
Layer 1
10
77.657387
20
18.123893
11
77.424470
21
17.745942
0
LINE
8
Layer 1
10
77.424470
20
17.745942
11
77.072225
21
17.571907
0
LINE
8
Layer 1
10
77.072225
20
17.571907
11
76.750782
21
17.628060
0
LINE
8
Layer 1
10
76.750782
20
17.628060
11
76.610272
21
17.940669
0
LINE
8
Layer 1
10
76.610272
20
17.940669
11
76.925125
21
19.225074
0
LINE
8
Layer 1
10
76.925125
20
19.225074
11
77.100186
21
19.910254
0
LINE
8
Layer 1
10
77.100186
20
19.910254
11
77.078944
21
20.289297
0
LINE
8
Layer 1
10
77.078944
20
20.289297
11
76.868066
21
20.017217
0
LINE
8
Layer 1
10
76.868066
20
20.017217
11
76.587195
21
19.136939
0
LINE
8
Layer 1
10
76.587195
20
19.136939
11
76.233887
21
18.168783
0
LINE
8
Layer 1
10
76.233887
20
18.168783
11
75.725399
21
17.502880
0
LINE
8
Layer 1
10
75.725399
20
17.502880
11
75.038156
21
17.118522
0
LINE
8
Layer 1
10
75.038156
20
17.118522
11
74.148586
21
16.995005
0
LINE
8
Layer 1
10
74.148586
20
16.995005
11
73.543562
21
17.085800
0
LINE
8
Layer 1
10
73.543562
20
17.085800
11
73.246287
21
17.331200
0
LINE
8
Layer 1
10
73.246287
20
17.331200
11
73.274750
21
17.690725
0
LINE
8
Layer 1
10
73.274750
20
17.690725
11
73.646939
21
18.123893
0
LINE
8
Layer 1
10
73.646939
20
18.123893
11
73.959053
21
18.496447
0
LINE
8
Layer 1
10
73.959053
20
18.496447
11
74.062489
21
18.850652
0
LINE
8
Layer 1
10
74.062489
20
18.850652
11
73.957515
21
19.078425
0
LINE
8
Layer 1
10
73.957515
20
19.078425
11
73.644399
21
19.071683
0
LINE
8
Layer 1
10
73.644399
20
19.071683
11
73.291531
21
18.737456
0
LINE
8
Layer 1
10
73.291531
20
18.737456
11
73.041039
21
18.163320
0
LINE
8
Layer 1
10
73.041039
20
18.163320
11
72.805348
21
17.448387
0
LINE
8
Layer 1
10
72.805348
20
17.448387
11
72.467155
21
17.004019
0
LINE
8
Layer 1
10
72.467155
20
17.004019
11
71.958992
21
16.776667
0
LINE
8
Layer 1
10
71.958992
20
16.776667
11
71.213390
21
16.712782
0
LINE
8
Layer 1
10
71.213390
20
16.712782
11
70.406951
21
16.807520
0
LINE
8
Layer 1
10
70.406951
20
16.807520
11
70.096775
21
17.065560
0
LINE
8
Layer 1
10
70.096775
20
17.065560
11
70.050477
21
17.277227
0
LINE
8
Layer 1
10
70.050477
20
17.277227
11
69.932146
21
17.065560
0
LINE
8
Layer 1
10
69.932146
20
17.065560
11
69.510921
21
16.814942
0
LINE
8
Layer 1
10
69.510921
20
16.814942
11
68.684428
21
16.712782
0
LINE
8
Layer 1
10
68.684428
20
16.712782
11
67.787784
21
16.819367
0
LINE
8
Layer 1
10
67.787784
20
16.819367
11
67.622786
21
16.991440
0
LINE
8
Layer 1
10
67.622786
20
16.991440
11
67.579057
21
17.277227
0
LINE
8
Layer 1
10
67.579057
20
17.277227
11
67.750718
21
17.724067
0
LINE
8
Layer 1
10
67.750718
20
17.724067
11
68.355168
21
17.874409
0
LINE
8
Layer 1
10
68.355168
20
17.874409
11
68.789285
21
17.933090
0
LINE
8
Layer 1
10
68.789285
20
17.933090
11
68.637390
21
18.036215
0
LINE
8
Layer 1
10
68.637390
20
18.036215
11
68.267362
21
18.339926
0
LINE
8
Layer 1
10
68.267362
20
18.339926
11
68.143605
21
18.991253
0
LINE
8
Layer 1
10
68.143605
20
18.991253
11
68.036888
21
19.609009
0
LINE
8
Layer 1
10
68.036888
20
19.609009
11
67.720272
21
19.817227
0
LINE
8
Layer 1
10
67.720272
20
19.817227
11
67.402772
21
19.605560
0
LINE
8
Layer 1
10
67.402772
20
19.605560
11
67.296939
21
18.970560
0
LINE
8
Layer 1
10
67.296939
20
18.970560
11
67.270480
21
18.481081
0
LINE
8
Layer 1
10
67.270480
20
18.481081
11
67.085272
21
18.229727
0
LINE
8
Layer 1
10
67.085272
20
18.229727
11
65.603605
21
18.123893
0
LINE
8
Layer 1
10
65.603605
20
18.123893
11
64.357981
21
18.207647
0
LINE
8
Layer 1
10
64.357981
20
18.207647
11
63.910272
21
18.440671
0
LINE
8
Layer 1
10
63.910272
20
18.440671
11
63.824378
21
18.615293
0
LINE
8
Layer 1
10
63.824378
20
18.615293
11
63.526419
21
18.438978
0
LINE
8
Layer 1
10
63.526419
20
18.438978
11
63.291160
21
18.009992
0
LINE
8
Layer 1
10
63.291160
20
18.009992
11
63.277095
21
17.416645
0
LINE
8
Layer 1
10
63.277095
20
17.416645
11
63.258105
21
16.839108
0
LINE
8
Layer 1
10
63.258105
20
16.839108
11
62.690208
21
16.712881
0
LINE
8
Layer 1
10
62.690208
20
16.712881
11
62.309680
21
16.749141
0
LINE
8
Layer 1
10
62.309680
20
16.749141
11
62.075479
21
16.897770
0
LINE
8
Layer 1
10
62.075479
20
16.897770
11
61.858085
21
17.771214
0
LINE
8
Layer 1
10
61.858085
20
17.771214
11
61.747380
21
18.829548
0
LINE
8
Layer 1
10
61.747380
20
18.829548
11
61.699936
21
17.771214
0
LINE
8
Layer 1
10
61.699936
20
17.771214
11
61.532378
21
16.879958
0
LINE
8
Layer 1
10
61.532378
20
16.879958
11
61.282927
21
16.742462
0
LINE
8
Layer 1
10
61.282927
20
16.742462
11
60.844187
21
16.712881
0
LINE
8
Layer 1
10
60.844187
20
16.712881
11
60.397774
21
16.747156
0
LINE
8
Layer 1
10
60.397774
20
16.747156
11
60.132179
21
16.913396
0
LINE
8
Layer 1
10
60.132179
20
16.913396
11
59.856410
21
18.022271
0
LINE
8
Layer 1
10
59.856410
20
18.022271
11
59.696362
21
19.355192
0
LINE
8
Layer 1
10
59.696362
20
19.355192
11
59.731948
21
20.059095
0
LINE
8
Layer 1
10
59.731948
20
20.059095
11
60.031841
21
20.334436
0
LINE
8
Layer 1
10
60.031841
20
20.334436
11
60.664717
21
20.381671
0
LINE
8
Layer 1
10
60.664717
20
20.381671
11
61.409304
21
20.481063
0
LINE
8
Layer 1
10
61.409304
20
20.481063
11
61.652494
21
20.785376
0
LINE
8
Layer 1
10
61.652494
20
20.785376
11
61.839026
21
21.106420
0
LINE
8
Layer 1
10
61.839026
20
21.106420
11
62.287494
21
21.311387
0
LINE
8
Layer 1
10
62.287494
20
21.311387
11
62.762841
21
21.422984
0
LINE
8
Layer 1
10
62.762841
20
21.422984
11
62.307109
21
21.472127
0
LINE
8
Layer 1
10
62.307109
20
21.472127
11
61.818896
21
21.664408
0
LINE
8
Layer 1
10
61.818896
20
21.664408
11
61.569431
21
22.145560
0
LINE
8
Layer 1
10
61.569431
20
22.145560
11
61.459556
21
22.581634
0
LINE
8
Layer 1
10
61.459556
20
22.581634
11
61.408691
21
22.073342
0
LINE
8
Layer 1
10
61.408691
20
22.073342
11
61.179299
21
21.446012
0
LINE
8
Layer 1
10
61.179299
20
21.446012
11
60.530190
21
20.994274
0
LINE
8
Layer 1
10
60.530190
20
20.994274
11
59.852051
21
20.784090
0
LINE
8
Layer 1
10
59.852051
20
20.784090
11
59.401301
21
20.800926
0
LINE
8
Layer 1
10
59.401301
20
20.800926
11
59.197333
21
20.797744
0
LINE
8
Layer 1
10
59.197333
20
20.797744
11
59.112494
21
20.539439
0
LINE
8
Layer 1
10
59.112494
20
20.539439
11
58.883541
21
20.201432
0
LINE
8
Layer 1
10
58.883541
20
20.201432
11
58.124717
21
20.099449
0
LINE
8
Layer 1
10
58.124717
20
20.099449
11
57.308660
21
20.219211
0
LINE
8
Layer 1
10
57.308660
20
20.219211
11
57.170466
21
20.427934
0
LINE
8
Layer 1
10
57.170466
20
20.427934
11
57.136939
21
20.788348
0
LINE
8
Layer 1
10
57.136939
20
20.788348
11
56.918476
21
21.612265
0
LINE
8
Layer 1
10
56.918476
20
21.612265
11
56.766184
21
21.355657
0
LINE
8
Layer 1
10
56.766184
20
21.355657
11
56.706810
21
20.549105
0
LINE
8
Layer 1
10
56.706810
20
20.549105
11
56.713611
21
19.350928
0
LINE
8
Layer 1
10
56.713611
20
19.350928
11
58.054167
21
19.478873
0
LINE
8
Layer 1
10
58.054167
20
19.478873
11
59.394722
21
19.606819
0
LINE
8
Layer 1
10
59.394722
20
19.606819
11
59.394722
21
18.159801
0
LINE
8
Layer 1
10
59.394722
20
18.159801
11
59.282888
21
16.903922
0
LINE
8
Layer 1
10
59.282888
20
16.903922
11
59.030784
21
16.739240
0
LINE
8
Layer 1
10
59.030784
20
16.739240
11
58.548056
21
16.712782
0
LINE
8
Layer 1
10
58.548056
20
16.712782
11
57.833123
21
16.863537
0
LINE
8
Layer 1
10
57.833123
20
16.863537
11
57.656222
21
17.630005
0
LINE
8
Layer 1
10
57.656222
20
17.630005
11
57.611058
21
18.547227
0
LINE
8
Layer 1
10
57.611058
20
18.547227
11
57.495954
21
17.612885
0
LINE
8
Layer 1
10
57.495954
20
17.612885
11
57.285655
21
16.872841
0
LINE
8
Layer 1
10
57.285655
20
16.872841
11
57.080542
21
16.759367
0
LINE
8
Layer 1
10
57.080542
20
16.759367
11
56.765009
21
16.766218
0
LINE
8
Layer 1
10
56.765009
20
16.766218
11
56.299964
21
16.983208
0
LINE
8
Layer 1
10
56.299964
20
16.983208
11
56.171575
21
17.488893
0
LINE
8
Layer 1
10
56.171575
20
17.488893
11
56.050541
21
17.985200
0
LINE
8
Layer 1
10
56.050541
20
17.985200
11
55.559658
21
18.123893
0
LINE
8
Layer 1
10
55.559658
20
18.123893
11
54.882737
21
18.184408
0
LINE
8
Layer 1
10
54.882737
20
18.184408
11
54.361276
21
18.376668
0
LINE
8
Layer 1
10
54.361276
20
18.376668
11
53.967644
21
18.716746
0
LINE
8
Layer 1
10
53.967644
20
18.716746
11
53.674210
21
19.220716
0
LINE
8
Layer 1
10
53.674210
20
19.220716
11
53.359160
21
19.958338
0
LINE
8
Layer 1
10
53.359160
20
19.958338
11
53.253750
21
19.182227
0
LINE
8
Layer 1
10
53.253750
20
19.182227
11
53.091328
21
18.650158
0
LINE
8
Layer 1
10
53.091328
20
18.650158
11
52.801859
21
18.438783
0
LINE
8
Layer 1
10
52.801859
20
18.438783
11
52.400203
21
18.550249
0
LINE
8
Layer 1
10
52.400203
20
18.550249
11
51.901220
21
18.986706
0
LINE
8
Layer 1
10
51.901220
20
18.986706
11
51.375793
21
19.567296
0
LINE
8
Layer 1
10
51.375793
20
19.567296
11
51.161019
21
18.986706
0
LINE
8
Layer 1
10
51.161019
20
18.986706
11
50.842179
21
18.574515
0
LINE
8
Layer 1
10
50.842179
20
18.574515
11
50.372699
21
18.406116
0
LINE
8
Layer 1
10
50.372699
20
18.406116
11
49.965306
21
18.283482
0
LINE
8
Layer 1
10
49.965306
20
18.283482
11
49.799161
21
17.982782
0
LINE
8
Layer 1
10
49.799161
20
17.982782
11
49.558490
21
17.659268
0
LINE
8
Layer 1
10
49.558490
20
17.659268
11
48.778468
21
17.559449
0
LINE
8
Layer 1
10
48.778468
20
17.559449
11
47.963451
21
17.658819
0
LINE
8
Layer 1
10
47.963451
20
17.658819
11
47.864009
21
17.829990
0
LINE
8
Layer 1
10
47.864009
20
17.829990
11
47.905379
21
18.123893
0
LINE
8
Layer 1
10
47.905379
20
18.123893
11
47.962481
21
18.555568
0
LINE
8
Layer 1
10
47.962481
20
18.555568
11
47.761822
21
18.607431
0
LINE
8
Layer 1
10
47.761822
20
18.607431
11
46.271383
21
17.439426
0
LINE
8
Layer 1
10
46.271383
20
17.439426
11
45.450828
21
16.633872
0
LINE
8
Layer 1
10
45.450828
20
16.633872
11
45.088954
21
16.096502
0
LINE
8
Layer 1
10
45.088954
20
16.096502
11
45.088275
21
15.953495
0
LINE
8
Layer 1
10
45.088275
20
15.953495
11
45.212169
21
15.907665
0
LINE
8
Layer 1
10
45.212169
20
15.907665
11
45.846876
21
16.147709
0
LINE
8
Layer 1
10
45.846876
20
16.147709
11
46.852391
21
16.411474
0
LINE
8
Layer 1
10
46.852391
20
16.411474
11
48.411045
21
16.585986
0
LINE
8
Layer 1
10
48.411045
20
16.585986
11
50.008316
21
16.593710
0
LINE
8
Layer 1
10
50.008316
20
16.593710
11
50.291389
21
16.471070
0
LINE
8
Layer 1
10
50.291389
20
16.471070
11
50.363605
21
16.240593
0
LINE
8
Layer 1
10
50.363605
20
16.240593
11
50.434066
21
16.008872
0
LINE
8
Layer 1
10
50.434066
20
16.008872
11
50.722010
21
15.896477
0
LINE
8
Layer 1
10
50.722010
20
15.896477
11
52.409717
21
15.968599
0
LINE
8
Layer 1
10
52.409717
20
15.968599
11
57.327207
21
16.263077
0
LINE
8
Layer 1
10
57.327207
20
16.263077
11
63.003196
21
16.370358
0
LINE
8
Layer 1
10
63.003196
20
16.370358
11
68.727029
21
16.288838
0
LINE
8
Layer 1
10
68.727029
20
16.288838
11
73.788050
21
16.016910
0
LINE
8
Layer 1
10
73.788050
20
16.016910
11
78.341430
21
15.537254
0
LINE
8
Layer 1
10
78.341430
20
15.537254
11
82.815036
21
14.892029
0
LINE
8
Layer 1
10
82.815036
20
14.892029
11
86.444798
21
14.206695
0
LINE
8
Layer 1
10
86.444798
20
14.206695
11
88.466648
21
13.606709
0
LINE
8
Layer 1
10
88.466648
20
13.606709
11
88.890464
21
13.451490
0
LINE
8
Layer 1
10
88.890464
20
13.451490
11
89.028050
21
13.598412
0
LINE
8
Layer 1
10
89.028050
20
13.598412
11
89.318210
21
13.804744
0
LINE
8
Layer 1
10
89.318210
20
13.804744
11
90.015828
21
13.890563
0
LINE
8
Layer 1
10
90.015828
20
13.890563
11
90.639765
21
13.786922
0
LINE
8
Layer 1
10
90.639765
20
13.786922
11
90.994196
21
13.536011
0
LINE
8
Layer 1
10
90.994196
20
13.536011
11
91.018194
21
13.227843
0
LINE
8
Layer 1
10
91.018194
20
13.227843
11
90.650828
21
12.952434
0
LINE
8
Layer 1
10
90.650828
20
12.952434
11
90.598058
21
12.904716
0
LINE
8
Layer 1
10
90.598058
20
12.904716
11
90.715163
21
12.877176
0
LINE
8
Layer 1
10
90.715163
20
12.877176
11
91.365231
21
12.890726
0
LINE
8
Layer 1
10
91.365231
20
12.890726
11
92.611713
21
13.146817
0
LINE
8
Layer 1
10
92.611713
20
13.146817
11
93.520088
21
13.334701
0
LINE
8
Layer 1
10
93.520088
20
13.334701
11
94.034850
21
13.392185
0
LINE
8
Layer 1
10
94.034850
20
13.392185
11
93.755272
21
13.630947
0
LINE
8
Layer 1
10
93.755272
20
13.630947
11
93.316287
21
14.084651
0
LINE
8
Layer 1
10
93.316287
20
14.084651
11
93.409983
21
14.530290
0
LINE
8
Layer 1
10
93.409983
20
14.530290
11
93.958546
21
14.872421
0
LINE
8
Layer 1
10
93.958546
20
14.872421
11
94.884161
21
15.015599
0
LINE
8
Layer 1
10
94.884161
20
15.015599
11
95.169369
21
14.849215
0
LINE
8
Layer 1
10
95.169369
20
14.849215
11
95.226616
21
14.465366
0
LINE
8
Layer 1
10
95.226616
20
14.465366
11
95.077357
21
14.050343
0
LINE
8
Layer 1
10
95.077357
20
14.050343
11
94.743050
21
13.790436
0
LINE
8
Layer 1
10
94.743050
20
13.790436
11
94.638374
21
13.748169
0
LINE
8
Layer 1
10
94.638374
20
13.748169
11
94.718446
21
13.737698
0
LINE
8
Layer 1
10
94.718446
20
13.737698
11
95.352672
21
13.809627
0
LINE
8
Layer 1
10
95.352672
20
13.809627
11
96.271642
21
13.837024
0
LINE
8
Layer 1
10
96.271642
20
13.837024
11
96.763781
21
13.556090
0
LINE
8
Layer 1
10
96.763781
20
13.556090
11
97.155446
21
13.230638
0
LINE
8
Layer 1
10
97.155446
20
13.230638
11
97.681617
21
12.992765
0
LINE
8
Layer 1
10
97.681617
20
12.992765
11
98.143269
21
12.907562
0
LINE
8
Layer 1
10
98.143269
20
12.907562
11
98.341380
21
13.040123
0
LINE
8
Layer 1
10
98.341380
20
13.040123
11
97.918047
21
13.428178
0
LINE
8
Layer 1
10
97.918047
20
13.428178
11
97.619068
21
13.656740
0
LINE
8
Layer 1
10
97.619068
20
13.656740
11
97.494714
21
13.978145
0
LINE
8
Layer 1
10
97.494714
20
13.978145
11
97.818035
21
14.343945
0
LINE
8
Layer 1
10
97.818035
20
14.343945
11
98.577868
21
14.680433
0
LINE
8
Layer 1
10
98.577868
20
14.680433
11
99.459016
21
14.883897
0
LINE
8
Layer 1
10
99.459016
20
14.883897
11
100.146285
21
14.850624
0
LINE
8
Layer 1
10
100.146285
20
14.850624
11
100.480996
21
14.612554
0
LINE
8
Layer 1
10
100.480996
20
14.612554
11
100.583625
21
14.300019
0
LINE
8
Layer 1
10
100.583625
20
14.300019
11
100.457329
21
13.995410
0
LINE
8
Layer 1
10
100.457329
20
13.995410
11
100.105269
21
13.781117
0
LINE
8
Layer 1
10
100.105269
20
13.781117
11
100.002606
21
13.733655
0
LINE
8
Layer 1
10
100.002606
20
13.733655
11
100.103977
21
13.721631
0
LINE
8
Layer 1
10
100.103977
20
13.721631
11
100.740766
21
13.781604
0
LINE
8
Layer 1
10
100.740766
20
13.781604
11
102.504158
21
14.081537
0
LINE
8
Layer 1
10
102.504158
20
14.081537
11
102.986784
21
14.097539
0
LINE
8
Layer 1
10
102.986784
20
14.097539
11
103.139158
21
13.817843
0
LINE
8
Layer 1
10
103.139158
20
13.817843
11
102.718379
21
13.354055
0
LINE
8
Layer 1
10
102.718379
20
13.354055
11
101.657491
21
12.817774
0
LINE
8
Layer 1
10
101.657491
20
12.817774
11
100.595350
21
12.335703
0
LINE
8
Layer 1
10
100.595350
20
12.335703
11
100.623564
21
12.261637
0
LINE
8
Layer 1
10
100.623564
20
12.261637
11
101.046652
21
12.302365
0
LINE
8
Layer 1
10
101.046652
20
12.302365
11
107.017955
21
13.665446
0
LINE
8
Layer 1
10
107.017955
20
13.665446
11
107.017953
21
13.665443
0
LINE
8
Layer 1
10
91.665436
20
13.761621
11
91.662106
21
14.360931
0
LINE
8
Layer 1
10
91.662106
20
14.360931
11
91.943936
21
14.450278
0
LINE
8
Layer 1
10
91.943936
20
14.450278
11
92.286305
21
14.335389
0
LINE
8
Layer 1
10
92.286305
20
14.335389
11
92.575279
21
14.082615
0
LINE
8
Layer 1
10
92.575279
20
14.082615
11
92.696922
21
13.758305
0
LINE
8
Layer 1
10
92.696922
20
13.758305
11
92.566186
21
13.441853
0
LINE
8
Layer 1
10
92.566186
20
13.441853
11
92.262336
21
13.337204
0
LINE
8
Layer 1
10
92.262336
20
13.337204
11
91.917903
21
13.443931
0
LINE
8
Layer 1
10
91.917903
20
13.443931
11
91.665422
21
13.761607
0
LINE
8
Layer 1
10
91.665422
20
13.761607
11
91.665436
21
13.761621
0
LINE
8
Layer 1
10
87.264158
20
14.565650
11
86.883428
21
14.940789
0
LINE
8
Layer 1
10
86.883428
20
14.940789
11
86.813259
21
15.269364
0
LINE
8
Layer 1
10
86.813259
20
15.269364
11
87.059496
21
15.572343
0
LINE
8
Layer 1
10
87.059496
20
15.572343
11
87.627985
21
15.870693
0
LINE
8
Layer 1
10
87.627985
20
15.870693
11
88.459290
21
16.062898
0
LINE
8
Layer 1
10
88.459290
20
16.062898
11
89.180207
21
15.573513
0
LINE
8
Layer 1
10
89.180207
20
15.573513
11
89.670703
21
15.002813
0
LINE
8
Layer 1
10
89.670703
20
15.002813
11
89.874714
21
14.546921
0
LINE
8
Layer 1
10
89.874714
20
14.546921
11
89.559690
21
14.269837
0
LINE
8
Layer 1
10
89.559690
20
14.269837
11
88.817104
21
14.182051
0
LINE
8
Layer 1
10
88.817104
20
14.182051
11
87.950684
21
14.281385
0
LINE
8
Layer 1
10
87.950684
20
14.281385
11
87.264158
21
14.565661
0
LINE
8
Layer 1
10
87.264158
20
14.565661
11
87.264158
21
14.565650
0
LINE
8
Layer 1
10
88.604714
20
15.019449
11
88.148070
21
15.301671
0
LINE
8
Layer 1
10
88.148070
20
15.301671
11
87.999986
21
15.218768
0
LINE
8
Layer 1
10
87.999986
20
15.218768
11
88.040269
21
15.019449
0
LINE
8
Layer 1
10
88.040269
20
15.019449
11
88.496913
21
14.737227
0
LINE
8
Layer 1
10
88.496913
20
14.737227
11
88.644997
21
14.820130
0
LINE
8
Layer 1
10
88.644997
20
14.820130
11
88.604714
21
15.019449
0
LINE
8
Layer 1
10
88.604714
20
15.019449
11
88.604714
21
15.019449
0
LINE
8
Layer 1
10
100.931241
20
14.923908
11
101.248688
21
15.326166
0
LINE
8
Layer 1
10
101.248688
20
15.326166
11
101.938918
21
15.707542
0
LINE
8
Layer 1
10
101.938918
20
15.707542
11
102.836039
21
15.997841
0
LINE
8
Layer 1
10
102.836039
20
15.997841
11
103.774155
21
16.126866
0
LINE
8
Layer 1
10
103.774155
20
16.126866
11
104.374467
21
16.028880
0
LINE
8
Layer 1
10
104.374467
20
16.028880
11
104.550266
21
15.642426
0
LINE
8
Layer 1
10
104.550266
20
15.642426
11
104.479170
21
15.391913
0
LINE
8
Layer 1
10
104.479170
20
15.391913
11
104.254505
21
15.174857
0
LINE
8
Layer 1
10
104.254505
20
15.174857
11
103.276217
21
14.795760
0
LINE
8
Layer 1
10
103.276217
20
14.795760
11
101.390754
21
14.466313
0
LINE
8
Layer 1
10
101.390754
20
14.466313
11
100.999048
21
14.595840
0
LINE
8
Layer 1
10
100.999048
20
14.595840
11
100.931241
21
14.923908
0
LINE
8
Layer 1
10
100.931241
20
14.923908
11
100.931241
21
14.923908
0
LINE
8
Layer 1
10
96.704652
20
15.377561
11
96.697956
21
15.974583
0
LINE
8
Layer 1
10
96.697956
20
15.974583
11
96.322560
21
16.241426
0
LINE
8
Layer 1
10
96.322560
20
16.241426
11
95.927242
21
16.534413
0
LINE
8
Layer 1
10
95.927242
20
16.534413
11
95.787717
21
16.991863
0
LINE
8
Layer 1
10
95.787717
20
16.991863
11
95.908791
21
17.390722
0
LINE
8
Layer 1
10
95.908791
20
17.390722
11
96.295269
21
17.507938
0
LINE
8
Layer 1
10
96.295269
20
17.507938
11
96.725913
21
17.256283
0
LINE
8
Layer 1
10
96.725913
20
17.256283
11
97.067745
21
16.781690
0
LINE
8
Layer 1
10
97.067745
20
16.781690
11
97.445309
21
16.318265
0
LINE
8
Layer 1
10
97.445309
20
16.318265
11
97.993824
21
16.148338
0
LINE
8
Layer 1
10
97.993824
20
16.148338
11
98.423172
21
16.036109
0
LINE
8
Layer 1
10
98.423172
20
16.036109
11
98.760658
21
15.764726
0
LINE
8
Layer 1
10
98.760658
20
15.764726
11
98.924907
21
15.432145
0
LINE
8
Layer 1
10
98.924907
20
15.432145
11
98.834544
21
15.136320
0
LINE
8
Layer 1
10
98.834544
20
15.136320
11
97.629551
21
14.822650
0
LINE
8
Layer 1
10
97.629551
20
14.822650
11
96.733026
21
14.775293
0
LINE
8
Layer 1
10
96.733026
20
14.775293
11
96.648753
21
14.972166
0
LINE
8
Layer 1
10
96.648753
20
14.972166
11
96.704652
21
15.377561
0
LINE
8
Layer 1
10
96.704652
20
15.377561
11
96.704652
21
15.377561
0
LINE
8
Layer 1
10
92.602863
20
15.207598
11
92.433706
21
15.587483
0
LINE
8
Layer 1
10
92.433706
20
15.587483
11
92.424978
21
16.088813
0
LINE
8
Layer 1
10
92.424978
20
16.088813
11
92.553054
21
16.525831
0
LINE
8
Layer 1
10
92.553054
20
16.525831
11
92.794305
21
16.712782
0
LINE
8
Layer 1
10
92.794305
20
16.712782
11
93.190142
21
16.565740
0
LINE
8
Layer 1
10
93.190142
20
16.565740
11
93.620567
21
16.207105
0
LINE
8
Layer 1
10
93.620567
20
16.207105
11
93.966296
21
15.760614
0
LINE
8
Layer 1
10
93.966296
20
15.760614
11
94.108047
21
15.350005
0
LINE
8
Layer 1
10
94.108047
20
15.350005
11
93.917795
21
15.135266
0
LINE
8
Layer 1
10
93.917795
20
15.135266
11
93.475277
21
15.027820
0
LINE
8
Layer 1
10
93.475277
20
15.027820
11
92.972848
21
15.045864
0
LINE
8
Layer 1
10
92.972848
20
15.045864
11
92.602863
21
15.207598
0
LINE
8
Layer 1
10
92.602863
20
15.207598
11
92.602863
21
15.207598
0
LINE
8
Layer 1
10
100.093323
20
16.701953
11
100.085461
21
17.355306
0
LINE
8
Layer 1
10
100.085461
20
17.355306
11
99.843133
21
17.680875
0
LINE
8
Layer 1
10
99.843133
20
17.680875
11
99.579796
21
17.956413
0
LINE
8
Layer 1
10
99.579796
20
17.956413
11
99.470266
21
18.417952
0
LINE
8
Layer 1
10
99.470266
20
18.417952
11
99.614233
21
18.828481
0
LINE
8
Layer 1
10
99.614233
20
18.828481
11
99.947221
21
18.925905
0
LINE
8
Layer 1
10
99.947221
20
18.925905
11
100.320860
21
18.730745
0
LINE
8
Layer 1
10
100.320860
20
18.730745
11
100.586780
21
18.263523
0
LINE
8
Layer 1
10
100.586780
20
18.263523
11
100.879123
21
17.843155
0
LINE
8
Layer 1
10
100.879123
20
17.843155
11
101.441956
21
17.700560
0
LINE
8
Layer 1
10
101.441956
20
17.700560
11
102.034286
21
17.557745
0
LINE
8
Layer 1
10
102.034286
20
17.557745
11
102.239519
21
17.203488
0
LINE
8
Layer 1
10
102.239519
20
17.203488
11
102.054829
21
16.749070
0
LINE
8
Layer 1
10
102.054829
20
16.749070
11
101.477389
21
16.305773
0
LINE
8
Layer 1
10
101.477389
20
16.305773
11
100.716092
21
15.961093
0
LINE
8
Layer 1
10
100.716092
20
15.961093
11
100.265660
21
15.902495
0
LINE
8
Layer 1
10
100.265660
20
15.902495
11
100.075076
21
16.144580
0
LINE
8
Layer 1
10
100.075076
20
16.144580
11
100.093323
21
16.701953
0
LINE
8
Layer 1
10
100.093323
20
16.701953
11
100.093323
21
16.701953
0
LINE
8
Layer 1
10
54.596936
20
17.277227
11
54.738047
21
17.700560
0
LINE
8
Layer 1
10
54.738047
20
17.700560
11
55.161380
21
17.841671
0
LINE
8
Layer 1
10
55.161380
20
17.841671
11
55.584713
21
17.700560
0
LINE
8
Layer 1
10
55.584713
20
17.700560
11
55.725825
21
17.277227
0
LINE
8
Layer 1
10
55.725825
20
17.277227
11
55.584713
21
16.853894
0
LINE
8
Layer 1
10
55.584713
20
16.853894
11
55.161380
21
16.712782
0
LINE
8
Layer 1
10
55.161380
20
16.712782
11
54.738047
21
16.853894
0
LINE
8
Layer 1
10
54.738047
20
16.853894
11
54.596936
21
17.277227
0
LINE
8
Layer 1
10
54.596936
20
17.277227
11
54.596936
21
17.277227
0
LINE
8
Layer 1
10
63.910269
20
17.258487
11
64.085760
21
17.723677
0
LINE
8
Layer 1
10
64.085760
20
17.723677
11
64.777628
21
17.841671
0
LINE
8
Layer 1
10
64.777628
20
17.841671
11
65.444352
21
17.738560
0
LINE
8
Layer 1
10
65.444352
20
17.738560
11
65.551327
21
17.347782
0
LINE
8
Layer 1
10
65.551327
20
17.347782
11
65.271454
21
16.964680
0
LINE
8
Layer 1
10
65.271454
20
16.964680
11
64.683967
21
16.764593
0
LINE
8
Layer 1
10
64.683967
20
16.764593
11
64.063625
21
16.808586
0
LINE
8
Layer 1
10
64.063625
20
16.808586
11
63.910269
21
17.258482
0
LINE
8
Layer 1
10
63.910269
20
17.258482
11
63.910269
21
17.258487
0
LINE
8
Layer 1
10
65.885825
20
17.277227
11
66.026936
21
17.700560
0
LINE
8
Layer 1
10
66.026936
20
17.700560
11
66.450269
21
17.841671
0
LINE
8
Layer 1
10
66.450269
20
17.841671
11
66.873602
21
17.700560
0
LINE
8
Layer 1
10
66.873602
20
17.700560
11
67.014714
21
17.277227
0
LINE
8
Layer 1
10
67.014714
20
17.277227
11
66.873602
21
16.853894
0
LINE
8
Layer 1
10
66.873602
20
16.853894
11
66.450269
21
16.712782
0
LINE
8
Layer 1
10
66.450269
20
16.712782
11
66.026936
21
16.853894
0
LINE
8
Layer 1
10
66.026936
20
16.853894
11
65.885825
21
17.277227
0
LINE
8
Layer 1
10
65.885825
20
17.277227
11
65.885825
21
17.277227
0
LINE
8
Layer 1
10
42.214179
20
13.401376
11
41.973228
21
13.576960
0
LINE
8
Layer 1
10
41.973228
20
13.576960
11
42.056191
21
13.243388
0
LINE
8
Layer 1
10
42.056191
20
13.243388
11
42.238692
21
12.932391
0
LINE
8
Layer 1
10
42.238692
20
12.932391
11
42.406875
21
12.895315
0
LINE
8
Layer 1
10
42.406875
20
12.895315
11
42.415441
21
13.109139
0
LINE
8
Layer 1
10
42.415441
20
13.109139
11
42.214179
21
13.401376
0
LINE
8
Layer 1
10
42.214179
20
13.401376
11
42.214179
21
13.401376
0
LINE
8
Layer 1
10
38.979402
20
14.243338
11
38.878867
21
14.285230
0
LINE
8
Layer 1
10
38.878867
20
14.285230
11
38.837052
21
13.890560
0
LINE
8
Layer 1
10
38.837052
20
13.890560
11
38.878867
21
13.495890
0
LINE
8
Layer 1
10
38.878867
20
13.495890
11
38.979402
21
13.537782
0
LINE
8
Layer 1
10
38.979402
20
13.537782
11
38.979402
21
14.243338
0
LINE
8
Layer 1
10
38.979402
20
14.243338
11
38.979402
21
14.243338
0
LINE
8
Layer 1
10
99.240961
20
13.518904
11
98.700034
21
13.496637
0
LINE
8
Layer 1
10
98.700034
20
13.496637
11
98.738510
21
13.382760
0
LINE
8
Layer 1
10
98.738510
20
13.382760
11
99.070451
21
13.348408
0
LINE
8
Layer 1
10
99.070451
20
13.348408
11
99.363423
21
13.404958
0
LINE
8
Layer 1
10
99.363423
20
13.404958
11
99.240961
21
13.518916
0
LINE
8
Layer 1
10
99.240961
20
13.518916
11
99.240961
21
13.518904
0
LINE
8
Layer 1
10
35.668210
20
14.807782
11
35.405825
21
15.019449
0
LINE
8
Layer 1
10
35.405825
20
15.019449
11
35.212333
21
14.791466
0
LINE
8
Layer 1
10
35.212333
20
14.791466
11
35.143440
21
14.243338
0
LINE
8
Layer 1
10
35.143440
20
14.243338
11
35.200627
21
13.692043
0
LINE
8
Layer 1
10
35.200627
20
13.692043
11
35.405825
21
14.031671
0
LINE
8
Layer 1
10
35.405825
20
14.031671
11
35.668210
21
14.807782
0
LINE
8
Layer 1
10
35.668210
20
14.807782
11
35.668210
21
14.807782
0
LINE
8
Layer 1
10
42.558770
20
14.890510
11
42.401229
21
15.158574
0
LINE
8
Layer 1
10
42.401229
20
15.158574
11
42.257145
21
15.191509
0
LINE
8
Layer 1
10
42.257145
20
15.191509
11
42.308664
21
14.756003
0
LINE
8
Layer 1
10
42.308664
20
14.756003
11
42.609636
21
14.467914
0
LINE
8
Layer 1
10
42.609636
20
14.467914
11
42.558770
21
14.890510
0
LINE
8
Layer 1
10
42.558770
20
14.890510
11
42.558770
21
14.890510
0
LINE
8
Layer 1
10
43.719327
20
15.321173
11
43.502385
21
15.541787
0
LINE
8
Layer 1
10
43.502385
20
15.541787
11
43.297028
21
15.574170
0
LINE
8
Layer 1
10
43.297028
20
15.574170
11
43.174331
21
15.440306
0
LINE
8
Layer 1
10
43.174331
20
15.440306
11
43.205366
21
15.162180
0
LINE
8
Layer 1
10
43.205366
20
15.162180
11
43.395224
21
14.911050
0
LINE
8
Layer 1
10
43.395224
20
14.911050
11
43.624446
21
14.899459
0
LINE
8
Layer 1
10
43.624446
20
14.899459
11
43.758435
21
15.088922
0
LINE
8
Layer 1
10
43.758435
20
15.088922
11
43.719327
21
15.321173
0
LINE
8
Layer 1
10
43.719327
20
15.321173
11
43.719327
21
15.321173
0
LINE
8
Layer 1
10
47.597921
20
15.606175
11
47.950292
21
15.666008
0
LINE
8
Layer 1
10
47.950292
20
15.666008
11
47.861516
21
15.781683
0
LINE
8
Layer 1
10
47.861516
20
15.781683
11
47.259042
21
15.781272
0
LINE
8
Layer 1
10
47.259042
20
15.781272
11
46.395071
21
15.571571
0
LINE
8
Layer 1
10
46.395071
20
15.571571
11
45.619843
21
15.263263
0
LINE
8
Layer 1
10
45.619843
20
15.263263
11
45.283603
21
14.967029
0
LINE
8
Layer 1
10
45.283603
20
14.967029
11
45.528194
21
14.920978
0
LINE
8
Layer 1
10
45.528194
20
14.920978
11
46.116254
21
15.153313
0
LINE
8
Layer 1
10
46.116254
20
15.153313
11
47.597921
21
15.606175
0
LINE
8
Layer 1
10
47.597921
20
15.606175
11
47.597921
21
15.606175
0
LINE
8
Layer 1
10
38.228047
20
16.007227
11
38.147746
21
16.306206
0
LINE
8
Layer 1
10
38.147746
20
16.306206
11
37.954681
21
16.430560
0
LINE
8
Layer 1
10
37.954681
20
16.430560
11
37.809338
21
16.306206
0
LINE
8
Layer 1
10
37.809338
20
16.306206
11
37.843765
21
16.007227
0
LINE
8
Layer 1
10
37.843765
20
16.007227
11
38.117131
21
15.583893
0
LINE
8
Layer 1
10
38.117131
20
15.583893
11
38.228047
21
16.007227
0
LINE
8
Layer 1
10
38.228047
20
16.007227
11
38.228047
21
16.007227
0
LINE
8
Layer 1
10
34.888401
20
19.890811
11
35.377075
21
21.415722
0
LINE
8
Layer 1
10
35.377075
20
21.415722
11
35.338543
21
21.710821
0
LINE
8
Layer 1
10
35.338543
20
21.710821
11
35.123603
21
21.792782
0
LINE
8
Layer 1
10
35.123603
20
21.792782
11
34.924283
21
21.634705
0
LINE
8
Layer 1
10
34.924283
20
21.634705
11
34.841380
21
21.254647
0
LINE
8
Layer 1
10
34.841380
20
21.254647
11
33.994714
21
18.829449
0
LINE
8
Layer 1
10
33.994714
20
18.829449
11
33.149103
21
16.757029
0
LINE
8
Layer 1
10
33.149103
20
16.757029
11
33.352321
21
16.902155
0
LINE
8
Layer 1
10
33.352321
20
16.902155
11
33.834266
21
17.696841
0
LINE
8
Layer 1
10
33.834266
20
17.696841
11
34.888401
21
19.890811
0
LINE
8
Layer 1
10
34.888401
20
19.890811
11
34.888401
21
19.890811
0
LINE
8
Layer 1
10
45.001380
20
17.418338
11
45.153112
21
17.764252
0
LINE
8
Layer 1
10
45.153112
20
17.764252
11
44.612602
21
17.841671
0
LINE
8
Layer 1
10
44.612602
20
17.841671
11
44.089899
21
17.924574
0
LINE
8
Layer 1
10
44.089899
20
17.924574
11
43.872491
21
18.123893
0
LINE
8
Layer 1
10
43.872491
20
18.123893
11
43.797389
21
18.323213
0
LINE
8
Layer 1
10
43.797389
20
18.323213
11
43.616824
21
18.406116
0
LINE
8
Layer 1
10
43.616824
20
18.406116
11
43.532084
21
18.199505
0
LINE
8
Layer 1
10
43.532084
20
18.199505
11
43.687379
21
17.702761
0
LINE
8
Layer 1
10
43.687379
20
17.702761
11
43.978316
21
17.233590
0
LINE
8
Layer 1
10
43.978316
20
17.233590
11
44.293479
21
17.029972
0
LINE
8
Layer 1
10
44.293479
20
17.029972
11
44.634092
21
17.091643
0
LINE
8
Layer 1
10
44.634092
20
17.091643
11
45.001380
21
17.418338
0
LINE
8
Layer 1
10
45.001380
20
17.418338
11
45.001380
21
17.418338
0
LINE
8
Layer 1
10
40.713541
20
17.990250
11
40.545358
21
17.953173
0
LINE
8
Layer 1
10
40.545358
20
17.953173
11
40.362858
21
17.642177
0
LINE
8
Layer 1
10
40.362858
20
17.642177
11
40.279895
21
17.308605
0
LINE
8
Layer 1
10
40.279895
20
17.308605
11
40.520846
21
17.484189
0
LINE
8
Layer 1
10
40.520846
20
17.484189
11
40.722107
21
17.776425
0
LINE
8
Layer 1
10
40.722107
20
17.776425
11
40.713541
21
17.990250
0
LINE
8
Layer 1
10
40.713541
20
17.990250
11
40.713541
21
17.990250
0
LINE
8
Layer 1
10
61.088047
20
17.559449
11
61.005144
21
17.758768
0
LINE
8
Layer 1
10
61.005144
20
17.758768
11
60.805825
21
17.841671
0
LINE
8
Layer 1
10
60.805825
20
17.841671
11
60.606505
21
17.758768
0
LINE
8
Layer 1
10
60.606505
20
17.758768
11
60.523603
21
17.559449
0
LINE
8
Layer 1
10
60.523603
20
17.559449
11
60.606505
21
17.360130
0
LINE
8
Layer 1
10
60.606505
20
17.360130
11
60.805825
21
17.277227
0
LINE
8
Layer 1
10
60.805825
20
17.277227
11
61.005144
21
17.360130
0
LINE
8
Layer 1
10
61.005144
20
17.360130
11
61.088047
21
17.559449
0
LINE
8
Layer 1
10
61.088047
20
17.559449
11
61.088047
21
17.559449
0
LINE
8
Layer 1
10
72.094714
20
17.700560
11
72.268622
21
18.044857
0
LINE
8
Layer 1
10
72.268622
20
18.044857
11
71.847047
21
18.123893
0
LINE
8
Layer 1
10
71.847047
20
18.123893
11
71.418436
21
18.003474
0
LINE
8
Layer 1
10
71.418436
20
18.003474
11
71.248047
21
17.700560
0
LINE
8
Layer 1
10
71.248047
20
17.700560
11
71.320799
21
17.401581
0
LINE
8
Layer 1
10
71.320799
20
17.401581
11
71.495714
21
17.277227
0
LINE
8
Layer 1
10
71.495714
20
17.277227
11
72.094714
21
17.700560
0
LINE
8
Layer 1
10
72.094714
20
17.700560
11
72.094714
21
17.700560
0
LINE
8
Layer 1
10
42.159465
20
18.725134
11
41.941050
21
19.356630
0
LINE
8
Layer 1
10
41.941050
20
19.356630
11
41.903034
21
19.986571
0
LINE
8
Layer 1
10
41.903034
20
19.986571
11
42.033435
21
20.470484
0
LINE
8
Layer 1
10
42.033435
20
20.470484
11
42.320269
21
20.663893
0
LINE
8
Layer 1
10
42.320269
20
20.663893
11
42.619248
21
20.739035
0
LINE
8
Layer 1
10
42.619248
20
20.739035
11
42.743603
21
20.919694
0
LINE
8
Layer 1
10
42.743603
20
20.919694
11
42.586087
21
21.059162
0
LINE
8
Layer 1
10
42.586087
20
21.059162
11
42.207380
21
21.035270
0
LINE
8
Layer 1
10
42.207380
20
21.035270
11
41.931799
21
21.001415
0
LINE
8
Layer 1
10
41.931799
20
21.001415
11
41.768783
21
21.108482
0
LINE
8
Layer 1
10
41.768783
20
21.108482
11
41.671158
21
21.927174
0
LINE
8
Layer 1
10
41.671158
20
21.927174
11
41.501825
21
23.128633
0
LINE
8
Layer 1
10
41.501825
20
23.128633
11
41.382233
21
23.063710
0
LINE
8
Layer 1
10
41.382233
20
23.063710
11
41.332491
21
22.669830
0
LINE
8
Layer 1
10
41.332491
20
22.669830
11
41.249828
21
22.276766
0
LINE
8
Layer 1
10
41.249828
20
22.276766
11
41.050269
21
22.216116
0
LINE
8
Layer 1
10
41.050269
20
22.216116
11
40.842686
21
22.147879
0
LINE
8
Layer 1
10
40.842686
20
22.147879
11
40.739915
21
21.738884
0
LINE
8
Layer 1
10
40.739915
20
21.738884
11
40.688783
21
21.266771
0
LINE
8
Layer 1
10
40.688783
20
21.266771
11
40.509752
21
21.792782
0
LINE
8
Layer 1
10
40.509752
20
21.792782
11
40.307717
21
22.498338
0
LINE
8
Layer 1
10
40.307717
20
22.498338
11
40.152455
21
21.715792
0
LINE
8
Layer 1
10
40.152455
20
21.715792
11
40.181294
21
20.991452
0
LINE
8
Layer 1
10
40.181294
20
20.991452
11
40.805952
21
20.455498
0
LINE
8
Layer 1
10
40.805952
20
20.455498
11
41.425151
21
19.910954
0
LINE
8
Layer 1
10
41.425151
20
19.910954
11
41.614714
21
19.215015
0
LINE
8
Layer 1
10
41.614714
20
19.215015
11
41.800545
21
17.956648
0
LINE
8
Layer 1
10
41.800545
20
17.956648
11
41.988032
21
17.733810
0
LINE
8
Layer 1
10
41.988032
20
17.733810
11
42.198742
21
17.873356
0
LINE
8
Layer 1
10
42.198742
20
17.873356
11
42.279297
21
18.272575
0
LINE
8
Layer 1
10
42.279297
20
18.272575
11
42.159465
21
18.725134
0
LINE
8
Layer 1
10
42.159465
20
18.725134
11
42.159465
21
18.725134
0
LINE
8
Layer 1
10
70.683603
20
18.157204
11
70.600700
21
18.305288
0
LINE
8
Layer 1
10
70.600700
20
18.305288
11
70.401380
21
18.265005
0
LINE
8
Layer 1
10
70.401380
20
18.265005
11
70.119158
21
17.808361
0
LINE
8
Layer 1
10
70.119158
20
17.808361
11
70.202061
21
17.660277
0
LINE
8
Layer 1
10
70.202061
20
17.660277
11
70.401380
21
17.700560
0
LINE
8
Layer 1
10
70.401380
20
17.700560
11
70.683603
21
18.157204
0
LINE
8
Layer 1
10
70.683603
20
18.157204
11
70.683603
21
18.157204
0
LINE
8
Layer 1
10
75.065515
20
18.069388
11
74.851690
21
18.077954
0
LINE
8
Layer 1
10
74.851690
20
18.077954
11
74.559454
21
17.876692
0
LINE
8
Layer 1
10
74.559454
20
17.876692
11
74.383870
21
17.635741
0
LINE
8
Layer 1
10
74.383870
20
17.635741
11
74.717442
21
17.718704
0
LINE
8
Layer 1
10
74.717442
20
17.718704
11
75.028438
21
17.901205
0
LINE
8
Layer 1
10
75.028438
20
17.901205
11
75.065515
21
18.069388
0
LINE
8
Layer 1
10
75.065515
20
18.069388
11
75.065515
21
18.069388
0
LINE
8
Layer 1
10
37.390685
20
18.547227
11
37.665691
21
18.965932
0
LINE
8
Layer 1
10
37.665691
20
18.965932
11
37.310825
21
18.724338
0
LINE
8
Layer 1
10
37.310825
20
18.724338
11
36.816936
21
18.042300
0
LINE
8
Layer 1
10
36.816936
20
18.042300
11
36.896796
21
17.865189
0
LINE
8
Layer 1
10
36.896796
20
17.865189
11
37.390685
21
18.547227
0
LINE
8
Layer 1
10
37.390685
20
18.547227
11
37.390685
21
18.547227
0
LINE
8
Layer 1
10
41.235390
20
19.328709
11
41.139191
21
19.325356
0
LINE
8
Layer 1
10
41.139191
20
19.325356
11
41.105288
21
18.829449
0
LINE
8
Layer 1
10
41.105288
20
18.829449
11
41.150893
21
18.378148
0
LINE
8
Layer 1
10
41.150893
20
18.378148
11
41.245846
21
18.482042
0
LINE
8
Layer 1
10
41.245846
20
18.482042
11
41.235376
21
19.328709
0
LINE
8
Layer 1
10
41.235376
20
19.328709
11
41.235390
21
19.328709
0
LINE
8
Layer 1
10
72.165269
20
18.593026
11
71.459714
21
18.593026
0
LINE
8
Layer 1
10
71.459714
20
18.593026
11
71.417821
21
18.492492
0
LINE
8
Layer 1
10
71.417821
20
18.492492
11
71.812491
21
18.450676
0
LINE
8
Layer 1
10
71.812491
20
18.450676
11
72.207162
21
18.492492
0
LINE
8
Layer 1
10
72.207162
20
18.492492
11
72.165269
21
18.593026
0
LINE
8
Layer 1
10
72.165269
20
18.593026
11
72.165269
21
18.593026
0
LINE
8
Layer 1
10
65.092075
20
18.881127
11
64.551148
21
18.858859
0
LINE
8
Layer 1
10
64.551148
20
18.858859
11
64.589624
21
18.744981
0
LINE
8
Layer 1
10
64.589624
20
18.744981
11
64.921565
21
18.710631
0
LINE
8
Layer 1
10
64.921565
20
18.710631
11
65.214537
21
18.767180
0
LINE
8
Layer 1
10
65.214537
20
18.767180
11
65.092075
21
18.881138
0
LINE
8
Layer 1
10
65.092075
20
18.881138
11
65.092075
21
18.881127
0
LINE
8
Layer 1
10
70.119158
20
19.111671
11
70.248283
21
19.458685
0
LINE
8
Layer 1
10
70.248283
20
19.458685
11
69.589269
21
19.535005
0
LINE
8
Layer 1
10
69.589269
20
19.535005
11
68.925472
21
19.430554
0
LINE
8
Layer 1
10
68.925472
20
19.430554
11
68.708047
21
19.111671
0
LINE
8
Layer 1
10
68.708047
20
19.111671
11
68.863702
21
18.812692
0
LINE
8
Layer 1
10
68.863702
20
18.812692
11
69.237936
21
18.688338
0
LINE
8
Layer 1
10
69.237936
20
18.688338
11
69.715373
21
18.812692
0
LINE
8
Layer 1
10
69.715373
20
18.812692
11
70.119158
21
19.111671
0
LINE
8
Layer 1
10
70.119158
20
19.111671
11
70.119158
21
19.111671
0
LINE
8
Layer 1
10
72.659158
20
19.252782
11
72.539697
21
19.452102
0
LINE
8
Layer 1
10
72.539697
20
19.452102
11
72.252482
21
19.535005
0
LINE
8
Layer 1
10
72.252482
20
19.535005
11
71.671380
21
19.252782
0
LINE
8
Layer 1
10
71.671380
20
19.252782
11
71.718892
21
19.053463
0
LINE
8
Layer 1
10
71.718892
20
19.053463
11
72.078057
21
18.970560
0
LINE
8
Layer 1
10
72.078057
20
18.970560
11
72.488460
21
19.053463
0
LINE
8
Layer 1
10
72.488460
20
19.053463
11
72.659158
21
19.252782
0
LINE
8
Layer 1
10
72.659158
20
19.252782
11
72.659158
21
19.252782
0
LINE
8
Layer 1
10
48.217864
20
19.487967
11
48.203460
21
19.654068
0
LINE
8
Layer 1
10
48.203460
20
19.654068
11
47.964714
21
19.723154
0
LINE
8
Layer 1
10
47.964714
20
19.723154
11
47.725968
21
19.654068
0
LINE
8
Layer 1
10
47.725968
20
19.654068
11
47.711563
21
19.487967
0
LINE
8
Layer 1
10
47.711563
20
19.487967
11
47.964714
21
19.252782
0
LINE
8
Layer 1
10
47.964714
20
19.252782
11
48.217864
21
19.487967
0
LINE
8
Layer 1
10
48.217864
20
19.487967
11
48.217864
21
19.487967
0
LINE
8
Layer 1
10
76.135382
20
20.330626
11
76.426503
21
21.229506
0
LINE
8
Layer 1
10
76.426503
20
21.229506
11
76.469480
21
22.065286
0
LINE
8
Layer 1
10
76.469480
20
22.065286
11
76.280093
21
22.681497
0
LINE
8
Layer 1
10
76.280093
20
22.681497
11
75.874118
21
22.921671
0
LINE
8
Layer 1
10
75.874118
20
22.921671
11
75.689850
21
22.834799
0
LINE
8
Layer 1
10
75.689850
20
22.834799
11
75.568503
21
22.550625
0
LINE
8
Layer 1
10
75.568503
20
22.550625
11
75.481380
21
21.249030
0
LINE
8
Layer 1
10
75.481380
20
21.249030
11
75.384547
21
19.879030
0
LINE
8
Layer 1
10
75.384547
20
19.879030
11
75.233536
21
19.582333
0
LINE
8
Layer 1
10
75.233536
20
19.582333
11
74.987491
21
19.447327
0
LINE
8
Layer 1
10
74.987491
20
19.447327
11
74.689310
21
19.336671
0
LINE
8
Layer 1
10
74.689310
20
19.336671
11
75.058047
21
19.288757
0
LINE
8
Layer 1
10
75.058047
20
19.288757
11
75.610056
21
19.524811
0
LINE
8
Layer 1
10
75.610056
20
19.524811
11
76.135382
21
20.330626
0
LINE
8
Layer 1
10
76.135382
20
20.330626
11
76.135382
21
20.330626
0
LINE
8
Layer 1
10
78.868047
20
20.921969
11
79.026619
21
21.549539
0
LINE
8
Layer 1
10
79.026619
20
21.549539
11
79.432491
21
22.009509
0
LINE
8
Layer 1
10
79.432491
20
22.009509
11
79.881731
21
22.377122
0
LINE
8
Layer 1
10
79.881731
20
22.377122
11
79.954434
21
22.665668
0
LINE
8
Layer 1
10
79.954434
20
22.665668
11
79.660332
21
22.854175
0
LINE
8
Layer 1
10
79.660332
20
22.854175
11
79.009158
21
22.921671
0
LINE
8
Layer 1
10
79.009158
20
22.921671
11
78.224671
21
22.813611
0
LINE
8
Layer 1
10
78.224671
20
22.813611
11
78.021380
21
22.396617
0
LINE
8
Layer 1
10
78.021380
20
22.396617
11
77.838023
21
20.491617
0
LINE
8
Layer 1
10
77.838023
20
20.491617
11
77.654669
21
19.111671
0
LINE
8
Layer 1
10
77.654669
20
19.111671
11
78.261357
21
19.649302
0
LINE
8
Layer 1
10
78.261357
20
19.649302
11
78.689832
21
20.244919
0
LINE
8
Layer 1
10
78.689832
20
20.244919
11
78.868047
21
20.921969
0
LINE
8
Layer 1
10
78.868047
20
20.921969
11
78.868047
21
20.921969
0
LINE
8
Layer 1
10
94.214086
20
20.001349
11
95.618667
21
20.278216
0
LINE
8
Layer 1
10
95.618667
20
20.278216
11
97.459639
21
20.409803
0
LINE
8
Layer 1
10
97.459639
20
20.409803
11
99.520333
21
20.494727
0
LINE
8
Layer 1
10
99.520333
20
20.494727
11
100.393843
21
20.665586
0
LINE
8
Layer 1
10
100.393843
20
20.665586
11
100.376346
21
20.776323
0
LINE
8
Layer 1
10
100.376346
20
20.776323
11
100.051185
21
20.900241
0
LINE
8
Layer 1
10
100.051185
20
20.900241
11
98.463377
21
21.176550
0
LINE
8
Layer 1
10
98.463377
20
21.176550
11
95.160056
21
21.510560
0
LINE
8
Layer 1
10
95.160056
20
21.510560
11
94.772226
21
21.547856
0
LINE
8
Layer 1
10
94.772226
20
21.547856
11
94.518694
21
21.692332
0
LINE
8
Layer 1
10
94.518694
20
21.692332
11
94.230537
21
22.498338
0
LINE
8
Layer 1
10
94.230537
20
22.498338
11
93.989072
21
23.176450
0
LINE
8
Layer 1
10
93.989072
20
23.176450
11
93.607637
21
23.471212
0
LINE
8
Layer 1
10
93.607637
20
23.471212
11
93.112271
21
23.376679
0
LINE
8
Layer 1
10
93.112271
20
23.376679
11
92.529011
21
22.886904
0
LINE
8
Layer 1
10
92.529011
20
22.886904
11
90.381071
21
21.260607
0
LINE
8
Layer 1
10
90.381071
20
21.260607
11
89.188695
21
20.378041
0
LINE
8
Layer 1
10
89.188695
20
20.378041
11
88.985086
21
20.081001
0
LINE
8
Layer 1
10
88.985086
20
20.081001
11
89.010211
21
19.846087
0
LINE
8
Layer 1
10
89.010211
20
19.846087
11
89.385443
21
19.600077
0
LINE
8
Layer 1
10
89.385443
20
19.600077
11
90.168744
21
19.779053
0
LINE
8
Layer 1
10
90.168744
20
19.779053
11
91.320149
21
20.074829
0
LINE
8
Layer 1
10
91.320149
20
20.074829
11
91.518814
21
19.963226
0
LINE
8
Layer 1
10
91.518814
20
19.963226
11
91.568047
21
19.670739
0
LINE
8
Layer 1
10
91.568047
20
19.670739
11
91.687974
21
19.424192
0
LINE
8
Layer 1
10
91.687974
20
19.424192
11
92.108356
21
19.389539
0
LINE
8
Layer 1
10
92.108356
20
19.389539
11
94.214086
21
20.001349
0
LINE
8
Layer 1
10
94.214086
20
20.001349
11
94.214086
21
20.001349
0
LINE
8
Layer 1
10
52.436547
20
19.970510
11
52.279007
21
20.238574
0
LINE
8
Layer 1
10
52.279007
20
20.238574
11
52.134922
21
20.271509
0
LINE
8
Layer 1
10
52.134922
20
20.271509
11
52.186442
21
19.836003
0
LINE
8
Layer 1
10
52.186442
20
19.836003
11
52.487414
21
19.547914
0
LINE
8
Layer 1
10
52.487414
20
19.547914
11
52.436547
21
19.970510
0
LINE
8
Layer 1
10
52.436547
20
19.970510
11
52.436547
21
19.970510
0
LINE
8
Layer 1
10
55.161380
20
20.129644
11
55.082190
21
20.339065
0
LINE
8
Layer 1
10
55.082190
20
20.339065
11
54.895123
21
20.370726
0
LINE
8
Layer 1
10
54.895123
20
20.370726
11
54.500393
21
19.972711
0
LINE
8
Layer 1
10
54.500393
20
19.972711
11
54.484572
21
19.704862
0
LINE
8
Layer 1
10
54.484572
20
19.704862
11
54.752421
21
19.720684
0
LINE
8
Layer 1
10
54.752421
20
19.720684
11
55.161380
21
20.129644
0
LINE
8
Layer 1
10
55.161380
20
20.129644
11
55.161380
21
20.129644
0
LINE
8
Layer 1
10
81.408047
20
20.522782
11
82.224327
21
21.510560
0
LINE
8
Layer 1
10
82.224327
20
21.510560
11
81.125825
21
20.522782
0
LINE
8
Layer 1
10
81.125825
20
20.522782
11
80.309545
21
19.535005
0
LINE
8
Layer 1
10
80.309545
20
19.535005
11
81.408047
21
20.522782
0
LINE
8
Layer 1
10
81.408047
20
20.522782
11
81.408047
21
20.522782
0
LINE
8
Layer 1
10
33.538820
20
21.087227
11
33.590914
21
21.547043
0
LINE
8
Layer 1
10
33.590914
20
21.547043
11
33.477493
21
21.526034
0
LINE
8
Layer 1
10
33.477493
20
21.526034
11
33.009355
21
20.381671
0
LINE
8
Layer 1
10
33.009355
20
20.381671
11
32.925264
21
19.926649
0
LINE
8
Layer 1
10
32.925264
20
19.926649
11
33.079890
21
19.958338
0
LINE
8
Layer 1
10
33.079890
20
19.958338
11
33.538820
21
21.087227
0
LINE
8
Layer 1
10
33.538820
20
21.087227
11
33.538820
21
21.087227
0
LINE
8
Layer 1
10
71.510432
20
20.751106
11
71.459756
21
21.205685
0
LINE
8
Layer 1
10
71.459756
20
21.205685
11
71.248047
21
20.805005
0
LINE
8
Layer 1
10
71.248047
20
20.805005
11
70.997692
21
20.013003
0
LINE
8
Layer 1
10
70.997692
20
20.013003
11
71.060281
21
19.894356
0
LINE
8
Layer 1
10
71.060281
20
19.894356
11
71.248047
21
19.958338
0
LINE
8
Layer 1
10
71.248047
20
19.958338
11
71.441539
21
20.263163
0
LINE
8
Layer 1
10
71.441539
20
20.263163
11
71.510432
21
20.751106
0
LINE
8
Layer 1
10
71.510432
20
20.751106
11
71.510432
21
20.751106
0
LINE
8
Layer 1
10
81.708538
20
22.117857
11
81.802206
21
22.463235
0
LINE
8
Layer 1
10
81.802206
20
22.463235
11
81.403150
21
22.437719
0
LINE
8
Layer 1
10
81.403150
20
22.437719
11
80.953639
21
22.465392
0
LINE
8
Layer 1
10
80.953639
20
22.465392
11
80.843603
21
23.029864
0
LINE
8
Layer 1
10
80.843603
20
23.029864
11
80.843603
21
23.768339
0
LINE
8
Layer 1
10
80.843603
20
23.768339
11
78.162491
21
23.768339
0
LINE
8
Layer 1
10
78.162491
20
23.768339
11
75.820047
21
23.857486
0
LINE
8
Layer 1
10
75.820047
20
23.857486
11
75.524596
21
24.067067
0
LINE
8
Layer 1
10
75.524596
20
24.067067
11
75.481380
21
24.473894
0
LINE
8
Layer 1
10
75.481380
20
24.473894
11
75.411785
21
24.972193
0
LINE
8
Layer 1
10
75.411785
20
24.972193
11
75.244460
21
25.179450
0
LINE
8
Layer 1
10
75.244460
20
25.179450
11
74.982701
21
24.972193
0
LINE
8
Layer 1
10
74.982701
20
24.972193
11
74.686064
21
24.473894
0
LINE
8
Layer 1
10
74.686064
20
24.473894
11
74.209633
21
23.902741
0
LINE
8
Layer 1
10
74.209633
20
23.902741
11
73.229653
21
23.768339
0
LINE
8
Layer 1
10
73.229653
20
23.768339
11
72.333047
21
23.868564
0
LINE
8
Layer 1
10
72.333047
20
23.868564
11
72.148622
21
24.015326
0
LINE
8
Layer 1
10
72.148622
20
24.015326
11
72.094714
21
24.245613
0
LINE
8
Layer 1
10
72.094714
20
24.245613
11
72.037606
21
24.573793
0
LINE
8
Layer 1
10
72.037606
20
24.573793
11
71.741936
21
24.279136
0
LINE
8
Layer 1
10
71.741936
20
24.279136
11
71.128373
21
23.895847
0
LINE
8
Layer 1
10
71.128373
20
23.895847
11
70.217135
21
23.658906
0
LINE
8
Layer 1
10
70.217135
20
23.658906
11
69.356519
21
23.622121
0
LINE
8
Layer 1
10
69.356519
20
23.622121
11
68.894822
21
23.839298
0
LINE
8
Layer 1
10
68.894822
20
23.839298
11
68.784235
21
23.976468
0
LINE
8
Layer 1
10
68.784235
20
23.976468
11
68.730328
21
23.727975
0
LINE
8
Layer 1
10
68.730328
20
23.727975
11
68.612113
21
23.381656
0
LINE
8
Layer 1
10
68.612113
20
23.381656
11
68.300773
21
23.128970
0
LINE
8
Layer 1
10
68.300773
20
23.128970
11
67.132742
21
22.921671
0
LINE
8
Layer 1
10
67.132742
20
22.921671
11
66.593096
21
23.061258
0
LINE
8
Layer 1
10
66.593096
20
23.061258
11
66.417531
21
23.556672
0
LINE
8
Layer 1
10
66.417531
20
23.556672
11
66.367515
21
24.000277
0
LINE
8
Layer 1
10
66.367515
20
24.000277
11
66.243773
21
23.627228
0
LINE
8
Layer 1
10
66.243773
20
23.627228
11
65.782622
21
22.855436
0
LINE
8
Layer 1
10
65.782622
20
22.855436
11
65.775233
21
22.774587
0
LINE
8
Layer 1
10
65.775233
20
22.774587
11
65.991769
21
22.707729
0
LINE
8
Layer 1
10
65.991769
20
22.707729
11
66.944158
21
22.643770
0
LINE
8
Layer 1
10
66.944158
20
22.643770
11
68.191571
21
22.537764
0
LINE
8
Layer 1
10
68.191571
20
22.537764
11
68.395869
21
22.345799
0
LINE
8
Layer 1
10
68.395869
20
22.345799
11
68.454637
21
22.004449
0
LINE
8
Layer 1
10
68.454637
20
22.004449
11
68.536598
21
21.680271
0
LINE
8
Layer 1
10
68.536598
20
21.680271
11
68.777685
21
22.286671
0
LINE
8
Layer 1
10
68.777685
20
22.286671
11
68.970600
21
22.788318
0
LINE
8
Layer 1
10
68.970600
20
22.788318
11
69.214721
21
23.063799
0
LINE
8
Layer 1
10
69.214721
20
23.063799
11
70.301096
21
23.203894
0
LINE
8
Layer 1
10
70.301096
20
23.203894
11
71.349686
21
23.087135
0
LINE
8
Layer 1
10
71.349686
20
23.087135
11
71.512317
21
22.854259
0
LINE
8
Layer 1
10
71.512317
20
22.854259
11
71.559081
21
22.427782
0
LINE
8
Layer 1
10
71.559081
20
22.427782
11
71.622008
21
21.869324
0
LINE
8
Layer 1
10
71.622008
20
21.869324
11
71.882130
21
22.568893
0
LINE
8
Layer 1
10
71.882130
20
22.568893
11
72.176366
21
23.486116
0
LINE
8
Layer 1
10
72.176366
20
23.486116
11
74.658505
21
23.486116
0
LINE
8
Layer 1
10
74.658505
20
23.486116
11
77.140641
21
23.486116
0
LINE
8
Layer 1
10
77.140641
20
23.486116
11
77.251346
21
22.427782
0
LINE
8
Layer 1
10
77.251346
20
22.427782
11
77.362050
21
21.369449
0
LINE
8
Layer 1
10
77.362050
20
21.369449
11
77.409494
21
22.427782
0
LINE
8
Layer 1
10
77.409494
20
22.427782
11
77.456936
21
23.486116
0
LINE
8
Layer 1
10
77.456936
20
23.486116
11
79.009158
21
23.486116
0
LINE
8
Layer 1
10
79.009158
20
23.486116
11
80.361106
21
23.377185
0
LINE
8
Layer 1
10
80.361106
20
23.377185
11
80.534785
21
23.126115
0
LINE
8
Layer 1
10
80.534785
20
23.126115
11
80.561380
21
22.641839
0
LINE
8
Layer 1
10
80.561380
20
22.641839
11
80.414196
21
21.925799
0
LINE
8
Layer 1
10
80.414196
20
21.925799
11
79.996936
21
21.445065
0
LINE
8
Layer 1
10
79.996936
20
21.445065
11
79.596398
21
20.993677
0
LINE
8
Layer 1
10
79.596398
20
20.993677
11
79.432491
21
20.399533
0
LINE
8
Layer 1
10
79.432491
20
20.399533
11
79.450169
21
20.019747
0
LINE
8
Layer 1
10
79.450169
20
20.019747
11
79.563876
21
19.922966
0
LINE
8
Layer 1
10
79.563876
20
19.922966
11
80.443434
21
20.679085
0
LINE
8
Layer 1
10
80.443434
20
20.679085
11
81.708538
21
22.117857
0
LINE
8
Layer 1
10
81.708538
20
22.117857
11
81.708538
21
22.117857
0
LINE
8
Layer 1
10
86.839363
20
21.758664
11
87.576254
21
22.766815
0
LINE
8
Layer 1
10
87.576254
20
22.766815
11
87.967919
21
23.656622
0
LINE
8
Layer 1
10
87.967919
20
23.656622
11
88.029984
21
24.487338
0
LINE
8
Layer 1
10
88.029984
20
24.487338
11
87.778074
21
25.318216
0
LINE
8
Layer 1
10
87.778074
20
25.318216
11
87.250916
21
26.308852
0
LINE
8
Layer 1
10
87.250916
20
26.308852
11
87.286829
21
24.663068
0
LINE
8
Layer 1
10
87.286829
20
24.663068
11
87.316226
21
23.687193
0
LINE
8
Layer 1
10
87.316226
20
23.687193
11
87.177986
21
23.015064
0
LINE
8
Layer 1
10
87.177986
20
23.015064
11
86.741390
21
22.340419
0
LINE
8
Layer 1
10
86.741390
20
22.340419
11
85.875718
21
21.356997
0
LINE
8
Layer 1
10
85.875718
20
21.356997
11
84.884964
21
20.186896
0
LINE
8
Layer 1
10
84.884964
20
20.186896
11
84.912356
21
20.106350
0
LINE
8
Layer 1
10
84.912356
20
20.106350
11
85.266355
21
20.325046
0
LINE
8
Layer 1
10
85.266355
20
20.325046
11
86.839363
21
21.758664
0
LINE
8
Layer 1
10
86.839363
20
21.758664
11
86.839363
21
21.758664
0
LINE
8
Layer 1
10
103.421378
20
20.529129
11
103.277698
21
20.752036
0
LINE
8
Layer 1
10
103.277698
20
20.752036
11
102.718023
21
20.566784
0
LINE
8
Layer 1
10
102.718023
20
20.566784
11
102.037562
21
20.076048
0
LINE
8
Layer 1
10
102.037562
20
20.076048
11
102.206769
21
19.982067
0
LINE
8
Layer 1
10
102.206769
20
19.982067
11
102.715766
21
20.030375
0
LINE
8
Layer 1
10
102.715766
20
20.030375
11
103.214064
21
20.232521
0
LINE
8
Layer 1
10
103.214064
20
20.232521
11
103.421321
21
20.529129
0
LINE
8
Layer 1
10
103.421321
20
20.529129
11
103.421378
21
20.529129
0
LINE
8
Layer 1
10
50.928047
20
20.381671
11
50.851223
21
20.580991
0
LINE
8
Layer 1
10
50.851223
20
20.580991
11
50.666517
21
20.663893
0
LINE
8
Layer 1
10
50.666517
20
20.663893
11
50.443900
21
20.808973
0
LINE
8
Layer 1
10
50.443900
20
20.808973
11
50.275925
21
21.157782
0
LINE
8
Layer 1
10
50.275925
20
21.157782
11
50.172796
21
21.309677
0
LINE
8
Layer 1
10
50.172796
20
21.309677
11
50.114118
21
20.875560
0
LINE
8
Layer 1
10
50.114118
20
20.875560
11
50.195643
21
20.293900
0
LINE
8
Layer 1
10
50.195643
20
20.293900
11
50.504714
21
20.099449
0
LINE
8
Layer 1
10
50.504714
20
20.099449
11
50.803693
21
20.182352
0
LINE
8
Layer 1
10
50.803693
20
20.182352
11
50.928047
21
20.381671
0
LINE
8
Layer 1
10
50.928047
20
20.381671
11
50.928047
21
20.381671
0
LINE
8
Layer 1
10
62.922491
20
20.381671
11
62.482501
21
20.663893
0
LINE
8
Layer 1
10
62.482501
20
20.663893
11
62.294946
21
20.580991
0
LINE
8
Layer 1
10
62.294946
20
20.580991
11
62.216936
21
20.381671
0
LINE
8
Layer 1
10
62.216936
20
20.381671
11
62.346183
21
20.182352
0
LINE
8
Layer 1
10
62.346183
20
20.182352
11
62.656926
21
20.099449
0
LINE
8
Layer 1
10
62.656926
20
20.099449
11
62.916431
21
20.182352
0
LINE
8
Layer 1
10
62.916431
20
20.182352
11
62.922491
21
20.381671
0
LINE
8
Layer 1
10
62.922491
20
20.381671
11
62.922491
21
20.381671
0
LINE
8
Layer 1
10
65.325233
20
20.311116
11
65.500357
21
21.161976
0
LINE
8
Layer 1
10
65.500357
20
21.161976
11
65.544837
21
21.636849
0
LINE
8
Layer 1
10
65.544837
20
21.636849
11
65.214283
21
21.625670
0
LINE
8
Layer 1
10
65.214283
20
21.625670
11
64.913701
21
21.307690
0
LINE
8
Layer 1
10
64.913701
20
21.307690
11
64.766484
21
20.791886
0
LINE
8
Layer 1
10
64.766484
20
20.791886
11
64.799385
21
20.311419
0
LINE
8
Layer 1
10
64.799385
20
20.311419
11
65.039158
21
20.099449
0
LINE
8
Layer 1
10
65.039158
20
20.099449
11
65.325233
21
20.311116
0
LINE
8
Layer 1
10
65.325233
20
20.311116
11
65.325233
21
20.311116
0
LINE
8
Layer 1
10
74.739054
20
20.734449
11
74.902035
21
22.075005
0
LINE
8
Layer 1
10
74.902035
20
22.075005
11
74.831140
21
22.520280
0
LINE
8
Layer 1
10
74.831140
20
22.520280
11
74.482556
21
21.830936
0
LINE
8
Layer 1
10
74.482556
20
21.830936
11
74.070269
21
20.490380
0
LINE
8
Layer 1
10
74.070269
20
20.490380
11
74.148593
21
20.166494
0
LINE
8
Layer 1
10
74.148593
20
20.166494
11
74.334864
21
20.116982
0
LINE
8
Layer 1
10
74.334864
20
20.116982
11
74.556034
21
20.315187
0
LINE
8
Layer 1
10
74.556034
20
20.315187
11
74.739054
21
20.734449
0
LINE
8
Layer 1
10
74.739054
20
20.734449
11
74.739054
21
20.734449
0
LINE
8
Layer 1
10
54.612297
20
21.142548
11
55.047237
21
21.142023
0
LINE
8
Layer 1
10
55.047237
20
21.142023
11
55.391364
21
21.329616
0
LINE
8
Layer 1
10
55.391364
20
21.329616
11
55.567388
21
21.632452
0
LINE
8
Layer 1
10
55.567388
20
21.632452
11
55.498015
21
21.977658
0
LINE
8
Layer 1
10
55.498015
20
21.977658
11
55.075971
21
22.032333
0
LINE
8
Layer 1
10
55.075971
20
22.032333
11
54.204354
21
21.586114
0
LINE
8
Layer 1
10
54.204354
20
21.586114
11
53.425259
21
20.984490
0
LINE
8
Layer 1
10
53.425259
20
20.984490
11
53.364970
21
20.793601
0
LINE
8
Layer 1
10
53.364970
20
20.793601
11
53.498798
21
20.642024
0
LINE
8
Layer 1
10
53.498798
20
20.642024
11
53.818713
21
20.565169
0
LINE
8
Layer 1
10
53.818713
20
20.565169
11
53.987672
21
20.838623
0
LINE
8
Layer 1
10
53.987672
20
20.838623
11
54.198617
21
21.126724
0
LINE
8
Layer 1
10
54.198617
20
21.126724
11
54.612297
21
21.142548
0
LINE
8
Layer 1
10
54.612297
20
21.142548
11
54.612297
21
21.142548
0
LINE
8
Layer 1
10
64.192491
20
21.362585
11
64.296120
21
21.874327
0
LINE
8
Layer 1
10
64.296120
20
21.874327
11
64.545269
21
22.170317
0
LINE
8
Layer 1
10
64.545269
20
22.170317
11
64.664386
21
22.279530
0
LINE
8
Layer 1
10
64.664386
20
22.279530
11
64.404158
21
22.334945
0
LINE
8
Layer 1
10
64.404158
20
22.334945
11
64.055349
21
22.267776
0
LINE
8
Layer 1
10
64.055349
20
22.267776
11
63.910269
21
22.075005
0
LINE
8
Layer 1
10
63.910269
20
22.075005
11
63.765189
21
21.869140
0
LINE
8
Layer 1
10
63.765189
20
21.869140
11
63.416380
21
21.770501
0
LINE
8
Layer 1
10
63.416380
20
21.770501
11
63.156152
21
21.715081
0
LINE
8
Layer 1
10
63.156152
20
21.715081
11
63.275269
21
21.605872
0
LINE
8
Layer 1
10
63.275269
20
21.605872
11
63.524419
21
21.341549
0
LINE
8
Layer 1
10
63.524419
20
21.341549
11
63.628047
21
20.905941
0
LINE
8
Layer 1
10
63.628047
20
20.905941
11
63.710950
21
20.563385
0
LINE
8
Layer 1
10
63.710950
20
20.563385
11
63.910269
21
20.522782
0
LINE
8
Layer 1
10
63.910269
20
20.522782
11
64.109589
21
20.841425
0
LINE
8
Layer 1
10
64.109589
20
20.841425
11
64.192491
21
21.362585
0
LINE
8
Layer 1
10
64.192491
20
21.362585
11
64.192491
21
21.362585
0
LINE
8
Layer 1
10
67.809570
20
21.320658
11
67.774403
21
21.898308
0
LINE
8
Layer 1
10
67.774403
20
21.898308
11
67.456792
21
22.075005
0
LINE
8
Layer 1
10
67.456792
20
22.075005
11
67.121113
21
21.865568
0
LINE
8
Layer 1
10
67.121113
20
21.865568
11
67.014714
21
21.204820
0
LINE
8
Layer 1
10
67.014714
20
21.204820
11
67.120619
21
20.612882
0
LINE
8
Layer 1
10
67.120619
20
20.612882
11
67.363365
21
20.445801
0
LINE
8
Layer 1
10
67.363365
20
20.445801
11
67.630500
21
20.687190
0
LINE
8
Layer 1
10
67.630500
20
20.687190
11
67.809570
21
21.320658
0
LINE
8
Layer 1
10
67.809570
20
21.320658
11
67.809570
21
21.320658
0
LINE
8
Layer 1
10
52.675925
20
21.496311
11
56.153050
21
23.627228
0
LINE
8
Layer 1
10
56.153050
20
23.627228
11
58.237994
21
24.905330
0
LINE
8
Layer 1
10
58.237994
20
24.905330
11
58.663182
21
25.266790
0
LINE
8
Layer 1
10
58.663182
20
25.266790
11
58.649243
21
25.423329
0
LINE
8
Layer 1
10
58.649243
20
25.423329
11
58.263173
21
25.403545
0
LINE
8
Layer 1
10
58.263173
20
25.403545
11
58.041376
21
25.211663
0
LINE
8
Layer 1
10
58.041376
20
25.211663
11
57.849908
21
24.989593
0
LINE
8
Layer 1
10
57.849908
20
24.989593
11
57.536752
21
24.897228
0
LINE
8
Layer 1
10
57.536752
20
24.897228
11
57.254382
21
24.814325
0
LINE
8
Layer 1
10
57.254382
20
24.814325
11
57.136936
21
24.615005
0
LINE
8
Layer 1
10
57.136936
20
24.615005
11
57.012582
21
24.415686
0
LINE
8
Layer 1
10
57.012582
20
24.415686
11
56.713603
21
24.332783
0
LINE
8
Layer 1
10
56.713603
20
24.332783
11
56.414623
21
24.420578
0
LINE
8
Layer 1
10
56.414623
20
24.420578
11
56.290269
21
24.631659
0
LINE
8
Layer 1
10
56.290269
20
24.631659
11
56.385981
21
24.783589
0
LINE
8
Layer 1
10
56.385981
20
24.783589
11
56.616098
21
24.729164
0
LINE
8
Layer 1
10
56.616098
20
24.729164
11
56.801840
21
24.670304
0
LINE
8
Layer 1
10
56.801840
20
24.670304
11
56.725354
21
24.878211
0
LINE
8
Layer 1
10
56.725354
20
24.878211
11
56.516031
21
25.057741
0
LINE
8
Layer 1
10
56.516031
20
25.057741
11
56.298415
21
24.984519
0
LINE
8
Layer 1
10
56.298415
20
24.984519
11
55.962575
21
24.191672
0
LINE
8
Layer 1
10
55.962575
20
24.191672
11
55.673413
21
23.737603
0
LINE
8
Layer 1
10
55.673413
20
23.737603
11
54.947402
21
23.538790
0
LINE
8
Layer 1
10
54.947402
20
23.538790
11
54.286240
21
23.367704
0
LINE
8
Layer 1
10
54.286240
20
23.367704
11
54.032491
21
23.063917
0
LINE
8
Layer 1
10
54.032491
20
23.063917
11
53.874283
21
22.740787
0
LINE
8
Layer 1
10
53.874283
20
22.740787
11
53.493910
21
22.506548
0
LINE
8
Layer 1
10
53.493910
20
22.506548
11
52.012243
21
21.493627
0
LINE
8
Layer 1
10
52.012243
20
21.493627
11
51.451027
21
20.916484
0
LINE
8
Layer 1
10
51.451027
20
20.916484
11
51.448871
21
20.820563
0
LINE
8
Layer 1
10
51.448871
20
20.820563
11
51.633603
21
20.855186
0
LINE
8
Layer 1
10
51.633603
20
20.855186
11
52.675925
21
21.496311
0
LINE
8
Layer 1
10
52.675925
20
21.496311
11
52.675925
21
21.496311
0
LINE
8
Layer 1
10
58.318741
20
20.856682
11
57.777815
21
20.834415
0
LINE
8
Layer 1
10
57.777815
20
20.834415
11
57.816290
21
20.720537
0
LINE
8
Layer 1
10
57.816290
20
20.720537
11
58.148231
21
20.686186
0
LINE
8
Layer 1
10
58.148231
20
20.686186
11
58.441203
21
20.742736
0
LINE
8
Layer 1
10
58.441203
20
20.742736
11
58.318741
21
20.856694
0
LINE
8
Layer 1
10
58.318741
20
20.856694
11
58.318741
21
20.856682
0
LINE
8
Layer 1
10
70.690588
20
21.387822
11
70.924226
21
22.412297
0
LINE
8
Layer 1
10
70.924226
20
22.412297
11
70.732044
21
22.593380
0
LINE
8
Layer 1
10
70.732044
20
22.593380
11
70.307621
21
22.639449
0
LINE
8
Layer 1
10
70.307621
20
22.639449
11
69.724516
21
22.430513
0
LINE
8
Layer 1
10
69.724516
20
22.430513
11
69.346259
21
21.651671
0
LINE
8
Layer 1
10
69.346259
20
21.651671
11
69.184272
21
20.804849
0
LINE
8
Layer 1
10
69.184272
20
20.804849
11
69.352971
21
20.685884
0
LINE
8
Layer 1
10
69.352971
20
20.685884
11
69.729226
21
20.663893
0
LINE
8
Layer 1
10
69.729226
20
20.663893
11
70.316988
21
20.837195
0
LINE
8
Layer 1
10
70.316988
20
20.837195
11
70.690588
21
21.387822
0
LINE
8
Layer 1
10
70.690588
20
21.387822
11
70.690588
21
21.387822
0
LINE
8
Layer 1
10
73.577744
20
21.298893
11
73.923059
21
22.427782
0
LINE
8
Layer 1
10
73.923059
20
22.427782
11
73.947326
21
22.822470
0
LINE
8
Layer 1
10
73.947326
20
22.822470
11
73.425504
21
22.921671
0
LINE
8
Layer 1
10
73.425504
20
22.921671
11
72.842799
21
22.766083
0
LINE
8
Layer 1
10
72.842799
20
22.766083
11
72.549845
21
22.242334
0
LINE
8
Layer 1
10
72.549845
20
22.242334
11
72.206835
21
21.113445
0
LINE
8
Layer 1
10
72.206835
20
21.113445
11
72.225857
21
20.762260
0
LINE
8
Layer 1
10
72.225857
20
20.762260
11
72.737173
21
20.663893
0
LINE
8
Layer 1
10
72.737173
20
20.663893
11
73.308197
21
20.812019
0
LINE
8
Layer 1
10
73.308197
20
20.812019
11
73.577744
21
21.298893
0
LINE
8
Layer 1
10
73.577744
20
21.298893
11
73.577744
21
21.298893
0
LINE
8
Layer 1
10
89.929806
20
22.877461
11
90.599771
21
23.666190
0
LINE
8
Layer 1
10
90.599771
20
23.666190
11
90.790684
21
24.168016
0
LINE
8
Layer 1
10
90.790684
20
24.168016
11
90.484468
21
24.516207
0
LINE
8
Layer 1
10
90.484468
20
24.516207
11
89.663047
21
24.844029
0
LINE
8
Layer 1
10
89.663047
20
24.844029
11
88.867350
21
24.997447
0
LINE
8
Layer 1
10
88.867350
20
24.997447
11
88.762734
21
24.780407
0
LINE
8
Layer 1
10
88.762734
20
24.780407
11
88.745825
21
24.304087
0
LINE
8
Layer 1
10
88.745825
20
24.304087
11
88.640068
21
23.558288
0
LINE
8
Layer 1
10
88.640068
20
23.558288
11
88.349257
21
22.715991
0
LINE
8
Layer 1
10
88.349257
20
22.715991
11
87.371236
21
21.110730
0
LINE
8
Layer 1
10
87.371236
20
21.110730
11
87.158001
21
20.811138
0
LINE
8
Layer 1
10
87.158001
20
20.811138
11
87.200585
21
20.731722
0
LINE
8
Layer 1
10
87.200585
20
20.731722
11
87.846176
21
21.090456
0
LINE
8
Layer 1
10
87.846176
20
21.090456
11
88.893940
21
21.901010
0
LINE
8
Layer 1
10
88.893940
20
21.901010
11
89.929806
21
22.877461
0
LINE
8
Layer 1
10
89.929806
20
22.877461
11
89.929806
21
22.877461
0
LINE
8
Layer 1
10
36.705224
20
21.716348
11
36.591346
21
21.677872
0
LINE
8
Layer 1
10
36.591346
20
21.677872
11
36.556995
21
21.345931
0
LINE
8
Layer 1
10
36.556995
20
21.345931
11
36.613545
21
21.052959
0
LINE
8
Layer 1
10
36.613545
20
21.052959
11
36.727503
21
21.175421
0
LINE
8
Layer 1
10
36.727503
20
21.175421
11
36.705235
21
21.716348
0
LINE
8
Layer 1
10
36.705235
20
21.716348
11
36.705224
21
21.716348
0
LINE
8
Layer 1
10
49.586010
20
21.651671
11
49.614686
21
22.119649
0
LINE
8
Layer 1
10
49.614686
20
22.119649
11
49.512529
21
22.338276
0
LINE
8
Layer 1
10
49.512529
20
22.338276
11
49.331559
21
22.278384
0
LINE
8
Layer 1
10
49.331559
20
22.278384
11
49.123798
21
21.910810
0
LINE
8
Layer 1
10
49.123798
20
21.910810
11
48.963411
21
21.193423
0
LINE
8
Layer 1
10
48.963411
20
21.193423
11
49.032949
21
21.008709
0
LINE
8
Layer 1
10
49.032949
20
21.008709
11
49.201812
21
20.946116
0
LINE
8
Layer 1
10
49.201812
20
20.946116
11
49.417516
21
21.153373
0
LINE
8
Layer 1
10
49.417516
20
21.153373
11
49.586010
21
21.651671
0
LINE
8
Layer 1
10
49.586010
20
21.651671
11
49.586010
21
21.651671
0
LINE
8
Layer 1
10
39.917060
20
21.863338
11
39.859756
21
22.290100
0
LINE
8
Layer 1
10
39.859756
20
22.290100
11
39.639158
21
22.075005
0
LINE
8
Layer 1
10
39.639158
20
22.075005
11
39.417069
21
21.809083
0
LINE
8
Layer 1
10
39.417069
20
21.809083
11
39.361257
21
22.051495
0
LINE
8
Layer 1
10
39.361257
20
22.051495
11
39.306557
21
22.282170
0
LINE
8
Layer 1
10
39.306557
20
22.282170
11
39.180959
21
22.275332
0
LINE
8
Layer 1
10
39.180959
20
22.275332
11
39.097633
21
22.007747
0
LINE
8
Layer 1
10
39.097633
20
22.007747
11
39.181080
21
21.659401
0
LINE
8
Layer 1
10
39.181080
20
21.659401
11
39.376802
21
21.357274
0
LINE
8
Layer 1
10
39.376802
20
21.357274
11
39.630302
21
21.228346
0
LINE
8
Layer 1
10
39.630302
20
21.228346
11
39.834607
21
21.414878
0
LINE
8
Layer 1
10
39.834607
20
21.414878
11
39.917060
21
21.863346
0
LINE
8
Layer 1
10
39.917060
20
21.863346
11
39.917060
21
21.863338
0
LINE
8
Layer 1
10
47.711891
20
21.998570
11
47.598013
21
21.960095
0
LINE
8
Layer 1
10
47.598013
20
21.960095
11
47.563662
21
21.628154
0
LINE
8
Layer 1
10
47.563662
20
21.628154
11
47.620211
21
21.335182
0
LINE
8
Layer 1
10
47.620211
20
21.335182
11
47.734169
21
21.457643
0
LINE
8
Layer 1
10
47.734169
20
21.457643
11
47.711902
21
21.998570
0
LINE
8
Layer 1
10
47.711902
20
21.998570
11
47.711891
21
21.998570
0
LINE
8
Layer 1
10
44.351482
20
21.733998
11
44.537532
21
21.999602
0
LINE
8
Layer 1
10
44.537532
20
21.999602
11
44.426361
21
22.364675
0
LINE
8
Layer 1
10
44.426361
20
22.364675
11
44.223837
21
22.598717
0
LINE
8
Layer 1
10
44.223837
20
22.598717
11
44.159035
21
22.418689
0
LINE
8
Layer 1
10
44.159035
20
22.418689
11
43.969496
21
22.088140
0
LINE
8
Layer 1
10
43.969496
20
22.088140
11
43.519714
21
21.801576
0
LINE
8
Layer 1
10
43.519714
20
21.801576
11
43.072811
21
21.584236
0
LINE
8
Layer 1
10
43.072811
20
21.584236
11
43.449158
21
21.532771
0
LINE
8
Layer 1
10
43.449158
20
21.532771
11
44.351482
21
21.733998
0
LINE
8
Layer 1
10
44.351482
20
21.733998
11
44.351482
21
21.733998
0
LINE
8
Layer 1
10
60.805825
20
22.249031
11
60.745751
21
22.523164
0
LINE
8
Layer 1
10
60.745751
20
22.523164
11
60.579775
21
22.624101
0
LINE
8
Layer 1
10
60.579775
20
22.624101
11
60.015603
21
22.300782
0
LINE
8
Layer 1
10
60.015603
20
22.300782
11
59.700475
21
21.753918
0
LINE
8
Layer 1
10
59.700475
20
21.753918
11
59.866815
21
21.661916
0
LINE
8
Layer 1
10
59.866815
20
21.661916
11
60.241380
21
21.711008
0
LINE
8
Layer 1
10
60.241380
20
21.711008
11
60.640019
21
21.929941
0
LINE
8
Layer 1
10
60.640019
20
21.929941
11
60.805825
21
22.249031
0
LINE
8
Layer 1
10
60.805825
20
22.249031
11
60.805825
21
22.249031
0
LINE
8
Layer 1
10
31.313603
20
22.169938
11
33.006936
21
22.522462
0
LINE
8
Layer 1
10
33.006936
20
22.522462
11
32.371936
21
23.067010
0
LINE
8
Layer 1
10
32.371936
20
23.067010
11
31.913651
21
23.678181
0
LINE
8
Layer 1
10
31.913651
20
23.678181
11
31.736936
21
24.395504
0
LINE
8
Layer 1
10
31.736936
20
24.395504
11
31.654033
21
24.949165
0
LINE
8
Layer 1
10
31.654033
20
24.949165
11
31.454714
21
25.179450
0
LINE
8
Layer 1
10
31.454714
20
25.179450
11
31.209407
21
25.361346
0
LINE
8
Layer 1
10
31.209407
20
25.361346
11
31.191577
21
25.805618
0
LINE
8
Layer 1
10
31.191577
20
25.805618
11
31.375872
21
26.360139
0
LINE
8
Layer 1
10
31.375872
20
26.360139
11
31.736936
21
26.872783
0
LINE
8
Layer 1
10
31.736936
20
26.872783
11
32.052686
21
27.207738
0
LINE
8
Layer 1
10
32.052686
20
27.207738
11
32.095220
21
27.389336
0
LINE
8
Layer 1
10
32.095220
20
27.389336
11
31.129625
21
27.550116
0
LINE
8
Layer 1
10
31.129625
20
27.550116
11
30.674940
21
26.865375
0
LINE
8
Layer 1
10
30.674940
20
26.865375
11
30.038269
21
25.179450
0
LINE
8
Layer 1
10
30.038269
20
25.179450
11
29.063163
21
22.286671
0
LINE
8
Layer 1
10
29.063163
20
22.286671
11
28.983705
21
21.951796
0
LINE
8
Layer 1
10
28.983705
20
21.951796
11
29.225836
21
21.826238
0
LINE
8
Layer 1
10
29.225836
20
21.826238
11
31.313603
21
22.169938
0
LINE
8
Layer 1
10
31.313603
20
22.169938
11
31.313603
21
22.169938
0
LINE
8
Layer 1
10
51.332725
20
25.419271
11
51.827299
21
25.343350
0
LINE
8
Layer 1
10
51.827299
20
25.343350
11
52.249948
21
25.015086
0
LINE
8
Layer 1
10
52.249948
20
25.015086
11
52.562970
21
24.662661
0
LINE
8
Layer 1
10
52.562970
20
24.662661
11
52.621380
21
24.988219
0
LINE
8
Layer 1
10
52.621380
20
24.988219
11
52.952872
21
26.045714
0
LINE
8
Layer 1
10
52.952872
20
26.045714
11
53.609158
21
26.939007
0
LINE
8
Layer 1
10
53.609158
20
26.939007
11
53.728786
21
27.128488
0
LINE
8
Layer 1
10
53.728786
20
27.128488
11
53.386016
21
27.149281
0
LINE
8
Layer 1
10
53.386016
20
27.149281
11
51.726227
21
26.795266
0
LINE
8
Layer 1
10
51.726227
20
26.795266
11
49.455682
21
26.097893
0
LINE
8
Layer 1
10
49.455682
20
26.097893
11
47.400269
21
25.278092
0
LINE
8
Layer 1
10
47.400269
20
25.278092
11
45.296349
21
24.174301
0
LINE
8
Layer 1
10
45.296349
20
24.174301
11
45.166634
21
23.902533
0
LINE
8
Layer 1
10
45.166634
20
23.902533
11
45.402390
21
23.609225
0
LINE
8
Layer 1
10
45.402390
20
23.609225
11
45.853480
21
23.322953
0
LINE
8
Layer 1
10
45.853480
20
23.322953
11
46.368815
21
23.203886
0
LINE
8
Layer 1
10
46.368815
20
23.203886
11
46.806896
21
23.100257
0
LINE
8
Layer 1
10
46.806896
20
23.100257
11
47.072248
21
22.851107
0
LINE
8
Layer 1
10
47.072248
20
22.851107
11
47.188139
21
22.809215
0
LINE
8
Layer 1
10
47.188139
20
22.809215
11
47.266877
21
23.203886
0
LINE
8
Layer 1
10
47.266877
20
23.203886
11
47.359714
21
24.468840
0
LINE
8
Layer 1
10
47.359714
20
24.468840
11
47.522211
21
24.890039
0
LINE
8
Layer 1
10
47.522211
20
24.890039
11
47.855957
21
25.117175
0
LINE
8
Layer 1
10
47.855957
20
25.117175
11
48.081220
21
25.095677
0
LINE
8
Layer 1
10
48.081220
20
25.095677
11
48.260195
21
24.916791
0
LINE
8
Layer 1
10
48.260195
20
24.916791
11
48.535861
21
23.993332
0
LINE
8
Layer 1
10
48.535861
20
23.993332
11
48.756031
21
23.049002
0
LINE
8
Layer 1
10
48.756031
20
23.049002
11
48.953220
21
23.627219
0
LINE
8
Layer 1
10
48.953220
20
23.627219
11
49.448273
21
25.267625
0
LINE
8
Layer 1
10
49.448273
20
25.267625
11
49.697436
21
25.631434
0
LINE
8
Layer 1
10
49.697436
20
25.631434
11
49.973185
21
25.743886
0
LINE
8
Layer 1
10
49.973185
20
25.743886
11
50.159875
21
25.639403
0
LINE
8
Layer 1
10
50.159875
20
25.639403
11
50.288597
21
25.294757
0
LINE
8
Layer 1
10
50.288597
20
25.294757
11
50.412314
21
23.697775
0
LINE
8
Layer 1
10
50.412314
20
23.697775
11
50.461026
21
21.651663
0
LINE
8
Layer 1
10
50.461026
20
21.651663
11
50.623981
21
23.483574
0
LINE
8
Layer 1
10
50.623981
20
23.483574
11
50.859605
21
24.987451
0
LINE
8
Layer 1
10
50.859605
20
24.987451
11
51.050484
21
25.293682
0
LINE
8
Layer 1
10
51.050484
20
25.293682
11
51.332725
21
25.419263
0
LINE
8
Layer 1
10
51.332725
20
25.419263
11
51.332725
21
25.419271
0
LINE
8
Layer 1
10
51.492491
20
26.167228
11
51.616846
21
26.466207
0
LINE
8
Layer 1
10
51.616846
20
26.466207
11
51.915825
21
26.590561
0
LINE
8
Layer 1
10
51.915825
20
26.590561
11
52.214804
21
26.466207
0
LINE
8
Layer 1
10
52.214804
20
26.466207
11
52.339158
21
26.167228
0
LINE
8
Layer 1
10
52.339158
20
26.167228
11
52.214804
21
25.868248
0
LINE
8
Layer 1
10
52.214804
20
25.868248
11
51.915825
21
25.743894
0
LINE
8
Layer 1
10
51.915825
20
25.743894
11
51.616846
21
25.868248
0
LINE
8
Layer 1
10
51.616846
20
25.868248
11
51.492491
21
26.167228
0
LINE
8
Layer 1
10
51.492491
20
26.167228
11
51.492491
21
26.167228
0
LINE
8
Layer 1
10
58.932329
20
22.216116
11
58.975626
21
22.515095
0
LINE
8
Layer 1
10
58.975626
20
22.515095
11
58.851605
21
22.639449
0
LINE
8
Layer 1
10
58.851605
20
22.639449
11
58.445987
21
22.216116
0
LINE
8
Layer 1
10
58.445987
20
22.216116
11
58.402690
21
21.917136
0
LINE
8
Layer 1
10
58.402690
20
21.917136
11
58.526711
21
21.792782
0
LINE
8
Layer 1
10
58.526711
20
21.792782
11
58.932329
21
22.216116
0
LINE
8
Layer 1
10
58.932329
20
22.216116
11
58.932329
21
22.216116
0
LINE
8
Layer 1
10
98.200266
20
22.224244
11
96.923967
21
22.611957
0
LINE
8
Layer 1
10
96.923967
20
22.611957
11
96.703010
21
22.568490
0
LINE
8
Layer 1
10
96.703010
20
22.568490
11
96.648047
21
22.377908
0
LINE
8
Layer 1
10
96.648047
20
22.377908
11
96.772023
21
22.165525
0
LINE
8
Layer 1
10
96.772023
20
22.165525
11
97.131519
21
22.001069
0
LINE
8
Layer 1
10
97.131519
20
22.001069
11
98.482489
21
21.837896
0
LINE
8
Layer 1
10
98.482489
20
21.837896
11
99.039174
21
21.880231
0
LINE
8
Layer 1
10
99.039174
20
21.880231
11
98.200266
21
22.224244
0
LINE
8
Layer 1
10
98.200266
20
22.224244
11
98.200266
21
22.224244
0
LINE
8
Layer 1
10
45.454113
20
22.845223
11
45.340235
21
22.806749
0
LINE
8
Layer 1
10
45.340235
20
22.806749
11
45.305884
21
22.474809
0
LINE
8
Layer 1
10
45.305884
20
22.474809
11
45.362434
21
22.181837
0
LINE
8
Layer 1
10
45.362434
20
22.181837
11
45.476391
21
22.304299
0
LINE
8
Layer 1
10
45.476391
20
22.304299
11
45.454124
21
22.845223
0
LINE
8
Layer 1
10
45.454124
20
22.845223
11
45.454113
21
22.845223
0
LINE
8
Layer 1
10
51.774714
20
22.357215
11
51.691811
21
22.556535
0
LINE
8
Layer 1
10
51.691811
20
22.556535
11
51.492491
21
22.639438
0
LINE
8
Layer 1
10
51.492491
20
22.639438
11
51.293172
21
22.556535
0
LINE
8
Layer 1
10
51.293172
20
22.556535
11
51.210269
21
22.357215
0
LINE
8
Layer 1
10
51.210269
20
22.357215
11
51.293172
21
22.157896
0
LINE
8
Layer 1
10
51.293172
20
22.157896
11
51.492491
21
22.074993
0
LINE
8
Layer 1
10
51.492491
20
22.074993
11
51.691811
21
22.157896
0
LINE
8
Layer 1
10
51.691811
20
22.157896
11
51.774714
21
22.357215
0
LINE
8
Layer 1
10
51.774714
20
22.357215
11
51.774714
21
22.357215
0
LINE
8
Layer 1
10
63.341504
20
22.601798
11
63.155884
21
23.155287
0
LINE
8
Layer 1
10
63.155884
20
23.155287
11
62.770415
21
23.353424
0
LINE
8
Layer 1
10
62.770415
20
23.353424
11
62.389348
21
23.187599
0
LINE
8
Layer 1
10
62.389348
20
23.187599
11
62.216936
21
22.649203
0
LINE
8
Layer 1
10
62.216936
20
22.649203
11
62.343902
21
22.278314
0
LINE
8
Layer 1
10
62.343902
20
22.278314
11
62.781380
21
22.275442
0
LINE
8
Layer 1
10
62.781380
20
22.275442
11
63.341504
21
22.601798
0
LINE
8
Layer 1
10
63.341504
20
22.601798
11
63.341504
21
22.601798
0
LINE
8
Layer 1
10
83.377868
20
23.192639
11
83.785179
21
24.137083
0
LINE
8
Layer 1
10
83.785179
20
24.137083
11
83.914881
21
24.901613
0
LINE
8
Layer 1
10
83.914881
20
24.901613
11
83.765553
21
25.591663
0
LINE
8
Layer 1
10
83.765553
20
25.591663
11
83.335772
21
26.312662
0
LINE
8
Layer 1
10
83.335772
20
26.312662
11
82.690648
21
26.914003
0
LINE
8
Layer 1
10
82.690648
20
26.914003
11
81.720871
21
27.446734
0
LINE
8
Layer 1
10
81.720871
20
27.446734
11
80.471763
21
27.901667
0
LINE
8
Layer 1
10
80.471763
20
27.901667
11
78.988651
21
28.269609
0
LINE
8
Layer 1
10
78.988651
20
28.269609
11
75.501709
21
28.707763
0
LINE
8
Layer 1
10
75.501709
20
28.707763
11
71.622641
21
28.687675
0
LINE
8
Layer 1
10
71.622641
20
28.687675
11
69.451762
21
28.493359
0
LINE
8
Layer 1
10
69.451762
20
28.493359
11
68.936539
21
28.410014
0
LINE
8
Layer 1
10
68.936539
20
28.410014
11
68.919714
21
28.350626
0
LINE
8
Layer 1
10
68.919714
20
28.350626
11
69.378738
21
28.136562
0
LINE
8
Layer 1
10
69.378738
20
28.136562
11
69.554714
21
27.748688
0
LINE
8
Layer 1
10
69.554714
20
27.748688
11
69.624374
21
27.529679
0
LINE
8
Layer 1
10
69.624374
20
27.529679
11
69.810015
21
27.394143
0
LINE
8
Layer 1
10
69.810015
20
27.394143
11
70.389199
21
27.351953
0
LINE
8
Layer 1
10
70.389199
20
27.351953
11
71.012185
21
27.579041
0
LINE
8
Layer 1
10
71.012185
20
27.579041
11
71.398892
21
28.032330
0
LINE
8
Layer 1
10
71.398892
20
28.032330
11
71.637262
21
28.426885
0
LINE
8
Layer 1
10
71.637262
20
28.426885
11
71.959237
21
28.547398
0
LINE
8
Layer 1
10
71.959237
20
28.547398
11
72.282447
21
28.397606
0
LINE
8
Layer 1
10
72.282447
20
28.397606
11
72.524524
21
27.981248
0
LINE
8
Layer 1
10
72.524524
20
27.981248
11
72.772061
21
27.592781
0
LINE
8
Layer 1
10
72.772061
20
27.592781
11
73.131070
21
27.557914
0
LINE
8
Layer 1
10
73.131070
20
27.557914
11
74.093352
21
27.719439
0
LINE
8
Layer 1
10
74.093352
20
27.719439
11
74.475688
21
27.843793
0
LINE
8
Layer 1
10
74.475688
20
27.843793
11
74.634714
21
28.142772
0
LINE
8
Layer 1
10
74.634714
20
28.142772
11
74.751158
21
28.426327
0
LINE
8
Layer 1
10
74.751158
20
28.426327
11
75.027548
21
28.554785
0
LINE
8
Layer 1
10
75.027548
20
28.554785
11
75.354464
21
28.512514
0
LINE
8
Layer 1
10
75.354464
20
28.512514
11
75.622491
21
28.283883
0
LINE
8
Layer 1
10
75.622491
20
28.283883
11
76.072397
21
28.084564
0
LINE
8
Layer 1
10
76.072397
20
28.084564
11
76.909148
21
28.001661
0
LINE
8
Layer 1
10
76.909148
20
28.001661
11
77.765453
21
27.904251
0
LINE
8
Layer 1
10
77.765453
20
27.904251
11
78.021380
21
27.578327
0
LINE
8
Layer 1
10
78.021380
20
27.578327
11
77.842222
21
27.271386
0
LINE
8
Layer 1
10
77.842222
20
27.271386
11
77.369766
21
27.154994
0
LINE
8
Layer 1
10
77.369766
20
27.154994
11
76.633172
21
27.046045
0
LINE
8
Layer 1
10
76.633172
20
27.046045
11
76.151560
21
26.717473
0
LINE
8
Layer 1
10
76.151560
20
26.717473
11
75.922837
21
26.166690
0
LINE
8
Layer 1
10
75.922837
20
26.166690
11
75.944913
21
25.391105
0
LINE
8
Layer 1
10
75.944913
20
25.391105
11
76.172893
21
24.689486
0
LINE
8
Layer 1
10
76.172893
20
24.689486
11
76.489520
21
24.348544
0
LINE
8
Layer 1
10
76.489520
20
24.348544
11
76.771701
21
24.423050
0
LINE
8
Layer 1
10
76.771701
20
24.423050
11
76.896344
21
24.967772
0
LINE
8
Layer 1
10
76.896344
20
24.967772
11
77.109492
21
26.318202
0
LINE
8
Layer 1
10
77.109492
20
26.318202
11
77.335588
21
26.724339
0
LINE
8
Layer 1
10
77.335588
20
26.724339
11
77.611944
21
26.872772
0
LINE
8
Layer 1
10
77.611944
20
26.872772
11
77.934152
21
26.705806
0
LINE
8
Layer 1
10
77.934152
20
26.705806
11
78.159738
21
26.274966
0
LINE
8
Layer 1
10
78.159738
20
26.274966
11
78.255599
21
25.685339
0
LINE
8
Layer 1
10
78.255599
20
25.685339
11
78.188634
21
25.042010
0
LINE
8
Layer 1
10
78.188634
20
25.042010
11
78.133811
21
24.668392
0
LINE
8
Layer 1
10
78.133811
20
24.668392
11
78.301204
21
24.459752
0
LINE
8
Layer 1
10
78.301204
20
24.459752
11
79.857078
21
24.286267
0
LINE
8
Layer 1
10
79.857078
20
24.286267
11
81.072311
21
24.293866
0
LINE
8
Layer 1
10
81.072311
20
24.293866
11
81.657414
21
24.514150
0
LINE
8
Layer 1
10
81.657414
20
24.514150
11
81.659536
21
25.004149
0
LINE
8
Layer 1
10
81.659536
20
25.004149
11
81.125825
21
25.820893
0
LINE
8
Layer 1
10
81.125825
20
25.820893
11
80.586792
21
26.783046
0
LINE
8
Layer 1
10
80.586792
20
26.783046
11
80.618076
21
27.057204
0
LINE
8
Layer 1
10
80.618076
20
27.057204
11
80.857618
21
27.154994
0
LINE
8
Layer 1
10
80.857618
20
27.154994
11
81.392691
21
27.018728
0
LINE
8
Layer 1
10
81.392691
20
27.018728
11
82.036418
21
26.684730
0
LINE
8
Layer 1
10
82.036418
20
26.684730
11
82.607858
21
26.265203
0
LINE
8
Layer 1
10
82.607858
20
26.265203
11
82.926070
21
25.872348
0
LINE
8
Layer 1
10
82.926070
20
25.872348
11
83.069082
21
25.146802
0
LINE
8
Layer 1
10
83.069082
20
25.146802
11
83.091557
21
24.203803
0
LINE
8
Layer 1
10
83.091557
20
24.203803
11
83.002078
21
23.282210
0
LINE
8
Layer 1
10
83.002078
20
23.282210
11
82.809230
21
22.620884
0
LINE
8
Layer 1
10
82.809230
20
22.620884
11
82.662381
21
22.074993
0
LINE
8
Layer 1
10
82.662381
20
22.074993
11
83.377868
21
23.192639
0
LINE
8
Layer 1
10
83.377868
20
23.192639
11
83.377868
21
23.192639
0
LINE
8
Layer 1
10
86.768867
20
24.500697
11
86.624806
21
25.249129
0
LINE
8
Layer 1
10
86.624806
20
25.249129
11
86.276380
21
25.821960
0
LINE
8
Layer 1
10
86.276380
20
25.821960
11
86.005111
21
26.034228
0
LINE
8
Layer 1
10
86.005111
20
26.034228
11
85.868838
21
25.983365
0
LINE
8
Layer 1
10
85.868838
20
25.983365
11
85.877583
21
24.764106
0
LINE
8
Layer 1
10
85.877583
20
24.764106
11
85.850250
21
23.506202
0
LINE
8
Layer 1
10
85.850250
20
23.506202
11
85.650999
21
22.596176
0
LINE
8
Layer 1
10
85.650999
20
22.596176
11
85.538849
21
22.237674
0
LINE
8
Layer 1
10
85.538849
20
22.237674
11
86.048393
21
22.780549
0
LINE
8
Layer 1
10
86.048393
20
22.780549
11
86.570336
21
23.634581
0
LINE
8
Layer 1
10
86.570336
20
23.634581
11
86.768867
21
24.500697
0
LINE
8
Layer 1
10
86.768867
20
24.500697
11
86.768867
21
24.500697
0
LINE
8
Layer 1
10
38.510269
20
22.456213
11
38.208639
21
23.420472
0
LINE
8
Layer 1
10
38.208639
20
23.420472
11
38.061665
21
24.292029
0
LINE
8
Layer 1
10
38.061665
20
24.292029
11
38.370558
21
25.182145
0
LINE
8
Layer 1
10
38.370558
20
25.182145
11
38.742747
21
26.163976
0
LINE
8
Layer 1
10
38.742747
20
26.163976
11
35.288547
21
26.349416
0
LINE
8
Layer 1
10
35.288547
20
26.349416
11
32.690494
21
26.349078
0
LINE
8
Layer 1
10
32.690494
20
26.349078
11
32.057413
21
26.265348
0
LINE
8
Layer 1
10
32.057413
20
26.265348
11
31.816427
21
26.122524
0
LINE
8
Layer 1
10
31.816427
20
26.122524
11
31.826520
21
25.837698
0
LINE
8
Layer 1
10
31.826520
20
25.837698
11
32.004260
21
25.611978
0
LINE
8
Layer 1
10
32.004260
20
25.611978
11
32.214102
21
25.238474
0
LINE
8
Layer 1
10
32.214102
20
25.238474
11
32.301380
21
24.598337
0
LINE
8
Layer 1
10
32.301380
20
24.598337
11
32.407922
21
23.977218
0
LINE
8
Layer 1
10
32.407922
20
23.977218
11
32.724714
21
23.768327
0
LINE
8
Layer 1
10
32.724714
20
23.768327
11
33.023693
21
23.655751
0
LINE
8
Layer 1
10
33.023693
20
23.655751
11
33.148047
21
23.385092
0
LINE
8
Layer 1
10
33.148047
20
23.385092
11
33.471329
21
23.038171
0
LINE
8
Layer 1
10
33.471329
20
23.038171
11
34.333512
21
22.729289
0
LINE
8
Layer 1
10
34.333512
20
22.729289
11
35.573101
21
22.499813
0
LINE
8
Layer 1
10
35.573101
20
22.499813
11
37.028603
21
22.391108
0
LINE
8
Layer 1
10
37.028603
20
22.391108
11
38.510269
21
22.456213
0
LINE
8
Layer 1
10
38.510269
20
22.456213
11
38.510269
21
22.456213
0
LINE
8
Layer 1
10
58.005791
20
23.260773
11
58.075511
21
23.837803
0
LINE
8
Layer 1
10
58.075511
20
23.837803
11
57.405332
21
23.530442
0
LINE
8
Layer 1
10
57.405332
20
23.530442
11
56.846881
21
23.093327
0
LINE
8
Layer 1
10
56.846881
20
23.093327
11
56.916227
21
22.706429
0
LINE
8
Layer 1
10
56.916227
20
22.706429
11
57.235491
21
22.455215
0
LINE
8
Layer 1
10
57.235491
20
22.455215
11
57.536560
21
22.470509
0
LINE
8
Layer 1
10
57.536560
20
22.470509
11
57.799854
21
22.742349
0
LINE
8
Layer 1
10
57.799854
20
22.742349
11
58.005791
21
23.260773
0
LINE
8
Layer 1
10
58.005791
20
23.260773
11
58.005791
21
23.260773
0
LINE
8
Layer 1
10
91.954421
20
23.828127
11
91.736590
21
23.998770
0
LINE
8
Layer 1
10
91.736590
20
23.998770
11
91.159708
21
23.062771
0
LINE
8
Layer 1
10
91.159708
20
23.062771
11
90.639982
21
22.216104
0
LINE
8
Layer 1
10
90.639982
20
22.216104
11
91.377539
21
22.892128
0
LINE
8
Layer 1
10
91.377539
20
22.892128
11
91.851240
21
23.445937
0
LINE
8
Layer 1
10
91.851240
20
23.445937
11
91.954421
21
23.828127
0
LINE
8
Layer 1
10
91.954421
20
23.828127
11
91.954421
21
23.828127
0
LINE
8
Layer 1
10
60.936423
20
23.388078
11
61.220875
21
23.354397
0
LINE
8
Layer 1
10
61.220875
20
23.354397
11
61.360153
21
23.474636
0
LINE
8
Layer 1
10
61.360153
20
23.474636
11
61.330578
21
23.678780
0
LINE
8
Layer 1
10
61.330578
20
23.678780
11
61.108471
21
23.896815
0
LINE
8
Layer 1
10
61.108471
20
23.896815
11
60.726985
21
23.823368
0
LINE
8
Layer 1
10
60.726985
20
23.823368
11
60.177418
21
23.419580
0
LINE
8
Layer 1
10
60.177418
20
23.419580
11
59.850811
21
23.081946
0
LINE
8
Layer 1
10
59.850811
20
23.081946
11
60.005372
21
23.167555
0
LINE
8
Layer 1
10
60.005372
20
23.167555
11
60.483967
21
23.391973
0
LINE
8
Layer 1
10
60.483967
20
23.391973
11
60.936423
21
23.388078
0
LINE
8
Layer 1
10
60.936423
20
23.388078
11
60.936423
21
23.388078
0
LINE
8
Layer 1
10
95.801380
20
23.029853
11
95.236936
21
23.285654
0
LINE
8
Layer 1
10
95.236936
20
23.285654
11
94.838297
21
23.314761
0
LINE
8
Layer 1
10
94.838297
20
23.314761
11
94.672491
21
23.177461
0
LINE
8
Layer 1
10
94.672491
20
23.177461
11
94.838297
21
22.996801
0
LINE
8
Layer 1
10
94.838297
20
22.996801
11
95.236936
21
22.921660
0
LINE
8
Layer 1
10
95.236936
20
22.921660
11
95.801380
21
23.029853
0
LINE
8
Layer 1
10
95.801380
20
23.029853
11
95.801380
21
23.029853
0
LINE
8
Layer 1
10
40.798095
20
24.052031
11
40.994005
21
24.756105
0
LINE
8
Layer 1
10
40.994005
20
24.756105
11
41.050269
21
24.050550
0
LINE
8
Layer 1
10
41.050269
20
24.050550
11
41.106533
21
23.344994
0
LINE
8
Layer 1
10
41.106533
20
23.344994
11
41.332491
21
24.050550
0
LINE
8
Layer 1
10
41.332491
20
24.050550
11
41.507751
21
24.465945
0
LINE
8
Layer 1
10
41.507751
20
24.465945
11
41.611818
21
24.473883
0
LINE
8
Layer 1
10
41.611818
20
24.473883
11
41.762414
21
24.686204
0
LINE
8
Layer 1
10
41.762414
20
24.686204
11
42.049545
21
25.592990
0
LINE
8
Layer 1
10
42.049545
20
25.592990
11
42.352445
21
27.075777
0
LINE
8
Layer 1
10
42.352445
20
27.075777
11
41.166740
21
26.776283
0
LINE
8
Layer 1
10
41.166740
20
26.776283
11
40.535588
21
26.529604
0
LINE
8
Layer 1
10
40.535588
20
26.529604
11
40.190062
21
26.232709
0
LINE
8
Layer 1
10
40.190062
20
26.232709
11
40.020534
21
25.711462
0
LINE
8
Layer 1
10
40.020534
20
25.711462
11
39.917378
21
24.791727
0
LINE
8
Layer 1
10
39.917378
20
24.791727
11
39.880660
21
23.513956
0
LINE
8
Layer 1
10
39.880660
20
23.513956
11
39.985319
21
23.294277
0
LINE
8
Layer 1
10
39.985319
20
23.294277
11
40.187225
21
23.268043
0
LINE
8
Layer 1
10
40.187225
20
23.268043
11
40.537840
21
23.531304
0
LINE
8
Layer 1
10
40.537840
20
23.531304
11
40.798095
21
24.052031
0
LINE
8
Layer 1
10
40.798095
20
24.052031
11
40.798095
21
24.052031
0
LINE
8
Layer 1
10
65.462491
20
24.050620
11
65.707401
21
24.645941
0
LINE
8
Layer 1
10
65.707401
20
24.645941
11
65.681406
21
24.888309
0
LINE
8
Layer 1
10
65.681406
20
24.888309
11
65.300104
21
24.751942
0
LINE
8
Layer 1
10
65.300104
20
24.751942
11
64.906721
21
24.436919
0
LINE
8
Layer 1
10
64.906721
20
24.436919
11
64.599007
21
24.042196
0
LINE
8
Layer 1
10
64.599007
20
24.042196
11
64.474714
21
23.666727
0
LINE
8
Layer 1
10
64.474714
20
23.666727
11
64.562028
21
23.286402
0
LINE
8
Layer 1
10
64.562028
20
23.286402
11
64.789867
21
23.236863
0
LINE
8
Layer 1
10
64.789867
20
23.236863
11
65.107074
21
23.498229
0
LINE
8
Layer 1
10
65.107074
20
23.498229
11
65.462491
21
24.050620
0
LINE
8
Layer 1
10
65.462491
20
24.050620
11
65.462491
21
24.050620
0
LINE
8
Layer 1
10
39.348291
20
24.756176
11
39.296456
21
25.133461
0
LINE
8
Layer 1
10
39.296456
20
25.133461
11
39.074714
21
24.897287
0
LINE
8
Layer 1
10
39.074714
20
24.897287
11
38.801136
21
23.909509
0
LINE
8
Layer 1
10
38.801136
20
23.909509
11
38.852971
21
23.532222
0
LINE
8
Layer 1
10
38.852971
20
23.532222
11
39.074714
21
23.768398
0
LINE
8
Layer 1
10
39.074714
20
23.768398
11
39.348291
21
24.756176
0
LINE
8
Layer 1
10
39.348291
20
24.756176
11
39.348291
21
24.756176
0
LINE
8
Layer 1
10
60.505284
20
24.992805
11
60.645187
21
25.297909
0
LINE
8
Layer 1
10
60.645187
20
25.297909
11
59.870284
21
24.890711
0
LINE
8
Layer 1
10
59.870284
20
24.890711
11
58.921538
21
24.187015
0
LINE
8
Layer 1
10
58.921538
20
24.187015
11
58.855382
21
23.928654
0
LINE
8
Layer 1
10
58.855382
20
23.928654
11
59.019734
21
23.673007
0
LINE
8
Layer 1
10
59.019734
20
23.673007
11
59.200177
21
23.642137
0
LINE
8
Layer 1
10
59.200177
20
23.642137
11
59.489727
21
23.835654
0
LINE
8
Layer 1
10
59.489727
20
23.835654
11
60.505284
21
24.992805
0
LINE
8
Layer 1
10
60.505284
20
24.992805
11
60.505284
21
24.992805
0
LINE
8
Layer 1
10
67.697186
20
23.657479
11
68.063228
21
24.005135
0
LINE
8
Layer 1
10
68.063228
20
24.005135
11
68.154603
21
24.516128
0
LINE
8
Layer 1
10
68.154603
20
24.516128
11
67.987762
21
24.978305
0
LINE
8
Layer 1
10
67.987762
20
24.978305
11
67.579158
21
25.179509
0
LINE
8
Layer 1
10
67.579158
20
25.179509
11
67.132306
21
25.003120
0
LINE
8
Layer 1
10
67.132306
20
25.003120
11
67.014714
21
24.332842
0
LINE
8
Layer 1
10
67.014714
20
24.332842
11
67.106066
21
23.556106
0
LINE
8
Layer 1
10
67.106066
20
23.556106
11
67.697186
21
23.657479
0
LINE
8
Layer 1
10
67.697186
20
23.657479
11
67.697186
21
23.657479
0
LINE
8
Layer 1
10
82.449258
20
24.826731
11
82.358103
21
24.885381
0
LINE
8
Layer 1
10
82.358103
20
24.885381
11
82.320189
21
24.332842
0
LINE
8
Layer 1
10
82.320189
20
24.332842
11
82.358103
21
23.780304
0
LINE
8
Layer 1
10
82.358103
20
23.780304
11
82.449258
21
23.838954
0
LINE
8
Layer 1
10
82.449258
20
23.838954
11
82.449258
21
24.826731
0
LINE
8
Layer 1
10
82.449258
20
24.826731
11
82.449258
21
24.826731
0
LINE
8
Layer 1
10
53.803186
20
24.243409
11
53.262259
21
24.221113
0
LINE
8
Layer 1
10
53.262259
20
24.221113
11
53.300735
21
24.107236
0
LINE
8
Layer 1
10
53.300735
20
24.107236
11
53.632676
21
24.072885
0
LINE
8
Layer 1
10
53.632676
20
24.072885
11
53.925648
21
24.129435
0
LINE
8
Layer 1
10
53.925648
20
24.129435
11
53.803186
21
24.243395
0
LINE
8
Layer 1
10
53.803186
20
24.243395
11
53.803186
21
24.243409
0
LINE
8
Layer 1
10
63.712852
20
24.428990
11
63.789638
21
24.880538
0
LINE
8
Layer 1
10
63.789638
20
24.880538
11
63.662718
21
25.114985
0
LINE
8
Layer 1
10
63.662718
20
25.114985
11
63.421983
21
25.082864
0
LINE
8
Layer 1
10
63.421983
20
25.082864
11
63.157323
21
24.734707
0
LINE
8
Layer 1
10
63.157323
20
24.734707
11
62.975664
21
24.190704
0
LINE
8
Layer 1
10
62.975664
20
24.190704
11
63.201073
21
24.050620
0
LINE
8
Layer 1
10
63.201073
20
24.050620
11
63.502624
21
24.161766
0
LINE
8
Layer 1
10
63.502624
20
24.161766
11
63.712852
21
24.428990
0
LINE
8
Layer 1
10
63.712852
20
24.428990
11
63.712852
21
24.428990
0
LINE
8
Layer 1
10
71.224908
20
24.854050
11
71.357589
21
25.327888
0
LINE
8
Layer 1
10
71.357589
20
25.327888
11
71.178395
21
25.700717
0
LINE
8
Layer 1
10
71.178395
20
25.700717
11
70.776515
21
25.948972
0
LINE
8
Layer 1
10
70.776515
20
25.948972
11
70.336753
21
26.014674
0
LINE
8
Layer 1
10
70.336753
20
26.014674
11
69.982447
21
25.904698
0
LINE
8
Layer 1
10
69.982447
20
25.904698
11
69.836936
21
25.625923
0
LINE
8
Layer 1
10
69.836936
20
25.625923
11
69.665630
21
24.779256
0
LINE
8
Layer 1
10
69.665630
20
24.779256
11
69.644869
21
24.564588
0
LINE
8
Layer 1
10
69.644869
20
24.564588
11
69.751569
21
24.417083
0
LINE
8
Layer 1
10
69.751569
20
24.417083
11
70.215671
21
24.317246
0
LINE
8
Layer 1
10
70.215671
20
24.317246
11
70.794571
21
24.467113
0
LINE
8
Layer 1
10
70.794571
20
24.467113
11
71.224908
21
24.854050
0
LINE
8
Layer 1
10
71.224908
20
24.854050
11
71.224908
21
24.854050
0
LINE
8
Layer 1
10
74.204133
20
25.165494
11
74.520982
21
25.818145
0
LINE
8
Layer 1
10
74.520982
20
25.818145
11
74.566804
21
26.158344
0
LINE
8
Layer 1
10
74.566804
20
26.158344
11
74.291992
21
26.287843
0
LINE
8
Layer 1
10
74.291992
20
26.287843
11
73.646936
21
26.308398
0
LINE
8
Layer 1
10
73.646936
20
26.308398
11
73.095721
21
26.286349
0
LINE
8
Layer 1
10
73.095721
20
26.286349
11
72.800270
21
26.167287
0
LINE
8
Layer 1
10
72.800270
20
26.167287
11
72.681207
21
25.871835
0
LINE
8
Layer 1
10
72.681207
20
25.871835
11
72.659158
21
25.320620
0
LINE
8
Layer 1
10
72.659158
20
25.320620
11
72.769513
21
24.528476
0
LINE
8
Layer 1
10
72.769513
20
24.528476
11
72.940019
21
24.375337
0
LINE
8
Layer 1
10
72.940019
20
24.375337
11
73.216355
21
24.332842
0
LINE
8
Layer 1
10
73.216355
20
24.332842
11
73.738499
21
24.563356
0
LINE
8
Layer 1
10
73.738499
20
24.563356
11
74.204133
21
25.165494
0
LINE
8
Layer 1
10
74.204133
20
25.165494
11
74.204133
21
25.165494
0
LINE
8
Layer 1
10
62.423839
20
24.967842
11
62.844838
21
25.915584
0
LINE
8
Layer 1
10
62.844838
20
25.915584
11
62.853605
21
26.368032
0
LINE
8
Layer 1
10
62.853605
20
26.368032
11
62.180044
21
26.106581
0
LINE
8
Layer 1
10
62.180044
20
26.106581
11
61.598310
21
25.663242
0
LINE
8
Layer 1
10
61.598310
20
25.663242
11
61.370269
21
25.158836
0
LINE
8
Layer 1
10
61.370269
20
25.158836
11
61.475888
21
24.795264
0
LINE
8
Layer 1
10
61.475888
20
24.795264
11
61.739716
21
24.632627
0
LINE
8
Layer 1
10
61.739716
20
24.632627
11
62.082213
21
24.685347
0
LINE
8
Layer 1
10
62.082213
20
24.685347
11
62.423839
21
24.967842
0
LINE
8
Layer 1
10
62.423839
20
24.967842
11
62.423839
21
24.967842
0
LINE
8
Layer 1
10
69.088234
20
26.800633
11
68.877781
21
27.860620
0
LINE
8
Layer 1
10
68.877781
20
27.860620
11
68.712032
21
27.013954
0
LINE
8
Layer 1
10
68.712032
20
27.013954
11
68.666795
21
25.497074
0
LINE
8
Layer 1
10
68.666795
20
25.497074
11
68.812140
21
25.033909
0
LINE
8
Layer 1
10
68.812140
20
25.033909
11
69.043000
21
25.283754
0
LINE
8
Layer 1
10
69.043000
20
25.283754
11
69.161759
21
25.917805
0
LINE
8
Layer 1
10
69.161759
20
25.917805
11
69.088234
21
26.800633
0
LINE
8
Layer 1
10
69.088234
20
26.800633
11
69.088234
21
26.800633
0
LINE
8
Layer 1
10
67.555641
20
25.924765
11
66.937295
21
26.026176
0
LINE
8
Layer 1
10
66.937295
20
26.026176
11
66.364250
21
25.939949
0
LINE
8
Layer 1
10
66.364250
20
25.939949
11
66.019945
21
25.732639
0
LINE
8
Layer 1
10
66.019945
20
25.732639
11
66.143867
21
25.610251
0
LINE
8
Layer 1
10
66.143867
20
25.610251
11
66.601529
21
25.621543
0
LINE
8
Layer 1
10
66.601529
20
25.621543
11
67.555641
21
25.924765
0
LINE
8
Layer 1
10
67.555641
20
25.924765
11
67.555641
21
25.924765
0
LINE
8
Layer 1
10
65.432243
20
26.449509
11
65.815695
21
27.131970
0
LINE
8
Layer 1
10
65.815695
20
27.131970
11
66.572768
21
26.882802
0
LINE
8
Layer 1
10
66.572768
20
26.882802
11
67.206335
21
26.658819
0
LINE
8
Layer 1
10
67.206335
20
26.658819
11
67.703185
21
26.714533
0
LINE
8
Layer 1
10
67.703185
20
26.714533
11
68.027535
21
27.033615
0
LINE
8
Layer 1
10
68.027535
20
27.033615
11
68.143603
21
27.599734
0
LINE
8
Layer 1
10
68.143603
20
27.599734
11
68.047715
21
28.142958
0
LINE
8
Layer 1
10
68.047715
20
28.142958
11
67.709804
21
28.177877
0
LINE
8
Layer 1
10
67.709804
20
28.177877
11
65.804804
21
27.578982
0
LINE
8
Layer 1
10
65.804804
20
27.578982
11
63.895380
21
26.863056
0
LINE
8
Layer 1
10
63.895380
20
26.863056
11
63.706818
21
26.551162
0
LINE
8
Layer 1
10
63.706818
20
26.551162
11
63.902463
21
26.176691
0
LINE
8
Layer 1
10
63.902463
20
26.176691
11
64.285823
21
25.873682
0
LINE
8
Layer 1
10
64.285823
20
25.873682
11
64.694264
21
25.822731
0
LINE
8
Layer 1
10
64.694264
20
25.822731
11
65.089250
21
26.016964
0
LINE
8
Layer 1
10
65.089250
20
26.016964
11
65.432243
21
26.449509
0
LINE
8
Layer 1
10
65.432243
20
26.449509
11
65.432243
21
26.449509
0
LINE
8
Layer 1
10
55.161380
20
26.731731
11
55.030599
21
27.285229
0
LINE
8
Layer 1
10
55.030599
20
27.285229
11
54.526380
21
27.404546
0
LINE
8
Layer 1
10
54.526380
20
27.404546
11
54.137258
21
27.350827
0
LINE
8
Layer 1
10
54.137258
20
27.350827
11
54.385269
21
27.242743
0
LINE
8
Layer 1
10
54.385269
20
27.242743
11
54.734078
21
26.991862
0
LINE
8
Layer 1
10
54.734078
20
26.991862
11
54.879158
21
26.569925
0
LINE
8
Layer 1
10
54.879158
20
26.569925
11
55.020269
21
26.026176
0
LINE
8
Layer 1
10
55.020269
20
26.026176
11
55.161380
21
26.731731
0
LINE
8
Layer 1
10
55.161380
20
26.731731
11
55.161380
21
26.731731
0
LINE
8
Layer 1
10
72.094714
20
26.742851
11
72.021094
21
27.258149
0
LINE
8
Layer 1
10
72.021094
20
27.258149
11
71.699684
21
27.095629
0
LINE
8
Layer 1
10
71.699684
20
27.095629
11
71.467139
21
26.734368
0
LINE
8
Layer 1
10
71.467139
20
26.734368
11
71.593129
21
26.378945
0
LINE
8
Layer 1
10
71.593129
20
26.378945
11
71.999299
21
26.068142
0
LINE
8
Layer 1
10
71.999299
20
26.068142
11
72.094714
21
26.742848
0
LINE
8
Layer 1
10
72.094714
20
26.742848
11
72.094714
21
26.742851
0
LINE
8
Layer 1
10
63.506728
20
27.531479
11
63.878634
21
27.780241
0
LINE
8
Layer 1
10
63.878634
20
27.780241
11
63.648409
21
27.910071
0
LINE
8
Layer 1
10
63.648409
20
27.910071
11
60.382491
21
27.945256
0
LINE
8
Layer 1
10
60.382491
20
27.945256
11
57.861453
21
27.887902
0
LINE
8
Layer 1
10
57.861453
20
27.887902
11
57.304230
21
27.844433
0
LINE
8
Layer 1
10
57.304230
20
27.844433
11
57.348603
21
27.797563
0
LINE
8
Layer 1
10
57.348603
20
27.797563
11
58.015849
21
27.604260
0
LINE
8
Layer 1
10
58.015849
20
27.604260
11
58.265825
21
27.278286
0
LINE
8
Layer 1
10
58.265825
20
27.278286
11
58.348728
21
26.991935
0
LINE
8
Layer 1
10
58.348728
20
26.991935
11
58.548047
21
26.872834
0
LINE
8
Layer 1
10
58.548047
20
26.872834
11
58.747366
21
26.997188
0
LINE
8
Layer 1
10
58.747366
20
26.997188
11
58.830269
21
27.296167
0
LINE
8
Layer 1
10
58.830269
20
27.296167
11
58.954623
21
27.595146
0
LINE
8
Layer 1
10
58.954623
20
27.595146
11
59.253603
21
27.719501
0
LINE
8
Layer 1
10
59.253603
20
27.719501
11
59.552582
21
27.595146
0
LINE
8
Layer 1
10
59.552582
20
27.595146
11
59.676936
21
27.296167
0
LINE
8
Layer 1
10
59.676936
20
27.296167
11
59.841566
21
26.996305
0
LINE
8
Layer 1
10
59.841566
20
26.996305
11
60.241380
21
26.872834
0
LINE
8
Layer 1
10
60.241380
20
26.872834
11
60.640019
21
26.788819
0
LINE
8
Layer 1
10
60.640019
20
26.788819
11
60.805825
21
26.586824
0
LINE
8
Layer 1
10
60.805825
20
26.586824
11
61.011607
21
26.493063
0
LINE
8
Layer 1
10
61.011607
20
26.493063
11
61.579652
21
26.636494
0
LINE
8
Layer 1
10
61.579652
20
26.636494
11
63.506728
21
27.531476
0
LINE
8
Layer 1
10
63.506728
20
27.531476
11
63.506728
21
27.531479
0
LINE
8
Layer 1
10
34.758331
20
29.201167
11
34.710842
21
29.347515
0
LINE
8
Layer 1
10
34.710842
20
29.347515
11
34.671952
21
29.276574
0
LINE
8
Layer 1
10
34.671952
20
29.276574
11
34.636024
21
28.566167
0
LINE
8
Layer 1
10
34.636024
20
28.566167
11
34.671952
21
27.855761
0
LINE
8
Layer 1
10
34.671952
20
27.855761
11
34.710842
21
27.784820
0
LINE
8
Layer 1
10
34.710842
20
27.784820
11
34.758331
21
27.931167
0
LINE
8
Layer 1
10
34.758331
20
27.931167
11
34.758331
21
29.201167
0
LINE
8
Layer 1
10
34.758331
20
29.201167
11
34.758331
21
29.201167
0
LINE
8
Layer 1
10
36.455009
20
29.338398
11
36.408909
21
29.529908
0
LINE
8
Layer 1
10
36.408909
20
29.529908
11
36.370578
21
29.474753
0
LINE
8
Layer 1
10
36.370578
20
29.474753
11
36.333210
21
28.707278
0
LINE
8
Layer 1
10
36.333210
20
28.707278
11
36.366216
21
27.896072
0
LINE
8
Layer 1
10
36.366216
20
27.896072
11
36.404149
21
27.793580
0
LINE
8
Layer 1
10
36.404149
20
27.793580
11
36.451156
21
27.927287
0
LINE
8
Layer 1
10
36.451156
20
27.927287
11
36.454994
21
29.338398
0
LINE
8
Layer 1
10
36.454994
20
29.338398
11
36.455009
21
29.338398
0
LINE
8
Layer 1
10
39.840814
20
29.911775
11
39.795580
21
30.077547
0
LINE
8
Layer 1
10
39.795580
20
30.077547
11
39.758970
21
29.958918
0
LINE
8
Layer 1
10
39.758970
20
29.958918
11
39.726610
21
28.989501
0
LINE
8
Layer 1
10
39.726610
20
28.989501
11
39.762232
21
28.064501
0
LINE
8
Layer 1
10
39.762232
20
28.064501
11
39.799138
21
27.993954
0
LINE
8
Layer 1
10
39.799138
20
27.993954
11
39.843693
21
28.218441
0
LINE
8
Layer 1
10
39.843693
20
28.218441
11
39.840814
21
29.911775
0
LINE
8
Layer 1
10
39.840814
20
29.911775
11
39.840814
21
29.911775
0
LINE
8
Layer 1
10
77.227630
20
27.630067
11
76.686704
21
27.607772
0
LINE
8
Layer 1
10
76.686704
20
27.607772
11
76.725179
21
27.493895
0
LINE
8
Layer 1
10
76.725179
20
27.493895
11
77.057120
21
27.459543
0
LINE
8
Layer 1
10
77.057120
20
27.459543
11
77.350092
21
27.516093
0
LINE
8
Layer 1
10
77.350092
20
27.516093
11
77.227630
21
27.630053
0
LINE
8
Layer 1
10
77.227630
20
27.630053
11
77.227630
21
27.630067
0
LINE
8
Layer 1
10
41.534633
20
29.906723
11
41.488983
21
30.085592
0
LINE
8
Layer 1
10
41.488983
20
30.085592
11
41.451599
21
29.998886
0
LINE
8
Layer 1
10
41.451599
20
29.998886
11
41.417062
21
29.130612
0
LINE
8
Layer 1
10
41.417062
20
29.130612
11
41.451599
21
28.262337
0
LINE
8
Layer 1
10
41.451599
20
28.262337
11
41.488983
21
28.175631
0
LINE
8
Layer 1
10
41.488983
20
28.175631
11
41.534633
21
28.354501
0
LINE
8
Layer 1
10
41.534633
20
28.354501
11
41.534633
21
29.906723
0
LINE
8
Layer 1
10
41.534633
20
29.906723
11
41.534633
21
29.906723
0
LINE
8
Layer 1
10
32.208445
20
28.753176
11
31.725582
21
28.700260
0
LINE
8
Layer 1
10
31.725582
20
28.700260
11
31.552937
21
28.488230
0
LINE
8
Layer 1
10
31.552937
20
28.488230
11
31.777361
21
28.257710
0
LINE
8
Layer 1
10
31.777361
20
28.257710
11
32.047078
21
28.192890
0
LINE
8
Layer 1
10
32.047078
20
28.192890
11
32.250283
21
28.301505
0
LINE
8
Layer 1
10
32.250283
20
28.301505
11
32.324799
21
28.512090
0
LINE
8
Layer 1
10
32.324799
20
28.512090
11
32.208445
21
28.753176
0
LINE
8
Layer 1
10
32.208445
20
28.753176
11
32.208445
21
28.753176
0
LINE
8
Layer 1
10
42.373702
20
29.624501
11
42.282548
21
29.683150
0
LINE
8
Layer 1
10
42.282548
20
29.683150
11
42.244634
21
29.130612
0
LINE
8
Layer 1
10
42.244634
20
29.130612
11
42.282548
21
28.578074
0
LINE
8
Layer 1
10
42.282548
20
28.578074
11
42.373702
21
28.636723
0
LINE
8
Layer 1
10
42.373702
20
28.636723
11
42.373702
21
29.624501
0
LINE
8
Layer 1
10
42.373702
20
29.624501
11
42.373702
21
29.624501
0
LINE
8
Layer 1
10
76.098741
20
29.323401
11
75.557815
21
29.301105
0
LINE
8
Layer 1
10
75.557815
20
29.301105
11
75.596290
21
29.187228
0
LINE
8
Layer 1
10
75.596290
20
29.187228
11
75.928231
21
29.152876
0
LINE
8
Layer 1
10
75.928231
20
29.152876
11
76.221203
21
29.209426
0
LINE
8
Layer 1
10
76.221203
20
29.209426
11
76.098741
21
29.323386
0
LINE
8
Layer 1
10
76.098741
20
29.323386
11
76.098741
21
29.323401
0
LINE
8
Layer 1
10
31.523788
20
30.118390
11
31.280701
21
30.823945
0
LINE
8
Layer 1
10
31.280701
20
30.823945
11
31.172491
21
30.118390
0
LINE
8
Layer 1
10
31.172491
20
30.118390
11
31.243898
21
29.620091
0
LINE
8
Layer 1
10
31.243898
20
29.620091
11
31.415578
21
29.412834
0
LINE
8
Layer 1
10
31.415578
20
29.412834
11
31.547637
21
29.620091
0
LINE
8
Layer 1
10
31.547637
20
29.620091
11
31.523788
21
30.118390
0
LINE
8
Layer 1
10
31.523788
20
30.118390
11
31.523788
21
30.118390
0
LINE
8
Layer 1
10
43.473187
20
35.791211
11
42.854990
21
37.763162
0
LINE
8
Layer 1
10
42.854990
20
37.763162
11
42.009931
21
39.716383
0
LINE
8
Layer 1
10
42.009931
20
39.716383
11
40.970130
21
41.607516
0
LINE
8
Layer 1
10
40.970130
20
41.607516
11
39.767703
21
43.393203
0
LINE
8
Layer 1
10
39.767703
20
43.393203
11
38.434771
21
45.030088
0
LINE
8
Layer 1
10
38.434771
20
45.030088
11
37.003450
21
46.474810
0
LINE
8
Layer 1
10
37.003450
20
46.474810
11
35.505860
21
47.684013
0
LINE
8
Layer 1
10
35.505860
20
47.684013
11
33.974120
21
48.614339
0
LINE
8
Layer 1
10
33.974120
20
48.614339
11
32.895661
21
49.129120
0
LINE
8
Layer 1
10
32.895661
20
49.129120
11
32.036700
21
49.382898
0
LINE
8
Layer 1
10
32.036700
20
49.382898
11
29.373424
21
49.371350
0
LINE
8
Layer 1
10
29.373424
20
49.371350
11
26.893581
21
49.122139
0
LINE
8
Layer 1
10
26.893581
20
49.122139
11
26.316819
21
48.869983
0
LINE
8
Layer 1
10
26.316819
20
48.869983
11
25.841133
21
48.443180
0
LINE
8
Layer 1
10
25.841133
20
48.443180
11
25.104713
21
47.669073
0
LINE
8
Layer 1
10
25.104713
20
47.669073
11
26.131830
21
48.249686
0
LINE
8
Layer 1
10
26.131830
20
48.249686
11
27.503284
21
48.735413
0
LINE
8
Layer 1
10
27.503284
20
48.735413
11
29.565600
21
49.030769
0
LINE
8
Layer 1
10
29.565600
20
49.030769
11
31.848262
21
49.087857
0
LINE
8
Layer 1
10
31.848262
20
49.087857
11
32.635359
21
48.893300
0
LINE
8
Layer 1
10
32.635359
20
48.893300
11
33.572168
21
48.498775
0
LINE
8
Layer 1
10
33.572168
20
48.498775
11
35.138365
21
47.667882
0
LINE
8
Layer 1
10
35.138365
20
47.667882
11
36.499367
21
46.667017
0
LINE
8
Layer 1
10
36.499367
20
46.667017
11
37.789162
21
45.380567
0
LINE
8
Layer 1
10
37.789162
20
45.380567
11
39.141736
21
43.692917
0
LINE
8
Layer 1
10
39.141736
20
43.692917
11
40.703708
21
41.447916
0
LINE
8
Layer 1
10
40.703708
20
41.447916
11
41.623164
21
39.801898
0
LINE
8
Layer 1
10
41.623164
20
39.801898
11
41.884872
21
38.789147
0
LINE
8
Layer 1
10
41.884872
20
38.789147
11
41.764311
21
38.530960
0
LINE
8
Layer 1
10
41.764311
20
38.530960
11
41.473603
21
38.443945
0
LINE
8
Layer 1
10
41.473603
20
38.443945
11
41.179900
21
38.432973
0
LINE
8
Layer 1
10
41.179900
20
38.432973
11
41.094884
21
38.261817
0
LINE
8
Layer 1
10
41.094884
20
38.261817
11
41.614714
21
36.609501
0
LINE
8
Layer 1
10
41.614714
20
36.609501
11
42.179158
21
34.871985
0
LINE
8
Layer 1
10
42.179158
20
34.871985
11
41.614714
21
34.775056
0
LINE
8
Layer 1
10
41.614714
20
34.775056
11
41.327773
21
34.730820
0
LINE
8
Layer 1
10
41.327773
20
34.730820
11
41.155828
21
34.562282
0
LINE
8
Layer 1
10
41.155828
20
34.562282
11
41.050269
21
33.637308
0
LINE
8
Layer 1
10
41.050269
20
33.637308
11
40.942715
21
32.742096
0
LINE
8
Layer 1
10
40.942715
20
32.742096
11
40.619096
21
32.334105
0
LINE
8
Layer 1
10
40.619096
20
32.334105
11
40.225054
21
32.049973
0
LINE
8
Layer 1
10
40.225054
20
32.049973
11
39.883156
21
31.599187
0
LINE
8
Layer 1
10
39.883156
20
31.599187
11
39.744460
21
31.149261
0
LINE
8
Layer 1
10
39.744460
20
31.149261
11
40.325167
21
31.217154
0
LINE
8
Layer 1
10
40.325167
20
31.217154
11
41.109220
21
31.216529
0
LINE
8
Layer 1
10
41.109220
20
31.216529
11
42.011606
21
30.951418
0
LINE
8
Layer 1
10
42.011606
20
30.951418
11
42.805075
21
30.515731
0
LINE
8
Layer 1
10
42.805075
20
30.515731
11
43.262372
21
30.003378
0
LINE
8
Layer 1
10
43.262372
20
30.003378
11
43.353547
21
30.001601
0
LINE
8
Layer 1
10
43.353547
20
30.001601
11
43.465250
21
30.328998
0
LINE
8
Layer 1
10
43.465250
20
30.328998
11
43.693639
21
31.742993
0
LINE
8
Layer 1
10
43.693639
20
31.742993
11
43.795053
21
33.864945
0
LINE
8
Layer 1
10
43.795053
20
33.864945
11
43.473187
21
35.791211
0
LINE
8
Layer 1
10
43.473187
20
35.791211
11
43.473187
21
35.791211
0
LINE
8
Layer 1
10
35.829158
20
30.822367
11
38.354866
21
31.524085
0
LINE
8
Layer 1
10
38.354866
20
31.524085
11
39.226691
21
31.880956
0
LINE
8
Layer 1
10
39.226691
20
31.880956
11
39.899335
21
32.490058
0
LINE
8
Layer 1
10
39.899335
20
32.490058
11
40.332483
21
33.299668
0
LINE
8
Layer 1
10
40.332483
20
33.299668
11
40.485825
21
34.258067
0
LINE
8
Layer 1
10
40.485825
20
34.258067
11
40.580650
21
35.176947
0
LINE
8
Layer 1
10
40.580650
20
35.176947
11
40.742791
21
35.297640
0
LINE
8
Layer 1
10
40.742791
20
35.297640
11
41.020184
21
35.265592
0
LINE
8
Layer 1
10
41.020184
20
35.265592
11
41.310787
21
35.220519
0
LINE
8
Layer 1
10
41.310787
20
35.220519
11
41.403160
21
35.377317
0
LINE
8
Layer 1
10
41.403160
20
35.377317
11
40.979271
21
36.829326
0
LINE
8
Layer 1
10
40.979271
20
36.829326
11
40.560381
21
38.333288
0
LINE
8
Layer 1
10
40.560381
20
38.333288
11
40.634066
21
38.649706
0
LINE
8
Layer 1
10
40.634066
20
38.649706
11
40.887080
21
38.886032
0
LINE
8
Layer 1
10
40.887080
20
38.886032
11
41.140166
21
39.107807
0
LINE
8
Layer 1
10
41.140166
20
39.107807
11
41.215430
21
39.350010
0
LINE
8
Layer 1
10
41.215430
20
39.350010
11
40.808461
21
40.340284
0
LINE
8
Layer 1
10
40.808461
20
40.340284
11
39.779433
21
42.024529
0
LINE
8
Layer 1
10
39.779433
20
42.024529
11
38.377436
21
43.930241
0
LINE
8
Layer 1
10
38.377436
20
43.930241
11
36.941268
21
45.627343
0
LINE
8
Layer 1
10
36.941268
20
45.627343
11
35.809727
21
46.685760
0
LINE
8
Layer 1
10
35.809727
20
46.685760
11
34.188675
21
47.690136
0
LINE
8
Layer 1
10
34.188675
20
47.690136
11
32.760503
21
48.275533
0
LINE
8
Layer 1
10
32.760503
20
48.275533
11
31.282345
21
48.510504
0
LINE
8
Layer 1
10
31.282345
20
48.510504
11
29.511334
21
48.463602
0
LINE
8
Layer 1
10
29.511334
20
48.463602
11
26.838469
21
48.115918
0
LINE
8
Layer 1
10
26.838469
20
48.115918
11
26.723798
21
47.902359
0
LINE
8
Layer 1
10
26.723798
20
47.902359
11
27.030982
21
47.735008
0
LINE
8
Layer 1
10
27.030982
20
47.735008
11
28.386224
21
47.685004
0
LINE
8
Layer 1
10
28.386224
20
47.685004
11
29.110668
21
47.699341
0
LINE
8
Layer 1
10
29.110668
20
47.699341
11
29.466378
21
47.523268
0
LINE
8
Layer 1
10
29.466378
20
47.523268
11
29.431772
21
47.190953
0
LINE
8
Layer 1
10
29.431772
20
47.190953
11
28.985269
21
46.736565
0
LINE
8
Layer 1
10
28.985269
20
46.736565
11
28.777592
21
46.545745
0
LINE
8
Layer 1
10
28.777592
20
46.545745
11
28.827502
21
46.453628
0
LINE
8
Layer 1
10
28.827502
20
46.453628
11
29.902491
21
46.517067
0
LINE
8
Layer 1
10
29.902491
20
46.517067
11
30.857754
21
46.566795
0
LINE
8
Layer 1
10
30.857754
20
46.566795
11
31.008884
21
46.513530
0
LINE
8
Layer 1
10
31.008884
20
46.513530
11
30.937160
21
46.408722
0
LINE
8
Layer 1
10
30.937160
20
46.408722
11
30.727864
21
46.159443
0
LINE
8
Layer 1
10
30.727864
20
46.159443
11
31.030799
21
45.962108
0
LINE
8
Layer 1
10
31.030799
20
45.962108
11
31.794094
21
45.803024
0
LINE
8
Layer 1
10
31.794094
20
45.803024
11
31.965645
21
45.919199
0
LINE
8
Layer 1
10
31.965645
20
45.919199
11
32.019158
21
46.170498
0
LINE
8
Layer 1
10
32.019158
20
46.170498
11
32.158827
21
46.647297
0
LINE
8
Layer 1
10
32.158827
20
46.647297
11
32.555424
21
46.963440
0
LINE
8
Layer 1
10
32.555424
20
46.963440
11
33.175337
21
47.103830
0
LINE
8
Layer 1
10
33.175337
20
47.103830
11
33.984952
21
47.053371
0
LINE
8
Layer 1
10
33.984952
20
47.053371
11
34.876652
21
46.787254
0
LINE
8
Layer 1
10
34.876652
20
46.787254
11
35.066579
21
46.590999
0
LINE
8
Layer 1
10
35.066579
20
46.590999
11
35.123603
21
46.328607
0
LINE
8
Layer 1
10
35.123603
20
46.328607
11
35.358758
21
45.827539
0
LINE
8
Layer 1
10
35.358758
20
45.827539
11
35.942267
21
45.372868
0
LINE
8
Layer 1
10
35.942267
20
45.372868
11
36.920586
21
44.605514
0
LINE
8
Layer 1
10
36.920586
20
44.605514
11
38.123100
21
43.355089
0
LINE
8
Layer 1
10
38.123100
20
43.355089
11
38.908128
21
42.401891
0
LINE
8
Layer 1
10
38.908128
20
42.401891
11
39.317188
21
41.691402
0
LINE
8
Layer 1
10
39.317188
20
41.691402
11
39.479512
21
40.879244
0
LINE
8
Layer 1
10
39.479512
20
40.879244
11
39.524330
21
39.621040
0
LINE
8
Layer 1
10
39.524330
20
39.621040
11
39.639292
21
38.030410
0
LINE
8
Layer 1
10
39.639292
20
38.030410
11
39.883498
21
37.374718
0
LINE
8
Layer 1
10
39.883498
20
37.374718
11
40.109572
21
37.127025
0
LINE
8
Layer 1
10
40.109572
20
37.127025
11
40.203603
21
36.681340
0
LINE
8
Layer 1
10
40.203603
20
36.681340
11
40.052817
21
35.701136
0
LINE
8
Layer 1
10
40.052817
20
35.701136
11
39.694627
21
34.510186
0
LINE
8
Layer 1
10
39.694627
20
34.510186
11
39.270280
21
33.504908
0
LINE
8
Layer 1
10
39.270280
20
33.504908
11
38.921024
21
33.081723
0
LINE
8
Layer 1
10
38.921024
20
33.081723
11
38.575135
21
33.562618
0
LINE
8
Layer 1
10
38.575135
20
33.562618
11
38.273513
21
34.666246
0
LINE
8
Layer 1
10
38.273513
20
34.666246
11
38.116614
21
35.884018
0
LINE
8
Layer 1
10
38.116614
20
35.884018
11
38.204894
21
36.707347
0
LINE
8
Layer 1
10
38.204894
20
36.707347
11
38.263720
21
37.304037
0
LINE
8
Layer 1
10
38.263720
20
37.304037
11
37.930336
21
38.162680
0
LINE
8
Layer 1
10
37.930336
20
38.162680
11
37.405039
21
39.149501
0
LINE
8
Layer 1
10
37.405039
20
39.149501
11
37.393214
21
38.112819
0
LINE
8
Layer 1
10
37.393214
20
38.112819
11
37.197310
21
37.196952
0
LINE
8
Layer 1
10
37.197310
20
37.196952
11
36.718799
21
36.298276
0
LINE
8
Layer 1
10
36.718799
20
36.298276
11
36.092016
21
35.609704
0
LINE
8
Layer 1
10
36.092016
20
35.609704
11
35.451296
21
35.324151
0
LINE
8
Layer 1
10
35.451296
20
35.324151
11
35.369480
21
35.279890
0
LINE
8
Layer 1
10
35.369480
20
35.279890
11
35.493267
21
35.170719
0
LINE
8
Layer 1
10
35.493267
20
35.170719
11
36.252494
21
34.823378
0
LINE
8
Layer 1
10
36.252494
20
34.823378
11
37.254561
21
34.301960
0
LINE
8
Layer 1
10
37.254561
20
34.301960
11
37.614713
21
33.694303
0
LINE
8
Layer 1
10
37.614713
20
33.694303
11
37.583968
21
33.144837
0
LINE
8
Layer 1
10
37.583968
20
33.144837
11
37.380170
21
32.679914
0
LINE
8
Layer 1
10
37.380170
20
32.679914
11
37.075303
21
32.404329
0
LINE
8
Layer 1
10
37.075303
20
32.404329
11
36.741354
21
32.422878
0
LINE
8
Layer 1
10
36.741354
20
32.422878
11
36.587202
21
32.461100
0
LINE
8
Layer 1
10
36.587202
20
32.461100
11
36.650354
21
32.276275
0
LINE
8
Layer 1
10
36.650354
20
32.276275
11
36.592255
21
31.984154
0
LINE
8
Layer 1
10
36.592255
20
31.984154
11
36.215804
21
31.710685
0
LINE
8
Layer 1
10
36.215804
20
31.710685
11
35.716955
21
31.552503
0
LINE
8
Layer 1
10
35.716955
20
31.552503
11
35.291666
21
31.606242
0
LINE
8
Layer 1
10
35.291666
20
31.606242
11
35.170533
21
31.617587
0
LINE
8
Layer 1
10
35.170533
20
31.617587
11
35.237767
21
31.431993
0
LINE
8
Layer 1
10
35.237767
20
31.431993
11
35.228844
21
31.282594
0
LINE
8
Layer 1
10
35.228844
20
31.282594
11
34.970487
21
31.181535
0
LINE
8
Layer 1
10
34.970487
20
31.181535
11
33.614459
21
31.106167
0
LINE
8
Layer 1
10
33.614459
20
31.106167
11
32.090161
21
31.019313
0
LINE
8
Layer 1
10
32.090161
20
31.019313
11
31.904413
21
30.847933
0
LINE
8
Layer 1
10
31.904413
20
30.847933
11
31.939032
21
30.535418
0
LINE
8
Layer 1
10
31.939032
20
30.535418
11
32.210309
21
30.177050
0
LINE
8
Layer 1
10
32.210309
20
30.177050
11
32.857180
21
30.098639
0
LINE
8
Layer 1
10
32.857180
20
30.098639
11
35.829158
21
30.822367
0
LINE
8
Layer 1
10
35.829158
20
30.822367
11
35.829158
21
30.822367
0
LINE
8
Layer 1
10
30.992572
20
32.340048
11
30.823450
21
33.573930
0
LINE
8
Layer 1
10
30.823450
20
33.573930
11
33.467415
21
33.707280
0
LINE
8
Layer 1
10
33.467415
20
33.707280
11
36.226282
21
33.726374
0
LINE
8
Layer 1
10
36.226282
20
33.726374
11
36.710459
21
33.524112
0
LINE
8
Layer 1
10
36.710459
20
33.524112
11
36.909242
21
33.128247
0
LINE
8
Layer 1
10
36.909242
20
33.128247
11
37.012263
21
32.912571
0
LINE
8
Layer 1
10
37.012263
20
32.912571
11
37.066420
21
33.276733
0
LINE
8
Layer 1
10
37.066420
20
33.276733
11
37.042591
21
33.729093
0
LINE
8
Layer 1
10
37.042591
20
33.729093
11
36.807856
21
34.032732
0
LINE
8
Layer 1
10
36.807856
20
34.032732
11
35.083070
21
34.613470
0
LINE
8
Layer 1
10
35.083070
20
34.613470
11
34.122488
21
34.930662
0
LINE
8
Layer 1
10
34.122488
20
34.930662
11
34.060770
21
35.021130
0
LINE
8
Layer 1
10
34.060770
20
35.021130
11
34.276936
21
35.066834
0
LINE
8
Layer 1
10
34.276936
20
35.066834
11
34.982491
21
35.113542
0
LINE
8
Layer 1
10
34.982491
20
35.113542
11
34.276936
21
35.320490
0
LINE
8
Layer 1
10
34.276936
20
35.320490
11
33.880060
21
35.528471
0
LINE
8
Layer 1
10
33.880060
20
35.528471
11
34.772380
21
35.740761
0
LINE
8
Layer 1
10
34.772380
20
35.740761
11
35.697641
21
36.027144
0
LINE
8
Layer 1
10
35.697641
20
36.027144
11
36.333146
21
36.520335
0
LINE
8
Layer 1
10
36.333146
20
36.520335
11
36.699407
21
37.245276
0
LINE
8
Layer 1
10
36.699407
20
37.245276
11
36.816936
21
38.226911
0
LINE
8
Layer 1
10
36.816936
20
38.226911
11
36.732510
21
39.081412
0
LINE
8
Layer 1
10
36.732510
20
39.081412
11
36.564625
21
39.110741
0
LINE
8
Layer 1
10
36.564625
20
39.110741
11
36.257532
21
38.946038
0
LINE
8
Layer 1
10
36.257532
20
38.946038
11
35.782382
21
38.469617
0
LINE
8
Layer 1
10
35.782382
20
38.469617
11
35.425547
21
37.814759
0
LINE
8
Layer 1
10
35.425547
20
37.814759
11
35.134234
21
37.262524
0
LINE
8
Layer 1
10
35.134234
20
37.262524
11
34.816618
21
37.032834
0
LINE
8
Layer 1
10
34.816618
20
37.032834
11
34.479380
21
36.896494
0
LINE
8
Layer 1
10
34.479380
20
36.896494
11
34.140891
21
36.568700
0
LINE
8
Layer 1
10
34.140891
20
36.568700
11
33.770623
21
36.351426
0
LINE
8
Layer 1
10
33.770623
20
36.351426
11
33.065554
21
36.172424
0
LINE
8
Layer 1
10
33.065554
20
36.172424
11
31.025820
21
35.949488
0
LINE
8
Layer 1
10
31.025820
20
35.949488
11
28.771301
21
35.940395
0
LINE
8
Layer 1
10
28.771301
20
35.940395
11
27.051609
21
36.185648
0
LINE
8
Layer 1
10
27.051609
20
36.185648
11
23.979802
21
37.520062
0
LINE
8
Layer 1
10
23.979802
20
37.520062
11
21.514037
21
38.928645
0
LINE
8
Layer 1
10
21.514037
20
38.928645
11
20.936221
21
39.213339
0
LINE
8
Layer 1
10
20.936221
20
39.213339
11
20.173481
21
39.193364
0
LINE
8
Layer 1
10
20.173481
20
39.193364
11
19.498323
21
39.151445
0
LINE
8
Layer 1
10
19.498323
20
39.151445
11
19.319158
21
39.466487
0
LINE
8
Layer 1
10
19.319158
20
39.466487
11
19.255302
21
39.688109
0
LINE
8
Layer 1
10
19.255302
20
39.688109
11
19.001886
21
39.792596
0
LINE
8
Layer 1
10
19.001886
20
39.792596
11
17.555269
21
39.699103
0
LINE
8
Layer 1
10
17.555269
20
39.699103
11
12.545824
21
39.292108
0
LINE
8
Layer 1
10
12.545824
20
39.292108
11
9.300269
21
39.096482
0
LINE
8
Layer 1
10
9.300269
20
39.096482
11
14.124832
21
39.052436
0
LINE
8
Layer 1
10
14.124832
20
39.052436
11
18.949399
21
39.008390
0
LINE
8
Layer 1
10
18.949399
20
39.008390
11
24.633690
21
36.161445
0
LINE
8
Layer 1
10
24.633690
20
36.161445
11
29.612319
21
33.544222
0
LINE
8
Layer 1
10
29.612319
20
33.544222
11
30.356738
21
32.891973
0
LINE
8
Layer 1
10
30.356738
20
32.891973
11
30.648797
21
32.210334
0
LINE
8
Layer 1
10
30.648797
20
32.210334
11
31.061496
21
31.160501
0
LINE
8
Layer 1
10
31.061496
20
31.160501
11
30.992572
21
32.340048
0
LINE
8
Layer 1
10
30.992572
20
32.340048
11
30.992572
21
32.340048
0
LINE
8
Layer 1
10
31.902995
20
33.009736
11
31.705670
21
33.110321
0
LINE
8
Layer 1
10
31.705670
20
33.110321
11
31.583474
21
32.995005
0
LINE
8
Layer 1
10
31.583474
20
32.995005
11
31.651400
21
32.346003
0
LINE
8
Layer 1
10
31.651400
20
32.346003
11
31.846190
21
31.961948
0
LINE
8
Layer 1
10
31.846190
20
31.961948
11
31.965211
21
32.327687
0
LINE
8
Layer 1
10
31.965211
20
32.327687
11
31.902995
21
33.009725
0
LINE
8
Layer 1
10
31.902995
20
33.009725
11
31.902995
21
33.009736
0
LINE
8
Layer 1
10
32.488291
20
32.870056
11
32.387756
21
32.911949
0
LINE
8
Layer 1
10
32.387756
20
32.911949
11
32.345940
21
32.517278
0
LINE
8
Layer 1
10
32.345940
20
32.517278
11
32.387756
21
32.122608
0
LINE
8
Layer 1
10
32.387756
20
32.122608
11
32.488291
21
32.164501
0
LINE
8
Layer 1
10
32.488291
20
32.164501
11
32.488291
21
32.870056
0
LINE
8
Layer 1
10
32.488291
20
32.870056
11
32.488291
21
32.870056
0
LINE
8
Layer 1
10
33.052735
20
32.870056
11
32.952201
21
32.911949
0
LINE
8
Layer 1
10
32.952201
20
32.911949
11
32.910385
21
32.517278
0
LINE
8
Layer 1
10
32.910385
20
32.517278
11
32.952201
21
32.122608
0
LINE
8
Layer 1
10
32.952201
20
32.122608
11
33.052735
21
32.164501
0
LINE
8
Layer 1
10
33.052735
20
32.164501
11
33.052735
21
32.870056
0
LINE
8
Layer 1
10
33.052735
20
32.870056
11
33.052735
21
32.870056
0
LINE
8
Layer 1
10
39.531030
20
36.670590
11
39.276516
21
36.748679
0
LINE
8
Layer 1
10
39.276516
20
36.748679
11
39.041149
21
36.535703
0
LINE
8
Layer 1
10
39.041149
20
36.535703
11
38.871843
21
36.106151
0
LINE
8
Layer 1
10
38.871843
20
36.106151
11
38.815512
21
35.534511
0
LINE
8
Layer 1
10
38.815512
20
35.534511
11
38.838542
21
34.633945
0
LINE
8
Layer 1
10
38.838542
20
34.633945
11
39.253058
21
35.583998
0
LINE
8
Layer 1
10
39.253058
20
35.583998
11
39.531036
21
36.670590
0
LINE
8
Layer 1
10
39.531036
20
36.670590
11
39.531030
21
36.670590
0
LINE
8
Layer 1
10
33.750862
20
37.111419
11
34.063125
21
37.454557
0
LINE
8
Layer 1
10
34.063125
20
37.454557
11
34.432071
21
37.597278
0
LINE
8
Layer 1
10
34.432071
20
37.597278
11
34.721146
21
37.744781
0
LINE
8
Layer 1
10
34.721146
20
37.744781
11
34.841380
21
38.099419
0
LINE
8
Layer 1
10
34.841380
20
38.099419
11
35.007186
21
38.573562
0
LINE
8
Layer 1
10
35.007186
20
38.573562
11
35.405825
21
39.008390
0
LINE
8
Layer 1
10
35.405825
20
39.008390
11
35.804464
21
39.383339
0
LINE
8
Layer 1
10
35.804464
20
39.383339
11
35.970269
21
39.713525
0
LINE
8
Layer 1
10
35.970269
20
39.713525
11
36.565174
21
40.521208
0
LINE
8
Layer 1
10
36.565174
20
40.521208
11
37.160079
21
41.030582
0
LINE
8
Layer 1
10
37.160079
20
41.030582
11
36.371262
21
41.853929
0
LINE
8
Layer 1
10
36.371262
20
41.853929
11
35.701960
21
42.435420
0
LINE
8
Layer 1
10
35.701960
20
42.435420
11
35.200486
21
42.677278
0
LINE
8
Layer 1
10
35.200486
20
42.677278
11
34.053842
21
43.236581
0
LINE
8
Layer 1
10
34.053842
20
43.236581
11
32.955372
21
43.795889
0
LINE
8
Layer 1
10
32.955372
20
43.795889
11
31.857886
21
43.906611
0
LINE
8
Layer 1
10
31.857886
20
43.906611
11
30.833969
21
43.576261
0
LINE
8
Layer 1
10
30.833969
20
43.576261
11
29.956204
21
42.812353
0
LINE
8
Layer 1
10
29.956204
20
42.812353
11
29.163250
21
41.818555
0
LINE
8
Layer 1
10
29.163250
20
41.818555
11
30.308982
21
42.001763
0
LINE
8
Layer 1
10
30.308982
20
42.001763
11
31.236333
21
42.062488
0
LINE
8
Layer 1
10
31.236333
20
42.062488
11
31.408625
21
41.949886
0
LINE
8
Layer 1
10
31.408625
20
41.949886
11
31.454714
21
41.725569
0
LINE
8
Layer 1
10
31.454714
20
41.725569
11
31.371811
21
41.401116
0
LINE
8
Layer 1
10
31.371811
20
41.401116
11
31.172491
21
41.266167
0
LINE
8
Layer 1
10
31.172491
20
41.266167
11
30.973172
21
41.106948
0
LINE
8
Layer 1
10
30.973172
20
41.106948
11
30.890269
21
40.724145
0
LINE
8
Layer 1
10
30.890269
20
40.724145
11
31.095243
21
40.268326
0
LINE
8
Layer 1
10
31.095243
20
40.268326
11
31.736936
21
39.996167
0
LINE
8
Layer 1
10
31.736936
20
39.996167
11
32.347609
21
39.739289
0
LINE
8
Layer 1
10
32.347609
20
39.739289
11
32.583603
21
39.369815
0
LINE
8
Layer 1
10
32.583603
20
39.369815
11
32.522020
21
39.153341
0
LINE
8
Layer 1
10
32.522020
20
39.153341
11
32.290031
21
39.043013
0
LINE
8
Layer 1
10
32.290031
20
39.043013
11
31.031380
21
39.089624
0
LINE
8
Layer 1
10
31.031380
20
39.089624
11
29.924821
21
39.128655
0
LINE
8
Layer 1
10
29.924821
20
39.128655
11
29.479158
21
38.987996
0
LINE
8
Layer 1
10
29.479158
20
38.987996
11
29.180528
21
38.770177
0
LINE
8
Layer 1
10
29.180528
20
38.770177
11
28.495822
21
38.735313
0
LINE
8
Layer 1
10
28.495822
20
38.735313
11
27.741820
21
38.862973
0
LINE
8
Layer 1
10
27.741820
20
38.862973
11
27.235302
21
39.132723
0
LINE
8
Layer 1
10
27.235302
20
39.132723
11
26.871759
21
39.371794
0
LINE
8
Layer 1
10
26.871759
20
39.371794
11
26.471527
21
39.375671
0
LINE
8
Layer 1
10
26.471527
20
39.375671
11
26.201970
21
39.197408
0
LINE
8
Layer 1
10
26.201970
20
39.197408
11
26.421604
21
38.973433
0
LINE
8
Layer 1
10
26.421604
20
38.973433
11
26.502525
21
38.856309
0
LINE
8
Layer 1
10
26.502525
20
38.856309
11
26.345687
21
38.778157
0
LINE
8
Layer 1
10
26.345687
20
38.778157
11
25.515174
21
38.733727
0
LINE
8
Layer 1
10
25.515174
20
38.733727
11
23.161901
21
39.057078
0
LINE
8
Layer 1
10
23.161901
20
39.057078
11
21.554710
21
39.762634
0
LINE
8
Layer 1
10
21.554710
20
39.762634
11
21.054904
21
40.039977
0
LINE
8
Layer 1
10
21.054904
20
40.039977
11
20.520626
21
40.123176
0
LINE
8
Layer 1
10
20.520626
20
40.123176
11
20.060494
21
40.014965
0
LINE
8
Layer 1
10
20.060494
20
40.014965
11
19.783125
21
39.718074
0
LINE
8
Layer 1
10
19.783125
20
39.718074
11
19.755522
21
39.441427
0
LINE
8
Layer 1
10
19.755522
20
39.441427
11
20.177240
21
39.645458
0
LINE
8
Layer 1
10
20.177240
20
39.645458
11
20.719592
21
39.850798
0
LINE
8
Layer 1
10
20.719592
20
39.850798
11
21.225131
21
39.644329
0
LINE
8
Layer 1
10
21.225131
20
39.644329
11
23.202136
21
38.476046
0
LINE
8
Layer 1
10
23.202136
20
38.476046
11
25.810269
21
37.238577
0
LINE
8
Layer 1
10
25.810269
20
37.238577
11
26.885297
21
36.815313
0
LINE
8
Layer 1
10
26.885297
20
36.815313
11
27.814755
21
36.590196
0
LINE
8
Layer 1
10
27.814755
20
36.590196
11
30.561836
21
36.539473
0
LINE
8
Layer 1
10
30.561836
20
36.539473
11
32.975379
21
36.701703
0
LINE
8
Layer 1
10
32.975379
20
36.701703
11
33.496572
21
36.862852
0
LINE
8
Layer 1
10
33.496572
20
36.862852
11
33.750862
21
37.111464
0
LINE
8
Layer 1
10
33.750862
20
37.111464
11
33.750862
21
37.111419
0
LINE
8
Layer 1
10
38.771875
20
39.392672
11
38.674802
21
41.021842
0
LINE
8
Layer 1
10
38.674802
20
41.021842
11
38.437128
21
41.621884
0
LINE
8
Layer 1
10
38.437128
20
41.621884
11
37.642176
21
42.702870
0
LINE
8
Layer 1
10
37.642176
20
42.702870
11
36.669000
21
43.718781
0
LINE
8
Layer 1
10
36.669000
20
43.718781
11
36.391588
21
43.850484
0
LINE
8
Layer 1
10
36.391588
20
43.850484
11
36.221128
21
43.755421
0
LINE
8
Layer 1
10
36.221128
20
43.755421
11
36.305440
21
43.216046
0
LINE
8
Layer 1
10
36.305440
20
43.216046
11
37.006691
21
42.345241
0
LINE
8
Layer 1
10
37.006691
20
42.345241
11
37.714032
21
41.458799
0
LINE
8
Layer 1
10
37.714032
20
41.458799
11
37.849116
21
40.856776
0
LINE
8
Layer 1
10
37.849116
20
40.856776
11
37.934162
21
40.217982
0
LINE
8
Layer 1
10
37.934162
20
40.217982
11
38.275639
21
39.190124
0
LINE
8
Layer 1
10
38.275639
20
39.190124
11
38.682460
21
38.270515
0
LINE
8
Layer 1
10
38.682460
20
38.270515
11
38.963535
21
37.956468
0
LINE
8
Layer 1
10
38.963535
20
37.956468
11
38.771875
21
39.392672
0
LINE
8
Layer 1
10
38.771875
20
39.392672
11
38.771875
21
39.392672
0
LINE
8
Layer 1
10
24.116935
20
39.778368
11
22.244906
21
40.701795
0
LINE
8
Layer 1
10
22.244906
20
40.701795
11
21.772017
21
41.101839
0
LINE
8
Layer 1
10
21.772017
20
41.101839
11
21.744467
21
41.224007
0
LINE
8
Layer 1
10
21.744467
20
41.224007
11
21.891653
21
41.270488
0
LINE
8
Layer 1
10
21.891653
20
41.270488
11
22.118539
21
41.329031
0
LINE
8
Layer 1
10
22.118539
20
41.329031
11
21.859158
21
41.548390
0
LINE
8
Layer 1
10
21.859158
20
41.548390
11
21.723504
21
41.764011
0
LINE
8
Layer 1
10
21.723504
20
41.764011
11
22.348994
21
41.826288
0
LINE
8
Layer 1
10
22.348994
20
41.826288
11
23.621678
21
41.938201
0
LINE
8
Layer 1
10
23.621678
20
41.938201
11
24.732613
21
42.228915
0
LINE
8
Layer 1
10
24.732613
20
42.228915
11
25.549193
21
42.649497
0
LINE
8
Layer 1
10
25.549193
20
42.649497
11
25.938810
21
43.151014
0
LINE
8
Layer 1
10
25.938810
20
43.151014
11
26.254057
21
43.739967
0
LINE
8
Layer 1
10
26.254057
20
43.739967
11
26.783600
21
44.245988
0
LINE
8
Layer 1
10
26.783600
20
44.245988
11
27.442915
21
44.499869
0
LINE
8
Layer 1
10
27.442915
20
44.499869
11
28.038273
21
44.389349
0
LINE
8
Layer 1
10
28.038273
20
44.389349
11
28.526588
21
43.936814
0
LINE
8
Layer 1
10
28.526588
20
43.936814
11
28.864774
21
43.164651
0
LINE
8
Layer 1
10
28.864774
20
43.164651
11
29.109822
21
42.253945
0
LINE
8
Layer 1
10
29.109822
20
42.253945
11
29.745700
21
43.312278
0
LINE
8
Layer 1
10
29.745700
20
43.312278
11
30.421863
21
44.156976
0
LINE
8
Layer 1
10
30.421863
20
44.156976
11
31.217023
21
44.370612
0
LINE
8
Layer 1
10
31.217023
20
44.370612
11
31.767426
21
44.450271
0
LINE
8
Layer 1
10
31.767426
20
44.450271
11
31.878047
21
44.652834
0
LINE
8
Layer 1
10
31.878047
20
44.652834
11
31.842656
21
44.852153
0
LINE
8
Layer 1
10
31.842656
20
44.852153
11
32.002501
21
44.935056
0
LINE
8
Layer 1
10
32.002501
20
44.935056
11
32.213585
21
45.007775
0
LINE
8
Layer 1
10
32.213585
20
45.007775
11
32.301380
21
45.182610
0
LINE
8
Layer 1
10
32.301380
20
45.182610
11
31.907592
21
45.325146
0
LINE
8
Layer 1
10
31.907592
20
45.325146
11
30.960825
21
45.320208
0
LINE
8
Layer 1
10
30.960825
20
45.320208
11
30.045815
21
45.294211
0
LINE
8
Layer 1
10
30.045815
20
45.294211
11
29.991272
21
45.357632
0
LINE
8
Layer 1
10
29.991272
20
45.357632
11
30.184714
21
45.476150
0
LINE
8
Layer 1
10
30.184714
20
45.476150
11
30.567502
21
45.704218
0
LINE
8
Layer 1
10
30.567502
20
45.704218
11
30.255269
21
45.787542
0
LINE
8
Layer 1
10
30.255269
20
45.787542
11
27.783372
21
45.807382
0
LINE
8
Layer 1
10
27.783372
20
45.807382
11
25.810269
21
44.229506
0
LINE
8
Layer 1
10
25.810269
20
44.229506
11
24.810746
21
43.338130
0
LINE
8
Layer 1
10
24.810746
20
43.338130
11
24.111834
21
42.877136
0
LINE
8
Layer 1
10
24.111834
20
42.877136
11
23.398447
21
42.705352
0
LINE
8
Layer 1
10
23.398447
20
42.705352
11
22.355496
21
42.681605
0
LINE
8
Layer 1
10
22.355496
20
42.681605
11
21.066841
21
42.750587
0
LINE
8
Layer 1
10
21.066841
20
42.750587
11
20.901417
21
42.844092
0
LINE
8
Layer 1
10
20.901417
20
42.844092
11
21.012491
21
42.986653
0
LINE
8
Layer 1
10
21.012491
20
42.986653
11
21.158908
21
43.177392
0
LINE
8
Layer 1
10
21.158908
20
43.177392
11
20.589158
21
43.083667
0
LINE
8
Layer 1
10
20.589158
20
43.083667
11
18.754713
21
42.669960
0
LINE
8
Layer 1
10
18.754713
20
42.669960
11
18.083115
21
42.492399
0
LINE
8
Layer 1
10
18.083115
20
42.492399
11
18.510128
21
42.427515
0
LINE
8
Layer 1
10
18.510128
20
42.427515
11
19.102574
21
42.260409
0
LINE
8
Layer 1
10
19.102574
20
42.260409
11
19.400929
21
41.830617
0
LINE
8
Layer 1
10
19.400929
20
41.830617
11
19.674793
21
41.418260
0
LINE
8
Layer 1
10
19.674793
20
41.418260
11
20.164718
21
41.266173
0
LINE
8
Layer 1
10
20.164718
20
41.266173
11
20.747043
21
41.084457
0
LINE
8
Layer 1
10
20.747043
20
41.084457
11
21.281818
21
40.647567
0
LINE
8
Layer 1
10
21.281818
20
40.647567
11
21.866343
21
40.171526
0
LINE
8
Layer 1
10
21.866343
20
40.171526
11
22.729599
21
39.756244
0
LINE
8
Layer 1
10
22.729599
20
39.756244
11
23.718856
21
39.460354
0
LINE
8
Layer 1
10
23.718856
20
39.460354
11
24.681380
21
39.342490
0
LINE
8
Layer 1
10
24.681380
20
39.342490
11
24.932763
21
39.363955
0
LINE
8
Layer 1
10
24.932763
20
39.363955
11
24.927390
21
39.439970
0
LINE
8
Layer 1
10
24.927390
20
39.439970
11
24.116935
21
39.778374
0
LINE
8
Layer 1
10
24.116935
20
39.778374
11
24.116935
21
39.778368
0
LINE
8
Layer 1
10
28.764205
20
39.855056
11
29.068823
21
40.029032
0
LINE
8
Layer 1
10
29.068823
20
40.029032
11
29.285983
21
40.447316
0
LINE
8
Layer 1
10
29.285983
20
40.447316
11
29.342644
21
40.764788
0
LINE
8
Layer 1
10
29.342644
20
40.764788
11
29.256580
21
40.917928
0
LINE
8
Layer 1
10
29.256580
20
40.917928
11
28.403827
21
40.845027
0
LINE
8
Layer 1
10
28.403827
20
40.845027
11
27.166384
21
40.470109
0
LINE
8
Layer 1
10
27.166384
20
40.470109
11
27.186926
21
40.222060
0
LINE
8
Layer 1
10
27.186926
20
40.222060
11
27.568090
21
39.856044
0
LINE
8
Layer 1
10
27.568090
20
39.856044
11
28.048478
21
39.563542
0
LINE
8
Layer 1
10
28.048478
20
39.563542
11
28.303231
21
39.594226
0
LINE
8
Layer 1
10
28.303231
20
39.594226
11
28.764205
21
39.855056
0
LINE
8
Layer 1
10
28.764205
20
39.855056
11
28.764205
21
39.855056
0
LINE
8
Layer 1
10
5.490269
20
39.855056
11
5.614623
21
40.054376
0
LINE
8
Layer 1
10
5.614623
20
40.054376
11
5.913602
21
40.137278
0
LINE
8
Layer 1
10
5.913602
20
40.137278
11
6.212581
21
40.229050
0
LINE
8
Layer 1
10
6.212581
20
40.229050
11
6.336935
21
40.449693
0
LINE
8
Layer 1
10
6.336935
20
40.449693
11
6.218468
21
40.624878
0
LINE
8
Layer 1
10
6.218468
20
40.624878
11
5.933643
21
40.607353
0
LINE
8
Layer 1
10
5.933643
20
40.607353
11
4.451976
21
40.238692
0
LINE
8
Layer 1
10
4.451976
20
40.238692
11
3.373602
21
40.024790
0
LINE
8
Layer 1
10
3.373602
20
40.024790
11
4.220269
21
39.832202
0
LINE
8
Layer 1
10
4.220269
20
39.832202
11
5.323533
21
39.622176
0
LINE
8
Layer 1
10
5.323533
20
39.622176
11
5.467430
21
39.682237
0
LINE
8
Layer 1
10
5.467430
20
39.682237
11
5.490269
21
39.855062
0
LINE
8
Layer 1
10
5.490269
20
39.855062
11
5.490269
21
39.855056
0
LINE
8
Layer 1
10
8.104705
20
39.771499
11
6.693594
21
39.775365
0
LINE
8
Layer 1
10
6.693594
20
39.775365
11
6.502082
21
39.729264
0
LINE
8
Layer 1
10
6.502082
20
39.729264
11
6.557238
21
39.690934
0
LINE
8
Layer 1
10
6.557238
20
39.690934
11
7.324713
21
39.653566
0
LINE
8
Layer 1
10
7.324713
20
39.653566
11
8.135918
21
39.686677
0
LINE
8
Layer 1
10
8.135918
20
39.686677
11
8.238410
21
39.724544
0
LINE
8
Layer 1
10
8.238410
20
39.724544
11
8.104705
21
39.771513
0
LINE
8
Layer 1
10
8.104705
20
39.771513
11
8.104705
21
39.771499
0
LINE
8
Layer 1
10
26.021935
20
39.965699
11
25.618042
21
40.371289
0
LINE
8
Layer 1
10
25.618042
20
40.371289
11
25.596283
21
40.696300
0
LINE
8
Layer 1
10
25.596283
20
40.696300
11
25.963739
21
40.952637
0
LINE
8
Layer 1
10
25.963739
20
40.952637
11
26.727491
21
41.152206
0
LINE
8
Layer 1
10
26.727491
20
41.152206
11
27.926935
21
41.370082
0
LINE
8
Layer 1
10
27.926935
20
41.370082
11
26.542235
21
41.583264
0
LINE
8
Layer 1
10
26.542235
20
41.583264
11
25.215484
21
41.613026
0
LINE
8
Layer 1
10
25.215484
20
41.613026
11
23.767176
21
41.436792
0
LINE
8
Layer 1
10
23.767176
20
41.436792
11
22.747295
21
41.156329
0
LINE
8
Layer 1
10
22.747295
20
41.156329
11
22.569884
21
41.008813
0
LINE
8
Layer 1
10
22.569884
20
41.008813
11
22.705824
21
40.873401
0
LINE
8
Layer 1
10
22.705824
20
40.873401
11
26.374713
21
39.602428
0
LINE
8
Layer 1
10
26.374713
20
39.602428
11
26.021935
21
39.965699
0
LINE
8
Layer 1
10
26.021935
20
39.965699
11
26.021935
21
39.965699
0
LINE
8
Layer 1
10
30.325825
20
40.436155
11
30.242922
21
40.596001
0
LINE
8
Layer 1
10
30.242922
20
40.596001
11
30.043603
21
40.560612
0
LINE
8
Layer 1
10
30.043603
20
40.560612
11
29.761380
21
40.261733
0
LINE
8
Layer 1
10
29.761380
20
40.261733
11
30.043603
21
40.137278
0
LINE
8
Layer 1
10
30.043603
20
40.137278
11
30.242922
21
40.225073
0
LINE
8
Layer 1
10
30.242922
20
40.225073
11
30.325825
21
40.436155
0
LINE
8
Layer 1
10
30.325825
20
40.436155
11
30.325825
21
40.436155
0
LINE
8
Layer 1
10
15.720824
20
40.888633
11
15.015269
21
40.888633
0
LINE
8
Layer 1
10
15.015269
20
40.888633
11
14.973376
21
40.788098
0
LINE
8
Layer 1
10
14.973376
20
40.788098
11
15.368046
21
40.746283
0
LINE
8
Layer 1
10
15.368046
20
40.746283
11
15.762717
21
40.788098
0
LINE
8
Layer 1
10
15.762717
20
40.788098
11
15.720824
21
40.888633
0
LINE
8
Layer 1
10
15.720824
20
40.888633
11
15.720824
21
40.888633
0
LINE
8
Layer 1
10
18.825269
20
41.170855
11
18.119713
21
41.170855
0
LINE
8
Layer 1
10
18.119713
20
41.170855
11
18.077821
21
41.070320
0
LINE
8
Layer 1
10
18.077821
20
41.070320
11
18.472491
21
41.028505
0
LINE
8
Layer 1
10
18.472491
20
41.028505
11
18.867161
21
41.070320
0
LINE
8
Layer 1
10
18.867161
20
41.070320
11
18.825269
21
41.170855
0
LINE
8
Layer 1
10
18.825269
20
41.170855
11
18.825269
21
41.170855
0
LINE
8
Layer 1
10
24.720668
20
43.796778
11
25.092482
21
44.191543
0
LINE
8
Layer 1
10
25.092482
20
44.191543
11
25.050812
21
44.361222
0
LINE
8
Layer 1
10
25.050812
20
44.361222
11
24.540269
21
44.088390
0
LINE
8
Layer 1
10
24.540269
20
44.088390
11
24.164329
21
43.878076
0
LINE
8
Layer 1
10
24.164329
20
43.878076
11
23.555987
21
43.813508
0
LINE
8
Layer 1
10
23.555987
20
43.813508
11
22.967610
21
43.891793
0
LINE
8
Layer 1
10
22.967610
20
43.891793
11
22.651567
21
44.110036
0
LINE
8
Layer 1
10
22.651567
20
44.110036
11
22.424811
21
44.153703
0
LINE
8
Layer 1
10
22.424811
20
44.153703
11
22.019863
21
43.827814
0
LINE
8
Layer 1
10
22.019863
20
43.827814
11
21.733914
21
43.489376
0
LINE
8
Layer 1
10
21.733914
20
43.489376
11
21.717167
21
43.315333
0
LINE
8
Layer 1
10
21.717167
20
43.315333
11
22.771926
21
43.241714
0
LINE
8
Layer 1
10
22.771926
20
43.241714
11
23.901480
21
43.379460
0
LINE
8
Layer 1
10
23.901480
20
43.379460
11
24.720668
21
43.796769
0
LINE
8
Layer 1
10
24.720668
20
43.796769
11
24.720668
21
43.796778
0
LINE
8
Layer 1
10
24.745334
20
47.326068
11
24.751042
21
47.448445
0
LINE
8
Layer 1
10
24.751042
20
47.448445
11
24.537689
21
47.365453
0
LINE
8
Layer 1
10
24.537689
20
47.365453
11
23.597218
21
46.665832
0
LINE
8
Layer 1
10
23.597218
20
46.665832
11
21.777938
21
44.884572
0
LINE
8
Layer 1
10
21.777938
20
44.884572
11
21.218763
21
44.139047
0
LINE
8
Layer 1
10
21.218763
20
44.139047
11
21.012494
21
43.630323
0
LINE
8
Layer 1
10
21.012494
20
43.630323
11
21.542484
21
43.977469
0
LINE
8
Layer 1
10
21.542484
20
43.977469
11
22.736872
21
45.100794
0
LINE
8
Layer 1
10
22.736872
20
45.100794
11
24.745334
21
47.326068
0
LINE
8
Layer 1
10
24.745334
20
47.326068
11
24.745334
21
47.326068
0
LINE
8
Layer 1
10
33.430272
20
44.199306
11
32.992280
21
44.478294
0
LINE
8
Layer 1
10
32.992280
20
44.478294
11
32.728237
21
44.518970
0
LINE
8
Layer 1
10
32.728237
20
44.518970
11
32.726715
21
44.367377
0
LINE
8
Layer 1
10
32.726715
20
44.367377
11
33.140645
21
44.097062
0
LINE
8
Layer 1
10
33.140645
20
44.097062
11
33.343648
21
44.091425
0
LINE
8
Layer 1
10
33.343648
20
44.091425
11
33.430272
21
44.199306
0
LINE
8
Layer 1
10
33.430272
20
44.199306
11
33.430272
21
44.199306
0
LINE
8
Layer 1
10
26.304993
20
46.058583
11
27.201380
21
46.706342
0
LINE
8
Layer 1
10
27.201380
20
46.706342
11
27.258718
21
46.856037
0
LINE
8
Layer 1
10
27.258718
20
46.856037
11
27.069609
21
46.905250
0
LINE
8
Layer 1
10
27.069609
20
46.905250
11
26.376414
21
46.663691
0
LINE
8
Layer 1
10
26.376414
20
46.663691
11
25.517387
21
46.075415
0
LINE
8
Layer 1
10
25.517387
20
46.075415
11
24.869786
21
45.468274
0
LINE
8
Layer 1
10
24.869786
20
45.468274
11
24.801122
21
45.262749
0
LINE
8
Layer 1
10
24.801122
20
45.262749
11
26.304993
21
46.058594
0
LINE
8
Layer 1
10
26.304993
20
46.058594
11
26.304993
21
46.058583
0
LINE
8
Layer 1
10
33.483189
20
45.974512
11
32.942262
21
45.952216
0
LINE
8
Layer 1
10
32.942262
20
45.952216
11
32.980738
21
45.838339
0
LINE
8
Layer 1
10
32.980738
20
45.838339
11
33.312679
21
45.803987
0
LINE
8
Layer 1
10
33.312679
20
45.803987
11
33.605651
21
45.860537
0
LINE
8
Layer 1
10
33.605651
20
45.860537
11
33.483189
21
45.974498
0
LINE
8
Layer 1
10
33.483189
20
45.974498
11
33.483189
21
45.974512
 0 
ENDSEC
 0 
EOF
