  0
SECTION
  2
HEADER
  9
$ACADVER
  1
AC1009
  9
$INSBASE
 10
0.0
 20
0.0
 30
0.0
  9
$EXTMIN
 10
-4.7429896833784824
 20
-1.000523572193118
 30
0.0
  9
$EXTMAX
 10
7.0585999999999984
 20
7.8500920639396021
 30
0.0
  9
$LIMMIN
 10
0.0
 20
0.0
  9
$LIMMAX
 10
12.0
 20
9.0
  9
$ORTHOMODE
 70
     0
  9
$REGENMODE
 70
     1
  9
$FILLMODE
 70
     1
  9
$QTEXTMODE
 70
     0
  9
$MIRRTEXT
 70
     0
  9
$DRAGMODE
 70
     2
  9
$LTSCALE
 40
1.0
  9
$OSMODE
 70
    39
  9
$ATTMODE
 70
     1
  9
$TEXTSIZE
 40
0.2
  9
$TRACEWID
 40
0.05
  9
$TEXTSTYLE
  7
STANDARD
  9
$CLAYER
  8
0
  9
$CELTYPE
  6
CONTINUOUS
  9
$CECOLOR
 62
   256
  9
$DIMSCALE
 40
1.0
  9
$DIMASZ
 40
0.18
  9
$DIMEXO
 40
0.0625
  9
$DIMDLI
 40
0.38
  9
$DIMRND
 40
0.0
  9
$DIMDLE
 40
0.0
  9
$DIMEXE
 40
0.18
  9
$DIMTP
 40
0.0
  9
$DIMTM
 40
0.0
  9
$DIMTXT
 40
0.18
  9
$DIMCEN
 40
0.09
  9
$DIMTSZ
 40
0.0
  9
$DIMTOL
 70
     0
  9
$DIMLIM
 70
     0
  9
$DIMTIH
 70
     1
  9
$DIMTOH
 70
     1
  9
$DIMSE1
 70
     0
  9
$DIMSE2
 70
     0
  9
$DIMTAD
 70
     0
  9
$DIMZIN
 70
     0
  9
$DIMBLK
  1

  9
$DIMASO
 70
     1
  9
$DIMSHO
 70
     1
  9
$DIMPOST
  1

  9
$DIMAPOST
  1

  9
$DIMALT
 70
     0
  9
$DIMALTD
 70
     2
  9
$DIMALTF
 40
25.399999999999999
  9
$DIMLFAC
 40
1.0
  9
$DIMTOFL
 70
     0
  9
$DIMTVP
 40
0.0
  9
$DIMTIX
 70
     0
  9
$DIMSOXD
 70
     0
  9
$DIMSAH
 70
     0
  9
$DIMBLK1
  1

  9
$DIMBLK2
  1

  9
$DIMSTYLE
  2
STANDARD
  9
$DIMCLRD
 70
     0
  9
$DIMCLRE
 70
     0
  9
$DIMCLRT
 70
     0
  9
$DIMTFAC
 40
1.0
  9
$DIMGAP
 40
0.09
  9
$LUNITS
 70
     2
  9
$LUPREC
 70
     4
  9
$SKETCHINC
 40
0.1
  9
$FILLETRAD
 40
0.025
  9
$AUNITS
 70
     0
  9
$AUPREC
 70
     0
  9
$MENU
  1
.
  9
$ELEVATION
 40
0.0
  9
$PELEVATION
 40
0.0
  9
$THICKNESS
 40
0.0
  9
$LIMCHECK
 70
     0
  9
$BLIPMODE
 70
     0
  9
$CHAMFERA
 40
0.0
  9
$CHAMFERB
 40
0.0
  9
$SKPOLY
 70
     0
  9
$TDCREATE
 40
2454375.337452489
  9
$TDUPDATE
 40
2455281.5172844208
  9
$TDINDWG
 40
0.0017041088
  9
$TDUSRTIMER
 40
0.0017039236
  9
$USRTIMER
 70
     1
  9
$ANGBASE
 50
0.0
  9
$ANGDIR
 70
     0
  9
$PDMODE
 70
     0
  9
$PDSIZE
 40
0.0
  9
$PLINEWID
 40
0.0
  9
$COORDS
 70
     1
  9
$SPLFRAME
 70
     0
  9
$SPLINETYPE
 70
     6
  9
$SPLINESEGS
 70
     8
  9
$ATTDIA
 70
     0
  9
$ATTREQ
 70
     1
  9
$HANDLING
 70
     1
  9
$HANDSEED
  5
1B5
  9
$SURFTAB1
 70
     6
  9
$SURFTAB2
 70
     6
  9
$SURFTYPE
 70
     6
  9
$SURFU
 70
     6
  9
$SURFV
 70
     6
  9
$UCSNAME
  2

  9
$UCSORG
 10
0.0
 20
0.0
 30
0.0
  9
$UCSXDIR
 10
1.0
 20
0.0
 30
0.0
  9
$UCSYDIR
 10
0.0
 20
1.0
 30
0.0
  9
$PUCSNAME
  2

  9
$PUCSORG
 10
0.0
 20
0.0
 30
0.0
  9
$PUCSXDIR
 10
1.0
 20
0.0
 30
0.0
  9
$PUCSYDIR
 10
0.0
 20
1.0
 30
0.0
  9
$USERI1
 70
     0
  9
$USERI2
 70
     0
  9
$USERI3
 70
     0
  9
$USERI4
 70
     0
  9
$USERI5
 70
     0
  9
$USERR1
 40
0.0
  9
$USERR2
 40
0.0
  9
$USERR3
 40
0.0
  9
$USERR4
 40
0.0
  9
$USERR5
 40
0.0
  9
$WORLDVIEW
 70
     1
  9
$SHADEDGE
 70
     3
  9
$SHADEDIF
 70
    70
  9
$TILEMODE
 70
     1
  9
$MAXACTVP
 70
    64
  9
$PLIMCHECK
 70
     0
  9
$PEXTMIN
 10
1.0000000000000000E+020
 20
1.0000000000000000E+020
 30
1.0000000000000000E+020
  9
$PEXTMAX
 10
-1.0000000000000000E+020
 20
-1.0000000000000000E+020
 30
-1.0000000000000000E+020
  9
$PLIMMIN
 10
0.0
 20
0.0
  9
$PLIMMAX
 10
12.0
 20
9.0
  9
$UNITMODE
 70
     0
  9
$VISRETAIN
 70
     1
  9
$PLINEGEN
 70
     0
  9
$PSLTSCALE
 70
     1
  0
ENDSEC
  0
SECTION
  2
TABLES
  0
TABLE
  2
VPORT
 70
     1
  0
VPORT
  2
*ACTIVE
 70
     0
 10
0.0
 20
0.0
 11
1.0
 21
1.0
 12
3.0718393958755121
 22
3.2085838238409501
 13
0.0
 23
0.0
 14
1.0
 24
1.0
 15
0.0
 25
0.0
 16
0.0
 26
0.0
 36
1.0
 17
0.0
 27
0.0
 37
0.0
 40
12.42532955459353
 41
1.8704061895551249
 42
50.0
 43
0.0
 44
0.0
 50
0.0
 51
0.0
 71
     0
 72
 20000
 73
     1
 74
     3
 75
     0
 76
     0
 77
     0
 78
     0
  0
ENDTAB
  0
TABLE
  2
LTYPE
 70
     1
  0
LTYPE
  2
CONTINUOUS
 70
     0
  3
Solid line
 72
    65
 73
     0
 40
0.0
  0
ENDTAB
  0
TABLE
  2
LAYER
 70
     2
  0
LAYER
  2
0
 70
     0
 62
     7
  6
CONTINUOUS
  0
ENDTAB
  0
TABLE
  2
STYLE
 70
     1
  0
STYLE
  2
STANDARD
 70
     0
 40
0.0
 41
1.0
 50
0.0
 71
     0
 42
0.2
  3
txt
  4

  0
ENDTAB
  0
TABLE
  2
VIEW
 70
     0
  0
ENDTAB
  0
TABLE
  2
UCS
 70
     0
  0
ENDTAB
  0
TABLE
  2
APPID
 70
     2
  0
APPID
  2
ACAD
 70
     0
  0
APPID
  2
ACAD_MLEADERVER
 70
     0
  0
ENDTAB
  0
TABLE
  2
DIMSTYLE
 70
     1
  0
DIMSTYLE
  2
STANDARD
 70
     0
  3

  4

  5

  6

  7

 40
1.0
 41
0.18
 42
0.0625
 43
0.38
 44
0.18
 45
0.0
 46
0.0
 47
0.0
 48
0.0
140
0.18
141
0.09
142
0.0
143
25.399999999999999
144
1.0
145
0.0
146
1.0
147
0.09
 71
     0
 72
     0
 73
     1
 74
     1
 75
     0
 76
     0
 77
     0
 78
     0
170
     0
171
     2
172
     0
173
     0
174
     0
175
     0
176
     0
177
     0
178
     0
  0
ENDTAB
  0
ENDSEC
  0
SECTION
  2
BLOCKS
  0
BLOCK
  8
0
  2
$MODEL_SPACE
 70
     0
 10
0.0
 20
0.0
 30
0.0
  3
$MODEL_SPACE
  1

  0
ENDBLK
  5
24
  8
0
  0
BLOCK
 67
     1
  8
0
  2
$PAPER_SPACE
 70
     0
 10
0.0
 20
0.0
 30
0.0
  3
$PAPER_SPACE
  1

  0
ENDBLK
  5
20
 67
     1
  8
0
  0
ENDSEC
  0
SECTION
  2
ENTITIES
  0
LINE
  5
27
  8
0
  6
CONTINUOUS
 10
2.6697000000000002
 20
0.5129000000000002
 30
0.0
 11
2.6825999999999981
 21
1.4392
 31
0.0
  0
LINE
  5
28
  8
0
  6
CONTINUOUS
 10
3.2684000000000002
 20
5.3330999999999991
 30
0.0
 11
3.149099999999998
 21
5.324799999999998
 31
0.0
  0
LINE
  5
29
  8
0
  6
CONTINUOUS
 10
0.9187999999999998
 20
5.4923000000000002
 30
0.0
 11
1.1807000000000001
 21
5.510399999999998
 31
0.0
  0
LINE
  5
2A
  8
0
  6
CONTINUOUS
 10
2.6272999999999991
 20
3.2429000000000001
 30
0.0
 11
2.6371000000000002
 21
3.249899999999998
 31
0.0
  0
LINE
  5
2B
  8
0
  6
CONTINUOUS
 10
2.6371000000000002
 20
3.249899999999998
 30
0.0
 11
2.6719999999999988
 21
3.2898000000000001
 31
0.0
  0
LINE
  5
2C
  8
0
  6
CONTINUOUS
 10
0.9187999999999998
 20
5.1699000000000002
 30
0.0
 11
0.9187999999999998
 21
5.4923000000000002
 31
0.0
  0
LINE
  5
2D
  8
0
  6
CONTINUOUS
 10
1.2923
 20
5.5750999999999991
 30
0.0
 11
1.2907999999999991
 21
5.5521000000000003
 31
0.0
  0
LINE
  5
2E
  8
0
  6
CONTINUOUS
 10
1.2109000000000001
 20
5.5719000000000003
 30
0.0
 11
1.208599999999999
 21
5.5382999999999978
 31
0.0
  0
LINE
  5
2F
  8
0
  6
CONTINUOUS
 10
1.4112999999999991
 20
5.6329999999999991
 30
0.0
 11
1.418099999999999
 21
5.7272999999999978
 31
0.0
  0
LINE
  5
30
  8
0
  6
CONTINUOUS
 10
1.418099999999999
 20
5.7272999999999978
 30
0.0
 11
1.3664000000000001
 21
5.774499999999998
 31
0.0
  0
LINE
  5
31
  8
0
  6
CONTINUOUS
 10
1.078699999999998
 20
5.6418999999999979
 30
0.0
 11
1.0831999999999991
 21
5.731799999999998
 31
0.0
  0
LINE
  5
32
  8
0
  6
CONTINUOUS
 10
1.0831999999999991
 20
5.731799999999998
 30
0.0
 11
1.1551
 21
5.7878999999999978
 31
0.0
  0
LINE
  5
33
  8
0
  6
CONTINUOUS
 10
2.9500999999999982
 20
0.4425
 30
0.0
 11
2.968999999999999
 21
1.1228
 31
0.0
  0
LINE
  5
34
  8
0
  6
CONTINUOUS
 10
2.8589000000000002
 20
0.4675000000000001
 30
0.0
 11
2.8816000000000002
 21
1.2833000000000001
 31
0.0
  0
LINE
  5
35
  8
0
  6
CONTINUOUS
 10
2.7604999999999982
 20
0.4768
 30
0.0
 11
2.773099999999999
 21
1.3842000000000001
 31
0.0
  0
LINE
  5
36
  8
0
  6
CONTINUOUS
 10
3.9942999999999982
 20
5.3560999999999979
 30
0.0
 11
3.9864999999999982
 21
4.9127999999999981
 31
0.0
  0
LINE
  5
37
  8
0
  6
CONTINUOUS
 10
3.1836999999999982
 20
0.4201
 30
0.0
 11
3.1962000000000002
 21
0.9432999999999999
 31
0.0
  0
LINE
  5
38
  8
0
  6
CONTINUOUS
 10
3.2263000000000002
 20
2.2012
 30
0.0
 11
3.2526000000000002
 21
3.302299999999998
 31
0.0
  0
LINE
  5
39
  8
0
  6
CONTINUOUS
 10
4.6676999999999991
 20
5.430299999999999
 30
0.0
 11
3.9823
 21
4.668099999999999
 31
0.0
  0
LINE
  5
3A
  8
0
  6
CONTINUOUS
 10
5.7455999999999978
 20
5.5052000000000003
 30
0.0
 11
5.5716999999999981
 21
5.4931000000000001
 31
0.0
  0
LINE
  5
3B
  8
0
  6
CONTINUOUS
 10
4.0003999999999991
 20
5.7057999999999991
 30
0.0
 11
5.4585999999999979
 21
5.8067999999999991
 31
0.0
  0
LINE
  5
3C
  8
0
  6
CONTINUOUS
 10
4.0231000000000003
 20
7.0071000000000003
 30
0.0
 11
4.0003999999999991
 21
5.7057999999999991
 31
0.0
  0
LINE
  5
3D
  8
0
  6
CONTINUOUS
 10
3.3089999999999988
 20
5.6578999999999979
 30
0.0
 11
3.3418999999999981
 21
7.0319000000000003
 31
0.0
  0
LINE
  5
3E
  8
0
  6
CONTINUOUS
 10
3.1293000000000002
 20
5.2743999999999991
 30
0.0
 11
3.2454999999999981
 21
5.1505999999999981
 31
0.0
  0
LINE
  5
3F
  8
0
  6
CONTINUOUS
 10
3.2827000000000002
 20
4.9485000000000001
 30
0.0
 11
3.129999999999999
 21
5.101099999999998
 31
0.0
  0
LINE
  5
40
  8
0
  6
CONTINUOUS
 10
3.0592000000000001
 20
5.6406000000000001
 30
0.0
 11
3.0596000000000001
 21
5.6692
 31
0.0
  0
LINE
  5
41
  8
0
  6
CONTINUOUS
 10
2.8258000000000001
 20
5.6657000000000002
 30
0.0
 11
2.8243
 21
5.6242999999999981
 31
0.0
  0
LINE
  5
42
  8
0
  6
CONTINUOUS
 10
3.0182000000000002
 20
5.7098000000000004
 30
0.0
 11
2.8643000000000001
 21
5.704299999999999
 31
0.0
  0
LINE
  5
43
  8
0
  6
CONTINUOUS
 10
4.4550000000000001
 20
5.3639999999999981
 30
0.0
 11
4.0389999999999979
 21
4.8925000000000001
 31
0.0
  0
LINE
  5
44
  8
0
  6
CONTINUOUS
 10
5.570999999999998
 20
5.8829999999999991
 30
0.0
 11
5.568699999999998
 21
5.8484999999999978
 31
0.0
  0
LINE
  5
45
  8
0
  6
CONTINUOUS
 10
5.4894999999999978
 20
5.8796999999999979
 30
0.0
 11
5.4863999999999979
 21
5.834699999999998
 31
0.0
  0
LINE
  5
46
  8
0
  6
CONTINUOUS
 10
5.758499999999998
 20
5.8276000000000003
 30
0.0
 11
5.7455999999999978
 21
5.5052000000000003
 31
0.0
  0
LINE
  5
47
  8
0
  6
CONTINUOUS
 10
5.3617999999999979
 20
6.0396999999999981
 30
0.0
 11
5.433799999999998
 21
6.0957999999999979
 31
0.0
  0
LINE
  5
48
  8
0
  6
CONTINUOUS
 10
5.3573000000000004
 20
5.949799999999998
 30
0.0
 11
5.3617999999999979
 21
6.0396999999999981
 31
0.0
  0
LINE
  5
49
  8
0
  6
CONTINUOUS
 10
5.6966999999999981
 20
6.0351999999999979
 30
0.0
 11
5.6449999999999978
 21
6.0823
 31
0.0
  0
LINE
  5
4A
  8
0
  6
CONTINUOUS
 10
5.6900000000000004
 20
5.9408000000000003
 30
0.0
 11
5.6966999999999981
 21
6.0351999999999979
 31
0.0
  0
LINE
  5
4B
  8
0
  6
CONTINUOUS
 10
1.182099999999999
 20
5.153999999999999
 30
0.0
 11
1.179799999999998
 21
5.120899999999998
 31
0.0
  0
LINE
  5
4C
  8
0
  6
CONTINUOUS
 10
1.2659
 20
5.1679000000000004
 30
0.0
 11
1.262999999999999
 21
5.123199999999998
 31
0.0
  0
LINE
  5
4D
  8
0
  6
CONTINUOUS
 10
1.322799999999998
 20
5.520299999999998
 30
0.0
 11
2.8243
 21
5.6242999999999981
 31
0.0
  0
LINE
  5
4E
  8
0
  6
CONTINUOUS
 10
1.150099999999999
 20
5.1859999999999991
 30
0.0
 11
0.9187999999999998
 21
5.1699000000000002
 31
0.0
  0
LINE
  5
4F
  8
0
  6
CONTINUOUS
 10
5.600699999999998
 20
5.8166000000000002
 30
0.0
 11
5.758499999999998
 21
5.8276000000000003
 31
0.0
  0
LINE
  5
50
  8
0
  6
CONTINUOUS
 10
5.427999999999999
 20
5.4831000000000003
 30
0.0
 11
4.6676999999999991
 21
5.430299999999999
 31
0.0
  0
LINE
  5
51
  8
0
  6
CONTINUOUS
 10
5.4599999999999991
 20
5.4511000000000003
 30
0.0
 11
5.458499999999999
 21
5.4287999999999981
 31
0.0
  0
LINE
  5
52
  8
0
  6
CONTINUOUS
 10
5.5438000000000001
 20
5.4650999999999978
 30
0.0
 11
5.5415999999999981
 21
5.431
 31
0.0
  0
LINE
  5
53
  8
0
  6
CONTINUOUS
 10
2.7035
 20
5.2938999999999981
 30
0.0
 11
1.2937000000000001
 21
5.1958999999999991
 31
0.0
  0
LINE
  5
54
  8
0
  6
CONTINUOUS
 10
2.9218999999999982
 20
5.3090000000000002
 30
0.0
 11
2.855
 21
5.3044000000000002
 31
0.0
  0
LINE
  5
55
  8
0
  6
CONTINUOUS
 10
3.297299999999999
 20
5.1703999999999981
 30
0.0
 11
3.3004999999999982
 21
5.3025000000000002
 31
0.0
  0
LINE
  5
56
  8
0
  6
CONTINUOUS
 10
3.2637
 20
3.765899999999998
 30
0.0
 11
3.2915000000000001
 21
4.9265999999999979
 31
0.0
  0
LINE
  5
57
  8
0
  6
CONTINUOUS
 10
2.7149999999999981
 20
3.7801
 30
0.0
 11
2.735599999999998
 21
5.2634999999999978
 31
0.0
  0
LINE
  5
58
  8
0
  6
CONTINUOUS
 10
2.8054999999999981
 20
3.7187999999999981
 30
0.0
 11
2.8271000000000002
 21
5.2748999999999979
 31
0.0
  0
LINE
  5
59
  8
0
  6
CONTINUOUS
 10
2.9491999999999989
 20
3.7202000000000002
 30
0.0
 11
2.9912999999999981
 21
5.2397
 31
0.0
  0
LINE
  5
5A
  8
0
  6
CONTINUOUS
 10
3.0424000000000002
 20
3.7684999999999982
 30
0.0
 11
3.0788000000000002
 21
5.0807000000000002
 31
0.0
  0
LINE
  5
5B
  8
0
  6
CONTINUOUS
 10
2.7010999999999981
 20
2.7793000000000001
 30
0.0
 11
2.705499999999998
 21
3.0958000000000001
 31
0.0
  0
LINE
  5
5C
  8
0
  6
CONTINUOUS
 10
2.787999999999998
 20
2.4540000000000002
 30
0.0
 11
2.7976999999999981
 21
3.1528
 31
0.0
  0
LINE
  5
5D
  8
0
  6
CONTINUOUS
 10
2.9127000000000001
 20
2.4045999999999981
 30
0.0
 11
2.9346000000000001
 21
3.1962999999999981
 31
0.0
  0
LINE
  5
5E
  8
0
  6
CONTINUOUS
 10
2.995899999999998
 20
2.0908999999999991
 30
0.0
 11
3.028999999999999
 21
3.2850000000000001
 31
0.0
  0
LINE
  5
5F
  8
0
  6
CONTINUOUS
 10
3.9823
 20
4.668099999999999
 30
0.0
 11
3.908199999999999
 21
0.4245
 31
0.0
  0
LINE
  5
60
  8
0
  6
CONTINUOUS
 10
4.4303999999999979
 20
5.4138000000000002
 30
0.0
 11
4.022199999999998
 21
5.3855000000000004
 31
0.0
  0
LINE
  5
61
  8
0
  6
CONTINUOUS
 10
3.0592000000000001
 20
5.6406000000000001
 30
0.0
 11
3.3089999999999988
 21
5.6578999999999979
 31
0.0
  0
LINE
  5
62
  8
0
  6
CONTINUOUS
 10
2.9912999999999981
 20
5.2397
 30
0.0
 11
2.9218999999999982
 21
5.3090000000000002
 31
0.0
  0
LINE
  5
63
  8
0
  6
CONTINUOUS
 10
3.2128999999999981
 20
1.6415999999999991
 30
0.0
 11
3.2073
 21
1.4094999999999991
 31
0.0
  0
LINE
  5
64
  8
0
  6
CONTINUOUS
 10
1.9692000000000001
 20
2.247599999999998
 30
0.0
 11
2.1884000000000001
 21
2.1131999999999991
 31
0.0
  0
LINE
  5
65
  8
0
  6
CONTINUOUS
 10
2.169099999999998
 20
4.0050999999999979
 30
0.0
 11
2.2002000000000002
 21
4.008099999999998
 31
0.0
  0
LINE
  5
66
  8
0
  6
CONTINUOUS
 10
2.1737000000000002
 20
3.9554
 30
0.0
 11
2.2873000000000001
 21
3.957399999999998
 31
0.0
  0
LINE
  5
67
  8
0
  6
CONTINUOUS
 10
1.9096999999999991
 20
2.2663000000000002
 30
0.0
 11
1.9195999999999991
 21
2.2650000000000001
 31
0.0
  0
ARC
  5
68
  8
0
  6
CONTINUOUS
 10
3.0748999999999982
 20
3.8856000000000002
 30
0.0
 40
0.2284
 50
306.06240000000003
 51
323.15879999999999
  0
ARC
  5
69
  8
0
  6
CONTINUOUS
 10
3.1787999999999981
 20
3.755999999999998
 30
0.0
 40
0.0629
 50
266.0496
 51
299.0421
  0
ARC
  5
6A
  8
0
  6
CONTINUOUS
 10
3.1829999999999981
 20
3.8077000000000001
 30
0.0
 40
0.1149
 50
241.52420000000001
 51
265.75069999999999
  0
ARC
  5
6B
  8
0
  6
CONTINUOUS
 10
2.5238
 20
2.564299999999998
 30
0.0
 40
1.292499999999998
 50
62.119399999999999
 51
65.485299999999995
  0
ARC
  5
6C
  8
0
  6
CONTINUOUS
 10
3.1785000000000001
 20
2.8107000000000002
 30
0.0
 40
0.5243000000000002
 50
84.870599999999968
 51
96.113299999999995
  0
ARC
  5
6D
  8
0
  6
CONTINUOUS
 10
3.1697999999999982
 20
3.0053999999999981
 30
0.0
 40
0.33
 50
98.226200000000006
 51
111.679
  0
ARC
  5
6E
  8
0
  6
CONTINUOUS
 10
2.5232000000000001
 20
3.0173000000000001
 30
0.0
 40
0.3483
 50
66.659499999999994
 51
80.740999999999985
  0
ARC
  5
6F
  8
0
  6
CONTINUOUS
 10
2.5575000000000001
 20
3.1575000000000002
 30
0.0
 40
0.2048
 50
83.887
 51
102.5248
  0
ARC
  5
70
  8
0
  6
CONTINUOUS
 10
2.5739000000000001
 20
3.0605999999999982
 30
0.0
 40
0.3029
 50
101.5899
 51
116.4927
  0
ARC
  5
71
  8
0
  6
CONTINUOUS
 10
2.6232999999999991
 20
2.9479000000000002
 30
0.0
 40
0.4259000000000002
 50
115.6747
 51
128.45240000000001
  0
ARC
  5
72
  8
0
  6
CONTINUOUS
 10
3.0855000000000001
 20
2.3460000000000001
 30
0.0
 40
1.1847000000000001
 50
127.8553
 51
135.38460000000001
  0
ARC
  5
73
  8
0
  6
CONTINUOUS
 10
2.4573
 20
2.9367000000000001
 30
0.0
 40
0.3233
 50
131.703
 51
146.27090000000001
  0
ARC
  5
74
  8
0
  6
CONTINUOUS
 10
2.285899999999998
 20
3.0649000000000002
 30
0.0
 40
0.1103
 50
152.2473
 51
177.19319999999999
  0
ARC
  5
75
  8
0
  6
CONTINUOUS
 10
2.2721
 20
3.0649000000000002
 30
0.0
 40
0.0965
 50
176.8021
 51
203.96190000000001
  0
ARC
  5
76
  8
0
  6
CONTINUOUS
 10
2.226399999999999
 20
3.049399999999999
 30
0.0
 40
0.0486
 50
209.15270000000001
 51
320.08420000000001
  0
ARC
  5
77
  8
0
  6
CONTINUOUS
 10
2.102399999999998
 20
3.4373
 30
0.0
 40
0.4491
 50
291.05619999999999
 51
303.52539999999999
  0
ARC
  5
78
  8
0
  6
CONTINUOUS
 10
2.0426000000000002
 20
3.5762
 30
0.0
 40
0.5985000000000003
 50
300.95260000000002
 51
311.63350000000003
  0
ARC
  5
79
  8
0
  6
CONTINUOUS
 10
2.3239999999999981
 20
3.1945000000000001
 30
0.0
 40
0.1335
 50
330.55720000000002
 51
353.73849999999999
  0
ARC
  5
7A
  8
0
  6
CONTINUOUS
 10
2.4908000000000001
 20
3.1695000000000002
 30
0.0
 40
0.0357
 50
116.6443
 51
162.98560000000001
  0
ARC
  5
7B
  8
0
  6
CONTINUOUS
 10
2.4992000000000001
 20
3.1246
 30
0.0
 40
0.0806
 50
77.6922
 51
107.6096
  0
ARC
  5
7C
  8
0
  6
CONTINUOUS
 10
2.5241999999999991
 20
3.3477000000000001
 30
0.0
 40
0.1446
 50
266.86540000000002
 51
288.94080000000002
  0
ARC
  5
7D
  8
0
  6
CONTINUOUS
 10
2.500799999999999
 20
3.3997000000000002
 30
0.0
 40
0.2015
 50
290.45150000000001
 51
308.89100000000002
  0
ARC
  5
7E
  8
0
  6
CONTINUOUS
 10
1.2538
 20
5.9618000000000002
 30
0.0
 40
0.3646
 50
241.3049
 51
259.36759999999998
  0
ARC
  5
7F
  8
0
  6
CONTINUOUS
 10
1.220499999999999
 20
5.1548999999999978
 30
0.0
 40
0.053
 50
219.88409999999999
 51
323.20949999999999
  0
ARC
  5
80
  8
0
  6
CONTINUOUS
 10
1.4225000000000001
 20
5.8082000000000003
 30
0.0
 40
0.0655
 50
143.74529999999999
 51
211.0241
  0
ARC
  5
81
  8
0
  6
CONTINUOUS
 10
1.115899999999999
 20
5.8227000000000002
 30
0.0
 40
0.0524
 50
318.41359999999997
 51
30.712
  0
ARC
  5
82
  8
0
  6
CONTINUOUS
 10
1.2652000000000001
 20
5.7476000000000003
 30
0.0
 40
0.162
 50
51.545899999999982
 51
127.83669999999999
  0
ARC
  5
83
  8
0
  6
CONTINUOUS
 10
5.4992000000000001
 20
5.4627999999999979
 30
0.0
 40
0.053
 50
219.88409999999999
 51
323.20949999999999
  0
ARC
  5
84
  8
0
  6
CONTINUOUS
 10
5.5323999999999991
 20
6.2697000000000003
 30
0.0
 40
0.3646
 50
241.3049
 51
259.36759999999998
  0
ARC
  5
85
  8
0
  6
CONTINUOUS
 10
5.5438999999999981
 20
6.0555000000000003
 30
0.0
 40
0.162
 50
51.546000000000006
 51
127.83669999999999
  0
ARC
  5
86
  8
0
  6
CONTINUOUS
 10
5.3944999999999981
 20
6.1306000000000003
 30
0.0
 40
0.0524
 50
318.4135
 51
30.7119
  0
ARC
  5
87
  8
0
  6
CONTINUOUS
 10
5.7012
 20
6.1161000000000003
 30
0.0
 40
0.0655
 50
143.74529999999999
 51
211.024
  0
ARC
  5
88
  8
0
  6
CONTINUOUS
 10
1.2538
 20
5.9618000000000002
 30
0.0
 40
0.3646
 50
279.99180000000001
 51
295.60120000000001
  0
ARC
  5
89
  8
0
  6
CONTINUOUS
 10
5.5323999999999991
 20
6.2697000000000003
 30
0.0
 40
0.3646
 50
279.99180000000001
 51
295.60120000000001
  0
ARC
  5
8A
  8
0
  6
CONTINUOUS
 10
2.6975999999999982
 20
3.0548999999999982
 30
0.0
 40
0.0768
 50
118.2114
 51
148.0395
  0
ARC
  5
8B
  8
0
  6
CONTINUOUS
 10
2.1985999999999981
 20
3.3454999999999981
 30
0.0
 40
0.5007000000000001
 50
318.90410000000003
 51
330.04289999999997
  0
ARC
  5
8C
  8
0
  6
CONTINUOUS
 10
2.5609999999999991
 20
3.091699999999999
 30
0.0
 40
0.0768
 50
251.5692
 51
281.22969999999998
  0
ARC
  5
8D
  8
0
  6
CONTINUOUS
 10
2.3096999999999981
 20
2.244699999999999
 30
0.0
 40
0.8067999999999997
 50
73.661100000000005
 51
82.40479999999998
  0
ARC
  5
8E
  8
0
  6
CONTINUOUS
 10
2.4437999999999991
 20
2.941399999999998
 30
0.0
 40
0.1066
 50
104.92619999999999
 51
130.0232
  0
ARC
  5
8F
  8
0
  6
CONTINUOUS
 10
2.419999999999999
 20
2.9729000000000001
 30
0.0
 40
0.0672
 50
131.76490000000001
 51
164.2278
  0
ARC
  5
90
  8
0
  6
CONTINUOUS
 10
2.429399999999998
 20
2.9721999999999982
 30
0.0
 40
0.0764
 50
165.60919999999999
 51
195.5309
  0
ARC
  5
91
  8
0
  6
CONTINUOUS
 10
2.415999999999999
 20
2.9672000000000001
 30
0.0
 40
0.0622
 50
194.38310000000001
 51
227.61779999999999
  0
ARC
  5
92
  8
0
  6
CONTINUOUS
 10
2.4018000000000002
 20
2.9580999999999982
 30
0.0
 40
0.0462
 50
233.12110000000001
 51
273.20319999999998
  0
ARC
  5
93
  8
0
  6
CONTINUOUS
 10
2.3856000000000002
 20
2.3014999999999981
 30
0.0
 40
0.6108000000000002
 50
77.776799999999994
 51
88.240799999999993
  0
ARC
  5
94
  8
0
  6
CONTINUOUS
 10
2.4390000000000001
 20
2.7587999999999981
 30
0.0
 40
0.1589
 50
40.427900000000001
 51
61.449100000000001
  0
ARC
  5
95
  8
0
  6
CONTINUOUS
 10
3.0070999999999981
 20
3.1600000000000001
 30
0.0
 40
0.5373000000000001
 50
213.69059999999999
 51
228.40020000000001
  0
ARC
  5
96
  8
0
  6
CONTINUOUS
 10
2.874899999999998
 20
2.4973000000000001
 30
0.0
 40
0.1018
 50
217.46260000000001
 51
243.16249999999999
  0
ARC
  5
97
  8
0
  6
CONTINUOUS
 10
2.694399999999999
 20
2.1768000000000001
 30
0.0
 40
0.2662
 50
50.579700000000003
 51
59.63659999999998
  0
ARC
  5
98
  8
0
  6
CONTINUOUS
 10
3.0575999999999981
 20
2.1173999999999991
 30
0.0
 40
0.0672
 50
203.26609999999999
 51
235.30690000000001
  0
ARC
  5
99
  8
0
  6
CONTINUOUS
 10
3.0417000000000001
 20
2.1072000000000002
 30
0.0
 40
0.0503
 50
243.53819999999999
 51
280.70699999999999
  0
ARC
  5
9A
  8
0
  6
CONTINUOUS
 10
3.0436999999999981
 20
2.1091000000000002
 30
0.0
 40
0.0518
 50
278.19099999999997
 51
314.77999999999997
  0
ARC
  5
9B
  8
0
  6
CONTINUOUS
 10
3.6019000000000001
 20
1.5427999999999991
 30
0.0
 40
0.7434
 50
125.16030000000001
 51
134.57640000000001
  0
ARC
  5
9C
  8
0
  6
CONTINUOUS
 10
3.3572000000000002
 20
1.919999999999999
 30
0.0
 40
0.2946
 50
119.7551
 51
128.495
  0
ARC
  5
9D
  8
0
  6
CONTINUOUS
 10
2.431099999999998
 20
3.9226000000000001
 30
0.0
 40
0.8362999999999999
 50
297.24709999999999
 51
303.17189999999999
  0
ARC
  5
9E
  8
0
  6
CONTINUOUS
 10
2.8317000000000001
 20
1.297199999999999
 30
0.0
 40
0.1211
 50
84.713800000000006
 51
108.1974
  0
ARC
  5
9F
  8
0
  6
CONTINUOUS
 10
2.8248999999999982
 20
1.393899999999999
 30
0.0
 40
0.0299
 50
4.6859000000000002
 51
53.021599999999999
  0
ARC
  5
A0
  8
0
  6
CONTINUOUS
 10
3.0539000000000001
 20
1.391899999999999
 30
0.0
 40
0.1993
 50
178.71850000000001
 51
207.97120000000001
  0
ARC
  5
A1
  8
0
  6
CONTINUOUS
 10
3.8530000000000002
 20
1.6348
 30
0.0
 40
0.9660999999999999
 50
210.9854
 51
219.22
  0
ARC
  5
A2
  8
0
  6
CONTINUOUS
 10
3.288199999999998
 20
1.203699999999998
 30
0.0
 40
0.257
 50
224.36199999999999
 51
240.46530000000001
  0
ARC
  5
A3
  8
0
  6
CONTINUOUS
 10
3.3041
 20
1.238299999999998
 30
0.0
 40
0.295
 50
241.10570000000001
 51
244.89879999999991
  0
ARC
  5
A4
  8
0
  6
CONTINUOUS
 10
2.8656999999999999
 20
5.664299999999999
 30
0.0
 40
0.04
 50
92.054299999999984
 51
177.92859999999999
  0
ARC
  5
A5
  8
0
  6
CONTINUOUS
 10
3.0196000000000001
 20
5.6698000000000004
 30
0.0
 40
0.04
 50
359.0752
 51
92.054299999999984
  0
ARC
  5
A6
  8
0
  6
CONTINUOUS
 10
3.151199999999998
 20
5.2949000000000002
 30
0.0
 40
0.03
 50
93.973799999999997
 51
223.17500000000001
  0
ARC
  5
A7
  8
0
  6
CONTINUOUS
 10
3.2705000000000002
 20
5.3032000000000004
 30
0.0
 40
0.03
 50
358.6293
 51
93.973799999999997
  0
ARC
  5
A8
  8
0
  6
CONTINUOUS
 10
3.2673000000000001
 20
5.1711
 30
0.0
 40
0.03
 50
223.17500000000001
 51
358.6293
  0
ARC
  5
A9
  8
0
  6
CONTINUOUS
 10
2.7675999999999981
 20
5.8593999999999991
 30
0.0
 40
2.1105
 50
262.1859
 51
267.72329999999999
  0
ARC
  5
AA
  8
0
  6
CONTINUOUS
 10
2.511899999999998
 20
3.8128000000000002
 30
0.0
 40
0.0543
 50
198.6156
 51
234.84270000000001
  0
ARC
  5
AB
  8
0
  6
CONTINUOUS
 10
2.5992000000000002
 20
3.840599999999998
 30
0.0
 40
0.1458
 50
176.50790000000001
 51
197.9965
  0
ARC
  5
AC
  8
0
  6
CONTINUOUS
 10
2.3275000000000001
 20
3.8401999999999989
 30
0.0
 40
0.1264
 50
4.2057000000000002
 51
27.1496
  0
ARC
  5
AD
  8
0
  6
CONTINUOUS
 10
2.374699999999998
 20
3.8534999999999999
 30
0.0
 40
0.079
 50
34.163600000000002
 51
63.563200000000002
  0
ARC
  5
AE
  8
0
  6
CONTINUOUS
 10
2.3100000000000001
 20
3.7452999999999981
 30
0.0
 40
0.2049
 50
60.850200000000001
 51
78.879099999999966
  0
ARC
  5
AF
  8
0
  6
CONTINUOUS
 10
2.1516999999999991
 20
3.1592999999999982
 30
0.0
 40
0.8115
 50
75.893199999999979
 51
78.861900000000006
  0
ARC
  5
B0
  8
0
  6
CONTINUOUS
 10
2.8614999999999982
 20
3.769099999999999
 30
0.0
 40
0.105
 50
294.95190000000002
 51
320.16219999999998
  0
ARC
  5
B1
  8
0
  6
CONTINUOUS
 10
2.886899999999998
 20
3.7372999999999981
 30
0.0
 40
0.0662
 50
254.6481
 51
286.63119999999998
  0
ARC
  5
B2
  8
0
  6
CONTINUOUS
 10
2.9233999999999978
 20
3.8860999999999981
 30
0.0
 40
0.2194
 50
242.37549999999999
 51
255.73079999999999
  0
ARC
  5
B3
  8
0
  6
CONTINUOUS
 10
4.0243000000000002
 20
5.3555000000000001
 30
0.0
 40
0.03
 50
93.973799999999997
 51
179.0009
  0
ARC
  5
B4
  8
0
  6
CONTINUOUS
 10
4.016499999999998
 20
4.9123000000000001
 30
0.0
 40
0.03
 50
179.0009
 51
318.58589999999998
  0
ARC
  5
B5
  8
0
  6
CONTINUOUS
 10
4.4325000000000001
 20
5.3838999999999979
 30
0.0
 40
0.03
 50
318.58589999999998
 51
93.973799999999997
  0
ARC
  5
B6
  8
0
  6
CONTINUOUS
 10
3.1088
 20
5.0799000000000003
 30
0.0
 40
0.03
 50
45.0229
 51
178.41059999999999
  0
ARC
  5
B7
  8
0
  6
CONTINUOUS
 10
3.2614999999999981
 20
4.927299999999998
 30
0.0
 40
0.03
 50
358.6293
 51
45.0229
  0
ARC
  5
B8
  8
0
  6
CONTINUOUS
 10
3.0724
 20
3.7677
 30
0.0
 40
0.03
 50
178.41059999999999
 51
245.84549999999999
  0
ARC
  5
B9
  8
0
  6
CONTINUOUS
 10
2.8570999999999982
 20
5.274499999999998
 30
0.0
 40
0.03
 50
93.973799999999997
 51
179.20490000000001
  0
ARC
  5
BA
  8
0
  6
CONTINUOUS
 10
2.7056
 20
5.2638999999999978
 30
0.0
 40
0.03
 50
359.20490000000001
 51
93.973799999999997
  0
ARC
  5
BB
  8
0
  6
CONTINUOUS
 10
2.8355000000000001
 20
3.7183000000000002
 30
0.0
 40
0.03
 50
179.2054
 51
242.6018
  0
ARC
  5
BC
  8
0
  6
CONTINUOUS
 10
2.9192
 20
3.7210999999999981
 30
0.0
 40
0.03
 50
320.06360000000001
 51
358.41059999999999
  0
ARC
  5
BD
  8
0
  6
CONTINUOUS
 10
3.233699999999998
 20
3.7667000000000002
 30
0.0
 40
0.03
 50
323.07130000000001
 51
358.6293
  0
ARC
  5
BE
  8
0
  6
CONTINUOUS
 10
2.6850000000000001
 20
3.7804999999999982
 30
0.0
 40
0.03
 50
267.51350000000002
 51
359.2054
  0
ARC
  5
BF
  8
0
  6
CONTINUOUS
 10
2.6493999999999991
 20
3.3094999999999981
 30
0.0
 40
0.03
 50
318.79180000000002
 51
66.837900000000005
  0
ARC
  5
C0
  8
0
  6
CONTINUOUS
 10
2.6754999999999991
 20
3.0962000000000001
 30
0.0
 40
0.03
 50
359.2054
 51
118.46550000000001
  0
ARC
  5
C1
  8
0
  6
CONTINUOUS
 10
2.8277000000000001
 20
3.1524000000000001
 30
0.0
 40
0.03
 50
117.188
 51
179.2054
  0
ARC
  5
C2
  8
0
  6
CONTINUOUS
 10
2.9045999999999981
 20
3.1972
 30
0.0
 40
0.03
 50
358.41059999999999
 51
122.1704
  0
ARC
  5
C3
  8
0
  6
CONTINUOUS
 10
3.0589999999999988
 20
3.284199999999998
 30
0.0
 40
0.03
 50
111.6099
 51
178.41059999999999
  0
ARC
  5
C4
  8
0
  6
CONTINUOUS
 10
3.222599999999999
 20
3.3029999999999982
 30
0.0
 40
0.03
 50
358.6293
 51
84.844399999999965
  0
ARC
  5
C5
  8
0
  6
CONTINUOUS
 10
2.671199999999998
 20
2.7797000000000001
 30
0.0
 40
0.03
 50
225.9615
 51
359.2054
  0
ARC
  5
C6
  8
0
  6
CONTINUOUS
 10
3.1962999999999981
 20
2.2019000000000002
 30
0.0
 40
0.03
 50
299.32990000000001
 51
358.6293
  0
ARC
  5
C7
  8
0
  6
CONTINUOUS
 10
2.882699999999998
 20
2.4054999999999991
 30
0.0
 40
0.03
 50
230.14859999999999
 51
358.41059999999999
  0
ARC
  5
C8
  8
0
  6
CONTINUOUS
 10
2.8179999999999978
 20
2.453599999999998
 30
0.0
 40
0.03
 50
179.2054
 51
217.38470000000001
  0
ARC
  5
C9
  8
0
  6
CONTINUOUS
 10
2.9989999999999992
 20
1.1220000000000001
 30
0.0
 40
0.03
 50
31.011900000000001
 51
178.4109
  0
ARC
  5
CA
  8
0
  6
CONTINUOUS
 10
3.166199999999999
 20
0.944
 30
0.0
 40
0.03
 50
358.62909999999999
 51
64.867099999999994
  0
ARC
  5
CB
  8
0
  6
CONTINUOUS
 10
2.8031000000000001
 20
1.383799999999999
 30
0.0
 40
0.03
 50
107.973
 51
179.20519999999999
  0
ARC
  5
CC
  8
0
  6
CONTINUOUS
 10
2.851599999999999
 20
1.2841
 30
0.0
 40
0.03
 50
358.41059999999999
 51
28.560500000000001
  0
ARC
  5
CD
  8
0
  6
CONTINUOUS
 10
2.6526000000000001
 20
1.4395999999999991
 30
0.0
 40
0.03
 50
359.20519999999999
 51
48.548000000000002
  0
ARC
  5
CE
  8
0
  6
CONTINUOUS
 10
5.6322000000000001
 20
6.1666999999999978
 30
0.0
 40
0.02
 50
323.74560000000002
 51
51.545799999999993
  0
ARC
  5
CF
  8
0
  6
CONTINUOUS
 10
5.4568000000000003
 20
6.1676000000000002
 30
0.0
 40
0.02
 50
127.83629999999999
 51
210.71190000000001
  0
ARC
  5
D0
  8
0
  6
CONTINUOUS
 10
1.178099999999999
 20
5.8597000000000001
 30
0.0
 40
0.02
 50
127.8368
 51
210.71170000000001
  0
ARC
  5
D1
  8
0
  6
CONTINUOUS
 10
1.353499999999999
 20
5.8587999999999978
 30
0.0
 40
0.02
 50
323.74549999999999
 51
51.54610000000001
  0
ARC
  5
D2
  8
0
  6
CONTINUOUS
 10
1.1809000000000001
 20
5.5739000000000001
 30
0.0
 40
0.03
 50
356.0609
 51
79.367500000000007
  0
ARC
  5
D3
  8
0
  6
CONTINUOUS
 10
1.3222
 20
5.5731000000000002
 30
0.0
 40
0.03
 50
99.992000000000004
 51
176.28909999999999
  0
ARC
  5
D4
  8
0
  6
CONTINUOUS
 10
1.320699999999998
 20
5.5502000000000002
 30
0.0
 40
0.03
 50
176.28909999999999
 51
273.9631
  0
ARC
  5
D5
  8
0
  6
CONTINUOUS
 10
1.1786000000000001
 20
5.5403000000000002
 30
0.0
 40
0.03
 50
273.9631
 51
356.0609
  0
ARC
  5
D6
  8
0
  6
CONTINUOUS
 10
1.152199999999999
 20
5.1559999999999979
 30
0.0
 40
0.03
 50
356.0609
 51
93.973600000000019
  0
ARC
  5
D7
  8
0
  6
CONTINUOUS
 10
1.2958000000000001
 20
5.1660000000000004
 30
0.0
 40
0.03
 50
93.973600000000019
 51
176.28909999999999
  0
ARC
  5
D8
  8
0
  6
CONTINUOUS
 10
5.4596
 20
5.8818000000000001
 30
0.0
 40
0.03
 50
356.0609
 51
79.367699999999999
  0
ARC
  5
D9
  8
0
  6
CONTINUOUS
 10
5.6009000000000002
 20
5.8810000000000002
 30
0.0
 40
0.03
 50
99.991699999999994
 51
176.28909999999999
  0
ARC
  5
DA
  8
0
  6
CONTINUOUS
 10
5.5987
 20
5.8465999999999978
 30
0.0
 40
0.03
 50
176.28909999999999
 51
273.96289999999999
  0
ARC
  5
DB
  8
0
  6
CONTINUOUS
 10
5.4565000000000001
 20
5.8367000000000004
 30
0.0
 40
0.03
 50
273.96289999999999
 51
356.0609
  0
ARC
  5
DC
  8
0
  6
CONTINUOUS
 10
5.4301000000000004
 20
5.453199999999998
 30
0.0
 40
0.03
 50
356.0609
 51
93.973799999999997
  0
ARC
  5
DD
  8
0
  6
CONTINUOUS
 10
5.5738000000000003
 20
5.4631999999999978
 30
0.0
 40
0.03
 50
93.973799999999997
 51
176.28909999999999
  0
ARC
  5
DE
  8
0
  6
CONTINUOUS
 10
3.2621000000000002
 20
1.5243
 30
0.0
 40
0.1722
 50
123.867
 51
233.39109999999999
  0
ARC
  5
DF
  8
0
  6
CONTINUOUS
 10
3.1829000000000001
 20
1.6423000000000001
 30
0.0
 40
0.03
 50
358.62909999999999
 51
123.8669
  0
ARC
  5
E0
  8
0
  6
CONTINUOUS
 10
3.177299999999998
 20
1.4101999999999979
 30
0.0
 40
0.03
 50
233.39109999999999
 51
358.62909999999999
  0
ARC
  5
E1
  8
0
  6
CONTINUOUS
 10
-0.4652000000000001
 20
-1.236199999999998
 30
0.0
 40
4.274099999999998
 50
47.480799999999981
 51
51.4084
  0
ARC
  5
E2
  8
0
  6
CONTINUOUS
 10
2.2804999999999991
 20
1.8171999999999979
 30
0.0
 40
0.1726
 50
14.3871
 51
34.121600000000001
  0
ARC
  5
E3
  8
0
  6
CONTINUOUS
 10
2.3166999999999991
 20
1.8329
 30
0.0
 40
0.1338
 50
349.03120000000001
 51
11.726599999999999
  0
ARC
  5
E4
  8
0
  6
CONTINUOUS
 10
3.3599000000000001
 20
1.678199999999999
 30
0.0
 40
0.9208999999999999
 50
171.93299999999999
 51
180.3578
  0
ARC
  5
E5
  8
0
  6
CONTINUOUS
 10
2.5436000000000001
 20
1.6956999999999991
 30
0.0
 40
0.1072
 50
192.52930000000001
 51
217.90190000000001
  0
ARC
  5
E6
  8
0
  6
CONTINUOUS
 10
2.8010000000000002
 20
1.8963000000000001
 30
0.0
 40
0.4335
 50
217.9222
 51
230.43520000000001
  0
ARC
  5
E7
  8
0
  6
CONTINUOUS
 10
2.7679
 20
1.8086999999999991
 30
0.0
 40
0.3463
 50
225.4247
 51
239.46960000000001
  0
ARC
  5
E8
  8
0
  6
CONTINUOUS
 10
2.4992000000000001
 20
1.264899999999999
 30
0.0
 40
0.2624
 50
48.708500000000001
 51
69.302899999999994
  0
ARC
  5
E9
  8
0
  6
CONTINUOUS
 10
1.903899999999999
 20
2.141
 30
0.0
 40
0.125
 50
58.478900000000003
 51
82.763599999999997
  0
ARC
  5
EA
  8
0
  6
CONTINUOUS
 10
2.1230000000000002
 20
2.0066000000000002
 30
0.0
 40
0.125
 50
51.496299999999991
 51
58.478900000000003
  0
ARC
  5
EB
  8
0
  6
CONTINUOUS
 10
3.5293000000000001
 20
2.4695
 30
0.0
 40
4.5662000000000003
 50
92.351900000000015
 51
93.968100000000007
  0
ARC
  5
EC
  8
0
  6
CONTINUOUS
 10
2.4982999999999991
 20
3.7054
 30
0.0
 40
4.185299999999998
 50
344.00510000000003
 51
15.994899999999999
  0
ARC
  5
ED
  8
0
  6
CONTINUOUS
 10
4.560299999999998
 20
3.7054
 30
0.0
 40
4.185299999999998
 50
164.0051
 51
195.99489999999989
  0
ARC
  5
EE
  8
0
  6
CONTINUOUS
 10
4.560299999999998
 20
3.7054
 30
0.0
 40
4.560299999999998
 50
164.0052
 51
195.99489999999989
  0
ARC
  5
EF
  8
0
  6
CONTINUOUS
 10
2.4982999999999991
 20
3.7054
 30
0.0
 40
4.560299999999998
 50
344.00510000000003
 51
15.994899999999999
  0
ARC
  5
F0
  8
0
  6
CONTINUOUS
 10
3.5293000000000001
 20
2.4695
 30
0.0
 40
4.9412000000000003
 50
86.031899999999965
 51
93.968100000000007
  0
ARC
  5
F1
  8
0
  6
CONTINUOUS
 10
3.5293000000000001
 20
4.9412000000000003
 30
0.0
 40
4.9412000000000003
 50
266.03190000000001
 51
273.96809999999999
  0
ARC
  5
F2
  8
0
  6
CONTINUOUS
 10
3.4209000000000001
 20
3.3788
 30
0.0
 40
3.0
 50
195.99489999999989
 51
254.75059999999999
  0
ARC
  5
F3
  8
0
  6
CONTINUOUS
 10
3.6377000000000002
 20
3.3788
 30
0.0
 40
3.0
 50
275.80869999999999
 51
344.00510000000003
  0
ARC
  5
F4
  8
0
  6
CONTINUOUS
 10
3.6377000000000002
 20
4.032
 30
0.0
 40
3.0
 50
15.994899999999999
 51
82.618799999999965
  0
ARC
  5
F5
  8
0
  6
CONTINUOUS
 10
3.4209000000000001
 20
4.032
 30
0.0
 40
3.0
 50
93.968100000000007
 51
164.0051
  0
ARC
  5
F6
  8
0
  6
CONTINUOUS
 10
3.4209000000000001
 20
4.032
 30
0.0
 40
3.375
 50
93.968100000000007
 51
164.0051
  0
ARC
  5
F7
  8
0
  6
CONTINUOUS
 10
3.6377000000000002
 20
4.032
 30
0.0
 40
3.375
 50
15.994899999999999
 51
86.031899999999965
  0
ARC
  5
F8
  8
0
  6
CONTINUOUS
 10
3.6377000000000002
 20
3.3788
 30
0.0
 40
3.375
 50
273.96809999999999
 51
344.00510000000003
  0
ARC
  5
F9
  8
0
  6
CONTINUOUS
 10
3.4209000000000001
 20
3.3788
 30
0.0
 40
3.375
 50
195.99489999999989
 51
266.03190000000001
  0
ARC
  5
FA
  8
0
  6
CONTINUOUS
 10
3.4209000000000001
 20
3.3788
 30
0.0
 40
3.0
 50
257.7466
 51
258.50330000000002
  0
ARC
  5
FB
  8
0
  6
CONTINUOUS
 10
3.4209000000000001
 20
3.3788
 30
0.0
 40
3.0
 50
261.46539999999999
 51
264.83799999999991
  0
ARC
  5
FC
  8
0
  6
CONTINUOUS
 10
2.9801000000000002
 20
0.4416000000000002
 30
0.0
 40
0.03
 50
178.41079999999999
 51
261.46530000000001
  0
ARC
  5
FD
  8
0
  6
CONTINUOUS
 10
3.1537000000000002
 20
0.4208000000000001
 30
0.0
 40
0.03
 50
264.83799999999991
 51
358.62909999999999
  0
ARC
  5
FE
  8
0
  6
CONTINUOUS
 10
3.9382000000000001
 20
0.4240000000000001
 30
0.0
 40
0.03
 50
179.00069999999999
 51
275.80880000000002
  0
ARC
  5
FF
  8
0
  6
CONTINUOUS
 10
2.8288999999999982
 20
0.4683
 30
0.0
 40
0.03
 50
258.5034
 51
358.41079999999999
  0
ARC
  5
100
  8
0
  6
CONTINUOUS
 10
2.7905000000000002
 20
0.4764000000000002
 30
0.0
 40
0.03
 50
179.20519999999999
 51
257.74680000000001
  0
ARC
  5
101
  8
0
  6
CONTINUOUS
 10
2.639699999999999
 20
0.5133
 30
0.0
 40
0.03
 50
254.75049999999999
 51
359.20530000000002
  0
ARC
  5
102
  8
0
  6
CONTINUOUS
 10
2.1714000000000002
 20
3.9801999999999982
 30
0.0
 40
0.025
 50
95.346799999999988
 51
275.34679999999997
  0
ARC
  5
103
  8
0
  6
CONTINUOUS
 10
2.0706999999999991
 20
4.1432999999999991
 30
0.0
 40
0.2252
 50
345.81439999999998
 51
3.6830999999999992
  0
ARC
  5
104
  8
0
  6
CONTINUOUS
 10
2.566199999999998
 20
4.2530000000000001
 30
0.0
 40
0.2871
 50
191.12520000000001
 51
199.38319999999999
  0
ARC
  5
105
  8
0
  6
CONTINUOUS
 10
2.3267999999999991
 20
4.1816000000000004
 30
0.0
 40
0.0453
 50
105.6917
 51
159.2671
  0
ARC
  5
106
  8
0
  6
CONTINUOUS
 10
2.306099999999998
 20
4.267999999999998
 30
0.0
 40
0.0436
 50
281.26560000000001
 51
339.79180000000002
  0
ARC
  5
107
  8
0
  6
CONTINUOUS
 10
2.2433999999999981
 20
4.1867999999999981
 30
0.0
 40
0.1229
 50
32.5139
 51
51.669699999999999
  0
ARC
  5
108
  8
0
  6
CONTINUOUS
 10
2.3538000000000001
 20
4.3277999999999981
 30
0.0
 40
0.0562
 50
174.4512
 51
232.49979999999999
  0
ARC
  5
109
  8
0
  6
CONTINUOUS
 10
2.335599999999999
 20
4.3196000000000003
 30
0.0
 40
0.0402
 50
102.1876
 51
160.15020000000001
  0
ARC
  5
10A
  8
0
  6
CONTINUOUS
 10
2.2835000000000001
 20
4.5374999999999979
 30
0.0
 40
0.1839
 50
283.72879999999998
 51
303.31729999999999
  0
ARC
  5
10B
  8
0
  6
CONTINUOUS
 10
2.3515000000000001
 20
4.399099999999998
 30
0.0
 40
0.0364
 50
335.1866
 51
35.9895
  0
ARC
  5
10C
  8
0
  6
CONTINUOUS
 10
2.2951000000000001
 20
4.3704000000000001
 30
0.0
 40
0.0994
 50
30.2774
 51
93.594499999999996
  0
ARC
  5
10D
  8
0
  6
CONTINUOUS
 10
2.3165
 20
4.5110999999999981
 30
0.0
 40
0.0499
 50
183.42670000000001
 51
236.4171
  0
ARC
  5
10E
  8
0
  6
CONTINUOUS
 10
1.8451
 20
4.4377000000000004
 30
0.0
 40
0.4275000000000002
 50
9.4870000000000001
 51
18.331900000000001
  0
ARC
  5
10F
  8
0
  6
CONTINUOUS
 10
2.1394000000000002
 20
4.5163000000000002
 30
0.0
 40
0.1247
 50
26.595900000000011
 51
69.122600000000006
  0
ARC
  5
110
  8
0
  6
CONTINUOUS
 10
1.625
 20
3.5059
 30
0.0
 40
1.2578
 50
63.62339999999999
 51
69.823499999999996
  0
ARC
  5
111
  8
0
  6
CONTINUOUS
 10
1.986499999999999
 20
4.4687000000000001
 30
0.0
 40
0.2296
 50
71.63339999999998
 51
109.1555
  0
ARC
  5
112
  8
0
  6
CONTINUOUS
 10
1.996999999999999
 20
4.425399999999998
 30
0.0
 40
0.2739
 50
108.26609999999999
 51
178.4631
  0
ARC
  5
113
  8
0
  6
CONTINUOUS
 10
0.7533
 20
4.3159999999999981
 30
0.0
 40
0.9769
 50
2.4685000000000001
 51
6.8672000000000004
  0
ARC
  5
114
  8
0
  6
CONTINUOUS
 10
1.6692999999999989
 20
4.365899999999999
 30
0.0
 40
0.0605
 50
278.94479999999999
 51
352.5213
  0
ARC
  5
115
  8
0
  6
CONTINUOUS
 10
1.7320999999999991
 20
4.1901000000000002
 30
0.0
 40
0.1277
 50
114.7131
 51
148.6721
  0
ARC
  5
116
  8
0
  6
CONTINUOUS
 10
1.7030000000000001
 20
4.2160000000000002
 30
0.0
 40
0.0897
 50
153.13839999999999
 51
284.30603738836942
  0
ARC
  5
118
  8
0
  6
CONTINUOUS
 10
1.6931
 20
4.1558000000000002
 30
0.0
 40
0.0887
 50
305.33280000000002
 51
306.89519734158648
  0
ARC
  5
119
  8
0
  6
CONTINUOUS
 10
2.0083999999999991
 20
3.7473999999999981
 30
0.0
 40
0.4274
 50
128.15479999999999
 51
142.35769999999999
  0
ARC
  5
11A
  8
0
  6
CONTINUOUS
 10
2.1122999999999981
 20
3.7147999999999981
 30
0.0
 40
0.5308000000000001
 50
146.41980000000001
 51
158.8237
  0
ARC
  5
11B
  8
0
  6
CONTINUOUS
 10
5.2644000000000002
 20
2.1171000000000002
 30
0.0
 40
4.0625
 50
153.86449999999999
 51
157.5506
  0
ARC
  5
11C
  8
0
  6
CONTINUOUS
 10
2.061199999999999
 20
3.6627000000000001
 30
0.0
 40
0.5514000000000002
 50
179.40479999999999
 51
191.13079999999999
  0
ARC
  5
11D
  8
0
  6
CONTINUOUS
 10
0.9848
 20
3.4929999999999981
 30
0.0
 40
0.5390000000000002
 50
334.07260000000002
 51
6.7379999999999978
  0
ARC
  5
11E
  8
0
  6
CONTINUOUS
 10
5.210099999999998
 20
1.4855999999999989
 30
0.0
 40
4.1388999999999978
 50
154.6559
 51
158.60740000000001
  0
ARC
  5
11F
  8
0
  6
CONTINUOUS
 10
2.8964999999999979
 20
2.7038000000000002
 30
0.0
 40
1.567499999999999
 50
169.28210000000001
 51
174.13249999999999
  0
ARC
  5
120
  8
0
  6
CONTINUOUS
 10
2.3719000000000001
 20
2.685099999999998
 30
0.0
 40
1.05
 50
170.18819999999999
 51
176.5454
  0
ARC
  5
121
  8
0
  6
CONTINUOUS
 10
1.359799999999999
 20
2.7461000000000002
 30
0.0
 40
0.036
 50
176.37819999999999
 51
244.11019999999999
  0
ARC
  5
122
  8
0
  6
CONTINUOUS
 10
1.3621000000000001
 20
3.0712000000000002
 30
0.0
 40
0.3579
 50
267.1096
 51
273.51729999999998
  0
ARC
  5
123
  8
0
  6
CONTINUOUS
 10
1.3769
 20
2.6873
 30
0.0
 40
0.0276
 50
353.95530000000002
 51
74.955899999999986
  0
ARC
  5
124
  8
0
  6
CONTINUOUS
 10
1.3321000000000001
 20
2.6774
 30
0.0
 40
0.0725
 50
293.0804
 51
5.5331000000000001
  0
ARC
  5
125
  8
0
  6
CONTINUOUS
 10
1.271099999999999
 20
4.0221
 30
0.0
 40
1.414299999999999
 50
271.4966
 51
273.62670000000008
  0
ARC
  5
126
  8
0
  6
CONTINUOUS
 10
1.3176000000000001
 20
2.5638999999999981
 30
0.0
 40
0.0454
 50
102.1699
 51
181.3443
  0
ARC
  5
127
  8
0
  6
CONTINUOUS
 10
1.3599000000000001
 20
2.5514999999999981
 30
0.0
 40
0.0884
 50
172.65119999999999
 51
257.75479999999999
  0
ARC
  5
128
  8
0
  6
CONTINUOUS
 10
1.3021
 20
2.447299999999998
 30
0.0
 40
0.0429
 50
325.84350000000001
 51
24.518999999999998
  0
ARC
  5
129
  8
0
  6
CONTINUOUS
 10
1.7968999999999991
 20
2.195399999999998
 30
0.0
 40
0.5127
 50
153.61429999999999
 51
162.69290000000001
  0
ARC
  5
12A
  8
0
  6
CONTINUOUS
 10
1.3727
 20
2.333299999999999
 30
0.0
 40
0.0669
 50
167.43039999999999
 51
237.64259999999999
  0
ARC
  5
12B
  8
0
  6
CONTINUOUS
 10
0.9426999999999999
 20
1.554999999999999
 30
0.0
 40
0.8224999999999999
 50
57.004899999999999
 51
61.36140000000001
  0
ARC
  5
12C
  8
0
  6
CONTINUOUS
 10
1.357799999999999
 20
2.212499999999999
 30
0.0
 40
0.0461
 50
337.56970000000001
 51
44.5349
  0
ARC
  5
12D
  8
0
  6
CONTINUOUS
 10
1.7644999999999991
 20
2.1126
 30
0.0
 40
0.3733
 50
167.26150000000001
 51
177.43209999999999
  0
ARC
  5
12E
  8
0
  6
CONTINUOUS
 10
1.4631000000000001
 20
2.1319999999999988
 30
0.0
 40
0.0715
 50
182.14579999999989
 51
276.24639999999999
  0
ARC
  5
12F
  8
0
  6
CONTINUOUS
 10
1.4366000000000001
 20
2.1057000000000001
 30
0.0
 40
0.0564
 50
307.38760000000002
 51
3.9498999999999991
  0
ARC
  5
130
  8
0
  6
CONTINUOUS
 10
3.1017000000000001
 20
2.1583999999999981
 30
0.0
 40
1.609599999999999
 50
180.03572278664041
 51
181.73660000000001
  0
ARC
  5
132
  8
0
  6
CONTINUOUS
 10
1.2594000000000001
 20
1.3229999999999991
 30
0.0
 40
0.8983
 50
68.825699999999998
 51
72.837188601953102
  0
ARC
  5
133
  8
0
  6
CONTINUOUS
 10
1.595499999999999
 20
2.1819000000000002
 30
0.0
 40
0.0242
 50
241.37360000000001
 51
318.67660000000001
  0
ARC
  5
134
  8
0
  6
CONTINUOUS
 10
1.5407
 20
2.1955
 30
0.0
 40
0.0786
 50
337.87349999999998
 51
5.8635000000000002
  0
ARC
  5
135
  8
0
  6
CONTINUOUS
 10
1.8106999999999991
 20
2.2168999999999981
 30
0.0
 40
0.1922
 50
162.85839999999999
 51
183.97620000000001
  0
ARC
  5
136
  8
0
  6
CONTINUOUS
 10
1.2998000000000001
 20
2.4659999999999989
 30
0.0
 40
0.3797
 50
329.5453
 51
338.60210000000001
  0
ARC
  5
137
  8
0
  6
CONTINUOUS
 10
1.5421
 20
2.3347000000000002
 30
0.0
 40
0.1114
 50
356.29539999999997
 51
10.61655630381045
  0
ARC
  5
13A
  8
0
  6
CONTINUOUS
 10
3.686399999999999
 20
4.792399999999998
 30
0.0
 40
3.1307
 50
230.43024965721341
 51
232.44970000000001
  0
ARC
  5
13B
  8
0
  6
CONTINUOUS
 10
1.9411
 20
2.5777000000000001
 30
0.0
 40
0.313
 50
238.67769999999999
 51
264.2405
  0
ARC
  5
13C
  8
0
  6
CONTINUOUS
 10
2.1909000000000001
 20
4.1075999999999979
 30
0.0
 40
0.1
 50
275.34649999999999
 51
348.72809999999998
  0
ARC
  5
13D
  8
0
  6
CONTINUOUS
 10
2.289099999999999
 20
3.8574000000000002
 30
0.0
 40
0.1
 50
78.803700000000006
 51
91.042500000000018
  0
ARC
  5
143
  8
0
  6
CONTINUOUS
 10
1.7313424983232351
 20
4.1048568815049817
 30
0.0
 40
0.025
 50
306.89519734158682
 51
104.3060373883694
  0
ARC
  5
146
  8
0
  6
CONTINUOUS
 10
1.5171003079888801
 20
2.157412033267998
 30
0.0
 40
0.025
 50
72.837188601952775
 51
180.03572278663989
  0
ARC
  5
148
  8
0
  6
CONTINUOUS
 10
1.6761651256911001
 20
2.3598297050008421
 30
0.0
 40
0.025
 50
50.43024965721667
 51
190.61655630381091
  0
ENDSEC
  0
EOF
