0
SECTION
2
ENTITIES
0
LINE
8
4
62
7
10
0.004238
20
4.515438
30
0.0
11
0.004238
21
0.512398
31
0.0
0
ARC
8
4
62
7
10
0.504618
20
4.515438
30
0.0
40
0.50038
50
90.0
51
180.0
0
LINE
8
4
62
7
10
13.514498
20
5.015818
30
0.0
11
0.504618
21
5.015818
31
0.0
0
ARC
8
4
62
7
10
13.514498
20
4.515438
30
0.0
40
0.50038
50
0.0
51
90.0
0
LINE
8
4
62
7
10
14.014878
20
0.512398
30
0.0
11
14.014878
21
4.515438
31
0.0
0
ARC
8
4
62
7
10
13.514498
20
0.512398
30
0.0
40
0.50038
50
270.0
51
360.0
0
LINE
8
4
62
7
10
0.504618
20
0.012018
30
0.0
11
13.514498
21
0.012018
31
0.0
0
ARC
8
4
62
7
10
0.504618
20
0.512398
30
0.0
40
0.50038
50
180.0
51
270.0
0
TEXT
8
5
62
7
10
7.408698
20
3.312581
30
0.0
40
0.38612
1
MANUFACTURED FOR
72
1
73
2
11
7.408698
21
3.312581
31
0.0
0
TEXT
8
5
62
7
10
7.1465
20
1.665928
30
0.0
40
0.38612
1
BY
72
1
73
2
11
7.1465
21
1.665928
31
0.0
0
TEXT
8
5
62
7
10
10.045955
20
1.060584
30
0.0
40
0.38612
1
R.A. JONES & CO. INC., COVINGTON, KENTUCKY, U.S.A.
72
1
73
2
11
10.045955
21
1.060584
31
0.0
0
LINE
8
5
62
7
10
0.0
20
0.0
30
0.0
11
14.0
21
0.0
31
0.0
0
LINE
8
5
62
7
10
14.0
20
0.0
30
0.0
11
14.0
21
5.0
31
0.0
0
LINE
8
5
62
7
10
14.0
20
5.0
30
0.0
11
0.0
21
5.0
31
0.0
0
LINE
8
5
62
7
10
0.0
20
5.0
30
0.0
11
0.0
21
0.0
31
0.0
0
ENDSEC
0
EOF
