  0
SECTION
  2
HEADER
  9
$ACADVER
  1
AC1009
  9
$DWGCODEPAGE
  3
ansi_1252
  9
$INSBASE
 10
0.0
 20
0.0
 30
0.0
  9
$EXTMIN
 10
3.127271
 20
1.853974
 30
0.0
  9
$EXTMAX
 10
144.493121
 20
64.317089
 30
0.0
  9
$LIMMIN
 10
0.0
 20
0.0
  9
$LIMMAX
 10
12.0
 20
9.0
  9
$ORTHOMODE
 70
     0
  9
$REGENMODE
 70
     1
  9
$FILLMODE
 70
     1
  9
$QTEXTMODE
 70
     0
  9
$MIRRTEXT
 70
     1
  9
$DRAGMODE
 70
     2
  9
$LTSCALE
 40
1.0
  9
$OSMODE
 70
    37
  9
$ATTMODE
 70
     1
  9
$TEXTSIZE
 40
0.2
  9
$TRACEWID
 40
0.05
  9
$TEXTSTYLE
  7
STANDARD
  9
$CLAYER
  8
0
  9
$CELTYPE
  6
BYBLOCK
  9
$CECOLOR
 62
   256
  9
$DIMSCALE
 40
1.0
  9
$DIMASZ
 40
0.18
  9
$DIMEXO
 40
0.0625
  9
$DIMDLI
 40
0.38
  9
$DIMRND
 40
0.0
  9
$DIMDLE
 40
0.0
  9
$DIMEXE
 40
0.18
  9
$DIMTP
 40
0.0
  9
$DIMTM
 40
0.0
  9
$DIMTXT
 40
0.18
  9
$DIMCEN
 40
0.09
  9
$DIMTSZ
 40
0.0
  9
$DIMTOL
 70
     0
  9
$DIMLIM
 70
     0
  9
$DIMTIH
 70
     1
  9
$DIMTOH
 70
     1
  9
$DIMSE1
 70
     0
  9
$DIMSE2
 70
     0
  9
$DIMTAD
 70
     0
  9
$DIMZIN
 70
     0
  9
$DIMBLK
  1

  9
$DIMASO
 70
     1
  9
$DIMSHO
 70
     1
  9
$DIMPOST
  1

  9
$DIMAPOST
  1

  9
$DIMALT
 70
     0
  9
$DIMALTD
 70
     2
  9
$DIMALTF
 40
25.4
  9
$DIMLFAC
 40
1.0
  9
$DIMTOFL
 70
     0
  9
$DIMTVP
 40
0.0
  9
$DIMTIX
 70
     0
  9
$DIMSOXD
 70
     0
  9
$DIMSAH
 70
     0
  9
$DIMBLK1
  1

  9
$DIMBLK2
  1

  9
$DIMSTYLE
  2
STANDARD
  9
$DIMCLRD
 70
     0
  9
$DIMCLRE
 70
     0
  9
$DIMCLRT
 70
     0
  9
$DIMTFAC
 40
1.0
  9
$DIMGAP
 40
0.09
  9
$LUNITS
 70
     2
  9
$LUPREC
 70
     4
  9
$SKETCHINC
 40
0.1
  9
$FILLETRAD
 40
0.5
  9
$AUNITS
 70
     0
  9
$AUPREC
 70
     0
  9
$MENU
  1
.
  9
$ELEVATION
 40
0.0
  9
$PELEVATION
 40
0.0
  9
$THICKNESS
 40
0.0
  9
$LIMCHECK
 70
     0
  9
$CHAMFERA
 40
0.5
  9
$CHAMFERB
 40
0.5
  9
$SKPOLY
 70
     0
  9
$TDCREATE
 40
2453353.508792488
  9
$TDUPDATE
 40
4910445.855715555
  9
$TDINDWG
 40
4895786.051922963
  9
$TDUSRTIMER
 40
4895786.051922963
  9
$USRTIMER
 70
     1
  9
$ANGBASE
 50
0.0
  9
$ANGDIR
 70
     0
  9
$PDMODE
 70
     0
  9
$PDSIZE
 40
0.0
  9
$PLINEWID
 40
0.0
  9
$COORDS
 70
     1
  9
$SPLFRAME
 70
     0
  9
$SPLINETYPE
 70
     6
  9
$SPLINESEGS
 70
     8
  9
$ATTDIA
 70
     0
  9
$ATTREQ
 70
     1
  9
$HANDLING
 70
     1
  9
$HANDSEED
  5
6F2
  9
$SURFTAB1
 70
     6
  9
$SURFTAB2
 70
     6
  9
$SURFTYPE
 70
     6
  9
$SURFU
 70
     6
  9
$SURFV
 70
     6
  9
$UCSNAME
  2

  9
$UCSORG
 10
0.0
 20
0.0
 30
0.0
  9
$UCSXDIR
 10
1.0
 20
0.0
 30
0.0
  9
$UCSYDIR
 10
0.0
 20
1.0
 30
0.0
  9
$PUCSNAME
  2

  9
$PUCSORG
 10
0.0
 20
0.0
 30
0.0
  9
$PUCSXDIR
 10
1.0
 20
0.0
 30
0.0
  9
$PUCSYDIR
 10
0.0
 20
1.0
 30
0.0
  9
$USERI1
 70
     0
  9
$USERI2
 70
     0
  9
$USERI3
 70
     0
  9
$USERI4
 70
     0
  9
$USERI5
 70
     0
  9
$USERR1
 40
0.0
  9
$USERR2
 40
0.0
  9
$USERR3
 40
0.0
  9
$USERR4
 40
0.0
  9
$USERR5
 40
0.0
  9
$WORLDVIEW
 70
     1
  9
$SHADEDGE
 70
     3
  9
$SHADEDIF
 70
    70
  9
$TILEMODE
 70
     1
  9
$MAXACTVP
 70
    64
  9
$PLIMCHECK
 70
     0
  9
$PEXTMIN
 10
0.0
 20
0.0
 30
0.0
  9
$PEXTMAX
 10
0.0
 20
0.0
 30
0.0
  9
$PLIMMIN
 10
0.0
 20
0.0
  9
$PLIMMAX
 10
0.0
 20
0.0
  9
$UNITMODE
 70
     0
  9
$VISRETAIN
 70
     1
  9
$PLINEGEN
 70
     0
  9
$PSLTSCALE
 70
     1
  0
ENDSEC
  0
SECTION
  2
TABLES
  0
TABLE
  2
VPORT
 70
     1
  0
VPORT
  2
*ACTIVE
 70
     0
 10
0.0
 20
0.0
 11
1.0
 21
1.0
 12
58.00142053383846
 22
28.50845374960042
 13
0.0
 23
0.0
 14
0.5
 24
0.5
 15
0.5
 25
0.5
 16
0.0
 26
0.0
 36
1.0
 17
0.0
 27
0.0
 37
0.0
 40
104.8743466836144
 41
1.972972972850329
 42
50.0
 43
0.0
 44
0.0
 50
0.0
 51
0.0
 71
    16
 72
   100
 73
     1
 74
     3
 75
     0
 76
     0
 77
     0
 78
     0
  0
ENDTAB
  0
TABLE
  2
LTYPE
 70
     1
  0
LTYPE
  2
CONTINUOUS
 70
     0
  3
Solid line
 72
    65
 73
     0
 40
0.0
  0
ENDTAB
  0
TABLE
  2
LAYER
 70
     2
  0
LAYER
  2
0
 70
     0
 62
     7
  6
CONTINUOUS
  0
LAYER
  2
LAYER_1
 70
     0
 62
     7
  6
CONTINUOUS
  0
ENDTAB
  0
TABLE
  2
STYLE
 70
     1
  0
STYLE
  2
STANDARD
 70
     0
 40
0.0
 41
1.0
 50
0.0
 71
     0
 42
0.2
  3
txt
  4

  0
ENDTAB
  0
TABLE
  2
VIEW
 70
     0
  0
ENDTAB
  0
TABLE
  2
UCS
 70
     0
  0
ENDTAB
  0
TABLE
  2
APPID
 70
     1
  0
APPID
  2
ACAD
 70
     0
  0
ENDTAB
  0
TABLE
  2
DIMSTYLE
 70
     1
  0
DIMSTYLE
  2
STANDARD
 70
     0
  3

  4

  5

  6

  7

 40
1.0
 41
0.18
 42
0.0625
 43
0.38
 44
0.18
 45
0.0
 46
0.0
 47
0.0
 48
0.0
140
0.18
141
0.09
142
0.0
143
25.4
144
1.0
145
0.0
146
1.0
147
0.09
 71
     0
 72
     0
 73
     1
 74
     1
 75
     0
 76
     0
 77
     0
 78
     0
170
     0
171
     2
172
     0
173
     0
174
     0
175
     0
176
     0
177
     0
178
     0
  0
ENDTAB
  0
ENDSEC
  0
SECTION
  2
BLOCKS
  0
BLOCK
  8
0
  2
$MODEL_SPACE
 70
     0
 10
0.0
 20
0.0
 30
0.0
  3
$MODEL_SPACE
  1

  0
ENDBLK
  5
21
  8
0
  0
BLOCK
 67
     1
  8
0
  2
$PAPER_SPACE
 70
     0
 10
0.0
 20
0.0
 30
0.0
  3
$PAPER_SPACE
  1

  0
ENDBLK
  5
76
 67
     1
  8
0
  0
ENDSEC
  0
SECTION
  2
ENTITIES
  0
LINE
  5
1A2
  8
LAYER_1
 10
54.350604
 20
5.449909
 30
0.0
 11
49.39785
 21
6.181041
 31
0.0
  0
LINE
  5
1A3
  8
LAYER_1
 10
49.39785
 20
6.181041
 30
0.0
 11
44.694701
 21
7.141514
 31
0.0
  0
LINE
  5
1A4
  8
LAYER_1
 10
44.694701
 20
7.141514
 30
0.0
 11
40.215515
 21
8.340968
 31
0.0
  0
LINE
  5
1A5
  8
LAYER_1
 10
40.215515
 20
8.340968
 30
0.0
 11
35.934651
 21
9.789044000000001
 31
0.0
  0
LINE
  5
1A6
  8
LAYER_1
 10
35.934651
 20
9.789044000000001
 30
0.0
 11
31.82647
 21
11.495384
 31
0.0
  0
LINE
  5
1A7
  8
LAYER_1
 10
31.82647
 20
11.495384
 30
0.0
 11
27.865329
 21
13.46963
 31
0.0
  0
LINE
  5
1A8
  8
LAYER_1
 10
27.865329
 20
13.46963
 30
0.0
 11
24.025589
 21
15.721422
 31
0.0
  0
LINE
  5
1A9
  8
LAYER_1
 10
24.025589
 20
15.721422
 30
0.0
 11
20.281608
 21
18.260401
 31
0.0
  0
LINE
  5
1AA
  8
LAYER_1
 10
20.281608
 20
18.260401
 30
0.0
 11
18.374223
 21
19.784578
 31
0.0
  0
LINE
  5
1AB
  8
LAYER_1
 10
18.374223
 20
19.784578
 30
0.0
 11
16.191756
 21
21.755344
 31
0.0
  0
LINE
  5
1AC
  8
LAYER_1
 10
16.191756
 20
21.755344
 30
0.0
 11
11.610142
 21
26.382059
 31
0.0
  0
LINE
  5
1AD
  8
LAYER_1
 10
11.610142
 20
26.382059
 30
0.0
 11
7.753891
 21
30.831369
 31
0.0
  0
LINE
  5
1AE
  8
LAYER_1
 10
7.753891
 20
30.831369
 30
0.0
 11
6.478128
 21
32.58038
 31
0.0
  0
LINE
  5
1AF
  8
LAYER_1
 10
6.478128
 20
32.58038
 30
0.0
 11
5.840127
 21
33.794099
 31
0.0
  0
LINE
  5
1B0
  8
LAYER_1
 10
5.840127
 20
33.794099
 30
0.0
 11
5.858423
 21
34.292824
 31
0.0
  0
LINE
  5
1B1
  8
LAYER_1
 10
5.858423
 20
34.292824
 30
0.0
 11
6.310822
 21
34.998352
 31
0.0
  0
LINE
  5
1B2
  8
LAYER_1
 10
6.310822
 20
34.998352
 30
0.0
 11
9.219544000000001
 21
37.877603
 31
0.0
  0
LINE
  5
1B3
  8
LAYER_1
 10
9.219544000000001
 20
37.877603
 30
0.0
 11
13.831184
 21
41.933326
 31
0.0
  0
LINE
  5
1B4
  8
LAYER_1
 10
13.831184
 20
41.933326
 30
0.0
 11
18.597482
 21
45.65638
 31
0.0
  0
LINE
  5
1B5
  8
LAYER_1
 10
18.597482
 20
45.65638
 30
0.0
 11
23.49498
 21
49.033605
 31
0.0
  0
LINE
  5
1B6
  8
LAYER_1
 10
23.49498
 20
49.033605
 30
0.0
 11
28.500222
 21
52.051838
 31
0.0
  0
LINE
  5
1B7
  8
LAYER_1
 10
28.500222
 20
52.051838
 30
0.0
 11
33.589751
 21
54.697916
 31
0.0
  0
LINE
  5
1B8
  8
LAYER_1
 10
33.589751
 20
54.697916
 30
0.0
 11
38.740111
 21
56.958679
 31
0.0
  0
LINE
  5
1B9
  8
LAYER_1
 10
38.740111
 20
56.958679
 30
0.0
 11
43.927843
 21
58.820964
 31
0.0
  0
LINE
  5
1BA
  8
LAYER_1
 10
43.927843
 20
58.820964
 30
0.0
 11
49.129493
 21
60.271609
 31
0.0
  0
LINE
  5
1BB
  8
LAYER_1
 10
49.129493
 20
60.271609
 30
0.0
 11
54.10061
 21
61.181851
 31
0.0
  0
LINE
  5
1BC
  8
LAYER_1
 10
54.10061
 20
61.181851
 30
0.0
 11
59.645923
 21
61.763835
 31
0.0
  0
LINE
  5
1BD
  8
LAYER_1
 10
59.645923
 20
61.763835
 30
0.0
 11
64.995721
 21
61.962416
 31
0.0
  0
LINE
  5
1BE
  8
LAYER_1
 10
64.995721
 20
61.962416
 30
0.0
 11
69.380292
 21
61.722449
 31
0.0
  0
LINE
  5
1BF
  8
LAYER_1
 10
69.380292
 20
61.722449
 30
0.0
 11
74.192131
 21
60.972041
 31
0.0
  0
LINE
  5
1C0
  8
LAYER_1
 10
74.192131
 20
60.972041
 30
0.0
 11
78.11884600000001
 21
60.140797
 31
0.0
  0
LINE
  5
1C1
  8
LAYER_1
 10
78.11884600000001
 20
60.140797
 30
0.0
 11
82.788012
 21
58.75174
 31
0.0
  0
LINE
  5
1C2
  8
LAYER_1
 10
82.788012
 20
58.75174
 30
0.0
 11
87.349649
 21
57.038466
 31
0.0
  0
LINE
  5
1C3
  8
LAYER_1
 10
87.349649
 20
57.038466
 30
0.0
 11
91.810962
 21
54.996738
 31
0.0
  0
LINE
  5
1C4
  8
LAYER_1
 10
91.810962
 20
54.996738
 30
0.0
 11
96.179157
 21
52.62232
 31
0.0
  0
LINE
  5
1C5
  8
LAYER_1
 10
96.179157
 20
52.62232
 30
0.0
 11
100.461438
 21
49.910976
 31
0.0
  0
LINE
  5
1C6
  8
LAYER_1
 10
100.461438
 20
49.910976
 30
0.0
 11
104.665011
 21
46.85847
 31
0.0
  0
LINE
  5
1C7
  8
LAYER_1
 10
104.665011
 20
46.85847
 30
0.0
 11
108.79708
 21
43.460567
 31
0.0
  0
LINE
  5
1C8
  8
LAYER_1
 10
108.79708
 20
43.460567
 30
0.0
 11
112.864852
 21
39.71303
 31
0.0
  0
LINE
  5
1C9
  8
LAYER_1
 10
112.864852
 20
39.71303
 30
0.0
 11
115.211499
 21
37.542476
 31
0.0
  0
LINE
  5
1CA
  8
LAYER_1
 10
115.211499
 20
37.542476
 30
0.0
 11
116.361659
 21
36.688595
 31
0.0
  0
LINE
  5
1CB
  8
LAYER_1
 10
116.361659
 20
36.688595
 30
0.0
 11
117.97105
 21
37.927582
 31
0.0
  0
LINE
  5
1CC
  8
LAYER_1
 10
117.97105
 20
37.927582
 30
0.0
 11
121.190894
 21
40.735526
 31
0.0
  0
LINE
  5
1CD
  8
LAYER_1
 10
121.190894
 20
40.735526
 30
0.0
 11
127.976686
 21
47.055146
 31
0.0
  0
LINE
  5
1CE
  8
LAYER_1
 10
127.976686
 20
47.055146
 30
0.0
 11
133.101018
 21
52.542186
 31
0.0
  0
LINE
  5
1CF
  8
LAYER_1
 10
133.101018
 20
52.542186
 30
0.0
 11
135.013251
 21
54.808178
 31
0.0
  0
LINE
  5
1D0
  8
LAYER_1
 10
135.013251
 20
54.808178
 30
0.0
 11
137.513912
 21
54.808178
 31
0.0
  0
LINE
  5
1D1
  8
LAYER_1
 10
137.513912
 20
54.808178
 30
0.0
 11
140.014571
 21
54.808178
 31
0.0
  0
LINE
  5
1D2
  8
LAYER_1
 10
140.014571
 20
54.808178
 30
0.0
 11
138.532661
 21
52.903178
 31
0.0
  0
LINE
  5
1D3
  8
LAYER_1
 10
138.532661
 20
52.903178
 30
0.0
 11
133.236121
 21
46.341511
 31
0.0
  0
LINE
  5
1D4
  8
LAYER_1
 10
133.236121
 20
46.341511
 30
0.0
 11
132.13102
 21
45.071511
 31
0.0
  0
LINE
  5
1D5
  8
LAYER_1
 10
132.13102
 20
45.071511
 30
0.0
 11
128.941321
 21
41.521069
 31
0.0
  0
LINE
  5
1D6
  8
LAYER_1
 10
128.941321
 20
41.521069
 30
0.0
 11
124.16626
 21
36.583959
 31
0.0
  0
LINE
  5
1D7
  8
LAYER_1
 10
124.16626
 20
36.583959
 30
0.0
 11
121.400043
 21
33.681699
 31
0.0
  0
LINE
  5
1D8
  8
LAYER_1
 10
121.400043
 20
33.681699
 30
0.0
 11
120.249493
 21
32.281628
 31
0.0
  0
LINE
  5
1D9
  8
LAYER_1
 10
120.249493
 20
32.281628
 30
0.0
 11
120.826848
 21
31.322474
 31
0.0
  0
LINE
  5
1DA
  8
LAYER_1
 10
120.826848
 20
31.322474
 30
0.0
 11
122.214959
 21
29.480293
 31
0.0
  0
LINE
  5
1DB
  8
LAYER_1
 10
122.214959
 20
29.480293
 30
0.0
 11
125.557653
 21
25.077132
 31
0.0
  0
LINE
  5
1DC
  8
LAYER_1
 10
125.557653
 20
25.077132
 30
0.0
 11
129.276921
 21
19.855066
 31
0.0
  0
LINE
  5
1DD
  8
LAYER_1
 10
129.276921
 20
19.855066
 30
0.0
 11
132.916917
 21
14.471058
 31
0.0
  0
LINE
  5
1DE
  8
LAYER_1
 10
132.916917
 20
14.471058
 30
0.0
 11
136.021792
 21
9.582068
 31
0.0
  0
LINE
  5
1DF
  8
LAYER_1
 10
136.021792
 20
9.582068
 30
0.0
 11
136.664418
 21
8.523735
 31
0.0
  0
LINE
  5
1E0
  8
LAYER_1
 10
136.664418
 20
8.523735
 30
0.0
 11
134.030844
 21
8.525662000000001
 31
0.0
  0
LINE
  5
1E1
  8
LAYER_1
 10
134.030844
 20
8.525662000000001
 30
0.0
 11
131.397271
 21
8.527593
 31
0.0
  0
LINE
  5
1E2
  8
LAYER_1
 10
131.397271
 20
8.527593
 30
0.0
 11
130.696126
 21
9.583996000000001
 31
0.0
  0
LINE
  5
1E3
  8
LAYER_1
 10
130.696126
 20
9.583996000000001
 30
0.0
 11
128.081518
 21
13.32267
 31
0.0
  0
LINE
  5
1E4
  8
LAYER_1
 10
128.081518
 20
13.32267
 30
0.0
 11
124.855019
 21
17.647894
 31
0.0
  0
LINE
  5
1E5
  8
LAYER_1
 10
124.855019
 20
17.647894
 30
0.0
 11
121.514082
 21
21.909274
 31
0.0
  0
LINE
  5
1E6
  8
LAYER_1
 10
121.514082
 20
21.909274
 30
0.0
 11
118.556159
 21
25.456416
 31
0.0
  0
LINE
  5
1E7
  8
LAYER_1
 10
118.556159
 20
25.456416
 30
0.0
 11
116.635157
 21
27.75517
 31
0.0
  0
LINE
  5
1E8
  8
LAYER_1
 10
116.635157
 20
27.75517
 30
0.0
 11
116.288631
 21
28.12533
 31
0.0
  0
LINE
  5
1E9
  8
LAYER_1
 10
116.288631
 20
28.12533
 30
0.0
 11
115.973358
 21
28.27929
 31
0.0
  0
LINE
  5
1EA
  8
LAYER_1
 10
115.973358
 20
28.27929
 30
0.0
 11
113.237696
 21
26.232149
 31
0.0
  0
LINE
  5
1EB
  8
LAYER_1
 10
113.237696
 20
26.232149
 30
0.0
 11
109.679092
 21
23.33531
 31
0.0
  0
LINE
  5
1EC
  8
LAYER_1
 10
109.679092
 20
23.33531
 30
0.0
 11
106.384164
 21
20.845931
 31
0.0
  0
LINE
  5
1ED
  8
LAYER_1
 10
106.384164
 20
20.845931
 30
0.0
 11
103.153674
 21
18.620042
 31
0.0
  0
LINE
  5
1EE
  8
LAYER_1
 10
103.153674
 20
18.620042
 30
0.0
 11
99.788382
 21
16.513672
 31
0.0
  0
LINE
  5
1EF
  8
LAYER_1
 10
99.788382
 20
16.513672
 30
0.0
 11
96.037251
 21
14.353309
 31
0.0
  0
LINE
  5
1F0
  8
LAYER_1
 10
96.037251
 20
14.353309
 30
0.0
 11
92.425708
 21
12.453244
 31
0.0
  0
LINE
  5
1F1
  8
LAYER_1
 10
92.425708
 20
12.453244
 30
0.0
 11
88.908306
 21
10.796074
 31
0.0
  0
LINE
  5
1F2
  8
LAYER_1
 10
88.908306
 20
10.796074
 30
0.0
 11
85.4396
 21
9.364397
 31
0.0
  0
LINE
  5
1F3
  8
LAYER_1
 10
85.4396
 20
9.364397
 30
0.0
 11
81.974144
 21
8.140812
 31
0.0
  0
LINE
  5
1F4
  8
LAYER_1
 10
81.974144
 20
8.140812
 30
0.0
 11
78.466493
 21
7.107915
 31
0.0
  0
LINE
  5
1F5
  8
LAYER_1
 10
78.466493
 20
7.107915
 30
0.0
 11
74.87120299999999
 21
6.248305
 31
0.0
  0
LINE
  5
1F6
  8
LAYER_1
 10
74.87120299999999
 20
6.248305
 30
0.0
 11
71.142826
 21
5.54458
 31
0.0
  0
LINE
  5
1F7
  8
LAYER_1
 10
71.142826
 20
5.54458
 30
0.0
 11
67.86295699999999
 21
5.285107
 31
0.0
  0
LINE
  5
1F8
  8
LAYER_1
 10
67.86295699999999
 20
5.285107
 30
0.0
 11
63.003716
 21
5.177384
 31
0.0
  0
LINE
  5
1F9
  8
LAYER_1
 10
63.003716
 20
5.177384
 30
0.0
 11
58.015975
 21
5.229592
 31
0.0
  0
LINE
  5
1FA
  8
LAYER_1
 10
58.015975
 20
5.229592
 30
0.0
 11
54.350604
 21
5.449909
 31
0.0
  0
LINE
  5
1FB
  8
LAYER_1
 10
54.350604
 20
5.449909
 30
0.0
 11
54.350604
 21
5.449909
 31
0.0
  0
LINE
  5
1FC
  8
LAYER_1
 10
67.869466
 20
10.791515
 30
0.0
 11
71.190635
 21
11.234395
 31
0.0
  0
LINE
  5
1FD
  8
LAYER_1
 10
71.190635
 20
11.234395
 30
0.0
 11
71.08506199999999
 21
11.666228
 31
0.0
  0
LINE
  5
1FE
  8
LAYER_1
 10
71.08506199999999
 20
11.666228
 30
0.0
 11
70.48785
 21
12.492245
 31
0.0
  0
LINE
  5
1FF
  8
LAYER_1
 10
70.48785
 20
12.492245
 30
0.0
 11
69.742383
 21
13.600413
 31
0.0
  0
LINE
  5
200
  8
LAYER_1
 10
69.742383
 20
13.600413
 30
0.0
 11
68.992434
 21
15.126657
 31
0.0
  0
LINE
  5
201
  8
LAYER_1
 10
68.992434
 20
15.126657
 30
0.0
 11
68.319239
 21
16.883568
 31
0.0
  0
LINE
  5
202
  8
LAYER_1
 10
68.319239
 20
16.883568
 30
0.0
 11
67.804036
 21
18.683735
 31
0.0
  0
LINE
  5
203
  8
LAYER_1
 10
67.804036
 20
18.683735
 30
0.0
 11
67.343963
 21
20.65929
 31
0.0
  0
LINE
  5
204
  8
LAYER_1
 10
67.343963
 20
20.65929
 30
0.0
 11
67.013138
 21
23.015514
 31
0.0
  0
LINE
  5
205
  8
LAYER_1
 10
67.013138
 20
23.015514
 30
0.0
 11
66.689853
 21
26.767559
 31
0.0
  0
LINE
  5
206
  8
LAYER_1
 10
66.689853
 20
26.767559
 30
0.0
 11
66.3462
 21
34.555359
 31
0.0
  0
LINE
  5
207
  8
LAYER_1
 10
66.3462
 20
34.555359
 30
0.0
 11
66.661525
 21
45.624091
 31
0.0
  0
LINE
  5
208
  8
LAYER_1
 10
66.661525
 20
45.624091
 30
0.0
 11
66.970314
 21
50.740637
 31
0.0
  0
LINE
  5
209
  8
LAYER_1
 10
66.970314
 20
50.740637
 30
0.0
 11
67.302369
 21
54.002703
 31
0.0
  0
LINE
  5
20A
  8
LAYER_1
 10
67.302369
 20
54.002703
 30
0.0
 11
67.662947
 21
56.160562
 31
0.0
  0
LINE
  5
20B
  8
LAYER_1
 10
67.662947
 20
56.160562
 30
0.0
 11
66.65122
 21
56.327931
 31
0.0
  0
LINE
  5
20C
  8
LAYER_1
 10
66.65122
 20
56.327931
 30
0.0
 11
63.804393
 21
56.491235
 31
0.0
  0
LINE
  5
20D
  8
LAYER_1
 10
63.804393
 20
56.491235
 30
0.0
 11
62.60461
 21
56.419214
 31
0.0
  0
LINE
  5
20E
  8
LAYER_1
 10
62.60461
 20
56.419214
 30
0.0
 11
62.111715
 21
56.253846
 31
0.0
  0
LINE
  5
20F
  8
LAYER_1
 10
62.111715
 20
56.253846
 30
0.0
 11
62.558865
 21
55.635078
 31
0.0
  0
LINE
  5
210
  8
LAYER_1
 10
62.558865
 20
55.635078
 30
0.0
 11
63.896384
 21
53.977744
 31
0.0
  0
LINE
  5
211
  8
LAYER_1
 10
63.896384
 20
53.977744
 30
0.0
 11
64.628829
 21
52.610321
 31
0.0
  0
LINE
  5
212
  8
LAYER_1
 10
64.628829
 20
52.610321
 30
0.0
 11
64.751577
 21
50.929445
 31
0.0
  0
LINE
  5
213
  8
LAYER_1
 10
64.751577
 20
50.929445
 30
0.0
 11
64.549162
 21
49.153976
 31
0.0
  0
LINE
  5
214
  8
LAYER_1
 10
64.549162
 20
49.153976
 30
0.0
 11
64.078709
 21
47.276125
 31
0.0
  0
LINE
  5
215
  8
LAYER_1
 10
64.078709
 20
47.276125
 30
0.0
 11
63.449084
 21
45.643316
 31
0.0
  0
LINE
  5
216
  8
LAYER_1
 10
63.449084
 20
45.643316
 30
0.0
 11
62.769155
 21
44.602976
 31
0.0
  0
LINE
  5
217
  8
LAYER_1
 10
62.769155
 20
44.602976
 30
0.0
 11
62.14142
 21
44.155209
 31
0.0
  0
LINE
  5
218
  8
LAYER_1
 10
62.14142
 20
44.155209
 30
0.0
 11
61.61994
 21
44.441301
 31
0.0
  0
LINE
  5
219
  8
LAYER_1
 10
61.61994
 20
44.441301
 30
0.0
 11
60.288187
 21
46.485923
 31
0.0
  0
LINE
  5
21A
  8
LAYER_1
 10
60.288187
 20
46.485923
 30
0.0
 11
59.470552
 21
47.774601
 31
0.0
  0
LINE
  5
21B
  8
LAYER_1
 10
59.470552
 20
47.774601
 30
0.0
 11
58.67599
 21
48.634222
 31
0.0
  0
LINE
  5
21C
  8
LAYER_1
 10
58.67599
 20
48.634222
 30
0.0
 11
57.891136
 21
49.036326
 31
0.0
  0
LINE
  5
21D
  8
LAYER_1
 10
57.891136
 20
49.036326
 30
0.0
 11
57.076436
 21
48.763526
 31
0.0
  0
LINE
  5
21E
  8
LAYER_1
 10
57.076436
 20
48.763526
 30
0.0
 11
56.572877
 21
48.404652
 31
0.0
  0
LINE
  5
21F
  8
LAYER_1
 10
56.572877
 20
48.404652
 30
0.0
 11
56.149979
 21
47.903582
 31
0.0
  0
LINE
  5
220
  8
LAYER_1
 10
56.149979
 20
47.903582
 30
0.0
 11
55.569492
 21
46.565158
 31
0.0
  0
LINE
  5
221
  8
LAYER_1
 10
55.569492
 20
46.565158
 30
0.0
 11
55.381625
 21
44.928855
 31
0.0
  0
LINE
  5
222
  8
LAYER_1
 10
55.381625
 20
44.928855
 30
0.0
 11
55.633025
 21
43.175276
 31
0.0
  0
LINE
  5
223
  8
LAYER_1
 10
55.633025
 20
43.175276
 30
0.0
 11
56.041803
 21
42.173941
 31
0.0
  0
LINE
  5
224
  8
LAYER_1
 10
56.041803
 20
42.173941
 30
0.0
 11
56.74909
 21
41.190148
 31
0.0
  0
LINE
  5
225
  8
LAYER_1
 10
56.74909
 20
41.190148
 30
0.0
 11
57.847052
 21
40.118983
 31
0.0
  0
LINE
  5
226
  8
LAYER_1
 10
57.847052
 20
40.118983
 30
0.0
 11
59.427858
 21
38.855529
 31
0.0
  0
LINE
  5
227
  8
LAYER_1
 10
59.427858
 20
38.855529
 30
0.0
 11
60.864059
 21
37.64849
 31
0.0
  0
LINE
  5
228
  8
LAYER_1
 10
60.864059
 20
37.64849
 30
0.0
 11
62.178989
 21
36.298788
 31
0.0
  0
LINE
  5
229
  8
LAYER_1
 10
62.178989
 20
36.298788
 30
0.0
 11
63.300414
 21
34.888261
 31
0.0
  0
LINE
  5
22A
  8
LAYER_1
 10
63.300414
 20
34.888261
 30
0.0
 11
64.156099
 21
33.498745
 31
0.0
  0
LINE
  5
22B
  8
LAYER_1
 10
64.156099
 20
33.498745
 30
0.0
 11
65.252546
 21
30.537068
 31
0.0
  0
LINE
  5
22C
  8
LAYER_1
 10
65.252546
 20
30.537068
 30
0.0
 11
65.78384200000001
 21
27.770056
 31
0.0
  0
LINE
  5
22D
  8
LAYER_1
 10
65.78384200000001
 20
27.770056
 30
0.0
 11
65.96041700000001
 21
24.365758
 31
0.0
  0
LINE
  5
22E
  8
LAYER_1
 10
65.96041700000001
 20
24.365758
 30
0.0
 11
65.782383
 21
20.847163
 31
0.0
  0
LINE
  5
22F
  8
LAYER_1
 10
65.782383
 20
20.847163
 30
0.0
 11
65.249848
 21
17.73726
 31
0.0
  0
LINE
  5
230
  8
LAYER_1
 10
65.249848
 20
17.73726
 30
0.0
 11
63.993878
 21
14.22628
 31
0.0
  0
LINE
  5
231
  8
LAYER_1
 10
63.993878
 20
14.22628
 30
0.0
 11
63.273521
 21
12.740108
 31
0.0
  0
LINE
  5
232
  8
LAYER_1
 10
63.273521
 20
12.740108
 30
0.0
 11
62.700264
 21
11.910401
 31
0.0
  0
LINE
  5
233
  8
LAYER_1
 10
62.700264
 20
11.910401
 30
0.0
 11
61.997418
 21
11.13429
 31
0.0
  0
LINE
  5
234
  8
LAYER_1
 10
61.997418
 20
11.13429
 30
0.0
 11
61.459787
 21
10.49929
 31
0.0
  0
LINE
  5
235
  8
LAYER_1
 10
61.459787
 20
10.49929
 30
0.0
 11
63.126307
 21
10.499527
 31
0.0
  0
LINE
  5
236
  8
LAYER_1
 10
63.126307
 20
10.499527
 30
0.0
 11
67.869466
 21
10.791515
 31
0.0
  0
LINE
  5
237
  8
LAYER_1
 10
67.869466
 20
10.791515
 30
0.0
 11
67.869466
 21
10.791515
 31
0.0
  0
LINE
  5
238
  8
LAYER_1
 10
59.660824
 20
11.101877
 30
0.0
 11
60.704698
 21
11.837799
 31
0.0
  0
LINE
  5
239
  8
LAYER_1
 10
60.704698
 20
11.837799
 30
0.0
 11
61.645239
 21
12.889661
 31
0.0
  0
LINE
  5
23A
  8
LAYER_1
 10
61.645239
 20
12.889661
 30
0.0
 11
62.470609
 21
14.225506
 31
0.0
  0
LINE
  5
23B
  8
LAYER_1
 10
62.470609
 20
14.225506
 30
0.0
 11
63.168971
 21
15.813375
 31
0.0
  0
LINE
  5
23C
  8
LAYER_1
 10
63.168971
 20
15.813375
 30
0.0
 11
63.728487
 21
17.621313
 31
0.0
  0
LINE
  5
23D
  8
LAYER_1
 10
63.728487
 20
17.621313
 30
0.0
 11
64.13731799999999
 21
19.617361
 31
0.0
  0
LINE
  5
23E
  8
LAYER_1
 10
64.13731799999999
 20
19.617361
 30
0.0
 11
64.383628
 21
21.769561
 31
0.0
  0
LINE
  5
23F
  8
LAYER_1
 10
64.383628
 20
21.769561
 30
0.0
 11
64.455579
 21
24.045957
 31
0.0
  0
LINE
  5
240
  8
LAYER_1
 10
64.455579
 20
24.045957
 30
0.0
 11
64.355062
 21
26.617608
 31
0.0
  0
LINE
  5
241
  8
LAYER_1
 10
64.355062
 20
26.617608
 30
0.0
 11
64.08036300000001
 21
28.870232
 31
0.0
  0
LINE
  5
242
  8
LAYER_1
 10
64.08036300000001
 20
28.870232
 30
0.0
 11
63.603799
 21
30.860547
 31
0.0
  0
LINE
  5
243
  8
LAYER_1
 10
63.603799
 20
30.860547
 30
0.0
 11
62.897689
 21
32.645271
 31
0.0
  0
LINE
  5
244
  8
LAYER_1
 10
62.897689
 20
32.645271
 30
0.0
 11
61.93435
 21
34.281123
 31
0.0
  0
LINE
  5
245
  8
LAYER_1
 10
61.93435
 20
34.281123
 30
0.0
 11
60.686101
 21
35.82482
 31
0.0
  0
LINE
  5
246
  8
LAYER_1
 10
60.686101
 20
35.82482
 30
0.0
 11
59.12526
 21
37.333081
 31
0.0
  0
LINE
  5
247
  8
LAYER_1
 10
59.12526
 20
37.333081
 30
0.0
 11
57.224145
 21
38.862624
 31
0.0
  0
LINE
  5
248
  8
LAYER_1
 10
57.224145
 20
38.862624
 30
0.0
 11
55.669029
 21
40.198332
 31
0.0
  0
LINE
  5
249
  8
LAYER_1
 10
55.669029
 20
40.198332
 30
0.0
 11
54.702239
 21
41.528759
 31
0.0
  0
LINE
  5
24A
  8
LAYER_1
 10
54.702239
 20
41.528759
 30
0.0
 11
54.20746
 21
43.083509
 31
0.0
  0
LINE
  5
24B
  8
LAYER_1
 10
54.20746
 20
43.083509
 30
0.0
 11
54.068382
 21
45.09219
 31
0.0
  0
LINE
  5
24C
  8
LAYER_1
 10
54.068382
 20
45.09219
 30
0.0
 11
54.191689
 21
47.144987
 31
0.0
  0
LINE
  5
24D
  8
LAYER_1
 10
54.191689
 20
47.144987
 30
0.0
 11
54.401911
 21
47.776497
 31
0.0
  0
LINE
  5
24E
  8
LAYER_1
 10
54.401911
 20
47.776497
 30
0.0
 11
54.761037
 21
48.381509
 31
0.0
  0
LINE
  5
24F
  8
LAYER_1
 10
54.761037
 20
48.381509
 30
0.0
 11
55.469425
 21
49.240702
 31
0.0
  0
LINE
  5
250
  8
LAYER_1
 10
55.469425
 20
49.240702
 30
0.0
 11
56.230408
 21
49.844355
 31
0.0
  0
LINE
  5
251
  8
LAYER_1
 10
56.230408
 20
49.844355
 30
0.0
 11
57.027002
 21
50.19314
 31
0.0
  0
LINE
  5
252
  8
LAYER_1
 10
57.027002
 20
50.19314
 30
0.0
 11
57.842222
 21
50.287725
 31
0.0
  0
LINE
  5
253
  8
LAYER_1
 10
57.842222
 20
50.287725
 30
0.0
 11
58.659083
 21
50.12878
 31
0.0
  0
LINE
  5
254
  8
LAYER_1
 10
58.659083
 20
50.12878
 30
0.0
 11
59.460602
 21
49.716975
 31
0.0
  0
LINE
  5
255
  8
LAYER_1
 10
59.460602
 20
49.716975
 30
0.0
 11
60.229795
 21
49.052981
 31
0.0
  0
LINE
  5
256
  8
LAYER_1
 10
60.229795
 20
49.052981
 30
0.0
 11
60.949676
 21
48.137465
 31
0.0
  0
LINE
  5
257
  8
LAYER_1
 10
60.949676
 20
48.137465
 30
0.0
 11
61.829493
 21
46.575348
 31
0.0
  0
LINE
  5
258
  8
LAYER_1
 10
61.829493
 20
46.575348
 30
0.0
 11
62.074524
 21
46.341511
 31
0.0
  0
LINE
  5
259
  8
LAYER_1
 10
62.074524
 20
46.341511
 30
0.0
 11
62.335624
 21
46.745309
 31
0.0
  0
LINE
  5
25A
  8
LAYER_1
 10
62.335624
 20
46.745309
 30
0.0
 11
62.692417
 21
47.771392
 31
0.0
  0
LINE
  5
25B
  8
LAYER_1
 10
62.692417
 20
47.771392
 30
0.0
 11
63.356637
 21
50.57856
 31
0.0
  0
LINE
  5
25C
  8
LAYER_1
 10
63.356637
 20
50.57856
 30
0.0
 11
63.378577
 21
51.298278
 31
0.0
  0
LINE
  5
25D
  8
LAYER_1
 10
63.378577
 20
51.298278
 30
0.0
 11
63.222643
 21
52.052445
 31
0.0
  0
LINE
  5
25E
  8
LAYER_1
 10
63.222643
 20
52.052445
 30
0.0
 11
62.447333
 21
53.565942
 31
0.0
  0
LINE
  5
25F
  8
LAYER_1
 10
62.447333
 20
53.565942
 30
0.0
 11
61.171065
 21
54.922682
 31
0.0
  0
LINE
  5
260
  8
LAYER_1
 10
61.171065
 20
54.922682
 30
0.0
 11
59.534199
 21
55.926297
 31
0.0
  0
LINE
  5
261
  8
LAYER_1
 10
59.534199
 20
55.926297
 30
0.0
 11
57.950459
 21
56.32419
 31
0.0
  0
LINE
  5
262
  8
LAYER_1
 10
57.950459
 20
56.32419
 30
0.0
 11
57.215294
 21
56.278836
 31
0.0
  0
LINE
  5
263
  8
LAYER_1
 10
57.215294
 20
56.278836
 30
0.0
 11
56.510313
 21
56.067361
 31
0.0
  0
LINE
  5
264
  8
LAYER_1
 10
56.510313
 20
56.067361
 30
0.0
 11
55.8298
 21
55.687326
 31
0.0
  0
LINE
  5
265
  8
LAYER_1
 10
55.8298
 20
55.687326
 30
0.0
 11
55.168041
 21
55.13629
 31
0.0
  0
LINE
  5
266
  8
LAYER_1
 10
55.168041
 20
55.13629
 30
0.0
 11
53.877927
 21
53.51146
 31
0.0
  0
LINE
  5
267
  8
LAYER_1
 10
53.877927
 20
53.51146
 30
0.0
 11
53.301516
 21
52.381242
 31
0.0
  0
LINE
  5
268
  8
LAYER_1
 10
53.301516
 20
52.381242
 30
0.0
 11
52.715495
 21
50.832834
 31
0.0
  0
LINE
  5
269
  8
LAYER_1
 10
52.715495
 20
50.832834
 30
0.0
 11
51.827331
 21
47.411648
 31
0.0
  0
LINE
  5
26A
  8
LAYER_1
 10
51.827331
 20
47.411648
 30
0.0
 11
51.659344
 21
45.499013
 31
0.0
  0
LINE
  5
26B
  8
LAYER_1
 10
51.659344
 20
45.499013
 30
0.0
 11
51.659891
 21
43.115247
 31
0.0
  0
LINE
  5
26C
  8
LAYER_1
 10
51.659891
 20
43.115247
 30
0.0
 11
51.81246
 21
40.770262
 31
0.0
  0
LINE
  5
26D
  8
LAYER_1
 10
51.81246
 20
40.770262
 30
0.0
 11
52.100539
 21
38.973969
 31
0.0
  0
LINE
  5
26E
  8
LAYER_1
 10
52.100539
 20
38.973969
 30
0.0
 11
52.84052
 21
36.737505
 31
0.0
  0
LINE
  5
26F
  8
LAYER_1
 10
52.84052
 20
36.737505
 30
0.0
 11
53.869447
 21
34.907536
 31
0.0
  0
LINE
  5
270
  8
LAYER_1
 10
53.869447
 20
34.907536
 30
0.0
 11
55.359082
 21
33.245942
 31
0.0
  0
LINE
  5
271
  8
LAYER_1
 10
55.359082
 20
33.245942
 30
0.0
 11
57.481188
 21
31.514607
 31
0.0
  0
LINE
  5
272
  8
LAYER_1
 10
57.481188
 20
31.514607
 30
0.0
 11
59.130343
 21
30.172535
 31
0.0
  0
LINE
  5
273
  8
LAYER_1
 10
59.130343
 20
30.172535
 30
0.0
 11
60.242317
 21
29.055757
 31
0.0
  0
LINE
  5
274
  8
LAYER_1
 10
60.242317
 20
29.055757
 30
0.0
 11
60.950001
 21
27.943441
 31
0.0
  0
LINE
  5
275
  8
LAYER_1
 10
60.950001
 20
27.943441
 30
0.0
 11
61.450298
 21
26.754694
 31
0.0
  0
LINE
  5
276
  8
LAYER_1
 10
61.450298
 20
26.754694
 30
0.0
 11
61.743609
 21
25.519979
 31
0.0
  0
LINE
  5
277
  8
LAYER_1
 10
61.743609
 20
25.519979
 30
0.0
 11
61.830335
 21
24.269761
 31
0.0
  0
LINE
  5
278
  8
LAYER_1
 10
61.830335
 20
24.269761
 30
0.0
 11
61.710877
 21
23.034504
 31
0.0
  0
LINE
  5
279
  8
LAYER_1
 10
61.710877
 20
23.034504
 30
0.0
 11
61.385638
 21
21.844671
 31
0.0
  0
LINE
  5
27A
  8
LAYER_1
 10
61.385638
 20
21.844671
 30
0.0
 11
60.855017
 21
20.730728
 31
0.0
  0
LINE
  5
27B
  8
LAYER_1
 10
60.855017
 20
20.730728
 30
0.0
 11
60.119415
 21
19.723137
 31
0.0
  0
LINE
  5
27C
  8
LAYER_1
 10
60.119415
 20
19.723137
 30
0.0
 11
59.494819
 21
19.057374
 31
0.0
  0
LINE
  5
27D
  8
LAYER_1
 10
59.494819
 20
19.057374
 30
0.0
 11
58.985316
 21
18.709436
 31
0.0
  0
LINE
  5
27E
  8
LAYER_1
 10
58.985316
 20
18.709436
 30
0.0
 11
58.353839
 21
18.580172
 31
0.0
  0
LINE
  5
27F
  8
LAYER_1
 10
58.353839
 20
18.580172
 30
0.0
 11
57.363323
 21
18.570431
 31
0.0
  0
LINE
  5
280
  8
LAYER_1
 10
57.363323
 20
18.570431
 30
0.0
 11
55.785815
 21
18.736588
 31
0.0
  0
LINE
  5
281
  8
LAYER_1
 10
55.785815
 20
18.736588
 30
0.0
 11
54.642749
 21
19.362587
 31
0.0
  0
LINE
  5
282
  8
LAYER_1
 10
54.642749
 20
19.362587
 30
0.0
 11
53.703491
 21
20.349591
 31
0.0
  0
LINE
  5
283
  8
LAYER_1
 10
53.703491
 20
20.349591
 30
0.0
 11
52.833882
 21
21.768158
 31
0.0
  0
LINE
  5
284
  8
LAYER_1
 10
52.833882
 20
21.768158
 30
0.0
 11
52.104845
 21
23.479436
 31
0.0
  0
LINE
  5
285
  8
LAYER_1
 10
52.104845
 20
23.479436
 30
0.0
 11
51.587301
 21
25.344574
 31
0.0
  0
LINE
  5
286
  8
LAYER_1
 10
51.587301
 20
25.344574
 30
0.0
 11
51.188671
 21
27.291513
 31
0.0
  0
LINE
  5
287
  8
LAYER_1
 10
51.188671
 20
27.291513
 30
0.0
 11
50.984762
 21
26.114685
 31
0.0
  0
LINE
  5
288
  8
LAYER_1
 10
50.984762
 20
26.114685
 30
0.0
 11
50.770353
 21
23.117195
 31
0.0
  0
LINE
  5
289
  8
LAYER_1
 10
50.770353
 20
23.117195
 30
0.0
 11
51.028395
 21
19.404108
 31
0.0
  0
LINE
  5
28A
  8
LAYER_1
 10
51.028395
 20
19.404108
 30
0.0
 11
51.364265
 21
17.745783
 31
0.0
  0
LINE
  5
28B
  8
LAYER_1
 10
51.364265
 20
17.745783
 30
0.0
 11
51.834627
 21
16.228768
 31
0.0
  0
LINE
  5
28C
  8
LAYER_1
 10
51.834627
 20
16.228768
 30
0.0
 11
52.436927
 21
14.859938
 31
0.0
  0
LINE
  5
28D
  8
LAYER_1
 10
52.436927
 20
14.859938
 30
0.0
 11
53.168608
 21
13.646167
 31
0.0
  0
LINE
  5
28E
  8
LAYER_1
 10
53.168608
 20
13.646167
 30
0.0
 11
54.027117
 21
12.594329
 31
0.0
  0
LINE
  5
28F
  8
LAYER_1
 10
54.027117
 20
12.594329
 30
0.0
 11
55.009898
 21
11.711299
 31
0.0
  0
LINE
  5
290
  8
LAYER_1
 10
55.009898
 20
11.711299
 30
0.0
 11
56.265104
 21
10.959768
 31
0.0
  0
LINE
  5
291
  8
LAYER_1
 10
56.265104
 20
10.959768
 30
0.0
 11
57.636653
 21
10.781513
 31
0.0
  0
LINE
  5
292
  8
LAYER_1
 10
57.636653
 20
10.781513
 30
0.0
 11
58.81194
 21
10.87562
 31
0.0
  0
LINE
  5
293
  8
LAYER_1
 10
58.81194
 20
10.87562
 30
0.0
 11
59.660824
 21
11.101877
 31
0.0
  0
LINE
  5
294
  8
LAYER_1
 10
59.660824
 20
11.101877
 30
0.0
 11
59.660824
 21
11.101877
 31
0.0
  0
LINE
  5
295
  8
LAYER_1
 10
52.30092
 20
12.38804
 30
0.0
 11
51.522744
 21
13.643966
 31
0.0
  0
LINE
  5
296
  8
LAYER_1
 10
51.522744
 20
13.643966
 30
0.0
 11
50.826604
 21
15.069306
 31
0.0
  0
LINE
  5
297
  8
LAYER_1
 10
50.826604
 20
15.069306
 30
0.0
 11
49.817285
 21
18.112777
 31
0.0
  0
LINE
  5
298
  8
LAYER_1
 10
49.817285
 20
18.112777
 30
0.0
 11
49.48994
 21
20.659634
 31
0.0
  0
LINE
  5
299
  8
LAYER_1
 10
49.48994
 20
20.659634
 30
0.0
 11
49.44819
 21
23.701953
 31
0.0
  0
LINE
  5
29A
  8
LAYER_1
 10
49.44819
 20
23.701953
 30
0.0
 11
49.673195
 21
26.626344
 31
0.0
  0
LINE
  5
29B
  8
LAYER_1
 10
49.673195
 20
26.626344
 30
0.0
 11
50.146117
 21
28.819416
 31
0.0
  0
LINE
  5
29C
  8
LAYER_1
 10
50.146117
 20
28.819416
 30
0.0
 11
50.924424
 21
30.378086
 31
0.0
  0
LINE
  5
29D
  8
LAYER_1
 10
50.924424
 20
30.378086
 30
0.0
 11
51.298454
 21
30.723424
 31
0.0
  0
LINE
  5
29E
  8
LAYER_1
 10
51.298454
 20
30.723424
 30
0.0
 11
51.649749
 21
30.782555
 31
0.0
  0
LINE
  5
29F
  8
LAYER_1
 10
51.649749
 20
30.782555
 30
0.0
 11
51.968819
 21
30.557824
 31
0.0
  0
LINE
  5
2A0
  8
LAYER_1
 10
51.968819
 20
30.557824
 30
0.0
 11
52.246175
 21
30.051575
 31
0.0
  0
LINE
  5
2A1
  8
LAYER_1
 10
52.246175
 20
30.051575
 30
0.0
 11
52.637789
 21
28.203898
 31
0.0
  0
LINE
  5
2A2
  8
LAYER_1
 10
52.637789
 20
28.203898
 30
0.0
 11
53.118775
 21
25.351271
 31
0.0
  0
LINE
  5
2A3
  8
LAYER_1
 10
53.118775
 20
25.351271
 30
0.0
 11
53.855876
 21
22.991818
 31
0.0
  0
LINE
  5
2A4
  8
LAYER_1
 10
53.855876
 20
22.991818
 30
0.0
 11
54.799432
 21
21.246813
 31
0.0
  0
LINE
  5
2A5
  8
LAYER_1
 10
54.799432
 20
21.246813
 30
0.0
 11
55.333113
 21
20.642626
 31
0.0
  0
LINE
  5
2A6
  8
LAYER_1
 10
55.333113
 20
20.642626
 30
0.0
 11
55.899787
 21
20.237529
 31
0.0
  0
LINE
  5
2A7
  8
LAYER_1
 10
55.899787
 20
20.237529
 30
0.0
 11
56.793472
 21
19.899919
 31
0.0
  0
LINE
  5
2A8
  8
LAYER_1
 10
56.793472
 20
19.899919
 30
0.0
 11
57.615395
 21
19.833822
 31
0.0
  0
LINE
  5
2A9
  8
LAYER_1
 10
57.615395
 20
19.833822
 30
0.0
 11
58.350599
 21
20.024975
 31
0.0
  0
LINE
  5
2AA
  8
LAYER_1
 10
58.350599
 20
20.024975
 30
0.0
 11
58.984129
 21
20.459118
 31
0.0
  0
LINE
  5
2AB
  8
LAYER_1
 10
58.984129
 20
20.459118
 30
0.0
 11
59.501028
 21
21.121989
 31
0.0
  0
LINE
  5
2AC
  8
LAYER_1
 10
59.501028
 20
21.121989
 30
0.0
 11
59.886342
 21
21.999327
 31
0.0
  0
LINE
  5
2AD
  8
LAYER_1
 10
59.886342
 20
21.999327
 30
0.0
 11
60.125113
 21
23.076869
 31
0.0
  0
LINE
  5
2AE
  8
LAYER_1
 10
60.125113
 20
23.076869
 30
0.0
 11
60.202386
 21
24.340354
 31
0.0
  0
LINE
  5
2AF
  8
LAYER_1
 10
60.202386
 20
24.340354
 30
0.0
 11
60.029477
 21
26.259322
 31
0.0
  0
LINE
  5
2B0
  8
LAYER_1
 10
60.029477
 20
26.259322
 30
0.0
 11
59.784743
 21
27.053786
 31
0.0
  0
LINE
  5
2B1
  8
LAYER_1
 10
59.784743
 20
27.053786
 30
0.0
 11
59.399801
 21
27.792412
 31
0.0
  0
LINE
  5
2B2
  8
LAYER_1
 10
59.399801
 20
27.792412
 30
0.0
 11
58.105234
 21
29.264681
 31
0.0
  0
LINE
  5
2B3
  8
LAYER_1
 10
58.105234
 20
29.264681
 30
0.0
 11
55.937652
 21
31.001183
 31
0.0
  0
LINE
  5
2B4
  8
LAYER_1
 10
55.937652
 20
31.001183
 30
0.0
 11
53.68704
 21
32.989003
 31
0.0
  0
LINE
  5
2B5
  8
LAYER_1
 10
53.68704
 20
32.989003
 30
0.0
 11
52.793559
 21
34.070972
 31
0.0
  0
LINE
  5
2B6
  8
LAYER_1
 10
52.793559
 20
34.070972
 30
0.0
 11
52.040086
 21
35.237364
 31
0.0
  0
LINE
  5
2B7
  8
LAYER_1
 10
52.040086
 20
35.237364
 30
0.0
 11
51.415713
 21
36.507467
 31
0.0
  0
LINE
  5
2B8
  8
LAYER_1
 10
51.415713
 20
36.507467
 30
0.0
 11
50.909532
 21
37.900569
 31
0.0
  0
LINE
  5
2B9
  8
LAYER_1
 10
50.909532
 20
37.900569
 30
0.0
 11
50.208118
 21
41.132922
 31
0.0
  0
LINE
  5
2BA
  8
LAYER_1
 10
50.208118
 20
41.132922
 30
0.0
 11
50.063206
 21
42.768067
 31
0.0
  0
LINE
  5
2BB
  8
LAYER_1
 10
50.063206
 20
42.768067
 30
0.0
 11
50.069557
 21
44.528855
 31
0.0
  0
LINE
  5
2BC
  8
LAYER_1
 10
50.069557
 20
44.528855
 30
0.0
 11
50.490257
 21
48.180282
 31
0.0
  0
LINE
  5
2BD
  8
LAYER_1
 10
50.490257
 20
48.180282
 30
0.0
 11
51.378646
 21
51.593054
 31
0.0
  0
LINE
  5
2BE
  8
LAYER_1
 10
51.378646
 20
51.593054
 30
0.0
 11
51.969608
 21
53.055521
 31
0.0
  0
LINE
  5
2BF
  8
LAYER_1
 10
51.969608
 20
53.055521
 30
0.0
 11
52.643151
 21
54.273018
 31
0.0
  0
LINE
  5
2C0
  8
LAYER_1
 10
52.643151
 20
54.273018
 30
0.0
 11
53.093724
 21
55.046661
 31
0.0
  0
LINE
  5
2C1
  8
LAYER_1
 10
53.093724
 20
55.046661
 30
0.0
 11
53.155164
 21
55.362569
 31
0.0
  0
LINE
  5
2C2
  8
LAYER_1
 10
53.155164
 20
55.362569
 30
0.0
 11
49.572607
 21
54.474321
 31
0.0
  0
LINE
  5
2C3
  8
LAYER_1
 10
49.572607
 20
54.474321
 30
0.0
 11
48.741296
 21
50.857067
 31
0.0
  0
LINE
  5
2C4
  8
LAYER_1
 10
48.741296
 20
50.857067
 30
0.0
 11
47.664763
 21
46.844661
 31
0.0
  0
LINE
  5
2C5
  8
LAYER_1
 10
47.664763
 20
46.844661
 30
0.0
 11
47.175979
 21
45.752779
 31
0.0
  0
LINE
  5
2C6
  8
LAYER_1
 10
47.175979
 20
45.752779
 30
0.0
 11
46.730604
 21
45.299255
 31
0.0
  0
LINE
  5
2C7
  8
LAYER_1
 10
46.730604
 20
45.299255
 30
0.0
 11
46.241125
 21
45.487376
 31
0.0
  0
LINE
  5
2C8
  8
LAYER_1
 10
46.241125
 20
45.487376
 30
0.0
 11
45.460604
 21
46.059334
 31
0.0
  0
LINE
  5
2C9
  8
LAYER_1
 10
45.460604
 20
46.059334
 30
0.0
 11
44.535616
 21
46.665182
 31
0.0
  0
LINE
  5
2CA
  8
LAYER_1
 10
44.535616
 20
46.665182
 30
0.0
 11
43.706536
 21
46.905294
 31
0.0
  0
LINE
  5
2CB
  8
LAYER_1
 10
43.706536
 20
46.905294
 30
0.0
 11
42.814332
 21
46.652017
 31
0.0
  0
LINE
  5
2CC
  8
LAYER_1
 10
42.814332
 20
46.652017
 30
0.0
 11
41.901506
 21
45.975175
 31
0.0
  0
LINE
  5
2CD
  8
LAYER_1
 10
41.901506
 20
45.975175
 30
0.0
 11
41.099632
 21
45.00142
 31
0.0
  0
LINE
  5
2CE
  8
LAYER_1
 10
41.099632
 20
45.00142
 30
0.0
 11
40.54028
 21
43.857406
 31
0.0
  0
LINE
  5
2CF
  8
LAYER_1
 10
40.54028
 20
43.857406
 30
0.0
 11
40.254692
 21
42.597703
 31
0.0
  0
LINE
  5
2D0
  8
LAYER_1
 10
40.254692
 20
42.597703
 30
0.0
 11
40.081121
 21
41.098627
 31
0.0
  0
LINE
  5
2D1
  8
LAYER_1
 10
40.081121
 20
41.098627
 30
0.0
 11
40.050676
 21
39.788537
 31
0.0
  0
LINE
  5
2D2
  8
LAYER_1
 10
40.050676
 20
39.788537
 30
0.0
 11
40.194467
 21
39.095796
 31
0.0
  0
LINE
  5
2D3
  8
LAYER_1
 10
40.194467
 20
39.095796
 30
0.0
 11
40.586767
 21
39.181718
 31
0.0
  0
LINE
  5
2D4
  8
LAYER_1
 10
40.586767
 20
39.181718
 30
0.0
 11
41.290144
 21
39.628104
 31
0.0
  0
LINE
  5
2D5
  8
LAYER_1
 10
41.290144
 20
39.628104
 30
0.0
 11
43.28512
 21
40.856938
 31
0.0
  0
LINE
  5
2D6
  8
LAYER_1
 10
43.28512
 20
40.856938
 30
0.0
 11
44.161937
 21
41.160841
 31
0.0
  0
LINE
  5
2D7
  8
LAYER_1
 10
44.161937
 20
41.160841
 30
0.0
 11
44.966811
 21
41.261511
 31
0.0
  0
LINE
  5
2D8
  8
LAYER_1
 10
44.966811
 20
41.261511
 30
0.0
 11
45.585308
 21
41.216118
 31
0.0
  0
LINE
  5
2D9
  8
LAYER_1
 10
45.585308
 20
41.216118
 30
0.0
 11
46.047605
 21
41.054035
 31
0.0
  0
LINE
  5
2DA
  8
LAYER_1
 10
46.047605
 20
41.054035
 30
0.0
 11
46.359848
 21
40.73641
 31
0.0
  0
LINE
  5
2DB
  8
LAYER_1
 10
46.359848
 20
40.73641
 30
0.0
 11
46.528184
 21
40.224392
 31
0.0
  0
LINE
  5
2DC
  8
LAYER_1
 10
46.528184
 20
40.224392
 30
0.0
 11
46.457724
 21
38.461766
 31
0.0
  0
LINE
  5
2DD
  8
LAYER_1
 10
46.457724
 20
38.461766
 30
0.0
 11
45.885396
 21
35.455338
 31
0.0
  0
LINE
  5
2DE
  8
LAYER_1
 10
45.885396
 20
35.455338
 30
0.0
 11
45.008881
 21
32.018262
 31
0.0
  0
LINE
  5
2DF
  8
LAYER_1
 10
45.008881
 20
32.018262
 30
0.0
 11
44.660731
 21
31.309237
 31
0.0
  0
LINE
  5
2E0
  8
LAYER_1
 10
44.660731
 20
31.309237
 30
0.0
 11
44.310543
 21
31.101513
 31
0.0
  0
LINE
  5
2E1
  8
LAYER_1
 10
44.310543
 20
31.101513
 30
0.0
 11
42.950432
 21
31.65074
 31
0.0
  0
LINE
  5
2E2
  8
LAYER_1
 10
42.950432
 20
31.65074
 30
0.0
 11
41.949527
 21
32.042894
 31
0.0
  0
LINE
  5
2E3
  8
LAYER_1
 10
41.949527
 20
32.042894
 30
0.0
 11
41.62444
 21
31.987219
 31
0.0
  0
LINE
  5
2E4
  8
LAYER_1
 10
41.62444
 20
31.987219
 30
0.0
 11
41.266731
 21
31.77472
 31
0.0
  0
LINE
  5
2E5
  8
LAYER_1
 10
41.266731
 20
31.77472
 30
0.0
 11
40.49533
 21
31.04363
 31
0.0
  0
LINE
  5
2E6
  8
LAYER_1
 10
40.49533
 20
31.04363
 30
0.0
 11
40.009194
 21
30.044585
 31
0.0
  0
LINE
  5
2E7
  8
LAYER_1
 10
40.009194
 20
30.044585
 30
0.0
 11
39.758552
 21
28.613416
 31
0.0
  0
LINE
  5
2E8
  8
LAYER_1
 10
39.758552
 20
28.613416
 30
0.0
 11
39.693633
 21
26.585957
 31
0.0
  0
LINE
  5
2E9
  8
LAYER_1
 10
39.693633
 20
26.585957
 30
0.0
 11
39.828392
 21
24.27725
 31
0.0
  0
LINE
  5
2EA
  8
LAYER_1
 10
39.828392
 20
24.27725
 30
0.0
 11
40.215226
 21
22.540979
 31
0.0
  0
LINE
  5
2EB
  8
LAYER_1
 10
40.215226
 20
22.540979
 30
0.0
 11
40.865234
 21
21.345758
 31
0.0
  0
LINE
  5
2EC
  8
LAYER_1
 10
40.865234
 20
21.345758
 30
0.0
 11
41.789519
 21
20.660199
 31
0.0
  0
LINE
  5
2ED
  8
LAYER_1
 10
41.789519
 20
20.660199
 30
0.0
 11
42.524961
 21
20.466387
 31
0.0
  0
LINE
  5
2EE
  8
LAYER_1
 10
42.524961
 20
20.466387
 30
0.0
 11
43.236575
 21
20.56682
 31
0.0
  0
LINE
  5
2EF
  8
LAYER_1
 10
43.236575
 20
20.56682
 30
0.0
 11
44.046898
 21
21.004851
 31
0.0
  0
LINE
  5
2F0
  8
LAYER_1
 10
44.046898
 20
21.004851
 30
0.0
 11
45.078464
 21
21.823832
 31
0.0
  0
LINE
  5
2F1
  8
LAYER_1
 10
45.078464
 20
21.823832
 30
0.0
 11
46.128977
 21
22.589984
 31
0.0
  0
LINE
  5
2F2
  8
LAYER_1
 10
46.128977
 20
22.589984
 30
0.0
 11
46.834758
 21
22.856881
 31
0.0
  0
LINE
  5
2F3
  8
LAYER_1
 10
46.834758
 20
22.856881
 30
0.0
 11
47.270301
 21
22.463805
 31
0.0
  0
LINE
  5
2F4
  8
LAYER_1
 10
47.270301
 20
22.463805
 30
0.0
 11
47.671095
 21
21.643213
 31
0.0
  0
LINE
  5
2F5
  8
LAYER_1
 10
47.671095
 20
21.643213
 30
0.0
 11
48.708623
 21
17.08877
 31
0.0
  0
LINE
  5
2F6
  8
LAYER_1
 10
48.708623
 20
17.08877
 30
0.0
 11
49.411715
 21
12.844949
 31
0.0
  0
LINE
  5
2F7
  8
LAYER_1
 10
49.411715
 20
12.844949
 30
0.0
 11
49.586954
 21
12.308548
 31
0.0
  0
LINE
  5
2F8
  8
LAYER_1
 10
49.586954
 20
12.308548
 30
0.0
 11
50.187826
 21
12.027594
 31
0.0
  0
LINE
  5
2F9
  8
LAYER_1
 10
50.187826
 20
12.027594
 30
0.0
 11
51.810604
 21
11.641376
 31
0.0
  0
LINE
  5
2FA
  8
LAYER_1
 10
51.810604
 20
11.641376
 30
0.0
 11
52.4476
 21
11.509223
 31
0.0
  0
LINE
  5
2FB
  8
LAYER_1
 10
52.4476
 20
11.509223
 30
0.0
 11
52.720489
 21
11.557391
 31
0.0
  0
LINE
  5
2FC
  8
LAYER_1
 10
52.720489
 20
11.557391
 30
0.0
 11
52.661015
 21
11.834217
 31
0.0
  0
LINE
  5
2FD
  8
LAYER_1
 10
52.661015
 20
11.834217
 30
0.0
 11
52.30092
 21
12.38804
 31
0.0
  0
LINE
  5
2FE
  8
LAYER_1
 10
52.30092
 20
12.38804
 30
0.0
 11
52.30092
 21
12.38804
 31
0.0
  0
LINE
  5
2FF
  8
LAYER_1
 10
76.359472
 20
12.972706
 30
0.0
 11
77.348159
 21
13.846378
 31
0.0
  0
LINE
  5
300
  8
LAYER_1
 10
77.348159
 20
13.846378
 30
0.0
 11
78.24329
 21
15.018519
 31
0.0
  0
LINE
  5
301
  8
LAYER_1
 10
78.24329
 20
15.018519
 30
0.0
 11
79.04635500000001
 21
16.493457
 31
0.0
  0
LINE
  5
302
  8
LAYER_1
 10
79.04635500000001
 20
16.493457
 30
0.0
 11
79.75884600000001
 21
18.275517
 31
0.0
  0
LINE
  5
303
  8
LAYER_1
 10
79.75884600000001
 20
18.275517
 30
0.0
 11
80.382254
 21
20.369027
 31
0.0
  0
LINE
  5
304
  8
LAYER_1
 10
80.382254
 20
20.369027
 30
0.0
 11
80.91807
 21
22.778311
 31
0.0
  0
LINE
  5
305
  8
LAYER_1
 10
80.91807
 20
22.778311
 30
0.0
 11
81.732893
 21
28.561513
 31
0.0
  0
LINE
  5
306
  8
LAYER_1
 10
81.732893
 20
28.561513
 30
0.0
 11
81.887451
 21
38.039468
 31
0.0
  0
LINE
  5
307
  8
LAYER_1
 10
81.887451
 20
38.039468
 30
0.0
 11
81.736774
 21
46.720656
 31
0.0
  0
LINE
  5
308
  8
LAYER_1
 10
81.736774
 20
46.720656
 30
0.0
 11
81.458551
 21
49.204019
 31
0.0
  0
LINE
  5
309
  8
LAYER_1
 10
81.458551
 20
49.204019
 30
0.0
 11
81.14894700000001
 21
51.494125
 31
0.0
  0
LINE
  5
30A
  8
LAYER_1
 10
81.14894700000001
 20
51.494125
 30
0.0
 11
80.86134300000001
 21
51.848146
 31
0.0
  0
LINE
  5
30B
  8
LAYER_1
 10
80.86134300000001
 20
51.848146
 30
0.0
 11
80.346249
 21
52.190243
 31
0.0
  0
LINE
  5
30C
  8
LAYER_1
 10
80.346249
 20
52.190243
 30
0.0
 11
79.172881
 21
52.5504
 31
0.0
  0
LINE
  5
30D
  8
LAYER_1
 10
79.172881
 20
52.5504
 30
0.0
 11
78.89425300000001
 21
52.501827
 31
0.0
  0
LINE
  5
30E
  8
LAYER_1
 10
78.89425300000001
 20
52.501827
 30
0.0
 11
78.801661
 21
52.079514
 31
0.0
  0
LINE
  5
30F
  8
LAYER_1
 10
78.801661
 20
52.079514
 30
0.0
 11
79.17574500000001
 21
48.4541
 31
0.0
  0
LINE
  5
310
  8
LAYER_1
 10
79.17574500000001
 20
48.4541
 30
0.0
 11
79.669378
 21
42.287756
 31
0.0
  0
LINE
  5
311
  8
LAYER_1
 10
79.669378
 20
42.287756
 30
0.0
 11
79.799571
 21
35.803039
 31
0.0
  0
LINE
  5
312
  8
LAYER_1
 10
79.799571
 20
35.803039
 30
0.0
 11
79.57303
 21
29.864711
 31
0.0
  0
LINE
  5
313
  8
LAYER_1
 10
79.57303
 20
29.864711
 30
0.0
 11
78.996464
 21
25.337536
 31
0.0
  0
LINE
  5
314
  8
LAYER_1
 10
78.996464
 20
25.337536
 30
0.0
 11
78.599769
 21
23.981956
 31
0.0
  0
LINE
  5
315
  8
LAYER_1
 10
78.599769
 20
23.981956
 30
0.0
 11
78.017417
 21
22.592751
 31
0.0
  0
LINE
  5
316
  8
LAYER_1
 10
78.017417
 20
22.592751
 30
0.0
 11
77.356568
 21
21.393071
 31
0.0
  0
LINE
  5
317
  8
LAYER_1
 10
77.356568
 20
21.393071
 30
0.0
 11
76.72438
 21
20.606063
 31
0.0
  0
LINE
  5
318
  8
LAYER_1
 10
76.72438
 20
20.606063
 30
0.0
 11
76.04707999999999
 21
20.181603
 31
0.0
  0
LINE
  5
319
  8
LAYER_1
 10
76.04707999999999
 20
20.181603
 30
0.0
 11
75.263451
 21
19.943278
 31
0.0
  0
LINE
  5
31A
  8
LAYER_1
 10
75.263451
 20
19.943278
 30
0.0
 11
74.48244699999999
 21
19.910002
 31
0.0
  0
LINE
  5
31B
  8
LAYER_1
 10
74.48244699999999
 20
19.910002
 30
0.0
 11
73.81302100000001
 21
20.100688
 31
0.0
  0
LINE
  5
31C
  8
LAYER_1
 10
73.81302100000001
 20
20.100688
 30
0.0
 11
73.135085
 21
20.804601
 31
0.0
  0
LINE
  5
31D
  8
LAYER_1
 10
73.135085
 20
20.804601
 30
0.0
 11
72.437427
 21
22.125168
 31
0.0
  0
LINE
  5
31E
  8
LAYER_1
 10
72.437427
 20
22.125168
 30
0.0
 11
71.78463000000001
 21
23.913702
 31
0.0
  0
LINE
  5
31F
  8
LAYER_1
 10
71.78463000000001
 20
23.913702
 30
0.0
 11
71.24127900000001
 21
26.021513
 31
0.0
  0
LINE
  5
320
  8
LAYER_1
 10
71.24127900000001
 20
26.021513
 30
0.0
 11
70.838397
 21
30.252518
 31
0.0
  0
LINE
  5
321
  8
LAYER_1
 10
70.838397
 20
30.252518
 30
0.0
 11
70.712469
 21
36.669516
 31
0.0
  0
LINE
  5
322
  8
LAYER_1
 10
70.712469
 20
36.669516
 30
0.0
 11
70.86067300000001
 21
43.583346
 31
0.0
  0
LINE
  5
323
  8
LAYER_1
 10
70.86067300000001
 20
43.583346
 30
0.0
 11
71.280187
 21
49.304845
 31
0.0
  0
LINE
  5
324
  8
LAYER_1
 10
71.280187
 20
49.304845
 30
0.0
 11
71.682799
 21
52.632745
 31
0.0
  0
LINE
  5
325
  8
LAYER_1
 10
71.682799
 20
52.632745
 30
0.0
 11
71.745527
 21
54.210894
 31
0.0
  0
LINE
  5
326
  8
LAYER_1
 10
71.745527
 20
54.210894
 30
0.0
 11
71.617086
 21
54.556002
 31
0.0
  0
LINE
  5
327
  8
LAYER_1
 10
71.617086
 20
54.556002
 30
0.0
 11
71.364856
 21
54.718299
 31
0.0
  0
LINE
  5
328
  8
LAYER_1
 10
71.364856
 20
54.718299
 30
0.0
 11
70.437271
 21
54.833966
 31
0.0
  0
LINE
  5
329
  8
LAYER_1
 10
70.437271
 20
54.833966
 30
0.0
 11
69.38980599999999
 21
54.874766
 31
0.0
  0
LINE
  5
32A
  8
LAYER_1
 10
69.38980599999999
 20
54.874766
 30
0.0
 11
68.852991
 21
54.738491
 31
0.0
  0
LINE
  5
32B
  8
LAYER_1
 10
68.852991
 20
54.738491
 30
0.0
 11
68.53869899999999
 21
52.695133
 31
0.0
  0
LINE
  5
32C
  8
LAYER_1
 10
68.53869899999999
 20
52.695133
 30
0.0
 11
68.172
 21
48.034845
 31
0.0
  0
LINE
  5
32D
  8
LAYER_1
 10
68.172
 20
48.034845
 30
0.0
 11
67.939572
 21
38.194693
 31
0.0
  0
LINE
  5
32E
  8
LAYER_1
 10
67.939572
 20
38.194693
 30
0.0
 11
68.053331
 21
28.24749
 31
0.0
  0
LINE
  5
32F
  8
LAYER_1
 10
68.053331
 20
28.24749
 30
0.0
 11
68.57070400000001
 21
22.492949
 31
0.0
  0
LINE
  5
330
  8
LAYER_1
 10
68.57070400000001
 20
22.492949
 30
0.0
 11
68.97950899999999
 21
20.056662
 31
0.0
  0
LINE
  5
331
  8
LAYER_1
 10
68.97950899999999
 20
20.056662
 30
0.0
 11
69.486318
 21
17.921779
 31
0.0
  0
LINE
  5
332
  8
LAYER_1
 10
69.486318
 20
17.921779
 30
0.0
 11
70.08957100000001
 21
16.093859
 31
0.0
  0
LINE
  5
333
  8
LAYER_1
 10
70.08957100000001
 20
16.093859
 30
0.0
 11
70.787712
 21
14.578463
 31
0.0
  0
LINE
  5
334
  8
LAYER_1
 10
70.787712
 20
14.578463
 30
0.0
 11
71.579183
 21
13.38115
 31
0.0
  0
LINE
  5
335
  8
LAYER_1
 10
71.579183
 20
13.38115
 30
0.0
 11
72.46242700000001
 21
12.507482
 31
0.0
  0
LINE
  5
336
  8
LAYER_1
 10
72.46242700000001
 20
12.507482
 30
0.0
 11
73.28377500000001
 21
12.097792
 31
0.0
  0
LINE
  5
337
  8
LAYER_1
 10
73.28377500000001
 20
12.097792
 30
0.0
 11
74.211579
 21
12.039305
 31
0.0
  0
LINE
  5
338
  8
LAYER_1
 10
74.211579
 20
12.039305
 30
0.0
 11
75.239068
 21
12.331212
 31
0.0
  0
LINE
  5
339
  8
LAYER_1
 10
75.239068
 20
12.331212
 30
0.0
 11
76.359472
 21
12.972706
 31
0.0
  0
LINE
  5
33A
  8
LAYER_1
 10
76.359472
 20
12.972706
 30
0.0
 11
76.359472
 21
12.972706
 31
0.0
  0
LINE
  5
33B
  8
LAYER_1
 10
47.242493
 20
16.954655
 30
0.0
 11
46.296639
 21
20.941513
 31
0.0
  0
LINE
  5
33C
  8
LAYER_1
 10
46.296639
 20
20.941513
 30
0.0
 11
45.570005
 21
20.447624
 31
0.0
  0
LINE
  5
33D
  8
LAYER_1
 10
45.570005
 20
20.447624
 30
0.0
 11
44.25705
 21
19.59
 31
0.0
  0
LINE
  5
33E
  8
LAYER_1
 10
44.25705
 20
19.59
 30
0.0
 11
42.886692
 21
19.221591
 31
0.0
  0
LINE
  5
33F
  8
LAYER_1
 10
42.886692
 20
19.221591
 30
0.0
 11
41.56296
 21
19.351601
 31
0.0
  0
LINE
  5
340
  8
LAYER_1
 10
41.56296
 20
19.351601
 30
0.0
 11
40.389883
 21
19.989236
 31
0.0
  0
LINE
  5
341
  8
LAYER_1
 10
40.389883
 20
19.989236
 30
0.0
 11
39.715925
 21
20.689161
 31
0.0
  0
LINE
  5
342
  8
LAYER_1
 10
39.715925
 20
20.689161
 30
0.0
 11
39.114213
 21
21.571148
 31
0.0
  0
LINE
  5
343
  8
LAYER_1
 10
39.114213
 20
21.571148
 30
0.0
 11
38.62366
 21
22.568252
 31
0.0
  0
LINE
  5
344
  8
LAYER_1
 10
38.62366
 20
22.568252
 30
0.0
 11
38.283182
 21
23.613525
 31
0.0
  0
LINE
  5
345
  8
LAYER_1
 10
38.283182
 20
23.613525
 30
0.0
 11
38.113428
 21
25.002204
 31
0.0
  0
LINE
  5
346
  8
LAYER_1
 10
38.113428
 20
25.002204
 30
0.0
 11
38.111996
 21
26.783647
 31
0.0
  0
LINE
  5
347
  8
LAYER_1
 10
38.111996
 20
26.783647
 30
0.0
 11
38.263993
 21
28.601837
 31
0.0
  0
LINE
  5
348
  8
LAYER_1
 10
38.263993
 20
28.601837
 30
0.0
 11
38.55453
 21
30.100758
 31
0.0
  0
LINE
  5
349
  8
LAYER_1
 10
38.55453
 20
30.100758
 30
0.0
 11
38.891676
 21
30.983071
 31
0.0
  0
LINE
  5
34A
  8
LAYER_1
 10
38.891676
 20
30.983071
 30
0.0
 11
39.343879
 21
31.748665
 31
0.0
  0
LINE
  5
34B
  8
LAYER_1
 10
39.343879
 20
31.748665
 30
0.0
 11
39.888445
 21
32.383008
 31
0.0
  0
LINE
  5
34C
  8
LAYER_1
 10
39.888445
 20
32.383008
 30
0.0
 11
40.502681
 21
32.871566
 31
0.0
  0
LINE
  5
34D
  8
LAYER_1
 10
40.502681
 20
32.871566
 30
0.0
 11
41.163891
 21
33.199805
 31
0.0
  0
LINE
  5
34E
  8
LAYER_1
 10
41.163891
 20
33.199805
 30
0.0
 11
41.849382
 21
33.353193
 31
0.0
  0
LINE
  5
34F
  8
LAYER_1
 10
41.849382
 20
33.353193
 30
0.0
 11
42.536459
 21
33.317196
 31
0.0
  0
LINE
  5
350
  8
LAYER_1
 10
42.536459
 20
33.317196
 30
0.0
 11
43.202428
 21
33.07728
 31
0.0
  0
LINE
  5
351
  8
LAYER_1
 10
43.202428
 20
33.07728
 30
0.0
 11
43.655234
 21
32.959368
 31
0.0
  0
LINE
  5
352
  8
LAYER_1
 10
43.655234
 20
32.959368
 30
0.0
 11
43.894234
 21
33.314716
 31
0.0
  0
LINE
  5
353
  8
LAYER_1
 10
43.894234
 20
33.314716
 30
0.0
 11
45.178382
 21
39.939414
 31
0.0
  0
LINE
  5
354
  8
LAYER_1
 10
45.178382
 20
39.939414
 30
0.0
 11
44.953762
 21
40.077801
 31
0.0
  0
LINE
  5
355
  8
LAYER_1
 10
44.953762
 20
40.077801
 30
0.0
 11
44.328238
 21
39.869287
 31
0.0
  0
LINE
  5
356
  8
LAYER_1
 10
44.328238
 20
39.869287
 30
0.0
 11
42.164477
 21
38.545668
 31
0.0
  0
LINE
  5
357
  8
LAYER_1
 10
42.164477
 20
38.545668
 30
0.0
 11
40.954488
 21
37.737206
 31
0.0
  0
LINE
  5
358
  8
LAYER_1
 10
40.954488
 20
37.737206
 30
0.0
 11
40.164855
 21
37.38732
 31
0.0
  0
LINE
  5
359
  8
LAYER_1
 10
40.164855
 20
37.38732
 30
0.0
 11
39.604861
 21
37.45632
 31
0.0
  0
LINE
  5
35A
  8
LAYER_1
 10
39.604861
 20
37.45632
 30
0.0
 11
39.08379
 21
37.904513
 31
0.0
  0
LINE
  5
35B
  8
LAYER_1
 10
39.08379
 20
37.904513
 30
0.0
 11
38.81442
 21
38.296801
 31
0.0
  0
LINE
  5
35C
  8
LAYER_1
 10
38.81442
 20
38.296801
 30
0.0
 11
38.654603
 21
38.825264
 31
0.0
  0
LINE
  5
35D
  8
LAYER_1
 10
38.654603
 20
38.825264
 30
0.0
 11
38.574438
 21
40.79729
 31
0.0
  0
LINE
  5
35E
  8
LAYER_1
 10
38.574438
 20
40.79729
 30
0.0
 11
38.664267
 21
42.119012
 31
0.0
  0
LINE
  5
35F
  8
LAYER_1
 10
38.664267
 20
42.119012
 30
0.0
 11
38.893463
 21
43.358432
 31
0.0
  0
LINE
  5
360
  8
LAYER_1
 10
38.893463
 20
43.358432
 30
0.0
 11
39.251663
 21
44.497007
 31
0.0
  0
LINE
  5
361
  8
LAYER_1
 10
39.251663
 20
44.497007
 30
0.0
 11
39.728505
 21
45.516192
 31
0.0
  0
LINE
  5
362
  8
LAYER_1
 10
39.728505
 20
45.516192
 30
0.0
 11
40.313628
 21
46.397443
 31
0.0
  0
LINE
  5
363
  8
LAYER_1
 10
40.313628
 20
46.397443
 30
0.0
 11
40.996667
 21
47.122216
 31
0.0
  0
LINE
  5
364
  8
LAYER_1
 10
40.996667
 20
47.122216
 30
0.0
 11
41.767261
 21
47.671968
 31
0.0
  0
LINE
  5
365
  8
LAYER_1
 10
41.767261
 20
47.671968
 30
0.0
 11
42.615048
 21
48.028152
 31
0.0
  0
LINE
  5
366
  8
LAYER_1
 10
42.615048
 20
48.028152
 30
0.0
 11
43.480337
 21
48.166213
 31
0.0
  0
LINE
  5
367
  8
LAYER_1
 10
43.480337
 20
48.166213
 30
0.0
 11
44.367331
 21
48.11965
 31
0.0
  0
LINE
  5
368
  8
LAYER_1
 10
44.367331
 20
48.11965
 30
0.0
 11
45.176296
 21
47.903889
 31
0.0
  0
LINE
  5
369
  8
LAYER_1
 10
45.176296
 20
47.903889
 30
0.0
 11
45.807497
 21
47.534357
 31
0.0
  0
LINE
  5
36A
  8
LAYER_1
 10
45.807497
 20
47.534357
 30
0.0
 11
46.138961
 21
47.281034
 31
0.0
  0
LINE
  5
36B
  8
LAYER_1
 10
46.138961
 20
47.281034
 30
0.0
 11
46.363481
 21
47.410409
 31
0.0
  0
LINE
  5
36C
  8
LAYER_1
 10
46.363481
 20
47.410409
 30
0.0
 11
46.9775
 21
49.728178
 31
0.0
  0
LINE
  5
36D
  8
LAYER_1
 10
46.9775
 20
49.728178
 30
0.0
 11
47.624371
 21
52.880156
 31
0.0
  0
LINE
  5
36E
  8
LAYER_1
 10
47.624371
 20
52.880156
 30
0.0
 11
47.635927
 21
53.503087
 31
0.0
  0
LINE
  5
36F
  8
LAYER_1
 10
47.635927
 20
53.503087
 30
0.0
 11
47.462731
 21
53.679289
 31
0.0
  0
LINE
  5
370
  8
LAYER_1
 10
47.462731
 20
53.679289
 30
0.0
 11
43.768529
 21
52.546754
 31
0.0
  0
LINE
  5
371
  8
LAYER_1
 10
43.768529
 20
52.546754
 30
0.0
 11
39.197113
 21
50.895054
 31
0.0
  0
LINE
  5
372
  8
LAYER_1
 10
39.197113
 20
50.895054
 30
0.0
 11
38.317659
 21
50.474418
 31
0.0
  0
LINE
  5
373
  8
LAYER_1
 10
38.317659
 20
50.474418
 30
0.0
 11
38.039989
 21
50.178679
 31
0.0
  0
LINE
  5
374
  8
LAYER_1
 10
38.039989
 20
50.178679
 30
0.0
 11
37.832322
 21
49.700591
 31
0.0
  0
LINE
  5
375
  8
LAYER_1
 10
37.832322
 20
49.700591
 30
0.0
 11
37.512889
 21
47.821166
 31
0.0
  0
LINE
  5
376
  8
LAYER_1
 10
37.512889
 20
47.821166
 30
0.0
 11
37.131142
 21
44.083734
 31
0.0
  0
LINE
  5
377
  8
LAYER_1
 10
37.131142
 20
44.083734
 30
0.0
 11
36.482714
 21
36.07314
 31
0.0
  0
LINE
  5
378
  8
LAYER_1
 10
36.482714
 20
36.07314
 30
0.0
 11
36.050309
 21
27.915251
 31
0.0
  0
LINE
  5
379
  8
LAYER_1
 10
36.050309
 20
27.915251
 30
0.0
 11
35.898555
 21
21.250057
 31
0.0
  0
LINE
  5
37A
  8
LAYER_1
 10
35.898555
 20
21.250057
 30
0.0
 11
35.94812
 21
18.989718
 31
0.0
  0
LINE
  5
37B
  8
LAYER_1
 10
35.94812
 20
18.989718
 30
0.0
 11
36.092085
 21
17.71755
 31
0.0
  0
LINE
  5
37C
  8
LAYER_1
 10
36.092085
 20
17.71755
 30
0.0
 11
36.371329
 21
17.073025
 31
0.0
  0
LINE
  5
37D
  8
LAYER_1
 10
36.371329
 20
17.073025
 30
0.0
 11
36.726244
 21
16.682037
 31
0.0
  0
LINE
  5
37E
  8
LAYER_1
 10
36.726244
 20
16.682037
 30
0.0
 11
38.95571
 21
15.694331
 31
0.0
  0
LINE
  5
37F
  8
LAYER_1
 10
38.95571
 20
15.694331
 30
0.0
 11
41.658294
 21
14.715013
 31
0.0
  0
LINE
  5
380
  8
LAYER_1
 10
41.658294
 20
14.715013
 30
0.0
 11
44.190604
 21
13.848258
 31
0.0
  0
LINE
  5
381
  8
LAYER_1
 10
44.190604
 20
13.848258
 30
0.0
 11
46.294928
 21
13.23644
 31
0.0
  0
LINE
  5
382
  8
LAYER_1
 10
46.294928
 20
13.23644
 30
0.0
 11
47.94134
 21
12.905153
 31
0.0
  0
LINE
  5
383
  8
LAYER_1
 10
47.94134
 20
12.905153
 30
0.0
 11
47.242493
 21
16.954655
 31
0.0
  0
LINE
  5
384
  8
LAYER_1
 10
47.242493
 20
16.954655
 30
0.0
 11
47.242493
 21
16.954655
 31
0.0
  0
LINE
  5
385
  8
LAYER_1
 10
80.739604
 20
13.705738
 30
0.0
 11
84.613726
 21
15.232614
 31
0.0
  0
LINE
  5
386
  8
LAYER_1
 10
84.613726
 20
15.232614
 30
0.0
 11
87.219931
 21
16.412837
 31
0.0
  0
LINE
  5
387
  8
LAYER_1
 10
87.219931
 20
16.412837
 30
0.0
 11
87.40612900000001
 21
16.679317
 31
0.0
  0
LINE
  5
388
  8
LAYER_1
 10
87.40612900000001
 20
16.679317
 30
0.0
 11
86.89488400000001
 21
16.956667
 31
0.0
  0
LINE
  5
389
  8
LAYER_1
 10
86.89488400000001
 20
16.956667
 30
0.0
 11
86.215801
 21
17.382568
 31
0.0
  0
LINE
  5
38A
  8
LAYER_1
 10
86.215801
 20
17.382568
 30
0.0
 11
85.511512
 21
18.119702
 31
0.0
  0
LINE
  5
38B
  8
LAYER_1
 10
85.511512
 20
18.119702
 30
0.0
 11
84.84058
 21
19.095142
 31
0.0
  0
LINE
  5
38C
  8
LAYER_1
 10
84.84058
 20
19.095142
 30
0.0
 11
84.261568
 21
20.235957
 31
0.0
  0
LINE
  5
38D
  8
LAYER_1
 10
84.261568
 20
20.235957
 30
0.0
 11
83.847398
 21
22.126358
 31
0.0
  0
LINE
  5
38E
  8
LAYER_1
 10
83.847398
 20
22.126358
 30
0.0
 11
83.73594
 21
24.718739
 31
0.0
  0
LINE
  5
38F
  8
LAYER_1
 10
83.73594
 20
24.718739
 30
0.0
 11
83.918571
 21
27.376854
 31
0.0
  0
LINE
  5
390
  8
LAYER_1
 10
83.918571
 20
27.376854
 30
0.0
 11
84.38666600000001
 21
29.464457
 31
0.0
  0
LINE
  5
391
  8
LAYER_1
 10
84.38666600000001
 20
29.464457
 30
0.0
 11
84.87444600000001
 21
30.472801
 31
0.0
  0
LINE
  5
392
  8
LAYER_1
 10
84.87444600000001
 20
30.472801
 30
0.0
 11
85.407329
 21
31.13273
 31
0.0
  0
LINE
  5
393
  8
LAYER_1
 10
85.407329
 20
31.13273
 30
0.0
 11
85.92607
 21
31.392434
 31
0.0
  0
LINE
  5
394
  8
LAYER_1
 10
85.92607
 20
31.392434
 30
0.0
 11
86.37142400000001
 21
31.200104
 31
0.0
  0
LINE
  5
395
  8
LAYER_1
 10
86.37142400000001
 20
31.200104
 30
0.0
 11
86.909131
 21
28.920361
 31
0.0
  0
LINE
  5
396
  8
LAYER_1
 10
86.909131
 20
28.920361
 30
0.0
 11
87.216911
 21
27.408966
 31
0.0
  0
LINE
  5
397
  8
LAYER_1
 10
87.216911
 20
27.408966
 30
0.0
 11
87.61183200000001
 21
26.199808
 31
0.0
  0
LINE
  5
398
  8
LAYER_1
 10
87.61183200000001
 20
26.199808
 30
0.0
 11
88.09250400000001
 21
25.293916
 31
0.0
  0
LINE
  5
399
  8
LAYER_1
 10
88.09250400000001
 20
25.293916
 30
0.0
 11
88.657534
 21
24.692321
 31
0.0
  0
LINE
  5
39A
  8
LAYER_1
 10
88.657534
 20
24.692321
 30
0.0
 11
89.305533
 21
24.396051
 31
0.0
  0
LINE
  5
39B
  8
LAYER_1
 10
89.305533
 20
24.396051
 30
0.0
 11
90.03510900000001
 21
24.406137
 31
0.0
  0
LINE
  5
39C
  8
LAYER_1
 10
90.03510900000001
 20
24.406137
 30
0.0
 11
90.84487300000001
 21
24.723607
 31
0.0
  0
LINE
  5
39D
  8
LAYER_1
 10
90.84487300000001
 20
24.723607
 30
0.0
 11
91.73343199999999
 21
25.349491
 31
0.0
  0
LINE
  5
39E
  8
LAYER_1
 10
91.73343199999999
 20
25.349491
 30
0.0
 11
92.452311
 21
26.070263
 31
0.0
  0
LINE
  5
39F
  8
LAYER_1
 10
92.452311
 20
26.070263
 30
0.0
 11
92.988112
 21
26.856691
 31
0.0
  0
LINE
  5
3A0
  8
LAYER_1
 10
92.988112
 20
26.856691
 30
0.0
 11
93.32281
 21
27.675535
 31
0.0
  0
LINE
  5
3A1
  8
LAYER_1
 10
93.32281
 20
27.675535
 30
0.0
 11
93.438382
 21
28.493556
 31
0.0
  0
LINE
  5
3A2
  8
LAYER_1
 10
93.438382
 20
28.493556
 30
0.0
 11
93.307819
 21
29.323952
 31
0.0
  0
LINE
  5
3A3
  8
LAYER_1
 10
93.307819
 20
29.323952
 30
0.0
 11
92.798563
 21
30.005226
 31
0.0
  0
LINE
  5
3A4
  8
LAYER_1
 10
92.798563
 20
30.005226
 30
0.0
 11
91.73426000000001
 21
30.690533
 31
0.0
  0
LINE
  5
3A5
  8
LAYER_1
 10
91.73426000000001
 20
30.690533
 30
0.0
 11
89.938558
 21
31.53303
 31
0.0
  0
LINE
  5
3A6
  8
LAYER_1
 10
89.938558
 20
31.53303
 30
0.0
 11
88.793054
 21
32.212669
 31
0.0
  0
LINE
  5
3A7
  8
LAYER_1
 10
88.793054
 20
32.212669
 30
0.0
 11
87.58496599999999
 21
33.16975
 31
0.0
  0
LINE
  5
3A8
  8
LAYER_1
 10
87.58496599999999
 20
33.16975
 30
0.0
 11
86.768992
 21
34.021036
 31
0.0
  0
LINE
  5
3A9
  8
LAYER_1
 10
86.768992
 20
34.021036
 30
0.0
 11
86.077451
 21
34.95755
 31
0.0
  0
LINE
  5
3AA
  8
LAYER_1
 10
86.077451
 20
34.95755
 30
0.0
 11
85.063005
 21
37.100363
 31
0.0
  0
LINE
  5
3AB
  8
LAYER_1
 10
85.063005
 20
37.100363
 30
0.0
 11
84.532296
 21
39.626387
 31
0.0
  0
LINE
  5
3AC
  8
LAYER_1
 10
84.532296
 20
39.626387
 30
0.0
 11
84.47599200000001
 21
42.563817
 31
0.0
  0
LINE
  5
3AD
  8
LAYER_1
 10
84.47599200000001
 20
42.563817
 30
0.0
 11
84.714685
 21
44.860901
 31
0.0
  0
LINE
  5
3AE
  8
LAYER_1
 10
84.714685
 20
44.860901
 30
0.0
 11
85.167804
 21
46.649204
 31
0.0
  0
LINE
  5
3AF
  8
LAYER_1
 10
85.167804
 20
46.649204
 30
0.0
 11
85.879378
 21
48.049258
 31
0.0
  0
LINE
  5
3B0
  8
LAYER_1
 10
85.879378
 20
48.049258
 30
0.0
 11
86.89343700000001
 21
49.181597
 31
0.0
  0
LINE
  5
3B1
  8
LAYER_1
 10
86.89343700000001
 20
49.181597
 30
0.0
 11
88.152557
 21
50.28992
 31
0.0
  0
LINE
  5
3B2
  8
LAYER_1
 10
88.152557
 20
50.28992
 30
0.0
 11
85.927136
 21
51.311939
 31
0.0
  0
LINE
  5
3B3
  8
LAYER_1
 10
85.927136
 20
51.311939
 30
0.0
 11
82.97578900000001
 21
52.549197
 31
0.0
  0
LINE
  5
3B4
  8
LAYER_1
 10
82.97578900000001
 20
52.549197
 30
0.0
 11
82.249865
 21
52.764435
 31
0.0
  0
LINE
  5
3B5
  8
LAYER_1
 10
82.249865
 20
52.764435
 30
0.0
 11
82.638237
 21
51.316862
 31
0.0
  0
LINE
  5
3B6
  8
LAYER_1
 10
82.638237
 20
51.316862
 30
0.0
 11
83.002579
 21
48.665864
 31
0.0
  0
LINE
  5
3B7
  8
LAYER_1
 10
83.002579
 20
48.665864
 30
0.0
 11
83.277745
 21
44.272486
 31
0.0
  0
LINE
  5
3B8
  8
LAYER_1
 10
83.277745
 20
44.272486
 30
0.0
 11
83.423597
 21
39.053161
 31
0.0
  0
LINE
  5
3B9
  8
LAYER_1
 10
83.423597
 20
39.053161
 30
0.0
 11
83.399997
 21
33.924322
 31
0.0
  0
LINE
  5
3BA
  8
LAYER_1
 10
83.399997
 20
33.924322
 30
0.0
 11
83.22008
 21
29.890913
 31
0.0
  0
LINE
  5
3BB
  8
LAYER_1
 10
83.22008
 20
29.890913
 30
0.0
 11
82.897629
 21
26.221216
 31
0.0
  0
LINE
  5
3BC
  8
LAYER_1
 10
82.897629
 20
26.221216
 30
0.0
 11
82.437603
 21
22.959177
 31
0.0
  0
LINE
  5
3BD
  8
LAYER_1
 10
82.437603
 20
22.959177
 30
0.0
 11
81.844964
 21
20.148742
 31
0.0
  0
LINE
  5
3BE
  8
LAYER_1
 10
81.844964
 20
20.148742
 30
0.0
 11
81.261685
 21
18.266278
 31
0.0
  0
LINE
  5
3BF
  8
LAYER_1
 10
81.261685
 20
18.266278
 30
0.0
 11
80.505825
 21
16.329617
 31
0.0
  0
LINE
  5
3C0
  8
LAYER_1
 10
80.505825
 20
16.329617
 30
0.0
 11
79.744366
 21
14.728135
 31
0.0
  0
LINE
  5
3C1
  8
LAYER_1
 10
79.744366
 20
14.728135
 30
0.0
 11
79.14429199999999
 21
13.85121
 31
0.0
  0
LINE
  5
3C2
  8
LAYER_1
 10
79.14429199999999
 20
13.85121
 30
0.0
 11
78.783779
 21
13.343856
 31
0.0
  0
LINE
  5
3C3
  8
LAYER_1
 10
78.783779
 20
13.343856
 30
0.0
 11
78.743244
 21
13.12813
 31
0.0
  0
LINE
  5
3C4
  8
LAYER_1
 10
78.743244
 20
13.12813
 30
0.0
 11
78.834604
 21
13.03929
 31
0.0
  0
LINE
  5
3C5
  8
LAYER_1
 10
78.834604
 20
13.03929
 30
0.0
 11
80.739604
 21
13.705738
 31
0.0
  0
LINE
  5
3C6
  8
LAYER_1
 10
80.739604
 20
13.705738
 30
0.0
 11
80.739604
 21
13.705738
 31
0.0
  0
LINE
  5
3C7
  8
LAYER_1
 10
34.542058
 20
25.809846
 30
0.0
 11
35.004793
 21
36.745957
 31
0.0
  0
LINE
  5
3C8
  8
LAYER_1
 10
35.004793
 20
36.745957
 30
0.0
 11
36.088216
 21
49.316864
 31
0.0
  0
LINE
  5
3C9
  8
LAYER_1
 10
36.088216
 20
49.316864
 30
0.0
 11
34.513235
 21
48.664078
 31
0.0
  0
LINE
  5
3CA
  8
LAYER_1
 10
34.513235
 20
48.664078
 30
0.0
 11
33.040074
 21
47.909475
 31
0.0
  0
LINE
  5
3CB
  8
LAYER_1
 10
33.040074
 20
47.909475
 30
0.0
 11
33.253116
 21
45.643827
 31
0.0
  0
LINE
  5
3CC
  8
LAYER_1
 10
33.253116
 20
45.643827
 30
0.0
 11
33.46299
 21
34.347068
 31
0.0
  0
LINE
  5
3CD
  8
LAYER_1
 10
33.46299
 20
34.347068
 30
0.0
 11
33.415011
 21
28.469593
 31
0.0
  0
LINE
  5
3CE
  8
LAYER_1
 10
33.415011
 20
28.469593
 30
0.0
 11
33.224241
 21
24.751453
 31
0.0
  0
LINE
  5
3CF
  8
LAYER_1
 10
33.224241
 20
24.751453
 30
0.0
 11
32.812835
 21
22.409177
 31
0.0
  0
LINE
  5
3D0
  8
LAYER_1
 10
32.812835
 20
22.409177
 30
0.0
 11
32.102944
 21
20.65929
 31
0.0
  0
LINE
  5
3D1
  8
LAYER_1
 10
32.102944
 20
20.65929
 30
0.0
 11
31.447463
 21
19.38929
 31
0.0
  0
LINE
  5
3D2
  8
LAYER_1
 10
31.447463
 20
19.38929
 30
0.0
 11
32.739034
 21
18.643479
 31
0.0
  0
LINE
  5
3D3
  8
LAYER_1
 10
32.739034
 20
18.643479
 30
0.0
 11
34.197194
 21
17.867368
 31
0.0
  0
LINE
  5
3D4
  8
LAYER_1
 10
34.197194
 20
17.867368
 30
0.0
 11
34.542058
 21
25.809846
 31
0.0
  0
LINE
  5
3D5
  8
LAYER_1
 10
34.542058
 20
25.809846
 30
0.0
 11
34.542058
 21
25.809846
 31
0.0
  0
LINE
  5
3D6
  8
LAYER_1
 10
90.98226099999999
 20
18.929497
 30
0.0
 11
92.152141
 21
19.851269
 31
0.0
  0
LINE
  5
3D7
  8
LAYER_1
 10
92.152141
 20
19.851269
 30
0.0
 11
93.21538
 21
20.919467
 31
0.0
  0
LINE
  5
3D8
  8
LAYER_1
 10
93.21538
 20
20.919467
 30
0.0
 11
94.161249
 21
22.114772
 31
0.0
  0
LINE
  5
3D9
  8
LAYER_1
 10
94.161249
 20
22.114772
 30
0.0
 11
94.979016
 21
23.417867
 31
0.0
  0
LINE
  5
3DA
  8
LAYER_1
 10
94.979016
 20
23.417867
 30
0.0
 11
95.65795300000001
 21
24.809434
 31
0.0
  0
LINE
  5
3DB
  8
LAYER_1
 10
95.65795300000001
 20
24.809434
 30
0.0
 11
96.18733
 21
26.270155
 31
0.0
  0
LINE
  5
3DC
  8
LAYER_1
 10
96.18733
 20
26.270155
 30
0.0
 11
96.556417
 21
27.780713
 31
0.0
  0
LINE
  5
3DD
  8
LAYER_1
 10
96.556417
 20
27.780713
 30
0.0
 11
96.75448400000001
 21
29.321788
 31
0.0
  0
LINE
  5
3DE
  8
LAYER_1
 10
96.75448400000001
 20
29.321788
 30
0.0
 11
96.704024
 21
31.187314
 31
0.0
  0
LINE
  5
3DF
  8
LAYER_1
 10
96.704024
 20
31.187314
 30
0.0
 11
96.506727
 21
31.967079
 31
0.0
  0
LINE
  5
3E0
  8
LAYER_1
 10
96.506727
 20
31.967079
 30
0.0
 11
96.174801
 21
32.678643
 31
0.0
  0
LINE
  5
3E1
  8
LAYER_1
 10
96.174801
 20
32.678643
 30
0.0
 11
95.047308
 21
33.998567
 31
0.0
  0
LINE
  5
3E2
  8
LAYER_1
 10
95.047308
 20
33.998567
 30
0.0
 11
93.202038
 21
35.349874
 31
0.0
  0
LINE
  5
3E3
  8
LAYER_1
 10
93.202038
 20
35.349874
 30
0.0
 11
89.892644
 21
37.595939
 31
0.0
  0
LINE
  5
3E4
  8
LAYER_1
 10
89.892644
 20
37.595939
 30
0.0
 11
89.15901599999999
 21
38.2982
 31
0.0
  0
LINE
  5
3E5
  8
LAYER_1
 10
89.15901599999999
 20
38.2982
 30
0.0
 11
88.672453
 21
39.017059
 31
0.0
  0
LINE
  5
3E6
  8
LAYER_1
 10
88.672453
 20
39.017059
 30
0.0
 11
88.052519
 21
40.556995
 31
0.0
  0
LINE
  5
3E7
  8
LAYER_1
 10
88.052519
 20
40.556995
 30
0.0
 11
87.927114
 21
42.035202
 31
0.0
  0
LINE
  5
3E8
  8
LAYER_1
 10
87.927114
 20
42.035202
 30
0.0
 11
88.28687100000001
 21
43.340458
 31
0.0
  0
LINE
  5
3E9
  8
LAYER_1
 10
88.28687100000001
 20
43.340458
 30
0.0
 11
89.122428
 21
44.361543
 31
0.0
  0
LINE
  5
3EA
  8
LAYER_1
 10
89.122428
 20
44.361543
 30
0.0
 11
89.68768799999999
 21
44.69449
 31
0.0
  0
LINE
  5
3EB
  8
LAYER_1
 10
89.68768799999999
 20
44.69449
 30
0.0
 11
90.304681
 21
44.856125
 31
0.0
  0
LINE
  5
3EC
  8
LAYER_1
 10
90.304681
 20
44.856125
 30
0.0
 11
90.958499
 21
44.851772
 31
0.0
  0
LINE
  5
3ED
  8
LAYER_1
 10
90.958499
 20
44.851772
 30
0.0
 11
91.634238
 21
44.686758
 31
0.0
  0
LINE
  5
3EE
  8
LAYER_1
 10
91.634238
 20
44.686758
 30
0.0
 11
92.991851
 21
43.896047
 31
0.0
  0
LINE
  5
3EF
  8
LAYER_1
 10
92.991851
 20
43.896047
 30
0.0
 11
94.25827099999999
 21
42.526599
 31
0.0
  0
LINE
  5
3F0
  8
LAYER_1
 10
94.25827099999999
 20
42.526599
 30
0.0
 11
95.216167
 21
41.192751
 31
0.0
  0
LINE
  5
3F1
  8
LAYER_1
 10
95.216167
 20
41.192751
 30
0.0
 11
95.587272
 21
41.862131
 31
0.0
  0
LINE
  5
3F2
  8
LAYER_1
 10
95.587272
 20
41.862131
 30
0.0
 11
95.96838
 21
43.031009
 31
0.0
  0
LINE
  5
3F3
  8
LAYER_1
 10
95.96838
 20
43.031009
 30
0.0
 11
95.75208000000001
 21
43.818048
 31
0.0
  0
LINE
  5
3F4
  8
LAYER_1
 10
95.75208000000001
 20
43.818048
 30
0.0
 11
95.14129200000001
 21
44.795523
 31
0.0
  0
LINE
  5
3F5
  8
LAYER_1
 10
95.14129200000001
 20
44.795523
 30
0.0
 11
94.23218799999999
 21
45.835763
 31
0.0
  0
LINE
  5
3F6
  8
LAYER_1
 10
94.23218799999999
 20
45.835763
 30
0.0
 11
93.120938
 21
46.8111
 31
0.0
  0
LINE
  5
3F7
  8
LAYER_1
 10
93.120938
 20
46.8111
 30
0.0
 11
91.394583
 21
48.025104
 31
0.0
  0
LINE
  5
3F8
  8
LAYER_1
 10
91.394583
 20
48.025104
 30
0.0
 11
90.09745
 21
48.635256
 31
0.0
  0
LINE
  5
3F9
  8
LAYER_1
 10
90.09745
 20
48.635256
 30
0.0
 11
89.00786100000001
 21
48.704674
 31
0.0
  0
LINE
  5
3FA
  8
LAYER_1
 10
89.00786100000001
 20
48.704674
 30
0.0
 11
87.904139
 21
48.296477
 31
0.0
  0
LINE
  5
3FB
  8
LAYER_1
 10
87.904139
 20
48.296477
 30
0.0
 11
87.201894
 21
47.626631
 31
0.0
  0
LINE
  5
3FC
  8
LAYER_1
 10
87.201894
 20
47.626631
 30
0.0
 11
86.639217
 21
46.50419
 31
0.0
  0
LINE
  5
3FD
  8
LAYER_1
 10
86.639217
 20
46.50419
 30
0.0
 11
86.22677899999999
 21
45.041658
 31
0.0
  0
LINE
  5
3FE
  8
LAYER_1
 10
86.22677899999999
 20
45.041658
 30
0.0
 11
85.97524900000001
 21
43.351535
 31
0.0
  0
LINE
  5
3FF
  8
LAYER_1
 10
85.97524900000001
 20
43.351535
 30
0.0
 11
85.895295
 21
41.546324
 31
0.0
  0
LINE
  5
400
  8
LAYER_1
 10
85.895295
 20
41.546324
 30
0.0
 11
85.99758799999999
 21
39.738527
 31
0.0
  0
LINE
  5
401
  8
LAYER_1
 10
85.99758799999999
 20
39.738527
 30
0.0
 11
86.292796
 21
38.040646
 31
0.0
  0
LINE
  5
402
  8
LAYER_1
 10
86.292796
 20
38.040646
 30
0.0
 11
86.791588
 21
36.565182
 31
0.0
  0
LINE
  5
403
  8
LAYER_1
 10
86.791588
 20
36.565182
 30
0.0
 11
87.511281
 21
35.275354
 31
0.0
  0
LINE
  5
404
  8
LAYER_1
 10
87.511281
 20
35.275354
 30
0.0
 11
88.448825
 21
34.2177
 31
0.0
  0
LINE
  5
405
  8
LAYER_1
 10
88.448825
 20
34.2177
 30
0.0
 11
89.753739
 21
33.257689
 31
0.0
  0
LINE
  5
406
  8
LAYER_1
 10
89.753739
 20
33.257689
 30
0.0
 11
91.575543
 21
32.260791
 31
0.0
  0
LINE
  5
407
  8
LAYER_1
 10
91.575543
 20
32.260791
 30
0.0
 11
93.164366
 21
31.361121
 31
0.0
  0
LINE
  5
408
  8
LAYER_1
 10
93.164366
 20
31.361121
 30
0.0
 11
94.170089
 21
30.484238
 31
0.0
  0
LINE
  5
409
  8
LAYER_1
 10
94.170089
 20
30.484238
 30
0.0
 11
94.69702700000001
 21
29.503729
 31
0.0
  0
LINE
  5
40A
  8
LAYER_1
 10
94.69702700000001
 20
29.503729
 30
0.0
 11
94.849493
 21
28.293179
 31
0.0
  0
LINE
  5
40B
  8
LAYER_1
 10
94.849493
 20
28.293179
 30
0.0
 11
94.578497
 21
26.974639
 31
0.0
  0
LINE
  5
40C
  8
LAYER_1
 10
94.578497
 20
26.974639
 30
0.0
 11
93.856375
 21
25.625383
 31
0.0
  0
LINE
  5
40D
  8
LAYER_1
 10
93.856375
 20
25.625383
 30
0.0
 11
92.819422
 21
24.44167
 31
0.0
  0
LINE
  5
40E
  8
LAYER_1
 10
92.819422
 20
24.44167
 30
0.0
 11
91.603937
 21
23.619759
 31
0.0
  0
LINE
  5
40F
  8
LAYER_1
 10
91.603937
 20
23.619759
 30
0.0
 11
90.651943
 21
23.276875
 31
0.0
  0
LINE
  5
410
  8
LAYER_1
 10
90.651943
 20
23.276875
 30
0.0
 11
89.752473
 21
23.135369
 31
0.0
  0
LINE
  5
411
  8
LAYER_1
 10
89.752473
 20
23.135369
 30
0.0
 11
88.917007
 21
23.189833
 31
0.0
  0
LINE
  5
412
  8
LAYER_1
 10
88.917007
 20
23.189833
 30
0.0
 11
88.157023
 21
23.434857
 31
0.0
  0
LINE
  5
413
  8
LAYER_1
 10
88.157023
 20
23.434857
 30
0.0
 11
87.48400100000001
 21
23.865034
 31
0.0
  0
LINE
  5
414
  8
LAYER_1
 10
87.48400100000001
 20
23.865034
 30
0.0
 11
86.90942
 21
24.474954
 31
0.0
  0
LINE
  5
415
  8
LAYER_1
 10
86.90942
 20
24.474954
 30
0.0
 11
86.44475900000001
 21
25.259209
 31
0.0
  0
LINE
  5
416
  8
LAYER_1
 10
86.44475900000001
 20
25.259209
 30
0.0
 11
86.101496
 21
26.212391
 31
0.0
  0
LINE
  5
417
  8
LAYER_1
 10
86.101496
 20
26.212391
 30
0.0
 11
85.520304
 21
27.816096
 31
0.0
  0
LINE
  5
418
  8
LAYER_1
 10
85.520304
 20
27.816096
 30
0.0
 11
85.32306300000001
 21
27.449081
 31
0.0
  0
LINE
  5
419
  8
LAYER_1
 10
85.32306300000001
 20
27.449081
 30
0.0
 11
85.14252000000001
 21
26.290344
 31
0.0
  0
LINE
  5
41A
  8
LAYER_1
 10
85.14252000000001
 20
26.290344
 30
0.0
 11
85.07145
 21
23.763735
 31
0.0
  0
LINE
  5
41B
  8
LAYER_1
 10
85.07145
 20
23.763735
 30
0.0
 11
85.390953
 21
21.710145
 31
0.0
  0
LINE
  5
41C
  8
LAYER_1
 10
85.390953
 20
21.710145
 30
0.0
 11
85.882857
 21
20.072764
 31
0.0
  0
LINE
  5
41D
  8
LAYER_1
 10
85.882857
 20
20.072764
 30
0.0
 11
86.722191
 21
18.827714
 31
0.0
  0
LINE
  5
41E
  8
LAYER_1
 10
86.722191
 20
18.827714
 30
0.0
 11
87.79984399999999
 21
18.087967
 31
0.0
  0
LINE
  5
41F
  8
LAYER_1
 10
87.79984399999999
 20
18.087967
 30
0.0
 11
88.39394299999999
 21
17.942885
 31
0.0
  0
LINE
  5
420
  8
LAYER_1
 10
88.39394299999999
 20
17.942885
 30
0.0
 11
89.006705
 21
17.966492
 31
0.0
  0
LINE
  5
421
  8
LAYER_1
 10
89.006705
 20
17.966492
 30
0.0
 11
89.912668
 21
18.308781
 31
0.0
  0
LINE
  5
422
  8
LAYER_1
 10
89.912668
 20
18.308781
 30
0.0
 11
90.98226099999999
 21
18.929497
 31
0.0
  0
LINE
  5
423
  8
LAYER_1
 10
90.98226099999999
 20
18.929497
 30
0.0
 11
90.98226099999999
 21
18.929497
 31
0.0
  0
LINE
  5
424
  8
LAYER_1
 10
31.20493
 20
22.472853
 30
0.0
 11
31.614019
 21
24.253859
 31
0.0
  0
LINE
  5
425
  8
LAYER_1
 10
31.614019
 20
24.253859
 30
0.0
 11
31.843024
 21
26.530124
 31
0.0
  0
LINE
  5
426
  8
LAYER_1
 10
31.843024
 20
26.530124
 30
0.0
 11
31.944175
 21
35.89929
 31
0.0
  0
LINE
  5
427
  8
LAYER_1
 10
31.944175
 20
35.89929
 30
0.0
 11
31.792039
 21
45.187684
 31
0.0
  0
LINE
  5
428
  8
LAYER_1
 10
31.792039
 20
45.187684
 30
0.0
 11
31.596028
 21
46.975979
 31
0.0
  0
LINE
  5
429
  8
LAYER_1
 10
31.596028
 20
46.975979
 30
0.0
 11
31.456639
 21
47.356327
 31
0.0
  0
LINE
  5
42A
  8
LAYER_1
 10
31.456639
 20
47.356327
 30
0.0
 11
31.285318
 21
47.4704
 31
0.0
  0
LINE
  5
42B
  8
LAYER_1
 10
31.285318
 20
47.4704
 30
0.0
 11
29.883882
 21
46.841415
 31
0.0
  0
LINE
  5
42C
  8
LAYER_1
 10
29.883882
 20
46.841415
 30
0.0
 11
28.973773
 21
46.176933
 31
0.0
  0
LINE
  5
42D
  8
LAYER_1
 10
28.973773
 20
46.176933
 30
0.0
 11
28.876482
 21
45.837872
 31
0.0
  0
LINE
  5
42E
  8
LAYER_1
 10
28.876482
 20
45.837872
 30
0.0
 11
28.934323
 21
45.36459
 31
0.0
  0
LINE
  5
42F
  8
LAYER_1
 10
28.934323
 20
45.36459
 30
0.0
 11
29.47765
 21
40.675812
 31
0.0
  0
LINE
  5
430
  8
LAYER_1
 10
29.47765
 20
40.675812
 30
0.0
 11
29.754016
 21
34.551556
 31
0.0
  0
LINE
  5
431
  8
LAYER_1
 10
29.754016
 20
34.551556
 30
0.0
 11
29.722358
 21
28.958126
 31
0.0
  0
LINE
  5
432
  8
LAYER_1
 10
29.722358
 20
28.958126
 30
0.0
 11
29.578187
 21
26.974942
 31
0.0
  0
LINE
  5
433
  8
LAYER_1
 10
29.578187
 20
26.974942
 30
0.0
 11
29.341612
 21
25.861828
 31
0.0
  0
LINE
  5
434
  8
LAYER_1
 10
29.341612
 20
25.861828
 30
0.0
 11
29.049595
 21
25.408029
 31
0.0
  0
LINE
  5
435
  8
LAYER_1
 10
29.049595
 20
25.408029
 30
0.0
 11
28.693672
 21
25.105783
 31
0.0
  0
LINE
  5
436
  8
LAYER_1
 10
28.693672
 20
25.105783
 30
0.0
 11
27.872394
 21
24.943724
 31
0.0
  0
LINE
  5
437
  8
LAYER_1
 10
27.872394
 20
24.943724
 30
0.0
 11
27.042343
 21
25.351194
 31
0.0
  0
LINE
  5
438
  8
LAYER_1
 10
27.042343
 20
25.351194
 30
0.0
 11
26.368085
 21
26.303735
 31
0.0
  0
LINE
  5
439
  8
LAYER_1
 10
26.368085
 20
26.303735
 30
0.0
 11
26.067199
 21
26.771754
 31
0.0
  0
LINE
  5
43A
  8
LAYER_1
 10
26.067199
 20
26.771754
 30
0.0
 11
25.839714
 21
25.905827
 31
0.0
  0
LINE
  5
43B
  8
LAYER_1
 10
25.839714
 20
25.905827
 30
0.0
 11
25.789877
 21
24.985816
 31
0.0
  0
LINE
  5
43C
  8
LAYER_1
 10
25.789877
 20
24.985816
 30
0.0
 11
26.040925
 21
24.059008
 31
0.0
  0
LINE
  5
43D
  8
LAYER_1
 10
26.040925
 20
24.059008
 30
0.0
 11
26.638723
 21
23.019139
 31
0.0
  0
LINE
  5
43E
  8
LAYER_1
 10
26.638723
 20
23.019139
 30
0.0
 11
27.629136
 21
21.759946
 31
0.0
  0
LINE
  5
43F
  8
LAYER_1
 10
27.629136
 20
21.759946
 30
0.0
 11
28.845831
 21
20.611767
 31
0.0
  0
LINE
  5
440
  8
LAYER_1
 10
28.845831
 20
20.611767
 30
0.0
 11
29.358689
 21
20.366328
 31
0.0
  0
LINE
  5
441
  8
LAYER_1
 10
29.358689
 20
20.366328
 30
0.0
 11
29.815782
 21
20.341563
 31
0.0
  0
LINE
  5
442
  8
LAYER_1
 10
29.815782
 20
20.341563
 30
0.0
 11
30.223031
 21
20.538652
 31
0.0
  0
LINE
  5
443
  8
LAYER_1
 10
30.223031
 20
20.538652
 30
0.0
 11
30.586358
 21
20.958777
 31
0.0
  0
LINE
  5
444
  8
LAYER_1
 10
30.586358
 20
20.958777
 30
0.0
 11
31.20493
 21
22.472853
 31
0.0
  0
LINE
  5
445
  8
LAYER_1
 10
31.20493
 20
22.472853
 30
0.0
 11
31.20493
 21
22.472853
 31
0.0
  0
LINE
  5
446
  8
LAYER_1
 10
100.281746
 20
23.810104
 30
0.0
 11
103.865035
 21
26.353162
 31
0.0
  0
LINE
  5
447
  8
LAYER_1
 10
103.865035
 20
26.353162
 30
0.0
 11
107.509761
 21
29.137868
 31
0.0
  0
LINE
  5
448
  8
LAYER_1
 10
107.509761
 20
29.137868
 30
0.0
 11
110.342586
 21
31.473826
 31
0.0
  0
LINE
  5
449
  8
LAYER_1
 10
110.342586
 20
31.473826
 30
0.0
 11
111.49017
 21
32.67064
 31
0.0
  0
LINE
  5
44A
  8
LAYER_1
 10
111.49017
 20
32.67064
 30
0.0
 11
111.121892
 21
33.291958
 31
0.0
  0
LINE
  5
44B
  8
LAYER_1
 10
111.121892
 20
33.291958
 30
0.0
 11
110.091171
 21
34.407136
 31
0.0
  0
LINE
  5
44C
  8
LAYER_1
 10
110.091171
 20
34.407136
 30
0.0
 11
106.625974
 21
37.608691
 31
0.0
  0
LINE
  5
44D
  8
LAYER_1
 10
106.625974
 20
37.608691
 30
0.0
 11
102.261734
 21
41.254546
 31
0.0
  0
LINE
  5
44E
  8
LAYER_1
 10
102.261734
 20
41.254546
 30
0.0
 11
98.165604
 21
44.323939
 31
0.0
  0
LINE
  5
44F
  8
LAYER_1
 10
98.165604
 20
44.323939
 30
0.0
 11
96.921013
 21
45.035109
 31
0.0
  0
LINE
  5
450
  8
LAYER_1
 10
96.921013
 20
45.035109
 30
0.0
 11
96.923389
 21
44.768634
 31
0.0
  0
LINE
  5
451
  8
LAYER_1
 10
96.923389
 20
44.768634
 30
0.0
 11
97.258841
 21
44.063508
 31
0.0
  0
LINE
  5
452
  8
LAYER_1
 10
97.258841
 20
44.063508
 30
0.0
 11
97.48048
 21
43.57049
 31
0.0
  0
LINE
  5
453
  8
LAYER_1
 10
97.48048
 20
43.57049
 30
0.0
 11
97.536391
 21
43.15029
 31
0.0
  0
LINE
  5
454
  8
LAYER_1
 10
97.536391
 20
43.15029
 30
0.0
 11
97.10695200000001
 21
41.900612
 31
0.0
  0
LINE
  5
455
  8
LAYER_1
 10
97.10695200000001
 20
41.900612
 30
0.0
 11
96.234229
 21
40.280644
 31
0.0
  0
LINE
  5
456
  8
LAYER_1
 10
96.234229
 20
40.280644
 30
0.0
 11
95.825371
 21
39.831248
 31
0.0
  0
LINE
  5
457
  8
LAYER_1
 10
95.825371
 20
39.831248
 30
0.0
 11
95.420079
 21
39.618803
 31
0.0
  0
LINE
  5
458
  8
LAYER_1
 10
95.420079
 20
39.618803
 30
0.0
 11
95.007279
 21
39.640731
 31
0.0
  0
LINE
  5
459
  8
LAYER_1
 10
95.007279
 20
39.640731
 30
0.0
 11
94.57589400000001
 21
39.894452
 31
0.0
  0
LINE
  5
45A
  8
LAYER_1
 10
94.57589400000001
 20
39.894452
 30
0.0
 11
93.613063
 21
41.086958
 31
0.0
  0
LINE
  5
45B
  8
LAYER_1
 10
93.613063
 20
41.086958
 30
0.0
 11
92.812702
 21
42.211268
 31
0.0
  0
LINE
  5
45C
  8
LAYER_1
 10
92.812702
 20
42.211268
 30
0.0
 11
92.070859
 21
42.964686
 31
0.0
  0
LINE
  5
45D
  8
LAYER_1
 10
92.070859
 20
42.964686
 30
0.0
 11
91.33721
 21
43.387324
 31
0.0
  0
LINE
  5
45E
  8
LAYER_1
 10
91.33721
 20
43.387324
 30
0.0
 11
90.56143400000001
 21
43.519289
 31
0.0
  0
LINE
  5
45F
  8
LAYER_1
 10
90.56143400000001
 20
43.519289
 30
0.0
 11
89.888159
 21
43.343381
 31
0.0
  0
LINE
  5
460
  8
LAYER_1
 10
89.888159
 20
43.343381
 30
0.0
 11
89.544438
 21
42.602067
 31
0.0
  0
LINE
  5
461
  8
LAYER_1
 10
89.544438
 20
42.602067
 30
0.0
 11
89.40187400000001
 21
41.807872
 31
0.0
  0
LINE
  5
462
  8
LAYER_1
 10
89.40187400000001
 20
41.807872
 30
0.0
 11
89.42381
 21
41.071688
 31
0.0
  0
LINE
  5
463
  8
LAYER_1
 10
89.42381
 20
41.071688
 30
0.0
 11
89.62867
 21
40.368371
 31
0.0
  0
LINE
  5
464
  8
LAYER_1
 10
89.62867
 20
40.368371
 30
0.0
 11
90.03487800000001
 21
39.672781
 31
0.0
  0
LINE
  5
465
  8
LAYER_1
 10
90.03487800000001
 20
39.672781
 30
0.0
 11
91.525029
 21
38.204212
 31
0.0
  0
LINE
  5
466
  8
LAYER_1
 10
91.525029
 20
38.204212
 30
0.0
 11
94.041651
 21
36.464844
 31
0.0
  0
LINE
  5
467
  8
LAYER_1
 10
94.041651
 20
36.464844
 30
0.0
 11
95.50948699999999
 21
35.414687
 31
0.0
  0
LINE
  5
468
  8
LAYER_1
 10
95.50948699999999
 20
35.414687
 30
0.0
 11
96.66464600000001
 21
34.302495
 31
0.0
  0
LINE
  5
469
  8
LAYER_1
 10
96.66464600000001
 20
34.302495
 30
0.0
 11
97.51274700000001
 21
33.109205
 31
0.0
  0
LINE
  5
46A
  8
LAYER_1
 10
97.51274700000001
 20
33.109205
 30
0.0
 11
98.059405
 21
31.815755
 31
0.0
  0
LINE
  5
46B
  8
LAYER_1
 10
98.059405
 20
31.815755
 30
0.0
 11
98.31024100000001
 21
30.403082
 31
0.0
  0
LINE
  5
46C
  8
LAYER_1
 10
98.31024100000001
 20
30.403082
 30
0.0
 11
98.27087
 21
28.852123
 31
0.0
  0
LINE
  5
46D
  8
LAYER_1
 10
98.27087
 20
28.852123
 30
0.0
 11
97.946911
 21
27.143817
 31
0.0
  0
LINE
  5
46E
  8
LAYER_1
 10
97.946911
 20
27.143817
 30
0.0
 11
97.343982
 21
25.259101
 31
0.0
  0
LINE
  5
46F
  8
LAYER_1
 10
97.343982
 20
25.259101
 30
0.0
 11
96.14069499999999
 21
22.628107
 31
0.0
  0
LINE
  5
470
  8
LAYER_1
 10
96.14069499999999
 20
22.628107
 30
0.0
 11
95.109075
 21
21.068631
 31
0.0
  0
LINE
  5
471
  8
LAYER_1
 10
95.109075
 20
21.068631
 30
0.0
 11
94.849493
 21
20.649957
 31
0.0
  0
LINE
  5
472
  8
LAYER_1
 10
94.849493
 20
20.649957
 30
0.0
 11
95.208641
 21
20.681862
 31
0.0
  0
LINE
  5
473
  8
LAYER_1
 10
95.208641
 20
20.681862
 30
0.0
 11
96.25990899999999
 21
21.234416
 31
0.0
  0
LINE
  5
474
  8
LAYER_1
 10
96.25990899999999
 20
21.234416
 30
0.0
 11
100.281746
 21
23.810104
 31
0.0
  0
LINE
  5
475
  8
LAYER_1
 10
100.281746
 20
23.810104
 30
0.0
 11
100.281746
 21
23.810104
 31
0.0
  0
LINE
  5
476
  8
LAYER_1
 10
75.665502
 20
21.509767
 30
0.0
 11
76.308432
 21
22.163043
 31
0.0
  0
LINE
  5
477
  8
LAYER_1
 10
76.308432
 20
22.163043
 30
0.0
 11
76.90352300000001
 21
23.401257
 31
0.0
  0
LINE
  5
478
  8
LAYER_1
 10
76.90352300000001
 20
23.401257
 30
0.0
 11
77.445291
 21
25.209718
 31
0.0
  0
LINE
  5
479
  8
LAYER_1
 10
77.445291
 20
25.209718
 30
0.0
 11
77.92825600000001
 21
27.573735
 31
0.0
  0
LINE
  5
47A
  8
LAYER_1
 10
77.92825600000001
 20
27.573735
 30
0.0
 11
78.137612
 21
29.546374
 31
0.0
  0
LINE
  5
47B
  8
LAYER_1
 10
78.137612
 20
29.546374
 30
0.0
 11
78.253154
 21
32.290409
 31
0.0
  0
LINE
  5
47C
  8
LAYER_1
 10
78.253154
 20
32.290409
 30
0.0
 11
78.227024
 21
39.141365
 31
0.0
  0
LINE
  5
47D
  8
LAYER_1
 10
78.227024
 20
39.141365
 30
0.0
 11
77.89831700000001
 21
46.224005
 31
0.0
  0
LINE
  5
47E
  8
LAYER_1
 10
77.89831700000001
 20
46.224005
 30
0.0
 11
77.315483
 21
51.635731
 31
0.0
  0
LINE
  5
47F
  8
LAYER_1
 10
77.315483
 20
51.635731
 30
0.0
 11
77.142977
 21
53.123924
 31
0.0
  0
LINE
  5
480
  8
LAYER_1
 10
77.142977
 20
53.123924
 30
0.0
 11
77.359493
 21
53.829773
 31
0.0
  0
LINE
  5
481
  8
LAYER_1
 10
77.359493
 20
53.829773
 30
0.0
 11
77.60230900000001
 21
54.369437
 31
0.0
  0
LINE
  5
482
  8
LAYER_1
 10
77.60230900000001
 20
54.369437
 30
0.0
 11
73.391948
 21
55.372623
 31
0.0
  0
LINE
  5
483
  8
LAYER_1
 10
73.391948
 20
55.372623
 30
0.0
 11
73.255847
 21
55.256412
 31
0.0
  0
LINE
  5
484
  8
LAYER_1
 10
73.255847
 20
55.256412
 30
0.0
 11
73.287907
 21
54.977013
 31
0.0
  0
LINE
  5
485
  8
LAYER_1
 10
73.287907
 20
54.977013
 30
0.0
 11
73.266379
 21
53.756814
 31
0.0
  0
LINE
  5
486
  8
LAYER_1
 10
73.266379
 20
53.756814
 30
0.0
 11
73.00144
 21
51.378679
 31
0.0
  0
LINE
  5
487
  8
LAYER_1
 10
73.00144
 20
51.378679
 30
0.0
 11
72.58229300000001
 21
47.059802
 31
0.0
  0
LINE
  5
488
  8
LAYER_1
 10
72.58229300000001
 20
47.059802
 30
0.0
 11
72.259173
 21
41.514744
 31
0.0
  0
LINE
  5
489
  8
LAYER_1
 10
72.259173
 20
41.514744
 30
0.0
 11
72.09017900000001
 21
36.044029
 31
0.0
  0
LINE
  5
48A
  8
LAYER_1
 10
72.09017900000001
 20
36.044029
 30
0.0
 11
72.133409
 21
31.948179
 31
0.0
  0
LINE
  5
48B
  8
LAYER_1
 10
72.133409
 20
31.948179
 30
0.0
 11
72.446825
 21
28.332288
 31
0.0
  0
LINE
  5
48C
  8
LAYER_1
 10
72.446825
 20
28.332288
 30
0.0
 11
72.92940900000001
 21
25.310537
 31
0.0
  0
LINE
  5
48D
  8
LAYER_1
 10
72.92940900000001
 20
25.310537
 30
0.0
 11
73.552606
 21
23.020102
 31
0.0
  0
LINE
  5
48E
  8
LAYER_1
 10
73.552606
 20
23.020102
 30
0.0
 11
74.287863
 21
21.598159
 31
0.0
  0
LINE
  5
48F
  8
LAYER_1
 10
74.287863
 20
21.598159
 30
0.0
 11
74.560604
 21
21.34147
 31
0.0
  0
LINE
  5
490
  8
LAYER_1
 10
74.560604
 20
21.34147
 30
0.0
 11
74.850408
 21
21.243145
 31
0.0
  0
LINE
  5
491
  8
LAYER_1
 10
74.850408
 20
21.243145
 30
0.0
 11
75.665502
 21
21.509767
 31
0.0
  0
LINE
  5
492
  8
LAYER_1
 10
75.665502
 20
21.509767
 30
0.0
 11
75.665502
 21
21.509767
 31
0.0
  0
LINE
  5
493
  8
LAYER_1
 10
24.48965
 20
26.037568
 30
0.0
 11
25.064124
 21
27.98191
 31
0.0
  0
LINE
  5
494
  8
LAYER_1
 10
25.064124
 20
27.98191
 30
0.0
 11
25.422074
 21
28.615102
 31
0.0
  0
LINE
  5
495
  8
LAYER_1
 10
25.422074
 20
28.615102
 30
0.0
 11
25.808159
 21
29.009263
 31
0.0
  0
LINE
  5
496
  8
LAYER_1
 10
25.808159
 20
29.009263
 30
0.0
 11
26.208128
 21
29.154611
 31
0.0
  0
LINE
  5
497
  8
LAYER_1
 10
26.208128
 20
29.154611
 30
0.0
 11
26.607724
 21
29.041362
 31
0.0
  0
LINE
  5
498
  8
LAYER_1
 10
26.607724
 20
29.041362
 30
0.0
 11
26.992694
 21
28.659732
 31
0.0
  0
LINE
  5
499
  8
LAYER_1
 10
26.992694
 20
28.659732
 30
0.0
 11
27.348785
 21
27.999938
 31
0.0
  0
LINE
  5
49A
  8
LAYER_1
 10
27.348785
 20
27.999938
 30
0.0
 11
27.991918
 21
26.871049
 31
0.0
  0
LINE
  5
49B
  8
LAYER_1
 10
27.991918
 20
26.871049
 30
0.0
 11
28.320103
 21
29.516242
 31
0.0
  0
LINE
  5
49C
  8
LAYER_1
 10
28.320103
 20
29.516242
 30
0.0
 11
28.346607
 21
33.480175
 31
0.0
  0
LINE
  5
49D
  8
LAYER_1
 10
28.346607
 20
33.480175
 30
0.0
 11
28.151752
 21
38.504048
 31
0.0
  0
LINE
  5
49E
  8
LAYER_1
 10
28.151752
 20
38.504048
 30
0.0
 11
27.83296
 21
42.817002
 31
0.0
  0
LINE
  5
49F
  8
LAYER_1
 10
27.83296
 20
42.817002
 30
0.0
 11
27.65753
 21
44.153491
 31
0.0
  0
LINE
  5
4A0
  8
LAYER_1
 10
27.65753
 20
44.153491
 30
0.0
 11
27.487649
 21
44.648178
 31
0.0
  0
LINE
  5
4A1
  8
LAYER_1
 10
27.487649
 20
44.648178
 30
0.0
 11
26.774995
 21
44.29614
 31
0.0
  0
LINE
  5
4A2
  8
LAYER_1
 10
26.774995
 20
44.29614
 30
0.0
 11
25.363246
 21
43.349861
 31
0.0
  0
LINE
  5
4A3
  8
LAYER_1
 10
25.363246
 20
43.349861
 30
0.0
 11
21.298648
 21
40.333595
 31
0.0
  0
LINE
  5
4A4
  8
LAYER_1
 10
21.298648
 20
40.333595
 30
0.0
 11
17.006232
 21
36.917407
 31
0.0
  0
LINE
  5
4A5
  8
LAYER_1
 10
17.006232
 20
36.917407
 30
0.0
 11
14.198372
 21
34.419326
 31
0.0
  0
LINE
  5
4A6
  8
LAYER_1
 10
14.198372
 20
34.419326
 30
0.0
 11
13.55725
 21
33.733212
 31
0.0
  0
LINE
  5
4A7
  8
LAYER_1
 10
13.55725
 20
33.733212
 30
0.0
 11
17.020594
 21
30.369171
 31
0.0
  0
LINE
  5
4A8
  8
LAYER_1
 10
17.020594
 20
30.369171
 30
0.0
 11
21.466847
 21
26.294826
 31
0.0
  0
LINE
  5
4A9
  8
LAYER_1
 10
21.466847
 20
26.294826
 30
0.0
 11
23.148185
 21
24.910896
 31
0.0
  0
LINE
  5
4AA
  8
LAYER_1
 10
23.148185
 20
24.910896
 30
0.0
 11
24.017699
 21
24.350105
 31
0.0
  0
LINE
  5
4AB
  8
LAYER_1
 10
24.017699
 20
24.350105
 30
0.0
 11
24.48965
 21
26.037568
 31
0.0
  0
LINE
  5
4AC
  8
LAYER_1
 10
24.48965
 20
26.037568
 30
0.0
 11
24.48965
 21
26.037568
 31
0.0
  0
ENDSEC
  0
EOF
