  0
SECTION
  2
HEADER
  9
$ACADVER
  1
AC1009
  9
$EXTMIN
 10
7.29682944
 20
215.73521898
 30
0.0
  9
$EXTMAX
 10
487.71084675
 20
486.37812807
 30
0.0
  0
ENDSEC
  0
SECTION
  2
TABLES
  0
TABLE
  2
LAYER
 70
1
 0
LAYER
 2
Default_Layer
 70
0
 62
1
 6
CONTINUOUS
 0
ENDTAB
 0
ENDSEC
  0
SECTION
  2
ENTITIES
  0
POLYLINE
  8
Default_Layer
 66
   1
 39
0.000000
 70
    1
  0
VERTEX
  8
0
 10
218.58383260
 20
478.74443914
  0
VERTEX
  8
0
 10
218.69484853
 20
478.78332964
  0
VERTEX
  8
0
 10
218.79146094
 20
478.83666036
  0
VERTEX
  8
0
 10
218.87460705
 20
478.90349292
  0
VERTEX
  8
0
 10
218.94522409
 20
478.98288891
  0
VERTEX
  8
0
 10
219.05261988
 20
479.17561758
  0
VERTEX
  8
0
 10
219.12114612
 20
479.40733920
  0
VERTEX
  8
0
 10
219.15830064
 20
479.67054657
  0
VERTEX
  8
0
 10
219.17158127
 20
479.95773251
  0
VERTEX
  8
0
 10
219.15651213
 20
480.57401135
  0
VERTEX
  8
0
 10
219.13592130
 20
481.19611820
  0
VERTEX
  8
0
 10
219.14229982
 20
481.49058916
  0
VERTEX
  8
0
 10
219.16979138
 20
481.76399557
  0
VERTEX
  8
0
 10
219.22589382
 20
482.00883022
  0
VERTEX
  8
0
 10
219.31810496
 20
482.21758594
  0
VERTEX
  8
0
 10
219.38009436
 20
482.30608821
  0
VERTEX
  8
0
 10
219.45392261
 20
482.38275554
  0
VERTEX
  8
0
 10
219.54052696
 20
482.44664955
  0
VERTEX
  8
0
 10
219.64084462
 20
482.49683183
  0
VERTEX
  8
0
 10
219.81011380
 20
482.46423310
  0
VERTEX
  8
0
 10
219.96578818
 20
482.41811215
  0
VERTEX
  8
0
 10
220.10867861
 20
482.35927499
  0
VERTEX
  8
0
 10
220.23959594
 20
482.28852763
  0
VERTEX
  8
0
 10
220.46875463
 20
482.11452630
  0
VERTEX
  8
0
 10
220.65975103
 20
481.90255622
  0
VERTEX
  8
0
 10
220.81907187
 20
481.65906541
  0
VERTEX
  8
0
 10
220.95320391
 20
481.39050194
  0
VERTEX
  8
0
 10
221.06863390
 20
481.10331382
  0
VERTEX
  8
0
 10
221.17184858
 20
480.80394912
  0
VERTEX
  8
0
 10
221.36757905
 20
480.19448210
  0
VERTEX
  8
0
 10
221.47306833
 20
479.89727586
  0
VERTEX
  8
0
 10
221.59228932
 20
479.61368520
  0
VERTEX
  8
0
 10
221.73172876
 20
479.35015816
  0
VERTEX
  8
0
 10
221.89787339
 20
479.11314277
  0
VERTEX
  8
0
 10
222.09720999
 20
478.90908709
  0
VERTEX
  8
0
 10
222.21135237
 20
478.82143415
  0
VERTEX
  8
0
 10
222.33622528
 20
478.74443914
  0
VERTEX
  8
0
 10
222.50963714
 20
478.62954755
  0
VERTEX
  8
0
 10
222.67440455
 20
478.54400739
  0
VERTEX
  8
0
 10
222.83113626
 20
478.48616286
  0
VERTEX
  8
0
 10
222.98044102
 20
478.45435815
  0
VERTEX
  8
0
 10
223.12292756
 20
478.44693744
  0
VERTEX
  8
0
 10
223.25920462
 20
478.46224492
  0
VERTEX
  8
0
 10
223.38988096
 20
478.49862478
  0
VERTEX
  8
0
 10
223.51556531
 20
478.55442121
  0
VERTEX
  8
0
 10
223.63686641
 20
478.62797839
  0
VERTEX
  8
0
 10
223.75439301
 20
478.71764052
  0
VERTEX
  8
0
 10
223.98055768
 20
478.93865635
  0
VERTEX
  8
0
 10
224.19892924
 20
479.20422222
  0
VERTEX
  8
0
 10
224.41437765
 20
479.50109162
  0
VERTEX
  8
0
 10
224.85598474
 20
480.13575504
  0
VERTEX
  8
0
 10
225.09188331
 20
480.44705606
  0
VERTEX
  8
0
 10
225.34433848
 20
480.73667464
  0
VERTEX
  8
0
 10
225.61822019
 20
480.99136426
  0
VERTEX
  8
0
 10
225.76471785
 20
481.10147119
  0
VERTEX
  8
0
 10
225.91839838
 20
481.19787845
  0
VERTEX
  8
0
 10
226.07987052
 20
481.27893022
  0
VERTEX
  8
0
 10
226.24974300
 20
481.34297069
  0
VERTEX
  8
0
 10
226.42862457
 20
481.38834406
  0
VERTEX
  8
0
 10
226.61712398
 20
481.41339450
  0
VERTEX
  8
0
 10
227.51606208
 20
481.51563724
  0
VERTEX
  8
0
 10
228.39694457
 20
481.63663235
  0
VERTEX
  8
0
 10
229.27392167
 20
481.76230703
  0
VERTEX
  8
0
 10
230.16114359
 20
481.87858847
  0
VERTEX
  8
0
 10
231.07276057
 20
481.97140387
  0
VERTEX
  8
0
 10
232.02292283
 20
482.02668044
  0
VERTEX
  8
0
 10
232.51688038
 20
482.03584390
  0
VERTEX
  8
0
 10
233.02578058
 20
482.03034535
  0
VERTEX
  8
0
 10
233.55139221
 20
482.00842569
  0
VERTEX
  8
0
 10
234.09548405
 20
481.96832582
  0
VERTEX
  8
0
 10
234.29577206
 20
481.95002386
  0
VERTEX
  8
0
 10
234.48160736
 20
481.91734298
  0
VERTEX
  8
0
 10
234.65389959
 20
481.87118918
  0
VERTEX
  8
0
 10
234.81355835
 20
481.81246845
  0
VERTEX
  8
0
 10
235.09861397
 20
481.66095017
  0
VERTEX
  8
0
 10
235.34405118
 20
481.47003606
  0
VERTEX
  8
0
 10
235.55714696
 20
481.24697406
  0
VERTEX
  8
0
 10
235.74517825
 20
480.99901209
  0
VERTEX
  8
0
 10
235.91542204
 20
480.73339808
  0
VERTEX
  8
0
 10
236.07515527
 20
480.45737998
  0
VERTEX
  8
0
 10
236.39219792
 20
479.90312318
  0
VERTEX
  8
0
 10
236.56406127
 20
479.63938035
  0
VERTEX
  8
0
 10
236.75452192
 20
479.39422515
  0
VERTEX
  8
0
 10
236.97085682
 20
479.17490549
  0
VERTEX
  8
0
 10
237.22034296
 20
478.98866932
  0
VERTEX
  8
0
 10
237.35979178
 20
478.91022251
  0
VERTEX
  8
0
 10
237.51025727
 20
478.84276456
  0
VERTEX
  8
0
 10
237.67264905
 20
478.78720144
  0
VERTEX
  8
0
 10
237.84787674
 20
478.74443914
  0
VERTEX
  8
0
 10
238.08188176
 20
479.41806645
  0
VERTEX
  8
0
 10
238.21276482
 20
479.74432966
  0
VERTEX
  8
0
 10
238.35224361
 20
480.05389491
  0
VERTEX
  8
0
 10
238.49982466
 20
480.33951397
  0
VERTEX
  8
0
 10
238.65501450
 20
480.59393858
  0
VERTEX
  8
0
 10
238.81731965
 20
480.80992050
  0
VERTEX
  8
0
 10
238.98624665
 20
480.98021149
  0
VERTEX
  8
0
 10
239.16130201
 20
481.09756330
  0
VERTEX
  8
0
 10
239.25097362
 20
481.13412194
  0
VERTEX
  8
0
 10
239.34199227
 20
481.15472769
  0
VERTEX
  8
0
 10
239.43429627
 20
481.15847452
  0
VERTEX
  8
0
 10
239.52782395
 20
481.14445641
  0
VERTEX
  8
0
 10
239.62251361
 20
481.11176732
  0
VERTEX
  8
0
 10
239.71830357
 20
481.05950122
  0
VERTEX
  8
0
 10
239.81513216
 20
480.98675208
  0
VERTEX
  8
0
 10
239.91293767
 20
480.89261388
  0
VERTEX
  8
0
 10
240.11123278
 20
480.63654613
  0
VERTEX
  8
0
 10
240.31269541
 20
480.28404975
  0
VERTEX
  8
0
 10
240.51683210
 20
479.82787647
  0
VERTEX
  8
0
 10
240.82999364
 20
480.37241803
  0
VERTEX
  8
0
 10
241.15428973
 20
480.87656564
  0
VERTEX
  8
0
 10
241.48982574
 20
481.34159672
  0
VERTEX
  8
0
 10
241.83670705
 20
481.76878871
  0
VERTEX
  8
0
 10
242.19503905
 20
482.15941903
  0
VERTEX
  8
0
 10
242.56492711
 20
482.51476511
  0
VERTEX
  8
0
 10
242.94647660
 20
482.83610436
  0
VERTEX
  8
0
 10
243.33979292
 20
483.12471423
  0
VERTEX
  8
0
 10
243.74498143
 20
483.38187214
  0
VERTEX
  8
0
 10
244.16214752
 20
483.60885550
  0
VERTEX
  8
0
 10
244.59139656
 20
483.80694176
  0
VERTEX
  8
0
 10
245.03283394
 20
483.97740834
  0
VERTEX
  8
0
 10
245.48656503
 20
484.12153266
  0
VERTEX
  8
0
 10
245.95269521
 20
484.24059215
  0
VERTEX
  8
0
 10
246.43132986
 20
484.33586424
  0
VERTEX
  8
0
 10
246.92257436
 20
484.40862636
  0
VERTEX
  8
0
 10
247.42653408
 20
484.46015592
  0
VERTEX
  8
0
 10
247.94331442
 20
484.49173037
  0
VERTEX
  8
0
 10
248.47302074
 20
484.50462712
  0
VERTEX
  8
0
 10
249.01575842
 20
484.50012360
  0
VERTEX
  8
0
 10
250.14074939
 20
484.44402547
  0
VERTEX
  8
0
 10
251.31913036
 20
484.33365538
  0
VERTEX
  8
0
 10
252.55174437
 20
484.17923277
  0
VERTEX
  8
0
 10
253.83943443
 20
483.99097703
  0
VERTEX
  8
0
 10
256.58341487
 20
483.55384385
  0
VERTEX
  8
0
 10
256.85560041
 20
483.26277104
  0
VERTEX
  8
0
 10
257.11029009
 20
482.96688743
  0
VERTEX
  8
0
 10
257.34792507
 20
482.66628244
  0
VERTEX
  8
0
 10
257.56894651
 20
482.36104548
  0
VERTEX
  8
0
 10
257.77379555
 20
482.05126596
  0
VERTEX
  8
0
 10
257.96291337
 20
481.73703329
  0
VERTEX
  8
0
 10
258.13674110
 20
481.41843689
  0
VERTEX
  8
0
 10
258.29571991
 20
481.09556617
  0
VERTEX
  8
0
 10
258.57089536
 20
480.43735941
  0
VERTEX
  8
0
 10
258.79196898
 20
479.76312830
  0
VERTEX
  8
0
 10
258.96246999
 20
479.07358815
  0
VERTEX
  8
0
 10
259.08592763
 20
478.36945426
  0
VERTEX
  8
0
 10
259.16587114
 20
477.65144191
  0
VERTEX
  8
0
 10
259.20582977
 20
476.92026641
  0
VERTEX
  8
0
 10
259.20933274
 20
476.17664306
  0
VERTEX
  8
0
 10
259.17990930
 20
475.42128714
  0
VERTEX
  8
0
 10
259.12108868
 20
474.65491397
  0
VERTEX
  8
0
 10
259.03640013
 20
473.87823882
  0
VERTEX
  8
0
 10
258.92937288
 20
473.09197701
  0
VERTEX
  8
0
 10
258.80353617
 20
472.29684383
  0
VERTEX
  8
0
 10
258.50955133
 20
470.68282455
  0
VERTEX
  8
0
 10
258.18267951
 20
469.04190335
  0
VERTEX
  8
0
 10
257.85115462
 20
467.37980261
  0
VERTEX
  8
0
 10
257.54321057
 20
465.70224470
  0
VERTEX
  8
0
 10
257.40690445
 20
464.85945756
  0
VERTEX
  8
0
 10
257.28708126
 20
464.01495201
  0
VERTEX
  8
0
 10
257.18727023
 20
463.16944336
  0
VERTEX
  8
0
 10
257.11100061
 20
462.32364691
  0
VERTEX
  8
0
 10
257.06180162
 20
461.47827795
  0
VERTEX
  8
0
 10
257.04320251
 20
460.63405178
  0
VERTEX
  8
0
 10
257.05873252
 20
459.79168369
  0
VERTEX
  8
0
 10
257.11192088
 20
458.95188899
  0
VERTEX
  8
0
 10
256.74491434
 20
459.22032794
  0
VERTEX
  8
0
 10
256.39167994
 20
459.50253662
  0
VERTEX
  8
0
 10
256.05191364
 20
459.79820856
  0
VERTEX
  8
0
 10
255.72531138
 20
460.10703728
  0
VERTEX
  8
0
 10
255.41156910
 20
460.42871630
  0
VERTEX
  8
0
 10
255.11038274
 20
460.76293915
  0
VERTEX
  8
0
 10
254.82144824
 20
461.10939934
  0
VERTEX
  8
0
 10
254.54446155
 20
461.46779041
  0
VERTEX
  8
0
 10
254.27911861
 20
461.83780587
  0
VERTEX
  8
0
 10
254.02511536
 20
462.21913925
  0
VERTEX
  8
0
 10
253.54991170
 20
463.01453385
  0
VERTEX
  8
0
 10
253.11641811
 20
463.85152239
  0
VERTEX
  8
0
 10
252.72220214
 20
464.72765307
  0
VERTEX
  8
0
 10
252.36483131
 20
465.64047405
  0
VERTEX
  8
0
 10
252.04187316
 20
466.58753353
  0
VERTEX
  8
0
 10
251.75089524
 20
467.56637969
  0
VERTEX
  8
0
 10
251.48946508
 20
468.57456071
  0
VERTEX
  8
0
 10
251.25515023
 20
469.60962478
  0
VERTEX
  8
0
 10
251.04551821
 20
470.66912008
  0
VERTEX
  8
0
 10
250.85813656
 20
471.75059480
  0
VERTEX
  8
0
 10
250.69057284
 20
472.85159711
  0
VERTEX
  8
0
 10
250.09051217
 20
472.87426272
  0
VERTEX
  8
0
 10
249.49115148
 20
472.94396755
  0
VERTEX
  8
0
 10
248.89419645
 20
473.05286263
  0
VERTEX
  8
0
 10
248.30135273
 20
473.19309903
  0
VERTEX
  8
0
 10
247.71432601
 20
473.35682778
  0
VERTEX
  8
0
 10
247.13482196
 20
473.53619995
  0
VERTEX
  8
0
 10
246.00520452
 20
473.91047872
  0
VERTEX
  8
0
 10
244.92614579
 20
474.25314375
  0
VERTEX
  8
0
 10
244.40984011
 20
474.39299874
  0
VERTEX
  8
0
 10
243.91129112
 20
474.50140344
  0
VERTEX
  8
0
 10
243.43220448
 20
474.57050891
  0
VERTEX
  8
0
 10
242.97428588
 20
474.59246620
  0
VERTEX
  8
0
 10
242.75379761
 20
474.58331148
  0
VERTEX
  8
0
 10
242.53924097
 20
474.55942636
  0
VERTEX
  8
0
 10
242.33082918
 20
474.51982972
  0
VERTEX
  8
0
 10
242.12877544
 20
474.46354044
  0
VERTEX
  8
0
 10
242.10624389
 20
474.05556174
  0
VERTEX
  8
0
 10
242.10605582
 20
473.62588923
  0
VERTEX
  8
0
 10
242.12644725
 20
473.17544054
  0
VERTEX
  8
0
 10
242.16565416
 20
472.70513329
  0
VERTEX
  8
0
 10
242.29345848
 20
471.70861360
  0
VERTEX
  8
0
 10
242.47535684
 20
470.64367112
  0
VERTEX
  8
0
 10
242.69723727
 20
469.51764683
  0
VERTEX
  8
0
 10
242.94498781
 20
468.33788168
  0
VERTEX
  8
0
 10
243.46165142
 20
465.84649270
  0
VERTEX
  8
0
 10
243.70234056
 20
464.54955080
  0
VERTEX
  8
0
 10
243.91245198
 20
463.22823193
  0
VERTEX
  8
0
 10
244.07787372
 20
461.88987704
  0
VERTEX
  8
0
 10
244.13941598
 20
461.21660514
  0
VERTEX
  8
0
 10
244.18449384
 20
460.54182711
  0
VERTEX
  8
0
 10
244.21134329
 20
459.86646055
  0
VERTEX
  8
0
 10
244.21820036
 20
459.19142310
  0
VERTEX
  8
0
 10
244.20330103
 20
458.51763237
  0
VERTEX
  8
0
 10
244.16488132
 20
457.84600599
  0
VERTEX
  8
0
 10
244.10117724
 20
457.17746156
  0
VERTEX
  8
0
 10
244.01042478
 20
456.51291673
  0
VERTEX
  8
0
 10
243.89085996
 20
455.85328910
  0
VERTEX
  8
0
 10
243.74071878
 20
455.19949630
  0
VERTEX
  8
0
 10
243.64182795
 20
454.85779847
  0
VERTEX
  8
0
 10
243.52736863
 20
454.52771741
  0
VERTEX
  8
0
 10
243.39867257
 20
454.20846322
  0
VERTEX
  8
0
 10
243.25707155
 20
453.89924601
  0
VERTEX
  8
0
 10
242.94048171
 20
453.30776290
  0
VERTEX
  8
0
 10
242.58825328
 20
452.74694891
  0
VERTEX
  8
0
 10
242.21104043
 20
452.21048488
  0
VERTEX
  8
0
 10
241.81949733
 20
451.69205162
  0
VERTEX
  8
0
 10
241.03603707
 20
450.68400072
  0
VERTEX
  8
0
 10
240.66542824
 20
450.18174473
  0
VERTEX
  8
0
 10
240.32310585
 20
449.67224280
  0
VERTEX
  8
0
 10
240.01972406
 20
449.14917577
  0
VERTEX
  8
0
 10
239.88596531
 20
448.88058060
  0
VERTEX
  8
0
 10
239.76593703
 20
448.60622446
  0
VERTEX
  8
0
 10
239.66097099
 20
448.32531746
  0
VERTEX
  8
0
 10
239.57239896
 20
448.03706969
  0
VERTEX
  8
0
 10
239.50155270
 20
447.74069127
  0
VERTEX
  8
0
 10
239.44976399
 20
447.43539229
  0
VERTEX
  8
0
 10
239.41836460
 20
447.12038286
  0
VERTEX
  8
0
 10
239.40868631
 20
446.79487308
  0
VERTEX
  8
0
 10
239.42206087
 20
446.45807306
  0
VERTEX
  8
0
 10
239.45982008
 20
446.10919289
  0
VERTEX
  8
0
 10
239.81765878
 20
445.96447965
  0
VERTEX
  8
0
 10
240.18003167
 20
445.84099071
  0
VERTEX
  8
0
 10
240.54676592
 20
445.73753727
  0
VERTEX
  8
0
 10
240.91768875
 20
445.65293053
  0
VERTEX
  8
0
 10
241.29262735
 20
445.58598171
  0
VERTEX
  8
0
 10
241.67140892
 20
445.53550200
  0
VERTEX
  8
0
 10
242.43980977
 20
445.47919473
  0
VERTEX
  8
0
 10
243.22150889
 20
445.47449837
  0
VERTEX
  8
0
 10
244.01512387
 20
445.51190254
  0
VERTEX
  8
0
 10
244.81927230
 20
445.58189689
  0
VERTEX
  8
0
 10
245.63257178
 20
445.67497103
  0
VERTEX
  8
0
 10
247.28109423
 20
445.89231725
  0
VERTEX
  8
0
 10
248.11355239
 20
445.99756859
  0
VERTEX
  8
0
 10
248.94963196
 20
446.08785826
  0
VERTEX
  8
0
 10
249.78795053
 20
446.15367589
  0
VERTEX
  8
0
 10
250.62712569
 20
446.18551112
  0
VERTEX
  8
0
 10
251.46577504
 20
446.17385358
  0
VERTEX
  8
0
 10
252.30251617
 20
446.10919289
  0
VERTEX
  8
0
 10
253.03535355
 20
445.33818970
  0
VERTEX
  8
0
 10
253.74634866
 20
444.54519908
  0
VERTEX
  8
0
 10
254.43547646
 20
443.73020568
  0
VERTEX
  8
0
 10
255.10271192
 20
442.89319413
  0
VERTEX
  8
0
 10
255.74802999
 20
442.03414906
  0
VERTEX
  8
0
 10
256.37140564
 20
441.15305512
  0
VERTEX
  8
0
 10
256.97281382
 20
440.24989693
  0
VERTEX
  8
0
 10
257.55222948
 20
439.32465914
  0
VERTEX
  8
0
 10
258.10962760
 20
438.37732639
  0
VERTEX
  8
0
 10
258.64498312
 20
437.40788330
  0
VERTEX
  8
0
 10
259.15827102
 20
436.41631452
  0
VERTEX
  8
0
 10
259.64946624
 20
435.40260467
  0
VERTEX
  8
0
 10
260.11854375
 20
434.36673841
  0
VERTEX
  8
0
 10
260.56547850
 20
433.30870036
  0
VERTEX
  8
0
 10
260.99024546
 20
432.22847516
  0
VERTEX
  8
0
 10
261.39281958
 20
431.12604745
  0
VERTEX
  8
0
 10
261.99106001
 20
431.32927454
  0
VERTEX
  8
0
 10
262.57252635
 20
431.54935124
  0
VERTEX
  8
0
 10
263.13892027
 20
431.78457607
  0
VERTEX
  8
0
 10
263.69194346
 20
432.03324756
  0
VERTEX
  8
0
 10
264.76468429
 20
432.56412460
  0
VERTEX
  8
0
 10
265.80436224
 20
433.12837055
  0
VERTEX
  8
0
 10
267.83898300
 20
434.30252189
  0
VERTEX
  8
0
 10
268.86115258
 20
434.88520365
  0
VERTEX
  8
0
 10
269.90471280
 20
435.44680706
  0
VERTEX
  8
0
 10
270.98327705
 20
435.97372029
  0
VERTEX
  8
0
 10
271.53993986
 20
436.21991439
  0
VERTEX
  8
0
 10
272.11045871
 20
436.45233153
  0
VERTEX
  8
0
 10
272.69653525
 20
436.66927021
  0
VERTEX
  8
0
 10
273.29987116
 20
436.86902896
  0
VERTEX
  8
0
 10
273.92216811
 20
437.04990631
  0
VERTEX
  8
0
 10
274.56512778
 20
437.21020077
  0
VERTEX
  8
0
 10
275.23045185
 20
437.34821088
  0
VERTEX
  8
0
 10
275.91984197
 20
437.46223515
  0
VERTEX
  8
0
 10
276.63499983
 20
437.55057210
  0
VERTEX
  8
0
 10
277.37762710
 20
437.61152027
  0
VERTEX
  8
0
 10
278.14942545
 20
437.64337817
  0
VERTEX
  8
0
 10
278.95209656
 20
437.64444432
  0
VERTEX
  8
0
 10
279.78734209
 20
437.61301726
  0
VERTEX
  8
0
 10
280.65686373
 20
437.54739549
  0
VERTEX
  8
0
 10
281.03349645
 20
437.20646651
  0
VERTEX
  8
0
 10
281.37767555
 20
436.85577123
  0
VERTEX
  8
0
 10
281.69018732
 20
436.49565071
  0
VERTEX
  8
0
 10
281.97181805
 20
436.12644606
  0
VERTEX
  8
0
 10
282.22335403
 20
435.74849836
  0
VERTEX
  8
0
 10
282.44558157
 20
435.36214870
  0
VERTEX
  8
0
 10
282.63928696
 20
434.96773815
  0
VERTEX
  8
0
 10
282.80525649
 20
434.56560781
  0
VERTEX
  8
0
 10
282.94427646
 20
434.15609876
  0
VERTEX
  8
0
 10
283.05713317
 20
433.73955208
  0
VERTEX
  8
0
 10
283.14461292
 20
433.31630887
  0
VERTEX
  8
0
 10
283.20750199
 20
432.88671021
  0
VERTEX
  8
0
 10
283.24658668
 20
432.45109719
  0
VERTEX
  8
0
 10
283.26265329
 20
432.00981088
  0
VERTEX
  8
0
 10
283.25648812
 20
431.56319238
  0
VERTEX
  8
0
 10
283.22887746
 20
431.11158277
  0
VERTEX
  8
0
 10
283.18060760
 20
430.65532314
  0
VERTEX
  8
0
 10
283.11246485
 20
430.19475458
  0
VERTEX
  8
0
 10
283.02523550
 20
429.73021816
  0
VERTEX
  8
0
 10
282.91970584
 20
429.26205497
  0
VERTEX
  8
0
 10
282.79666216
 20
428.79060611
  0
VERTEX
  8
0
 10
282.65689078
 20
428.31621266
  0
VERTEX
  8
0
 10
282.33031004
 20
427.35995631
  0
VERTEX
  8
0
 10
281.94625399
 20
426.39601462
  0
VERTEX
  8
0
 10
281.51101300
 20
425.42711627
  0
VERTEX
  8
0
 10
281.03087743
 20
424.45598995
  0
VERTEX
  8
0
 10
280.51213764
 20
423.48536435
  0
VERTEX
  8
0
 10
279.96108400
 20
422.51796815
  0
VERTEX
  8
0
 10
279.38400689
 20
421.55653003
  0
VERTEX
  8
0
 10
278.78719665
 20
420.60377869
  0
VERTEX
  8
0
 10
278.17694366
 20
419.66244281
  0
VERTEX
  8
0
 10
276.94127090
 20
417.82493217
  0
VERTEX
  8
0
 10
275.72731151
 20
416.06582761
  0
VERTEX
  8
0
 10
274.58538844
 20
414.40695862
  0
VERTEX
  8
0
 10
273.56582460
 20
412.87015469
  0
VERTEX
  8
0
 10
273.11765331
 20
412.15434884
  0
VERTEX
  8
0
 10
272.71894292
 20
411.47724531
  0
VERTEX
  8
0
 10
272.37598381
 20
410.84157279
  0
VERTEX
  8
0
 10
272.09506633
 20
410.25005996
  0
VERTEX
  8
0
 10
272.13939231
 20
409.82673206
  0
VERTEX
  8
0
 10
272.19779332
 20
409.41744930
  0
VERTEX
  8
0
 10
272.35262513
 20
408.63684247
  0
VERTEX
  8
0
 10
272.55117114
 20
407.89988602
  0
VERTEX
  8
0
 10
272.78504071
 20
407.19822644
  0
VERTEX
  8
0
 10
273.04584324
 20
406.52351027
  0
VERTEX
  8
0
 10
273.32518810
 20
405.86738401
  0
VERTEX
  8
0
 10
273.90594230
 20
404.57748734
  0
VERTEX
  8
0
 10
274.19057041
 20
403.92700996
  0
VERTEX
  8
0
 10
274.46017835
 20
403.26170858
  0
VERTEX
  8
0
 10
274.70637550
 20
402.57322970
  0
VERTEX
  8
0
 10
274.92077125
 20
401.85321986
  0
VERTEX
  8
0
 10
275.09497496
 20
401.09332557
  0
VERTEX
  8
0
 10
275.16438274
 20
400.69581130
  0
VERTEX
  8
0
 10
275.22059603
 20
400.28519335
  0
VERTEX
  8
0
 10
275.26256599
 20
399.86042756
  0
VERTEX
  8
0
 10
275.28924381
 20
399.42046972
  0
VERTEX
  8
0
 10
275.29958066
 20
398.96427566
  0
VERTEX
  8
0
 10
275.29252770
 20
398.49080119
  0
VERTEX
  8
0
 10
275.51854955
 20
398.47909851
  0
VERTEX
  8
0
 10
275.74622709
 20
398.49142199
  0
VERTEX
  8
0
 10
275.97555617
 20
398.52641415
  0
VERTEX
  8
0
 10
276.20653262
 20
398.58271751
  0
VERTEX
  8
0
 10
276.43915229
 20
398.65897460
  0
VERTEX
  8
0
 10
276.67341101
 20
398.75382793
  0
VERTEX
  8
0
 10
277.14682899
 20
398.99389346
  0
VERTEX
  8
0
 10
277.62675327
 20
399.29205426
  0
VERTEX
  8
0
 10
278.11315059
 20
399.63745055
  0
VERTEX
  8
0
 10
278.60598765
 20
400.01922249
  0
VERTEX
  8
0
 10
279.10523118
 20
400.42651029
  0
VERTEX
  8
0
 10
280.12280456
 20
401.27419418
  0
VERTEX
  8
0
 10
280.64106784
 20
401.69287066
  0
VERTEX
  8
0
 10
281.16560448
 20
402.09362375
  0
VERTEX
  8
0
 10
281.69638120
 20
402.46559362
  0
VERTEX
  8
0
 10
282.23336473
 20
402.79792048
  0
VERTEX
  8
0
 10
282.77652179
 20
403.07974451
  0
VERTEX
  8
0
 10
283.05040499
 20
403.19832428
  0
VERTEX
  8
0
 10
283.32581909
 20
403.30020590
  0
VERTEX
  8
0
 10
283.10335282
 20
402.38349145
  0
VERTEX
  8
0
 10
282.84223807
 20
401.50604699
  0
VERTEX
  8
0
 10
282.55535766
 20
400.65509220
  0
VERTEX
  8
0
 10
282.25559441
 20
399.81784676
  0
VERTEX
  8
0
 10
281.95583117
 20
398.98153033
  0
VERTEX
  8
0
 10
281.66895076
 20
398.13336258
  0
VERTEX
  8
0
 10
281.40783600
 20
397.26056320
  0
VERTEX
  8
0
 10
281.18536974
 20
396.35035184
  0
VERTEX
  8
0
 10
280.87958383
 20
396.05016513
  0
VERTEX
  8
0
 10
280.55646860
 20
395.75694900
  0
VERTEX
  8
0
 10
279.86186374
 20
395.18903476
  0
VERTEX
  8
0
 10
279.10878221
 20
394.64182179
  0
VERTEX
  8
0
 10
278.30445110
 20
394.11052272
  0
VERTEX
  8
0
 10
277.45609745
 20
393.59035021
  0
VERTEX
  8
0
 10
276.57094834
 20
393.07651691
  0
VERTEX
  8
0
 10
274.71917201
 20
392.04871853
  0
VERTEX
  8
0
 10
272.80693864
 20
390.98882877
  0
VERTEX
  8
0
 10
271.84621823
 20
390.43488125
  0
VERTEX
  8
0
 10
270.89206476
 20
389.85854882
  0
VERTEX
  8
0
 10
269.95170530
 20
389.25504415
  0
VERTEX
  8
0
 10
269.03236691
 20
388.61957988
  0
VERTEX
  8
0
 10
268.14127666
 20
387.94736866
  0
VERTEX
  8
0
 10
267.70858305
 20
387.59598689
  0
VERTEX
  8
0
 10
267.28566162
 20
387.23362313
  0
VERTEX
  8
0
 10
266.78555444
 20
386.78103819
  0
VERTEX
  8
0
 10
266.28630035
 20
386.29696795
  0
VERTEX
  8
0
 10
265.78766015
 20
385.78485759
  0
VERTEX
  8
0
 10
265.28939465
 20
385.24815227
  0
VERTEX
  8
0
 10
264.29303101
 20
384.11473737
  0
VERTEX
  8
0
 10
263.29529589
 20
382.92428454
  0
VERTEX
  8
0
 10
261.28805714
 20
380.48251025
  0
VERTEX
  8
0
 10
260.27472647
 20
379.28631137
  0
VERTEX
  8
0
 10
259.25237023
 20
378.14331972
  0
VERTEX
  8
0
 10
258.46269172
 20
377.33099420
  0
VERTEX
  8
0
 10
257.63020715
 20
376.52465579
  0
VERTEX
  8
0
 10
255.91411791
 20
374.90307315
  0
VERTEX
  8
0
 10
255.06916228
 20
374.07439533
  0
VERTEX
  8
0
 10
254.25869865
 20
373.22483746
  0
VERTEX
  8
0
 10
253.87244025
 20
372.79012951
  0
VERTEX
  8
0
 10
253.50205154
 20
372.34768276
  0
VERTEX
  8
0
 10
253.14994810
 20
371.89665759
  0
VERTEX
  8
0
 10
252.81854548
 20
371.43621442
  0
VERTEX
  8
0
 10
252.51025925
 20
370.96551365
  0
VERTEX
  8
0
 10
252.22750497
 20
370.48371567
  0
VERTEX
  8
0
 10
251.97269821
 20
369.98998088
  0
VERTEX
  8
0
 10
251.74825452
 20
369.48346970
  0
VERTEX
  8
0
 10
251.55658949
 20
368.96334252
  0
VERTEX
  8
0
 10
251.40011867
 20
368.42875974
  0
VERTEX
  8
0
 10
251.28125762
 20
367.87888176
  0
VERTEX
  8
0
 10
251.20242191
 20
367.31286898
  0
VERTEX
  8
0
 10
251.16602710
 20
366.72988181
  0
VERTEX
  8
0
 10
251.17448876
 20
366.12908064
  0
VERTEX
  8
0
 10
251.23022246
 20
365.50962589
  0
VERTEX
  8
0
 10
251.33564375
 20
364.87067794
  0
VERTEX
  8
0
 10
251.49316820
 20
364.21139720
  0
VERTEX
  8
0
 10
251.70521138
 20
363.53094407
  0
VERTEX
  8
0
 10
251.97418885
 20
362.82847896
  0
VERTEX
  8
0
 10
252.30251617
 20
362.10316225
  0
VERTEX
  8
0
 10
253.39695841
 20
361.94346613
  0
VERTEX
  8
0
 10
254.45868474
 20
361.75104891
  0
VERTEX
  8
0
 10
255.48865280
 20
361.52686722
  0
VERTEX
  8
0
 10
256.48782024
 20
361.27187768
  0
VERTEX
  8
0
 10
257.45714469
 20
360.98703691
  0
VERTEX
  8
0
 10
258.39758378
 20
360.67330154
  0
VERTEX
  8
0
 10
259.31009516
 20
360.33162819
  0
VERTEX
  8
0
 10
260.19563645
 20
359.96297348
  0
VERTEX
  8
0
 10
261.05516530
 20
359.56829404
  0
VERTEX
  8
0
 10
261.88963934
 20
359.14854649
  0
VERTEX
  8
0
 10
262.70001622
 20
358.70468745
  0
VERTEX
  8
0
 10
263.48725355
 20
358.23767354
  0
VERTEX
  8
0
 10
264.25230900
 20
357.74846139
  0
VERTEX
  8
0
 10
264.99614018
 20
357.23800763
  0
VERTEX
  8
0
 10
265.71970474
 20
356.70726886
  0
VERTEX
  8
0
 10
266.42396031
 20
356.15720173
  0
VERTEX
  8
0
 10
267.10986454
 20
355.58876285
  0
VERTEX
  8
0
 10
267.77837505
 20
355.00290884
  0
VERTEX
  8
0
 10
268.43044948
 20
354.40059633
  0
VERTEX
  8
0
 10
269.06704548
 20
353.78278194
  0
VERTEX
  8
0
 10
269.68912067
 20
353.15042229
  0
VERTEX
  8
0
 10
270.29763270
 20
352.50447401
  0
VERTEX
  8
0
 10
270.89353920
 20
351.84589372
  0
VERTEX
  8
0
 10
271.47779781
 20
351.17563804
  0
VERTEX
  8
0
 10
272.61520191
 20
349.80392702
  0
VERTEX
  8
0
 10
273.71750607
 20
348.39699393
  0
VERTEX
  8
0
 10
274.79237141
 20
346.96249175
  0
VERTEX
  8
0
 10
275.84745902
 20
345.50807347
  0
VERTEX
  8
0
 10
275.82388852
 20
345.37526482
  0
VERTEX
  8
0
 10
275.78316548
 20
345.26871897
  0
VERTEX
  8
0
 10
275.72618223
 20
345.18720457
  0
VERTEX
  8
0
 10
275.65383114
 20
345.12949025
  0
VERTEX
  8
0
 10
275.56700457
 20
345.09434467
  0
VERTEX
  8
0
 10
275.46659487
 20
345.08053648
  0
VERTEX
  8
0
 10
275.35349440
 20
345.08683431
  0
VERTEX
  8
0
 10
275.22859553
 20
345.11200681
  0
VERTEX
  8
0
 10
274.94697197
 20
345.21405043
  0
VERTEX
  8
0
 10
274.62886306
 20
345.37681650
  0
VERTEX
  8
0
 10
274.28140767
 20
345.59045419
  0
VERTEX
  8
0
 10
273.91174464
 20
345.84511266
  0
VERTEX
  8
0
 10
273.13435113
 20
346.43808862
  0
VERTEX
  8
0
 10
272.35379343
 20
347.07693775
  0
VERTEX
  8
0
 10
271.62718243
 20
347.68285337
  0
VERTEX
  8
0
 10
271.01162900
 20
348.17702883
  0
VERTEX
  8
0
 10
269.53355120
 20
349.30178480
  0
VERTEX
  8
0
 10
268.09759219
 20
350.40253429
  0
VERTEX
  8
0
 10
267.42053909
 20
350.93811861
  0
VERTEX
  8
0
 10
266.78417391
 20
351.46075572
  0
VERTEX
  8
0
 10
266.19854939
 20
351.96813043
  0
VERTEX
  8
0
 10
265.67371828
 20
352.45792753
  0
VERTEX
  8
0
 10
265.00736765
 20
352.49501524
  0
VERTEX
  8
0
 10
264.36986312
 20
352.56083161
  0
VERTEX
  8
0
 10
263.75589458
 20
352.65009555
  0
VERTEX
  8
0
 10
263.16015190
 20
352.75752599
  0
VERTEX
  8
0
 10
262.00210374
 20
353.00576203
  0
VERTEX
  8
0
 10
260.85323774
 20
353.26329109
  0
VERTEX
  8
0
 10
260.26897277
 20
353.38233781
  0
VERTEX
  8
0
 10
259.67107301
 20
353.48786454
  0
VERTEX
  8
0
 10
259.05422834
 20
353.57459021
  0
VERTEX
  8
0
 10
258.41312866
 20
353.63723374
  0
VERTEX
  8
0
 10
257.74246385
 20
353.67051405
  0
VERTEX
  8
0
 10
257.03692380
 20
353.66915006
  0
VERTEX
  8
0
 10
256.29119840
 20
353.62786069
  0
VERTEX
  8
0
 10
255.49997755
 20
353.54136486
  0
VERTEX
  8
0
 10
255.36330834
 20
353.18268036
  0
VERTEX
  8
0
 10
255.27163968
 20
352.81892099
  0
VERTEX
  8
0
 10
255.21923342
 20
352.44896471
  0
VERTEX
  8
0
 10
255.20035143
 20
352.07168948
  0
VERTEX
  8
0
 10
255.20925556
 20
351.68597324
  0
VERTEX
  8
0
 10
255.24020768
 20
351.29069398
  0
VERTEX
  8
0
 10
255.34530333
 20
350.46695818
  0
VERTEX
  8
0
 10
255.46973325
 20
349.59150576
  0
VERTEX
  8
0
 10
255.52485322
 20
349.13158071
  0
VERTEX
  8
0
 10
255.56759233
 20
348.65536038
  0
VERTEX
  8
0
 10
255.59221247
 20
348.16172274
  0
VERTEX
  8
0
 10
255.59297547
 20
347.64954574
  0
VERTEX
  8
0
 10
255.56414321
 20
347.11770734
  0
VERTEX
  8
0
 10
255.49997755
 20
346.56508550
  0
VERTEX
  8
0
 10
256.41087426
 20
346.60702466
  0
VERTEX
  8
0
 10
257.30215368
 20
346.62930781
  0
VERTEX
  8
0
 10
258.17400310
 20
346.63212224
  0
VERTEX
  8
0
 10
259.02660979
 20
346.61565525
  0
VERTEX
  8
0
 10
259.86016106
 20
346.58009412
  0
VERTEX
  8
0
 10
260.67484420
 20
346.52562616
  0
VERTEX
  8
0
 10
261.47084650
 20
346.45243864
  0
VERTEX
  8
0
 10
262.24835525
 20
346.36071887
  0
VERTEX
  8
0
 10
263.00755774
 20
346.25065413
  0
VERTEX
  8
0
 10
263.74864126
 20
346.12243171
  0
VERTEX
  8
0
 10
264.47179312
 20
345.97623892
  0
VERTEX
  8
0
 10
265.17720059
 20
345.81226303
  0
VERTEX
  8
0
 10
265.86505096
 20
345.63069134
  0
VERTEX
  8
0
 10
266.53553155
 20
345.43171115
  0
VERTEX
  8
0
 10
267.18882962
 20
345.21550974
  0
VERTEX
  8
0
 10
267.82513248
 20
344.98227440
  0
VERTEX
  8
0
 10
268.44462741
 20
344.73219243
  0
VERTEX
  8
0
 10
269.04750172
 20
344.46545113
  0
VERTEX
  8
0
 10
269.63394268
 20
344.18223777
  0
VERTEX
  8
0
 10
270.20413760
 20
343.88273966
  0
VERTEX
  8
0
 10
270.75827376
 20
343.56714408
  0
VERTEX
  8
0
 10
271.29653845
 20
343.23563832
  0
VERTEX
  8
0
 10
271.81911897
 20
342.88840969
  0
VERTEX
  8
0
 10
272.32620261
 20
342.52564546
  0
VERTEX
  8
0
 10
272.81797666
 20
342.14753294
  0
VERTEX
  8
0
 10
273.29462841
 20
341.75425941
  0
VERTEX
  8
0
 10
273.75634516
 20
341.34601216
  0
VERTEX
  8
0
 10
274.20331419
 20
340.92297850
  0
VERTEX
  8
0
 10
274.63572280
 20
340.48534570
  0
VERTEX
  8
0
 10
275.05375828
 20
340.03330106
  0
VERTEX
  8
0
 10
275.45760792
 20
339.56703187
  0
VERTEX
  8
0
 10
275.84745902
 20
339.08672542
  0
VERTEX
  8
0
 10
274.92011250
 20
339.56632152
  0
VERTEX
  8
0
 10
273.93427799
 20
340.02282961
  0
VERTEX
  8
0
 10
272.89840640
 20
340.44843812
  0
VERTEX
  8
0
 10
271.82094863
 20
340.83533550
  0
VERTEX
  8
0
 10
270.71035560
 20
341.17571021
  0
VERTEX
  8
0
 10
270.14527427
 20
341.32601046
  0
VERTEX
  8
0
 10
269.57507821
 20
341.46175070
  0
VERTEX
  8
0
 10
269.00082378
 20
341.58195449
  0
VERTEX
  8
0
 10
268.42356736
 20
341.68564540
  0
VERTEX
  8
0
 10
267.84436530
 20
341.77184697
  0
VERTEX
  8
0
 10
267.26427397
 20
341.83958277
  0
VERTEX
  8
0
 10
266.68434973
 20
341.88787634
  0
VERTEX
  8
0
 10
266.10564894
 20
341.91575125
  0
VERTEX
  8
0
 10
265.52922798
 20
341.92223105
  0
VERTEX
  8
0
 10
264.95614319
 20
341.90633929
  0
VERTEX
  8
0
 10
264.38745095
 20
341.86709954
  0
VERTEX
  8
0
 10
263.82420762
 20
341.80353535
  0
VERTEX
  8
0
 10
263.26746956
 20
341.71467027
  0
VERTEX
  8
0
 10
262.71829313
 20
341.59952786
  0
VERTEX
  8
0
 10
262.17773470
 20
341.45713168
  0
VERTEX
  8
0
 10
261.64685064
 20
341.28650528
  0
VERTEX
  8
0
 10
261.12669730
 20
341.08667222
  0
VERTEX
  8
0
 10
260.61833105
 20
340.85665605
  0
VERTEX
  8
0
 10
260.12280826
 20
340.59548033
  0
VERTEX
  8
0
 10
259.64118528
 20
340.30216862
  0
VERTEX
  8
0
 10
259.17451848
 20
339.97574447
  0
VERTEX
  8
0
 10
258.72386422
 20
339.61523144
  0
VERTEX
  8
0
 10
259.01140887
 20
339.10249536
  0
VERTEX
  8
0
 10
259.27243841
 20
338.56295805
  0
VERTEX
  8
0
 10
259.51107260
 20
338.00077956
  0
VERTEX
  8
0
 10
259.73143120
 20
337.42011991
  0
VERTEX
  8
0
 10
260.13380069
 20
336.21999731
  0
VERTEX
  8
0
 10
260.51250495
 20
334.99587055
  0
VERTEX
  8
0
 10
260.90050209
 20
333.78101994
  0
VERTEX
  8
0
 10
261.10828489
 20
333.18747329
  0
VERTEX
  8
0
 10
261.33075018
 20
332.60872578
  0
VERTEX
  8
0
 10
261.57201774
 20
332.04893747
  0
VERTEX
  8
0
 10
261.83620733
 20
331.51226838
  0
VERTEX
  8
0
 10
262.12743869
 20
331.00287855
  0
VERTEX
  8
0
 10
262.44983161
 20
330.52492803
  0
VERTEX
  8
0
 10
263.38743712
 20
330.68702686
  0
VERTEX
  8
0
 10
264.34414834
 20
330.83603412
  0
VERTEX
  8
0
 10
266.30938945
 20
331.09540112
  0
VERTEX
  8
0
 10
268.33455791
 20
331.30428348
  0
VERTEX
  8
0
 10
270.40865674
 20
331.46393564
  0
VERTEX
  8
0
 10
272.52068894
 20
331.57561204
  0
VERTEX
  8
0
 10
274.65965749
 20
331.64056711
  0
VERTEX
  8
0
 10
276.81456542
 20
331.66005530
  0
VERTEX
  8
0
 10
278.97441571
 20
331.63533105
  0
VERTEX
  8
0
 10
281.12821136
 20
331.56764880
  0
VERTEX
  8
0
 10
283.26495538
 20
331.45826299
  0
VERTEX
  8
0
 10
285.37365076
 20
331.30842805
  0
VERTEX
  8
0
 10
287.44330051
 20
331.11939844
  0
VERTEX
  8
0
 10
289.46290762
 20
330.89242859
  0
VERTEX
  8
0
 10
291.42147510
 20
330.62877294
  0
VERTEX
  8
0
 10
293.30800595
 20
330.32968594
  0
VERTEX
  8
0
 10
295.11150316
 20
329.99642201
  0
VERTEX
  8
0
 10
296.01613817
 20
331.22343200
  0
VERTEX
  8
0
 10
296.94848423
 20
332.42494211
  0
VERTEX
  8
0
 10
297.90843199
 20
333.60074200
  0
VERTEX
  8
0
 10
298.89587211
 20
334.75062130
  0
VERTEX
  8
0
 10
299.91069524
 20
335.87436965
  0
VERTEX
  8
0
 10
300.95279203
 20
336.97177670
  0
VERTEX
  8
0
 10
302.02205315
 20
338.04263207
  0
VERTEX
  8
0
 10
303.11836924
 20
339.08672542
  0
VERTEX
  8
0
 10
304.37867584
 20
339.73717072
  0
VERTEX
  8
0
 10
305.73572859
 20
340.37291980
  0
VERTEX
  8
0
 10
307.17964513
 20
340.98806968
  0
VERTEX
  8
0
 10
308.70054310
 20
341.57671738
  0
VERTEX
  8
0
 10
310.28854015
 20
342.13295992
  0
VERTEX
  8
0
 10
311.93375392
 20
342.65089433
  0
VERTEX
  8
0
 10
313.62630205
 20
343.12461763
  0
VERTEX
  8
0
 10
315.35630219
 20
343.54822685
  0
VERTEX
  8
0
 10
316.23225852
 20
343.73939399
  0
VERTEX
  8
0
 10
317.11387198
 20
343.91581900
  0
VERTEX
  8
0
 10
317.99990725
 20
344.07676399
  0
VERTEX
  8
0
 10
318.88912906
 20
344.22149111
  0
VERTEX
  8
0
 10
319.78030210
 20
344.34926246
  0
VERTEX
  8
0
 10
320.67219108
 20
344.45934020
  0
VERTEX
  8
0
 10
321.56356070
 20
344.55098643
  0
VERTEX
  8
0
 10
322.45317568
 20
344.62346329
  0
VERTEX
  8
0
 10
323.33980071
 20
344.67603291
  0
VERTEX
  8
0
 10
324.22220050
 20
344.70795741
  0
VERTEX
  8
0
 10
325.09913976
 20
344.71849892
  0
VERTEX
  8
0
 10
325.96938319
 20
344.70691957
  0
VERTEX
  8
0
 10
326.83169550
 20
344.67248150
  0
VERTEX
  8
0
 10
327.68484139
 20
344.61444681
  0
VERTEX
  8
0
 10
328.52758557
 20
344.53207765
  0
VERTEX
  8
0
 10
329.35869275
 20
344.42463615
  0
VERTEX
  8
0
 10
330.18543530
 20
344.27547026
  0
VERTEX
  8
0
 10
331.09397436
 20
344.05458582
  0
VERTEX
  8
0
 10
332.03997252
 20
343.77149159
  0
VERTEX
  8
0
 10
332.97909238
 20
343.43569636
  0
VERTEX
  8
0
 10
333.43221751
 20
343.25100735
  0
VERTEX
  8
0
 10
333.86699654
 20
343.05670889
  0
VERTEX
  8
0
 10
334.27788729
 20
342.85398955
  0
VERTEX
  8
0
 10
334.65934760
 20
342.64403795
  0
VERTEX
  8
0
 10
335.00583527
 20
342.42804268
  0
VERTEX
  8
0
 10
335.31180815
 20
342.20719233
  0
VERTEX
  8
0
 10
335.57172405
 20
341.98267550
  0
VERTEX
  8
0
 10
335.78004080
 20
341.75568079
  0
VERTEX
  8
0
 10
334.41004681
 20
341.93101531
  0
VERTEX
  8
0
 10
333.04749350
 20
342.07485570
  0
VERTEX
  8
0
 10
331.69378392
 20
342.18706245
  0
VERTEX
  8
0
 10
330.35032109
 20
342.26749609
  0
VERTEX
  8
0
 10
329.01850804
 20
342.31601712
  0
VERTEX
  8
0
 10
327.69974782
 20
342.33248606
  0
VERTEX
  8
0
 10
326.39544345
 20
342.31676341
  0
VERTEX
  8
0
 10
325.10699797
 20
342.26870971
  0
VERTEX
  8
0
 10
323.83581442
 20
342.18818544
  0
VERTEX
  8
0
 10
322.58329583
 20
342.07505114
  0
VERTEX
  8
0
 10
321.35084523
 20
341.92916731
  0
VERTEX
  8
0
 10
320.13986566
 20
341.75039446
  0
VERTEX
  8
0
 10
318.95176015
 20
341.53859311
  0
VERTEX
  8
0
 10
317.78793174
 20
341.29362377
  0
VERTEX
  8
0
 10
316.64978346
 20
341.01534696
  0
VERTEX
  8
0
 10
315.53871835
 20
340.70362317
  0
VERTEX
  8
0
 10
314.45613944
 20
340.35831294
  0
VERTEX
  8
0
 10
313.40344976
 20
339.97927677
  0
VERTEX
  8
0
 10
312.38205235
 20
339.56637518
  0
VERTEX
  8
0
 10
311.39335025
 20
339.11946867
  0
VERTEX
  8
0
 10
310.43874648
 20
338.63841776
  0
VERTEX
  8
0
 10
309.51964409
 20
338.12308296
  0
VERTEX
  8
0
 10
308.63744610
 20
337.57332479
  0
VERTEX
  8
0
 10
307.79355556
 20
336.98900376
  0
VERTEX
  8
0
 10
306.98937549
 20
336.36998038
  0
VERTEX
  8
0
 10
306.22630893
 20
335.71611517
  0
VERTEX
  8
0
 10
305.50575892
 20
335.02726863
  0
VERTEX
  8
0
 10
304.82912849
 20
334.30330128
  0
VERTEX
  8
0
 10
304.19782067
 20
333.54407363
  0
VERTEX
  8
0
 10
303.61323849
 20
332.74944620
  0
VERTEX
  8
0
 10
303.33890797
 20
332.33881398
  0
VERTEX
  8
0
 10
303.07678500
 20
331.91927950
  0
VERTEX
  8
0
 10
302.82704496
 20
331.49082533
  0
VERTEX
  8
0
 10
302.58986323
 20
331.05343404
  0
VERTEX
  8
0
 10
302.69544667
 20
330.76374892
  0
VERTEX
  8
0
 10
302.81819503
 20
330.48709236
  0
VERTEX
  8
0
 10
302.95733026
 20
330.22316734
  0
VERTEX
  8
0
 10
303.11207429
 20
329.97167686
  0
VERTEX
  8
0
 10
303.28164906
 20
329.73232392
  0
VERTEX
  8
0
 10
303.46527651
 20
329.50481151
  0
VERTEX
  8
0
 10
303.66217859
 20
329.28884264
  0
VERTEX
  8
0
 10
303.87157723
 20
329.08412030
  0
VERTEX
  8
0
 10
304.09269436
 20
328.89034749
  0
VERTEX
  8
0
 10
304.32475193
 20
328.70722720
  0
VERTEX
  8
0
 10
304.81857616
 20
328.37175619
  0
VERTEX
  8
0
 10
305.34682540
 20
328.07533123
  0
VERTEX
  8
0
 10
305.90327519
 20
327.81557631
  0
VERTEX
  8
0
 10
306.48170103
 20
327.59011540
  0
VERTEX
  8
0
 10
307.07587844
 20
327.39657248
  0
VERTEX
  8
0
 10
307.67958293
 20
327.23257152
  0
VERTEX
  8
0
 10
308.28659002
 20
327.09573650
  0
VERTEX
  8
0
 10
308.89067522
 20
326.98369140
  0
VERTEX
  8
0
 10
309.48561404
 20
326.89406019
  0
VERTEX
  8
0
 10
310.06518200
 20
326.82446684
  0
VERTEX
  8
0
 10
310.62315462
 20
326.77253534
  0
VERTEX
  8
0
 10
311.65005231
 20
326.71246295
  0
VERTEX
  8
0
 10
312.69161604
 20
326.69561237
  0
VERTEX
  8
0
 10
313.74590219
 20
326.72031325
  0
VERTEX
  8
0
 10
314.81096716
 20
326.78489524
  0
VERTEX
  8
0
 10
315.88486734
 20
326.88768797
  0
VERTEX
  8
0
 10
316.96565913
 20
327.02702111
  0
VERTEX
  8
0
 10
318.05139893
 20
327.20122430
  0
VERTEX
  8
0
 10
319.14014313
 20
327.40862717
  0
VERTEX
  8
0
 10
320.22994812
 20
327.64755940
  0
VERTEX
  8
0
 10
321.31887030
 20
327.91635061
  0
VERTEX
  8
0
 10
322.40496607
 20
328.21333045
  0
VERTEX
  8
0
 10
323.48629182
 20
328.53682859
  0
VERTEX
  8
0
 10
324.56090394
 20
328.88517465
  0
VERTEX
  8
0
 10
325.62685884
 20
329.25669830
  0
VERTEX
  8
0
 10
326.68221290
 20
329.64972917
  0
VERTEX
  8
0
 10
327.72502253
 20
330.06259691
  0
VERTEX
  8
0
 10
328.75334411
 20
330.49363118
  0
VERTEX
  8
0
 10
329.76523405
 20
330.94116162
  0
VERTEX
  8
0
 10
330.75874873
 20
331.40351787
  0
VERTEX
  8
0
 10
331.73194456
 20
331.87902959
  0
VERTEX
  8
0
 10
332.68287792
 20
332.36602642
  0
VERTEX
  8
0
 10
333.60960522
 20
332.86283801
  0
VERTEX
  8
0
 10
334.51018285
 20
333.36779400
  0
VERTEX
  8
0
 10
335.38266720
 20
333.87922405
  0
VERTEX
  8
0
 10
336.22511467
 20
334.39545781
  0
VERTEX
  8
0
 10
337.03558166
 20
334.91482491
  0
VERTEX
  8
0
 10
337.81212455
 20
335.43565500
  0
VERTEX
  8
0
 10
338.55279976
 20
335.95627775
  0
VERTEX
  8
0
 10
339.25566366
 20
336.47502278
  0
VERTEX
  8
0
 10
339.91877266
 20
336.99021975
  0
VERTEX
  8
0
 10
340.54018314
 20
337.50019831
  0
VERTEX
  8
0
 10
341.11795152
 20
338.00328810
  0
VERTEX
  8
0
 10
341.02242708
 20
339.30867916
  0
VERTEX
  8
0
 10
340.94951499
 20
340.59788103
  0
VERTEX
  8
0
 10
340.89882025
 20
341.87112363
  0
VERTEX
  8
0
 10
340.86994790
 20
343.12863691
  0
VERTEX
  8
0
 10
340.86250294
 20
344.37065078
  0
VERTEX
  8
0
 10
340.87609041
 20
345.59739520
  0
VERTEX
  8
0
 10
340.91031531
 20
346.80910008
  0
VERTEX
  8
0
 10
340.96478266
 20
348.00599535
  0
VERTEX
  8
0
 10
341.03909750
 20
349.18831096
  0
VERTEX
  8
0
 10
341.13286482
 20
350.35627684
  0
VERTEX
  8
0
 10
341.24568967
 20
351.51012291
  0
VERTEX
  8
0
 10
341.37717704
 20
352.65007911
  0
VERTEX
  8
0
 10
341.52693197
 20
353.77637537
  0
VERTEX
  8
0
 10
341.69455947
 20
354.88924163
  0
VERTEX
  8
0
 10
341.87966456
 20
355.98890781
  0
VERTEX
  8
0
 10
342.08185226
 20
357.07560385
  0
VERTEX
  8
0
 10
342.30072759
 20
358.14955968
  0
VERTEX
  8
0
 10
342.53589557
 20
359.21100523
  0
VERTEX
  8
0
 10
342.78696122
 20
360.26017044
  0
VERTEX
  8
0
 10
343.05352956
 20
361.29728523
  0
VERTEX
  8
0
 10
343.33520560
 20
362.32257955
  0
VERTEX
  8
0
 10
343.63159437
 20
363.33628332
  0
VERTEX
  8
0
 10
343.94230088
 20
364.33862647
  0
VERTEX
  8
0
 10
344.26693016
 20
365.32983894
  0
VERTEX
  8
0
 10
344.60508722
 20
366.31015066
  0
VERTEX
  8
0
 10
344.95637708
 20
367.27979156
  0
VERTEX
  8
0
 10
345.32040476
 20
368.23899158
  0
VERTEX
  8
0
 10
345.69677529
 20
369.18798064
  0
VERTEX
  8
0
 10
346.48496494
 20
371.05624563
  0
VERTEX
  8
0
 10
347.31778618
 20
372.88642600
  0
VERTEX
  8
0
 10
348.19207917
 20
374.68036120
  0
VERTEX
  8
0
 10
349.10468407
 20
376.43989069
  0
VERTEX
  8
0
 10
350.05244102
 20
378.16685394
  0
VERTEX
  8
0
 10
351.03219018
 20
379.86309039
  0
VERTEX
  8
0
 10
352.04077170
 20
381.53043951
  0
VERTEX
  8
0
 10
353.07502574
 20
383.17074076
  0
VERTEX
  8
0
 10
354.13179245
 20
384.78583360
  0
VERTEX
  8
0
 10
355.20791198
 20
386.37755748
  0
VERTEX
  8
0
 10
356.30022449
 20
387.94775186
  0
VERTEX
  8
0
 10
357.40557013
 20
389.49825621
  0
VERTEX
  8
0
 10
358.52078906
 20
391.03090997
  0
VERTEX
  8
0
 10
359.64272142
 20
392.54755262
  0
VERTEX
  8
0
 10
361.89408709
 20
395.54016239
  0
VERTEX
  8
0
 10
364.13438835
 20
398.49080119
  0
VERTEX
  8
0
 10
363.27925285
 20
397.90615223
  0
VERTEX
  8
0
 10
362.43022772
 20
397.28999443
  0
VERTEX
  8
0
 10
361.58750264
 20
396.64473808
  0
VERTEX
  8
0
 10
360.75126732
 20
395.97279347
  0
VERTEX
  8
0
 10
359.92171143
 20
395.27657087
  0
VERTEX
  8
0
 10
359.09902469
 20
394.55848057
  0
VERTEX
  8
0
 10
358.28339677
 20
393.82093286
  0
VERTEX
  8
0
 10
357.47501738
 20
393.06633803
  0
VERTEX
  8
0
 10
355.88076294
 20
391.51564813
  0
VERTEX
  8
0
 10
354.31777891
 20
389.92569316
  0
VERTEX
  8
0
 10
352.78758283
 20
388.31575539
  0
VERTEX
  8
0
 10
351.29169225
 20
386.70511712
  0
VERTEX
  8
0
 10
349.81082580
 20
385.07752613
  0
VERTEX
  8
0
 10
348.36369000
 20
383.46281796
  0
VERTEX
  8
0
 10
346.90734482
 20
381.86392236
  0
VERTEX
  8
0
 10
346.16229995
 20
381.07131982
  0
VERTEX
  8
0
 10
345.39885022
 20
380.28376907
  0
VERTEX
  8
0
 10
343.24270154
 20
378.07258044
  0
VERTEX
  8
0
 10
341.06490471
 20
375.79474557
  0
VERTEX
  8
0
 10
338.86908897
 20
373.46490851
  0
VERTEX
  8
0
 10
336.65888353
 20
371.09771326
  0
VERTEX
  8
0
 10
332.20982050
 20
366.30982431
  0
VERTEX
  8
0
 10
329.97822135
 20
363.91841867
  0
VERTEX
  8
0
 10
327.74674941
 20
361.54823094
  0
VERTEX
  8
0
 10
327.03064300
 20
360.77531677
  0
VERTEX
  8
0
 10
326.32783548
 20
359.98125267
  0
VERTEX
  8
0
 10
324.94460030
 20
358.35214154
  0
VERTEX
  8
0
 10
323.56201021
 20
356.70583125
  0
VERTEX
  8
0
 10
322.86000908
 20
355.89026821
  0
VERTEX
  8
0
 10
322.14503161
 20
355.08725551
  0
VERTEX
  8
0
 10
321.41269860
 20
354.30240988
  0
VERTEX
  8
0
 10
320.65863085
 20
353.54134803
  0
VERTEX
  8
0
 10
319.87844915
 20
352.80968667
  0
VERTEX
  8
0
 10
319.06777430
 20
352.11304251
  0
VERTEX
  8
0
 10
318.22222710
 20
351.45703227
  0
VERTEX
  8
0
 10
317.78500787
 20
351.14602009
  0
VERTEX
  8
0
 10
317.33742834
 20
350.84727266
  0
VERTEX
  8
0
 10
316.87894112
 20
350.56149206
  0
VERTEX
  8
0
 10
316.40899882
 20
350.28938039
  0
VERTEX
  8
0
 10
315.92705402
 20
350.03163973
  0
VERTEX
  8
0
 10
315.43255933
 20
349.78897217
  0
VERTEX
  8
0
 10
315.16451148
 20
350.25137168
  0
VERTEX
  8
0
 10
314.93865613
 20
350.71720514
  0
VERTEX
  8
0
 10
314.75293491
 20
351.18616672
  0
VERTEX
  8
0
 10
314.60528945
 20
351.65795059
  0
VERTEX
  8
0
 10
314.49366139
 20
352.13225095
  0
VERTEX
  8
0
 10
314.41599236
 20
352.60876196
  0
VERTEX
  8
0
 10
314.37022400
 20
353.08717780
  0
VERTEX
  8
0
 10
314.35429793
 20
353.56719266
  0
VERTEX
  8
0
 10
314.36615580
 20
354.04850071
  0
VERTEX
  8
0
 10
314.40373923
 20
354.53079613
  0
VERTEX
  8
0
 10
314.46498986
 20
355.01377310
  0
VERTEX
  8
0
 10
314.54784932
 20
355.49712579
  0
VERTEX
  8
0
 10
314.65025925
 20
355.98054840
  0
VERTEX
  8
0
 10
314.77016127
 20
356.46373509
  0
VERTEX
  8
0
 10
315.05420815
 20
357.42817743
  0
VERTEX
  8
0
 10
315.38352302
 20
358.38800626
  0
VERTEX
  8
0
 10
315.74163896
 20
359.34077500
  0
VERTEX
  8
0
 10
316.47840629
 20
361.21534594
  0
VERTEX
  8
0
 10
316.82412382
 20
362.13225499
  0
VERTEX
  8
0
 10
317.13277468
 20
363.03231767
  0
VERTEX
  8
0
 10
317.38789195
 20
363.91308740
  0
VERTEX
  8
0
 10
317.49022956
 20
364.34547286
  0
VERTEX
  8
0
 10
317.57300868
 20
364.77211762
  0
VERTEX
  8
0
 10
316.91643643
 20
364.16894004
  0
VERTEX
  8
0
 10
316.26485493
 20
363.54073461
  0
VERTEX
  8
0
 10
315.61779219
 20
362.88925515
  0
VERTEX
  8
0
 10
314.97477621
 20
362.21625552
  0
VERTEX
  8
0
 10
313.69899658
 20
360.81271111
  0
VERTEX
  8
0
 10
312.43374008
 20
359.34413213
  0
VERTEX
  8
0
 10
311.17523076
 20
357.82454932
  0
VERTEX
  8
0
 10
309.91969268
 20
356.26799344
  0
VERTEX
  8
0
 10
307.40242643
 20
353.10008546
  0
VERTEX
  8
0
 10
306.13314636
 20
351.51679486
  0
VERTEX
  8
0
 10
304.85173374
 20
349.95265420
  0
VERTEX
  8
0
 10
303.55441261
 20
348.42169421
  0
VERTEX
  8
0
 10
302.23740703
 20
346.93794566
  0
VERTEX
  8
0
 10
301.57034259
 20
346.21816028
  0
VERTEX
  8
0
 10
300.89694105
 20
345.51543929
  0
VERTEX
  8
0
 10
300.21673042
 20
344.83153654
  0
VERTEX
  8
0
 10
299.52923871
 20
344.16820586
  0
VERTEX
  8
0
 10
298.83399393
 20
343.52720110
  0
VERTEX
  8
0
 10
298.13052408
 20
342.91027610
  0
VERTEX
  8
0
 10
297.41835716
 20
342.31918472
  0
VERTEX
  8
0
 10
296.69702120
 20
341.75568079
  0
VERTEX
  8
0
 10
295.70172445
 20
341.03499322
  0
VERTEX
  8
0
 10
295.14182451
 20
340.65880374
  0
VERTEX
  8
0
 10
294.54566596
 20
340.28083137
  0
VERTEX
  8
0
 10
293.91718062
 20
339.90766181
  0
VERTEX
  8
0
 10
293.26030030
 20
339.54588074
  0
VERTEX
  8
0
 10
292.57895683
 20
339.20207384
  0
VERTEX
  8
0
 10
291.87708204
 20
338.88282681
  0
VERTEX
  8
0
 10
291.15860774
 20
338.59472533
  0
VERTEX
  8
0
 10
290.42746575
 20
338.34435509
  0
VERTEX
  8
0
 10
289.68758790
 20
338.13830178
  0
VERTEX
  8
0
 10
288.94290601
 20
337.98315107
  0
VERTEX
  8
0
 10
288.56999224
 20
337.92672222
  0
VERTEX
  8
0
 10
288.19735190
 20
337.88548866
  0
VERTEX
  8
0
 10
287.82547645
 20
337.86027360
  0
VERTEX
  8
0
 10
287.45485739
 20
337.85190024
  0
VERTEX
  8
0
 10
287.08598617
 20
337.86119180
  0
VERTEX
  8
0
 10
286.71935430
 20
337.88897149
  0
VERTEX
  8
0
 10
286.35545323
 20
337.93606252
  0
VERTEX
  8
0
 10
285.99477445
 20
338.00328810
  0
VERTEX
  8
0
 10
285.66789027
 20
338.09027014
  0
VERTEX
  8
0
 10
285.34546304
 20
338.20540557
  0
VERTEX
  8
0
 10
285.02786137
 20
338.34769402
  0
VERTEX
  8
0
 10
284.71545387
 20
338.51613513
  0
VERTEX
  8
0
 10
284.40860915
 20
338.70972853
  0
VERTEX
  8
0
 10
284.10769582
 20
338.92747385
  0
VERTEX
  8
0
 10
283.81308248
 20
339.16837072
  0
VERTEX
  8
0
 10
283.52513774
 20
339.43141878
  0
VERTEX
  8
0
 10
283.24423021
 20
339.71561766
  0
VERTEX
  8
0
 10
282.97072851
 20
340.01996699
  0
VERTEX
  8
0
 10
282.70500123
 20
340.34346640
  0
VERTEX
  8
0
 10
282.44741699
 20
340.68511552
  0
VERTEX
  8
0
 10
282.19834439
 20
341.04391400
  0
VERTEX
  8
0
 10
281.95815204
 20
341.41886145
  0
VERTEX
  8
0
 10
281.72720856
 20
341.80895752
  0
VERTEX
  8
0
 10
281.50588254
 20
342.21320183
  0
VERTEX
  8
0
 10
281.09355735
 20
343.06013372
  0
VERTEX
  8
0
 10
280.72412533
 20
343.95165418
  0
VERTEX
  8
0
 10
280.40053535
 20
344.87976027
  0
VERTEX
  8
0
 10
280.12573628
 20
345.83644904
  0
VERTEX
  8
0
 10
279.90267699
 20
346.81371756
  0
VERTEX
  8
0
 10
279.73430633
 20
347.80356288
  0
VERTEX
  8
0
 10
279.62357318
 20
348.79798206
  0
VERTEX
  8
0
 10
279.59074219
 20
349.29440594
  0
VERTEX
  8
0
 10
279.57342640
 20
349.78897217
  0
VERTEX
  8
0
 10
279.57142298
 20
350.64173476
  0
VERTEX
  8
0
 10
279.59495112
 20
351.49085453
  0
VERTEX
  8
0
 10
279.64339498
 20
352.33627668
  0
VERTEX
  8
0
 10
279.71613873
 20
353.17794640
  0
VERTEX
  8
0
 10
279.81256654
 20
354.01580888
  0
VERTEX
  8
0
 10
279.93206259
 20
354.84980931
  0
VERTEX
  8
0
 10
280.07401103
 20
355.67989290
  0
VERTEX
  8
0
 10
280.23779604
 20
356.50600482
  0
VERTEX
  8
0
 10
280.42280178
 20
357.32809029
  0
VERTEX
  8
0
 10
280.62841243
 20
358.14609449
  0
VERTEX
  8
0
 10
280.85401214
 20
358.95996261
  0
VERTEX
  8
0
 10
281.09898510
 20
359.76963985
  0
VERTEX
  8
0
 10
281.36271547
 20
360.57507141
  0
VERTEX
  8
0
 10
281.64458741
 20
361.37620247
  0
VERTEX
  8
0
 10
281.94398510
 20
362.17297823
  0
VERTEX
  8
0
 10
282.26029271
 20
362.96534388
  0
VERTEX
  8
0
 10
282.59289439
 20
363.75324462
  0
VERTEX
  8
0
 10
282.94117433
 20
364.53662565
  0
VERTEX
  8
0
 10
283.30451669
 20
365.31543215
  0
VERTEX
  8
0
 10
283.68230563
 20
366.08960932
  0
VERTEX
  8
0
 10
284.47875996
 20
367.62385643
  0
VERTEX
  8
0
 10
285.32561067
 20
369.13892855
  0
VERTEX
  8
0
 10
286.21793109
 20
370.63438723
  0
VERTEX
  8
0
 10
287.15079458
 20
372.10979400
  0
VERTEX
  8
0
 10
288.11927449
 20
373.56471042
  0
VERTEX
  8
0
 10
289.11844416
 20
374.99869805
  0
VERTEX
  8
0
 10
290.14337695
 20
376.41131843
  0
VERTEX
  8
0
 10
291.18914619
 20
377.80213311
  0
VERTEX
  8
0
 10
292.25082524
 20
379.17070365
  0
VERTEX
  8
0
 10
293.32348745
 20
380.51659158
  0
VERTEX
  8
0
 10
294.40220616
 20
381.83935847
  0
VERTEX
  8
0
 10
295.48205472
 20
383.13856587
  0
VERTEX
  8
0
 10
297.62543478
 20
385.66454836
  0
VERTEX
  8
0
 10
301.70898041
 20
390.41450760
  0
VERTEX
  8
0
 10
303.57031954
 20
392.63146914
  0
VERTEX
  8
0
 10
304.43863741
 20
393.69891082
  0
VERTEX
  8
0
 10
305.25881859
 20
394.73840851
  0
VERTEX
  8
0
 10
306.92991497
 20
394.80637110
  0
VERTEX
  8
0
 10
308.56174499
 20
394.91379835
  0
VERTEX
  8
0
 10
311.78819988
 20
395.16703217
  0
VERTEX
  8
0
 10
313.42312166
 20
395.27283141
  0
VERTEX
  8
0
 10
315.09937097
 20
395.33808066
  0
VERTEX
  8
0
 10
315.95928984
 20
395.34924789
  0
VERTEX
  8
0
 10
316.83709626
 20
395.34277625
  0
VERTEX
  8
0
 10
317.73530880
 20
395.31616528
  0
VERTEX
  8
0
 10
318.65644600
 20
395.26691452
  0
VERTEX
  8
0
 10
317.34639871
 20
393.27209437
  0
VERTEX
  8
0
 10
315.98182908
 20
391.27494346
  0
VERTEX
  8
0
 10
314.56787116
 20
389.27562262
  0
VERTEX
  8
0
 10
313.10965897
 20
387.27429270
  0
VERTEX
  8
0
 10
311.61232653
 20
385.27111456
  0
VERTEX
  8
0
 10
310.08100789
 20
383.26624904
  0
VERTEX
  8
0
 10
308.52083705
 20
381.25985698
  0
VERTEX
  8
0
 10
306.93694806
 20
379.25209924
  0
VERTEX
  8
0
 10
303.71855172
 20
375.23313009
  0
VERTEX
  8
0
 10
300.46689108
 20
371.21062836
  0
VERTEX
  8
0
 10
297.22303838
 20
367.18588083
  0
VERTEX
  8
0
 10
294.02806583
 20
363.16017428
  0
VERTEX
  8
0
 10
293.14310482
 20
362.06462108
  0
VERTEX
  8
0
 10
292.23358197
 20
360.98310867
  0
VERTEX
  8
0
 10
291.31669090
 20
359.90665127
  0
VERTEX
  8
0
 10
290.40962527
 20
358.82626312
  0
VERTEX
  8
0
 10
289.52957870
 20
357.73295845
  0
VERTEX
  8
0
 10
289.10506059
 20
357.17865437
  0
VERTEX
  8
0
 10
288.69374485
 20
356.61775149
  0
VERTEX
  8
0
 10
288.29778070
 20
356.04912660
  0
VERTEX
  8
0
 10
287.91931734
 20
355.47165647
  0
VERTEX
  8
0
 10
287.56050398
 20
354.88421788
  0
VERTEX
  8
0
 10
287.22348982
 20
354.28568762
  0
VERTEX
  8
0
 10
286.91042406
 20
353.67494246
  0
VERTEX
  8
0
 10
286.62345592
 20
353.05085918
  0
VERTEX
  8
0
 10
286.36473459
 20
352.41231455
  0
VERTEX
  8
0
 10
286.13640929
 20
351.75818537
  0
VERTEX
  8
0
 10
285.94062920
 20
351.08734840
  0
VERTEX
  8
0
 10
285.77954355
 20
350.39868042
  0
VERTEX
  8
0
 10
285.65530154
 20
349.69105822
  0
VERTEX
  8
0
 10
285.57005236
 20
348.96335858
  0
VERTEX
  8
0
 10
285.52594523
 20
348.21445826
  0
VERTEX
  8
0
 10
285.52512935
 20
347.44323406
  0
VERTEX
  8
0
 10
285.56975392
 20
346.64856275
  0
VERTEX
  8
0
 10
285.66196815
 20
345.82932110
  0
VERTEX
  8
0
 10
285.80392124
 20
344.98438591
  0
VERTEX
  8
0
 10
285.99776241
 20
344.11263394
  0
VERTEX
  8
0
 10
286.24564085
 20
343.21294198
  0
VERTEX
  8
0
 10
286.54970576
 20
342.28418680
  0
VERTEX
  8
0
 10
287.36697693
 20
342.38987216
  0
VERTEX
  8
0
 10
288.17360046
 20
342.53712156
  0
VERTEX
  8
0
 10
288.96957194
 20
342.72411753
  0
VERTEX
  8
0
 10
289.75488696
 20
342.94904263
  0
VERTEX
  8
0
 10
290.52954110
 20
343.21007942
  0
VERTEX
  8
0
 10
291.29352996
 20
343.50541044
  0
VERTEX
  8
0
 10
292.04684911
 20
343.83321825
  0
VERTEX
  8
0
 10
292.78949416
 20
344.19168540
  0
VERTEX
  8
0
 10
293.52146068
 20
344.57899443
  0
VERTEX
  8
0
 10
294.24274425
 20
344.99332791
  0
VERTEX
  8
0
 10
294.95334048
 20
345.43286837
  0
VERTEX
  8
0
 10
295.65324494
 20
345.89579839
  0
VERTEX
  8
0
 10
296.34245323
 20
346.38030049
  0
VERTEX
  8
0
 10
297.02096093
 20
346.88455725
  0
VERTEX
  8
0
 10
297.68876362
 20
347.40675120
  0
VERTEX
  8
0
 10
298.34585690
 20
347.94506490
  0
VERTEX
  8
0
 10
298.99223634
 20
348.49768091
  0
VERTEX
  8
0
 10
299.62789755
 20
349.06278176
  0
VERTEX
  8
0
 10
300.86704759
 20
350.22316825
  0
VERTEX
  8
0
 10
302.06327171
 20
351.41168476
  0
VERTEX
  8
0
 10
303.21653461
 20
352.61379172
  0
VERTEX
  8
0
 10
304.32680099
 20
353.81494953
  0
VERTEX
  8
0
 10
305.39403554
 20
355.00061862
  0
VERTEX
  8
0
 10
307.39926794
 20
357.26733224
  0
VERTEX
  8
0
 10
308.41319171
 20
358.44609277
  0
VERTEX
  8
0
 10
309.41309960
 20
359.66713039
  0
VERTEX
  8
0
 10
310.40460492
 20
360.92258614
  0
VERTEX
  8
0
 10
311.39332099
 20
362.20460106
  0
VERTEX
  8
0
 10
313.38483871
 20
364.81687250
  0
VERTEX
  8
0
 10
314.39886700
 20
366.13141109
  0
VERTEX
  8
0
 10
315.43255933
 20
367.44107298
  0
VERTEX
  8
0
 10
316.62677774
 20
368.94040893
  0
VERTEX
  8
0
 10
317.81856379
 20
370.46361901
  0
VERTEX
  8
0
 10
319.00107379
 20
372.01531662
  0
VERTEX
  8
0
 10
320.16746406
 20
373.60011519
  0
VERTEX
  8
0
 10
321.31089090
 20
375.22262815
  0
VERTEX
  8
0
 10
322.42451062
 20
376.88746890
  0
VERTEX
  8
0
 10
322.96800416
 20
377.73720390
  0
VERTEX
  8
0
 10
323.50147954
 20
378.59925087
  0
VERTEX
  8
0
 10
324.02408129
 20
379.47418651
  0
VERTEX
  8
0
 10
324.53495396
 20
380.36258749
  0
VERTEX
  8
0
 10
325.03324209
 20
381.26503048
  0
VERTEX
  8
0
 10
325.51809020
 20
382.18209216
  0
VERTEX
  8
0
 10
325.98864285
 20
383.11434922
  0
VERTEX
  8
0
 10
326.44404457
 20
384.06237832
  0
VERTEX
  8
0
 10
326.88343989
 20
385.02675614
  0
VERTEX
  8
0
 10
327.30597337
 20
386.00805937
  0
VERTEX
  8
0
 10
327.71078953
 20
387.00686468
  0
VERTEX
  8
0
 10
328.09703292
 20
388.02374875
  0
VERTEX
  8
0
 10
328.46384807
 20
389.05928825
  0
VERTEX
  8
0
 10
328.81037952
 20
390.11405986
  0
VERTEX
  8
0
 10
329.13577181
 20
391.18864027
  0
VERTEX
  8
0
 10
329.43916949
 20
392.28360614
  0
VERTEX
  8
0
 10
329.71971708
 20
393.39953416
  0
VERTEX
  8
0
 10
329.97655914
 20
394.53700100
  0
VERTEX
  8
0
 10
330.20884019
 20
395.69658334
  0
VERTEX
  8
0
 10
330.41570477
 20
396.87885786
  0
VERTEX
  8
0
 10
331.44368227
 20
397.00768947
  0
VERTEX
  8
0
 10
332.71013224
 20
397.13050120
  0
VERTEX
  8
0
 10
334.16886077
 20
397.24133608
  0
VERTEX
  8
0
 10
335.77367395
 20
397.33423713
  0
VERTEX
  8
0
 10
337.47837786
 20
397.40324740
  0
VERTEX
  8
0
 10
339.23677859
 20
397.44240993
  0
VERTEX
  8
0
 10
341.00268223
 20
397.44576774
  0
VERTEX
  8
0
 10
342.72989486
 20
397.40736387
  0
VERTEX
  8
0
 10
342.82255671
 20
397.05359072
  0
VERTEX
  8
0
 10
342.89386608
 20
396.70789653
  0
VERTEX
  8
0
 10
342.94471042
 20
396.37002964
  0
VERTEX
  8
0
 10
342.97597717
 20
396.03973839
  0
VERTEX
  8
0
 10
342.98855380
 20
395.71677112
  0
VERTEX
  8
0
 10
342.98332775
 20
395.40087618
  0
VERTEX
  8
0
 10
342.96118648
 20
395.09180191
  0
VERTEX
  8
0
 10
342.92301744
 20
394.78929666
  0
VERTEX
  8
0
 10
342.86970808
 20
394.49310876
  0
VERTEX
  8
0
 10
342.80214586
 20
394.20298656
  0
VERTEX
  8
0
 10
342.62781266
 20
393.63993263
  0
VERTEX
  8
0
 10
342.40711744
 20
393.09812162
  0
VERTEX
  8
0
 10
342.14715983
 20
392.57554026
  0
VERTEX
  8
0
 10
341.85503947
 20
392.07017531
  0
VERTEX
  8
0
 10
341.53785597
 20
391.58001351
  0
VERTEX
  8
0
 10
341.20270897
 20
391.10304160
  0
VERTEX
  8
0
 10
340.85669807
 20
390.63724632
  0
VERTEX
  8
0
 10
340.16048314
 20
389.73113266
  0
VERTEX
  8
0
 10
339.50600818
 20
388.84556647
  0
VERTEX
  8
0
 10
338.65845289
 20
387.59865631
  0
VERTEX
  8
0
 10
337.83356554
 20
386.33371769
  0
VERTEX
  8
0
 10
337.02970589
 20
385.05013003
  0
VERTEX
  8
0
 10
336.24523373
 20
383.74727274
  0
VERTEX
  8
0
 10
335.47850882
 20
382.42452523
  0
VERTEX
  8
0
 10
334.72789095
 20
381.08126692
  0
VERTEX
  8
0
 10
333.99173988
 20
379.71687722
  0
VERTEX
  8
0
 10
333.26841540
 20
378.33073555
  0
VERTEX
  8
0
 10
332.55627727
 20
376.92222133
  0
VERTEX
  8
0
 10
331.85368527
 20
375.49071396
  0
VERTEX
  8
0
 10
331.15899918
 20
374.03559286
  0
VERTEX
  8
0
 10
330.47057877
 20
372.55623745
  0
VERTEX
  8
0
 10
329.10597408
 20
369.52234134
  0
VERTEX
  8
0
 10
327.74674941
 20
366.38406095
  0
VERTEX
  8
0
 10
328.28695935
 20
366.69426722
  0
VERTEX
  8
0
 10
328.81830526
 20
367.02114436
  0
VERTEX
  8
0
 10
329.34110258
 20
367.36404474
  0
VERTEX
  8
0
 10
329.85566671
 20
367.72232073
  0
VERTEX
  8
0
 10
330.36231308
 20
368.09532473
  0
VERTEX
  8
0
 10
330.86135711
 20
368.48240911
  0
VERTEX
  8
0
 10
331.83789979
 20
369.29622851
  0
VERTEX
  8
0
 10
332.78781812
 20
370.15859795
  0
VERTEX
  8
0
 10
333.71363542
 20
371.06433647
  0
VERTEX
  8
0
 10
334.61787506
 20
372.00826309
  0
VERTEX
  8
0
 10
335.50306037
 20
372.98519684
  0
VERTEX
  8
0
 10
336.37171471
 20
373.98995673
  0
VERTEX
  8
0
 10
337.22636142
 20
375.01736181
  0
VERTEX
  8
0
 10
338.06952384
 20
376.06223108
  0
VERTEX
  8
0
 10
338.90372533
 20
377.11938359
  0
VERTEX
  8
0
 10
340.55533888
 20
379.24981438
  0
VERTEX
  8
0
 10
342.20138884
 20
381.36720640
  0
VERTEX
  8
0
 10
343.02188276
 20
382.39162171
  0
VERTEX
  8
0
 10
343.85920337
 20
383.40071082
  0
VERTEX
  8
0
 10
344.71182843
 20
384.39877154
  0
VERTEX
  8
0
 10
345.57823573
 20
385.39010167
  0
VERTEX
  8
0
 10
347.34630817
 20
387.36976141
  0
VERTEX
  8
0
 10
349.15124290
 20
389.37407248
  0
VERTEX
  8
0
 10
349.90156086
 20
390.23350256
  0
VERTEX
  8
0
 10
350.60745418
 20
391.06961351
  0
VERTEX
  8
0
 10
351.92228924
 20
392.67782876
  0
VERTEX
  8
0
 10
353.16839277
 20
394.21061962
  0
VERTEX
  8
0
 10
353.78837168
 20
394.95245008
  0
VERTEX
  8
0
 10
354.41840946
 20
395.67988747
  0
VERTEX
  8
0
 10
355.06758671
 20
396.39441945
  0
VERTEX
  8
0
 10
355.74498401
 20
397.09753370
  0
VERTEX
  8
0
 10
356.45968195
 20
397.79071789
  0
VERTEX
  8
0
 10
357.22076111
 20
398.47545970
  0
VERTEX
  8
0
 10
358.03730207
 20
399.15324679
  0
VERTEX
  8
0
 10
358.91838543
 20
399.82556685
  0
VERTEX
  8
0
 10
359.87309177
 20
400.49390755
  0
VERTEX
  8
0
 10
360.91050168
 20
401.15975655
  0
VERTEX
  8
0
 10
361.51663316
 20
401.50970895
  0
VERTEX
  8
0
 10
362.11887930
 20
401.81685771
  0
VERTEX
  8
0
 10
362.71576924
 20
402.08139272
  0
VERTEX
  8
0
 10
363.30583216
 20
402.30350386
  0
VERTEX
  8
0
 10
363.88759722
 20
402.48338101
  0
VERTEX
  8
0
 10
364.45959360
 20
402.62121406
  0
VERTEX
  8
0
 10
365.02035046
 20
402.71719290
  0
VERTEX
  8
0
 10
365.56839697
 20
402.77150740
  0
VERTEX
  8
0
 10
366.10226229
 20
402.78434745
  0
VERTEX
  8
0
 10
366.62047559
 20
402.75590294
  0
VERTEX
  8
0
 10
367.12156604
 20
402.68636374
  0
VERTEX
  8
0
 10
367.60406281
 20
402.57591974
  0
VERTEX
  8
0
 10
368.06649506
 20
402.42476083
  0
VERTEX
  8
0
 10
368.50739197
 20
402.23307689
  0
VERTEX
  8
0
 10
368.92528269
 20
402.00105780
  0
VERTEX
  8
0
 10
369.31869640
 20
401.72889345
  0
VERTEX
  8
0
 10
369.68616226
 20
401.41677372
  0
VERTEX
  8
0
 10
370.02620944
 20
401.06488849
  0
VERTEX
  8
0
 10
370.33736712
 20
400.67342765
  0
VERTEX
  8
0
 10
370.61816444
 20
400.24258108
  0
VERTEX
  8
0
 10
370.86713059
 20
399.77253867
  0
VERTEX
  8
0
 10
371.08279473
 20
399.26349029
  0
VERTEX
  8
0
 10
371.26368603
 20
398.71562584
  0
VERTEX
  8
0
 10
371.40833365
 20
398.12913520
  0
VERTEX
  8
0
 10
371.51526677
 20
397.50420824
  0
VERTEX
  8
0
 10
371.58301454
 20
396.84103487
  0
VERTEX
  8
0
 10
371.61010614
 20
396.13980494
  0
VERTEX
  8
0
 10
371.59507074
 20
395.40070837
  0
VERTEX
  8
0
 10
371.53643750
 20
394.62393501
  0
VERTEX
  8
0
 10
371.43273558
 20
393.80967477
  0
VERTEX
  8
0
 10
371.28249416
 20
392.95811752
  0
VERTEX
  8
0
 10
371.08424241
 20
392.06945315
  0
VERTEX
  8
0
 10
371.01180117
 20
391.81048399
  0
VERTEX
  8
0
 10
370.92077818
 20
391.54863410
  0
VERTEX
  8
0
 10
370.68668441
 20
391.01634910
  0
VERTEX
  8
0
 10
370.38935595
 20
390.47271204
  0
VERTEX
  8
0
 10
370.03618765
 20
389.91783684
  0
VERTEX
  8
0
 10
369.63457439
 20
389.35183738
  0
VERTEX
  8
0
 10
369.19191100
 20
388.77482757
  0
VERTEX
  8
0
 10
368.71559234
 20
388.18692131
  0
VERTEX
  8
0
 10
368.21301326
 20
387.58823250
  0
VERTEX
  8
0
 10
367.15865330
 20
386.35896284
  0
VERTEX
  8
0
 10
366.08798993
 20
385.08792981
  0
VERTEX
  8
0
 10
365.56503161
 20
384.43703677
  0
VERTEX
  8
0
 10
365.06018200
 20
383.77604460
  0
VERTEX
  8
0
 10
364.58083597
 20
383.10506718
  0
VERTEX
  8
0
 10
364.13438835
 20
382.42421842
  0
VERTEX
  8
0
 10
363.35051021
 20
381.14462896
  0
VERTEX
  8
0
 10
362.57132864
 20
379.81845880
  0
VERTEX
  8
0
 10
361.80124863
 20
378.46068524
  0
VERTEX
  8
0
 10
361.04467515
 20
377.08628557
  0
VERTEX
  8
0
 10
359.58966775
 20
374.34751708
  0
VERTEX
  8
0
 10
358.24154631
 20
371.72197168
  0
VERTEX
  8
0
 10
357.31385831
 20
369.87686075
  0
VERTEX
  8
0
 10
356.42218689
 20
368.06763178
  0
VERTEX
  8
0
 10
355.56526465
 20
366.28868046
  0
VERTEX
  8
0
 10
354.74182422
 20
364.53440251
  0
VERTEX
  8
0
 10
353.95059822
 20
362.79919361
  0
VERTEX
  8
0
 10
353.19031926
 20
361.07744948
  0
VERTEX
  8
0
 10
352.45971998
 20
359.36356580
  0
VERTEX
  8
0
 10
351.75753298
 20
357.65193829
  0
VERTEX
  8
0
 10
351.08249088
 20
355.93696264
  0
VERTEX
  8
0
 10
350.43332631
 20
354.21303455
  0
VERTEX
  8
0
 10
349.80877188
 20
352.47454973
  0
VERTEX
  8
0
 10
349.20756022
 20
350.71590388
  0
VERTEX
  8
0
 10
348.62842393
 20
348.93149269
  0
VERTEX
  8
0
 10
348.07009565
 20
347.11571186
  0
VERTEX
  8
0
 10
347.53130798
 20
345.26295711
  0
VERTEX
  8
0
 10
347.01079356
 20
343.36762412
  0
VERTEX
  8
0
 10
347.58969861
 20
343.68214504
  0
VERTEX
  8
0
 10
348.15859634
 20
344.01136472
  0
VERTEX
  8
0
 10
348.71777341
 20
344.35469835
  0
VERTEX
  8
0
 10
349.26751647
 20
344.71156113
  0
VERTEX
  8
0
 10
349.80811218
 20
345.08136827
  0
VERTEX
  8
0
 10
350.33984719
 20
345.46353496
  0
VERTEX
  8
0
 10
351.37788176
 20
346.26260780
  0
VERTEX
  8
0
 10
352.38391342
 20
347.10410123
  0
VERTEX
  8
0
 10
353.36023542
 20
347.98333685
  0
VERTEX
  8
0
 10
354.30914101
 20
348.89563625
  0
VERTEX
  8
0
 10
355.23292344
 20
349.83632102
  0
VERTEX
  8
0
 10
356.13387596
 20
350.80071276
  0
VERTEX
  8
0
 10
357.01429182
 20
351.78413305
  0
VERTEX
  8
0
 10
357.87646426
 20
352.78190349
  0
VERTEX
  8
0
 10
358.72268654
 20
353.78934566
  0
VERTEX
  8
0
 10
360.37645361
 20
355.81453158
  0
VERTEX
  8
0
 10
361.99393900
 20
357.82226356
  0
VERTEX
  8
0
 10
363.20185354
 20
359.33224562
  0
VERTEX
  8
0
 10
364.39721806
 20
360.85997134
  0
VERTEX
  8
0
 10
365.58072422
 20
362.40449464
  0
VERTEX
  8
0
 10
366.75306370
 20
363.96486946
  0
VERTEX
  8
0
 10
367.91492816
 20
365.54014973
  0
VERTEX
  8
0
 10
369.06700928
 20
367.12938939
  0
VERTEX
  8
0
 10
371.34458815
 20
370.34596263
  0
VERTEX
  8
0
 10
373.59133366
 20
373.60702066
  0
VERTEX
  8
0
 10
375.81277917
 20
376.90499496
  0
VERTEX
  8
0
 10
378.01445804
 20
380.23231703
  0
VERTEX
  8
0
 10
380.20190360
 20
383.58141834
  0
VERTEX
  8
0
 10
384.55622827
 20
390.31468465
  0
VERTEX
  8
0
 10
388.92001999
 20
397.04424576
  0
VERTEX
  8
0
 10
391.11929938
 20
400.38871559
  0
VERTEX
  8
0
 10
393.33754560
 20
403.70955357
  0
VERTEX
  8
0
 10
395.58029200
 20
406.99919120
  0
VERTEX
  8
0
 10
397.85307193
 20
410.25005996
  0
VERTEX
  8
0
 10
395.36673819
 20
410.63779192
  0
VERTEX
  8
0
 10
392.78925206
 20
411.06794913
  0
VERTEX
  8
0
 10
387.39807446
 20
412.00921547
  0
VERTEX
  8
0
 10
384.60300892
 20
412.49716269
  0
VERTEX
  8
0
 10
381.75404284
 20
412.98121132
  0
VERTEX
  8
0
 10
378.86048918
 20
413.44978042
  0
VERTEX
  8
0
 10
375.93166091
 20
413.89128901
  0
VERTEX
  8
0
 10
372.97687099
 20
414.29415614
  0
VERTEX
  8
0
 10
370.00543238
 20
414.64680086
  0
VERTEX
  8
0
 10
368.51638012
 20
414.80067076
  0
VERTEX
  8
0
 10
367.02665805
 20
414.93764220
  0
VERTEX
  8
0
 10
365.53743029
 20
415.05626755
  0
VERTEX
  8
0
 10
364.04986096
 20
415.15509920
  0
VERTEX
  8
0
 10
362.56511418
 20
415.23268953
  0
VERTEX
  8
0
 10
361.08435407
 20
415.28759091
  0
VERTEX
  8
0
 10
359.60874476
 20
415.31835573
  0
VERTEX
  8
0
 10
358.13945035
 20
415.32353636
  0
VERTEX
  8
0
 10
356.67763498
 20
415.30168520
  0
VERTEX
  8
0
 10
355.22446277
 20
415.25135460
  0
VERTEX
  8
0
 10
353.78109783
 20
415.17109697
  0
VERTEX
  8
0
 10
352.34870428
 20
415.05946467
  0
VERTEX
  8
0
 10
351.28679565
 20
414.95554727
  0
VERTEX
  8
0
 10
350.22541037
 20
414.82952938
  0
VERTEX
  8
0
 10
349.16802094
 20
414.67958390
  0
VERTEX
  8
0
 10
348.11809982
 20
414.50388375
  0
VERTEX
  8
0
 10
347.07911951
 20
414.30060183
  0
VERTEX
  8
0
 10
346.05455248
 20
414.06791104
  0
VERTEX
  8
0
 10
345.04787122
 20
413.80398427
  0
VERTEX
  8
0
 10
344.06254820
 20
413.50699445
  0
VERTEX
  8
0
 10
343.10205592
 20
413.17511446
  0
VERTEX
  8
0
 10
342.16986684
 20
412.80651722
  0
VERTEX
  8
0
 10
341.26945346
 20
412.39937562
  0
VERTEX
  8
0
 10
340.40428826
 20
411.95186258
  0
VERTEX
  8
0
 10
339.57784371
 20
411.46215098
  0
VERTEX
  8
0
 10
339.18022683
 20
411.20089976
  0
VERTEX
  8
0
 10
338.79359230
 20
410.92841375
  0
VERTEX
  8
0
 10
338.41837418
 20
410.64446454
  0
VERTEX
  8
0
 10
338.05500652
 20
410.34882377
  0
VERTEX
  8
0
 10
337.70392338
 20
410.04126303
  0
VERTEX
  8
0
 10
337.36555883
 20
409.72155395
  0
VERTEX
  8
0
 10
337.27564079
 20
409.09419711
  0
VERTEX
  8
0
 10
337.24635088
 20
408.52777129
  0
VERTEX
  8
0
 10
337.27014491
 20
408.01473385
  0
VERTEX
  8
0
 10
337.33947871
 20
407.54754220
  0
VERTEX
  8
0
 10
337.44680809
 20
407.11865370
  0
VERTEX
  8
0
 10
337.58458886
 20
406.72052575
  0
VERTEX
  8
0
 10
337.74527683
 20
406.34561571
  0
VERTEX
  8
0
 10
337.92132783
 20
405.98638098
  0
VERTEX
  8
0
 10
338.28934213
 20
405.28476696
  0
VERTEX
  8
0
 10
338.46621707
 20
404.92730243
  0
VERTEX
  8
0
 10
338.62827828
 20
404.55534273
  0
VERTEX
  8
0
 10
338.76798158
 20
404.16134525
  0
VERTEX
  8
0
 10
338.87778279
 20
403.73776736
  0
VERTEX
  8
0
 10
338.95013771
 20
403.27706645
  0
VERTEX
  8
0
 10
338.97750217
 20
402.77169989
  0
VERTEX
  8
0
 10
338.61565474
 20
402.75627081
  0
VERTEX
  8
0
 10
338.26572773
 20
402.76102267
  0
VERTEX
  8
0
 10
337.92767552
 20
402.78511311
  0
VERTEX
  8
0
 10
337.60145249
 20
402.82769977
  0
VERTEX
  8
0
 10
337.28701304
 20
402.88794030
  0
VERTEX
  8
0
 10
336.98431154
 20
402.96499233
  0
VERTEX
  8
0
 10
336.69330238
 20
403.05801351
  0
VERTEX
  8
0
 10
336.41393995
 20
403.16616146
  0
VERTEX
  8
0
 10
336.14617863
 20
403.28859384
  0
VERTEX
  8
0
 10
335.88997281
 20
403.42446828
  0
VERTEX
  8
0
 10
335.64527686
 20
403.57294242
  0
VERTEX
  8
0
 10
335.41204518
 20
403.73317390
  0
VERTEX
  8
0
 10
335.19023216
 20
403.90432036
  0
VERTEX
  8
0
 10
334.97979216
 20
404.08553945
  0
VERTEX
  8
0
 10
334.59284882
 20
404.47482604
  0
VERTEX
  8
0
 10
334.25085024
 20
404.89429480
  0
VERTEX
  8
0
 10
333.95343150
 20
405.33720683
  0
VERTEX
  8
0
 10
333.70022768
 20
405.79682327
  0
VERTEX
  8
0
 10
333.49087386
 20
406.26640523
  0
VERTEX
  8
0
 10
333.32500512
 20
406.73921382
  0
VERTEX
  8
0
 10
333.20225653
 20
407.20851017
  0
VERTEX
  8
0
 10
333.12226317
 20
407.66755540
  0
VERTEX
  8
0
 10
333.08466013
 20
408.10961061
  0
VERTEX
  8
0
 10
333.09121434
 20
408.65256743
  0
VERTEX
  8
0
 10
333.14692912
 20
409.18624379
  0
VERTEX
  8
0
 10
333.24954726
 20
409.71032905
  0
VERTEX
  8
0
 10
333.39681155
 20
410.22451259
  0
VERTEX
  8
0
 10
333.58646479
 20
410.72848375
  0
VERTEX
  8
0
 10
333.81624977
 20
411.22193191
  0
VERTEX
  8
0
 10
334.08390928
 20
411.70454643
  0
VERTEX
  8
0
 10
334.38718612
 20
412.17601668
  0
VERTEX
  8
0
 10
334.72382307
 20
412.63603200
  0
VERTEX
  8
0
 10
335.09156293
 20
413.08428178
  0
VERTEX
  8
0
 10
335.48814849
 20
413.52045536
  0
VERTEX
  8
0
 10
335.91132254
 20
413.94424213
  0
VERTEX
  8
0
 10
336.35882788
 20
414.35533143
  0
VERTEX
  8
0
 10
336.82840730
 20
414.75341263
  0
VERTEX
  8
0
 10
337.31780359
 20
415.13817509
  0
VERTEX
  8
0
 10
337.82475954
 20
415.50930818
  0
VERTEX
  8
0
 10
338.34701795
 20
415.86650127
  0
VERTEX
  8
0
 10
338.88232160
 20
416.20944370
  0
VERTEX
  8
0
 10
339.42841330
 20
416.53782486
  0
VERTEX
  8
0
 10
339.98303583
 20
416.85133409
  0
VERTEX
  8
0
 10
340.54393198
 20
417.14966077
  0
VERTEX
  8
0
 10
341.10884455
 20
417.43249425
  0
VERTEX
  8
0
 10
342.24169011
 20
417.95043909
  0
VERTEX
  8
0
 10
343.36351485
 20
418.40268352
  0
VERTEX
  8
0
 10
344.45626111
 20
418.78674244
  0
VERTEX
  8
0
 10
345.50187123
 20
419.10013076
  0
VERTEX
  8
0
 10
346.48228754
 20
419.34036337
  0
VERTEX
  8
0
 10
347.34418890
 20
419.51760192
  0
VERTEX
  8
0
 10
348.21311242
 20
419.67584604
  0
VERTEX
  8
0
 10
349.08866539
 20
419.81558843
  0
VERTEX
  8
0
 10
349.97045509
 20
419.93732180
  0
VERTEX
  8
0
 10
350.85808882
 20
420.04153887
  0
VERTEX
  8
0
 10
351.75117385
 20
420.12873233
  0
VERTEX
  8
0
 10
352.64931747
 20
420.19939489
  0
VERTEX
  8
0
 10
353.55212696
 20
420.25401927
  0
VERTEX
  8
0
 10
354.45920962
 20
420.29309817
  0
VERTEX
  8
0
 10
355.37017272
 20
420.31712430
  0
VERTEX
  8
0
 10
357.20216940
 20
420.32198906
  0
VERTEX
  8
0
 10
359.04497529
 20
420.27255522
  0
VERTEX
  8
0
 10
360.89544867
 20
420.17276443
  0
VERTEX
  8
0
 10
362.75044782
 20
420.02655836
  0
VERTEX
  8
0
 10
364.60683102
 20
419.83787866
  0
VERTEX
  8
0
 10
366.46145656
 20
419.61066699
  0
VERTEX
  8
0
 10
368.31118272
 20
419.34886502
  0
VERTEX
  8
0
 10
370.15286778
 20
419.05641439
  0
VERTEX
  8
0
 10
371.98337001
 20
418.73725677
  0
VERTEX
  8
0
 10
373.79954772
 20
418.39533383
  0
VERTEX
  8
0
 10
375.59825917
 20
418.03458720
  0
VERTEX
  8
0
 10
377.37636264
 20
417.65895857
  0
VERTEX
  8
0
 10
379.13071643
 20
417.27238957
  0
VERTEX
  8
0
 10
382.55560806
 20
416.48219716
  0
VERTEX
  8
0
 10
388.98215946
 20
414.94396105
  0
VERTEX
  8
0
 10
391.93355173
 20
414.25898390
  0
VERTEX
  8
0
 10
393.33278100
 20
413.95132636
  0
VERTEX
  8
0
 10
394.67684341
 20
413.67214505
  0
VERTEX
  8
0
 10
395.96259722
 20
413.42538163
  0
VERTEX
  8
0
 10
397.18690073
 20
413.21497777
  0
VERTEX
  8
0
 10
398.34661222
 20
413.04487511
  0
VERTEX
  8
0
 10
399.43858996
 20
412.91901533
  0
VERTEX
  8
0
 10
400.73973743
 20
414.26957606
  0
VERTEX
  8
0
 10
401.99422666
 20
415.60985348
  0
VERTEX
  8
0
 10
404.47748024
 20
418.31246014
  0
VERTEX
  8
0
 10
405.76336951
 20
419.70124028
  0
VERTEX
  8
0
 10
407.11685038
 20
421.13263891
  0
VERTEX
  8
0
 10
408.56648529
 20
422.61988146
  0
VERTEX
  8
0
 10
410.14083671
 20
424.17619339
  0
VERTEX
  8
0
 10
411.36266113
 20
425.37514771
  0
VERTEX
  8
0
 10
412.75270566
 20
426.73286711
  0
VERTEX
  8
0
 10
413.50474389
 20
427.43761309
  0
VERTEX
  8
0
 10
414.29155726
 20
428.14166961
  0
VERTEX
  8
0
 10
415.11071912
 20
428.83157640
  0
VERTEX
  8
0
 10
415.95980285
 20
429.49387323
  0
VERTEX
  8
0
 10
416.83638182
 20
430.11509984
  0
VERTEX
  8
0
 10
417.28422370
 20
430.40610550
  0
VERTEX
  8
0
 10
417.73802940
 20
430.68179600
  0
VERTEX
  8
0
 10
418.19749559
 20
430.94048883
  0
VERTEX
  8
0
 10
418.66231894
 20
431.18050145
  0
VERTEX
  8
0
 10
419.13219613
 20
431.40015133
  0
VERTEX
  8
0
 10
419.60682383
 20
431.59775595
  0
VERTEX
  8
0
 10
420.08589870
 20
431.77163276
  0
VERTEX
  8
0
 10
420.56911742
 20
431.92009925
  0
VERTEX
  8
0
 10
421.05617666
 20
432.04147287
  0
VERTEX
  8
0
 10
421.54677309
 20
432.13407110
  0
VERTEX
  8
0
 10
422.04060338
 20
432.19621140
  0
VERTEX
  8
0
 10
422.53736420
 20
432.22621125
  0
VERTEX
  8
0
 10
423.03675222
 20
432.22238812
  0
VERTEX
  8
0
 10
423.53846412
 20
432.18305947
  0
VERTEX
  8
0
 10
424.02420761
 20
432.10595121
  0
VERTEX
  8
0
 10
424.49908054
 20
431.98656188
  0
VERTEX
  8
0
 10
424.96221890
 20
431.82681470
  0
VERTEX
  8
0
 10
425.41275864
 20
431.62863289
  0
VERTEX
  8
0
 10
425.84983575
 20
431.39393966
  0
VERTEX
  8
0
 10
426.27258619
 20
431.12465824
  0
VERTEX
  8
0
 10
426.68014594
 20
430.82271185
  0
VERTEX
  8
0
 10
427.07165097
 20
430.49002370
  0
VERTEX
  8
0
 10
427.44623724
 20
430.12851701
  0
VERTEX
  8
0
 10
427.80304074
 20
429.74011501
  0
VERTEX
  8
0
 10
428.14119743
 20
429.32674091
  0
VERTEX
  8
0
 10
428.45984328
 20
428.89031793
  0
VERTEX
  8
0
 10
428.75811427
 20
428.43276929
  0
VERTEX
  8
0
 10
429.03514636
 20
427.95601822
  0
VERTEX
  8
0
 10
429.29007553
 20
427.46198792
  0
VERTEX
  8
0
 10
429.52203776
 20
426.95260162
  0
VERTEX
  8
0
 10
429.73016900
 20
426.42978253
  0
VERTEX
  8
0
 10
429.91360523
 20
425.89545388
  0
VERTEX
  8
0
 10
430.07148244
 20
425.35153889
  0
VERTEX
  8
0
 10
430.20293657
 20
424.79996077
  0
VERTEX
  8
0
 10
430.30710362
 20
424.24264275
  0
VERTEX
  8
0
 10
430.38311954
 20
423.68150804
  0
VERTEX
  8
0
 10
430.43012031
 20
423.11847986
  0
VERTEX
  8
0
 10
430.44724191
 20
422.55548143
  0
VERTEX
  8
0
 10
430.43362030
 20
421.99443597
  0
VERTEX
  8
0
 10
430.38839145
 20
421.43726671
  0
VERTEX
  8
0
 10
430.31069134
 20
420.88589685
  0
VERTEX
  8
0
 10
430.19965594
 20
420.34224961
  0
VERTEX
  8
0
 10
430.05442122
 20
419.80824823
  0
VERTEX
  8
0
 10
429.87412315
 20
419.28581591
  0
VERTEX
  8
0
 10
429.65789771
 20
418.77687588
  0
VERTEX
  8
0
 10
429.40488085
 20
418.28335135
  0
VERTEX
  8
0
 10
429.15715792
 20
417.88657835
  0
VERTEX
  8
0
 10
428.86368260
 20
417.50311516
  0
VERTEX
  8
0
 10
428.52653138
 20
417.13278946
  0
VERTEX
  8
0
 10
428.14778070
 20
416.77542890
  0
VERTEX
  8
0
 10
427.72950704
 20
416.43086114
  0
VERTEX
  8
0
 10
427.27378685
 20
416.09891386
  0
VERTEX
  8
0
 10
426.78269660
 20
415.77941472
  0
VERTEX
  8
0
 10
426.25831275
 20
415.47219137
  0
VERTEX
  8
0
 10
425.70271177
 20
415.17707149
  0
VERTEX
  8
0
 10
425.11797011
 20
414.89388273
  0
VERTEX
  8
0
 10
424.50616425
 20
414.62245277
  0
VERTEX
  8
0
 10
423.86937064
 20
414.36260927
  0
VERTEX
  8
0
 10
423.20966574
 20
414.11417988
  0
VERTEX
  8
0
 10
422.52912603
 20
413.87699228
  0
VERTEX
  8
0
 10
421.82982795
 20
413.65087412
  0
VERTEX
  8
0
 10
421.11384799
 20
413.43565307
  0
VERTEX
  8
0
 10
419.64014822
 20
413.03721298
  0
VERTEX
  8
0
 10
418.12463844
 20
412.68029329
  0
VERTEX
  8
0
 10
416.58393033
 20
412.36351533
  0
VERTEX
  8
0
 10
415.03463562
 20
412.08550040
  0
VERTEX
  8
0
 10
413.49336599
 20
411.84486982
  0
VERTEX
  8
0
 10
411.97673315
 20
411.64024490
  0
VERTEX
  8
0
 10
410.50134882
 20
411.47024696
  0
VERTEX
  8
0
 10
409.08382469
 20
411.33349729
  0
VERTEX
  8
0
 10
407.71519734
 20
409.52134448
  0
VERTEX
  8
0
 10
406.36702636
 20
407.68916657
  0
VERTEX
  8
0
 10
405.03769710
 20
405.83852827
  0
VERTEX
  8
0
 10
403.72559489
 20
403.97099428
  0
VERTEX
  8
0
 10
402.42910508
 20
402.08812931
  0
VERTEX
  8
0
 10
401.14661301
 20
400.19149806
  0
VERTEX
  8
0
 10
399.87650402
 20
398.28266523
  0
VERTEX
  8
0
 10
398.61716346
 20
396.36319553
  0
VERTEX
  8
0
 10
396.12432897
 20
392.49860434
  0
VERTEX
  8
0
 10
393.65519227
 20
388.61024211
  0
VERTEX
  8
0
 10
388.73634322
 20
380.81227509
  0
VERTEX
  8
0
 10
389.24260155
 20
380.88689645
  0
VERTEX
  8
0
 10
389.73733074
 20
380.98224383
  0
VERTEX
  8
0
 10
390.22096615
 20
381.09763673
  0
VERTEX
  8
0
 10
390.69394317
 20
381.23239465
  0
VERTEX
  8
0
 10
391.15669717
 20
381.38583709
  0
VERTEX
  8
0
 10
391.60966354
 20
381.55728355
  0
VERTEX
  8
0
 10
392.05327764
 20
381.74605352
  0
VERTEX
  8
0
 10
392.48797487
 20
381.95146651
  0
VERTEX
  8
0
 10
392.91419058
 20
382.17284201
  0
VERTEX
  8
0
 10
393.33236017
 20
382.40949952
  0
VERTEX
  8
0
 10
393.74291900
 20
382.66075855
  0
VERTEX
  8
0
 10
394.14630246
 20
382.92593858
  0
VERTEX
  8
0
 10
394.93328477
 20
383.49533969
  0
VERTEX
  8
0
 10
395.69679011
 20
384.11225882
  0
VERTEX
  8
0
 10
396.44030150
 20
384.77125198
  0
VERTEX
  8
0
 10
397.16730196
 20
385.46687516
  0
VERTEX
  8
0
 10
397.88127452
 20
386.19368434
  0
VERTEX
  8
0
 10
398.58570219
 20
386.94623553
  0
VERTEX
  8
0
 10
399.97985493
 20
388.50678786
  0
VERTEX
  8
0
 10
401.37762435
 20
390.10498011
  0
VERTEX
  8
0
 10
402.08657286
 20
390.90458118
  0
VERTEX
  8
0
 10
402.80687460
 20
391.69726020
  0
VERTEX
  8
0
 10
403.54201259
 20
392.47757317
  0
VERTEX
  8
0
 10
404.29546984
 20
393.24007608
  0
VERTEX
  8
0
 10
405.07072938
 20
393.97932491
  0
VERTEX
  8
0
 10
405.87127423
 20
394.68987567
  0
VERTEX
  8
0
 10
406.70058740
 20
395.36628434
  0
VERTEX
  8
0
 10
407.56215191
 20
396.00310692
  0
VERTEX
  8
0
 10
408.00611686
 20
396.30497217
  0
VERTEX
  8
0
 10
408.45945079
 20
396.59489939
  0
VERTEX
  8
0
 10
408.92258906
 20
396.87220809
  0
VERTEX
  8
0
 10
409.39596705
 20
397.13621776
  0
VERTEX
  8
0
 10
409.88002014
 20
397.38624790
  0
VERTEX
  8
0
 10
410.37518371
 20
397.62161801
  0
VERTEX
  8
0
 10
410.88189314
 20
397.84164758
  0
VERTEX
  8
0
 10
411.40058380
 20
398.04565613
  0
VERTEX
  8
0
 10
411.93169107
 20
398.23296314
  0
VERTEX
  8
0
 10
412.47565032
 20
398.40288812
  0
VERTEX
  8
0
 10
413.03289695
 20
398.55475056
  0
VERTEX
  8
0
 10
413.60386631
 20
398.68786997
  0
VERTEX
  8
0
 10
414.18899380
 20
398.80156583
  0
VERTEX
  8
0
 10
414.78871478
 20
398.89515766
  0
VERTEX
  8
0
 10
415.40346464
 20
398.96796495
  0
VERTEX
  8
0
 10
416.03367875
 20
399.01930721
  0
VERTEX
  8
0
 10
416.49191996
 20
398.26725231
  0
VERTEX
  8
0
 10
416.88647610
 20
397.51140760
  0
VERTEX
  8
0
 10
417.21957120
 20
396.75258204
  0
VERTEX
  8
0
 10
417.49342931
 20
395.99158461
  0
VERTEX
  8
0
 10
417.71027445
 20
395.22922428
  0
VERTEX
  8
0
 10
417.87233068
 20
394.46631003
  0
VERTEX
  8
0
 10
417.98182203
 20
393.70365082
  0
VERTEX
  8
0
 10
418.04097253
 20
392.94205563
  0
VERTEX
  8
0
 10
418.05200624
 20
392.18233344
  0
VERTEX
  8
0
 10
418.01714719
 20
391.42529321
  0
VERTEX
  8
0
 10
417.93861943
 20
390.67174393
  0
VERTEX
  8
0
 10
417.81864698
 20
389.92249455
  0
VERTEX
  8
0
 10
417.65945389
 20
389.17835407
  0
VERTEX
  8
0
 10
417.46326420
 20
388.44013144
  0
VERTEX
  8
0
 10
417.23230196
 20
387.70863565
  0
VERTEX
  8
0
 10
416.96879119
 20
386.98467566
  0
VERTEX
  8
0
 10
416.67495594
 20
386.26906045
  0
VERTEX
  8
0
 10
416.35302025
 20
385.56259900
  0
VERTEX
  8
0
 10
416.00520817
 20
384.86610027
  0
VERTEX
  8
0
 10
415.63374372
 20
384.18037324
  0
VERTEX
  8
0
 10
415.24085095
 20
383.50622689
  0
VERTEX
  8
0
 10
414.82875390
 20
382.84447018
  0
VERTEX
  8
0
 10
414.39967661
 20
382.19591209
  0
VERTEX
  8
0
 10
413.95584311
 20
381.56136159
  0
VERTEX
  8
0
 10
413.49947746
 20
380.94162765
  0
VERTEX
  8
0
 10
413.03280369
 20
380.33751926
  0
VERTEX
  8
0
 10
412.55804583
 20
379.74984538
  0
VERTEX
  8
0
 10
412.07742793
 20
379.17941498
  0
VERTEX
  8
0
 10
411.10750816
 20
378.09352053
  0
VERTEX
  8
0
 10
410.14083671
 20
377.08630770
  0
VERTEX
  8
0
 10
409.17418940
 20
376.13648019
  0
VERTEX
  8
0
 10
408.16730099
 20
375.20781533
  0
VERTEX
  8
0
 10
407.12394769
 20
374.30380504
  0
VERTEX
  8
0
 10
406.04790572
 20
373.42794123
  0
VERTEX
  8
0
 10
404.94295130
 20
372.58371583
  0
VERTEX
  8
0
 10
403.81286066
 20
371.77462076
  0
VERTEX
  8
0
 10
402.66141000
 20
371.00414794
  0
VERTEX
  8
0
 10
401.49237556
 20
370.27578929
  0
VERTEX
  8
0
 10
400.30953354
 20
369.59303674
  0
VERTEX
  8
0
 10
399.11666018
 20
368.95938221
  0
VERTEX
  8
0
 10
397.91753168
 20
368.37831761
  0
VERTEX
  8
0
 10
396.71592427
 20
367.85333488
  0
VERTEX
  8
0
 10
395.51561417
 20
367.38792592
  0
VERTEX
  8
0
 10
394.32037759
 20
366.98558267
  0
VERTEX
  8
0
 10
393.72584194
 20
366.80915190
  0
VERTEX
  8
0
 10
393.13399076
 20
366.64979704
  0
VERTEX
  8
0
 10
392.54529607
 20
366.50795456
  0
VERTEX
  8
0
 10
391.96022989
 20
366.38406095
  0
VERTEX
  8
0
 10
392.15156561
 20
365.63682282
  0
VERTEX
  8
0
 10
392.37073182
 20
364.91821026
  0
VERTEX
  8
0
 10
392.59535482
 20
364.20599186
  0
VERTEX
  8
0
 10
392.80306089
 20
363.47793621
  0
VERTEX
  8
0
 10
392.89357830
 20
363.10102210
  0
VERTEX
  8
0
 10
392.97147634
 20
362.71181189
  0
VERTEX
  8
0
 10
393.03395830
 20
362.30752667
  0
VERTEX
  8
0
 10
393.07822746
 20
361.88538751
  0
VERTEX
  8
0
 10
393.10148712
 20
361.44261548
  0
VERTEX
  8
0
 10
393.10094056
 20
360.97643165
  0
VERTEX
  8
0
 10
393.07379106
 20
360.48405710
  0
VERTEX
  8
0
 10
393.01724192
 20
359.96271291
  0
VERTEX
  8
0
 10
393.88551520
 20
359.73842947
  0
VERTEX
  8
0
 10
394.80402398
 20
359.47284084
  0
VERTEX
  8
0
 10
395.76505718
 20
359.16720912
  0
VERTEX
  8
0
 10
396.76090373
 20
358.82279638
  0
VERTEX
  8
0
 10
397.78385257
 20
358.44086472
  0
VERTEX
  8
0
 10
398.82619262
 20
358.02267621
  0
VERTEX
  8
0
 10
399.88021281
 20
357.56949295
  0
VERTEX
  8
0
 10
400.93820207
 20
357.08257703
  0
VERTEX
  8
0
 10
401.99244933
 20
356.56319052
  0
VERTEX
  8
0
 10
403.03524352
 20
356.01259552
  0
VERTEX
  8
0
 10
404.05887357
 20
355.43205411
  0
VERTEX
  8
0
 10
405.05562840
 20
354.82282838
  0
VERTEX
  8
0
 10
406.01779695
 20
354.18618041
  0
VERTEX
  8
0
 10
406.93766815
 20
353.52337230
  0
VERTEX
  8
0
 10
407.80753092
 20
352.83566612
  0
VERTEX
  8
0
 10
408.61967419
 20
352.12432397
  0
VERTEX
  8
0
 10
409.00169131
 20
351.76018380
  0
VERTEX
  8
0
 10
409.36638690
 20
351.39060793
  0
VERTEX
  8
0
 10
409.71279708
 20
351.01575410
  0
VERTEX
  8
0
 10
410.03995797
 20
350.63578008
  0
VERTEX
  8
0
 10
410.34690568
 20
350.25084363
  0
VERTEX
  8
0
 10
410.63267633
 20
349.86110252
  0
VERTEX
  8
0
 10
410.89630603
 20
349.46671450
  0
VERTEX
  8
0
 10
411.13683091
 20
349.06783733
  0
VERTEX
  8
0
 10
411.35328707
 20
348.66462878
  0
VERTEX
  8
0
 10
411.54471064
 20
348.25724660
  0
VERTEX
  8
0
 10
411.71013773
 20
347.84584855
  0
VERTEX
  8
0
 10
411.84860445
 20
347.43059241
  0
VERTEX
  8
0
 10
411.95914693
 20
347.01163592
  0
VERTEX
  8
0
 10
412.04080127
 20
346.58913685
  0
VERTEX
  8
0
 10
412.09260360
 20
346.16325295
  0
VERTEX
  8
0
 10
412.11359003
 20
345.73414200
  0
VERTEX
  8
0
 10
412.10279667
 20
345.30196175
  0
VERTEX
  8
0
 10
412.05925965
 20
344.86686996
  0
VERTEX
  8
0
 10
411.98201508
 20
344.42902439
  0
VERTEX
  8
0
 10
411.87009907
 20
343.98858281
  0
VERTEX
  8
0
 10
411.72254775
 20
343.54570297
  0
VERTEX
  8
0
 10
411.53839722
 20
343.10054263
  0
VERTEX
  8
0
 10
411.31668360
 20
342.65325956
  0
VERTEX
  8
0
 10
411.05644302
 20
342.20401152
  0
VERTEX
  8
0
 10
410.75671158
 20
341.75295626
  0
VERTEX
  8
0
 10
410.41652540
 20
341.30025155
  0
VERTEX
  8
0
 10
410.03492060
 20
340.84605515
  0
VERTEX
  8
0
 10
409.61093330
 20
340.39052482
  0
VERTEX
  8
0
 10
409.14359961
 20
339.93381832
  0
VERTEX
  8
0
 10
408.63195564
 20
339.47609341
  0
VERTEX
  8
0
 10
408.07503751
 20
339.01750786
  0
VERTEX
  8
0
 10
407.47188135
 20
338.55821941
  0
VERTEX
  8
0
 10
407.05460294
 20
338.85882901
  0
VERTEX
  8
0
 10
406.65693535
 20
339.17911924
  0
VERTEX
  8
0
 10
406.27734535
 20
339.51755342
  0
VERTEX
  8
0
 10
405.91429971
 20
339.87259490
  0
VERTEX
  8
0
 10
405.56626521
 20
340.24270702
  0
VERTEX
  8
0
 10
405.23170861
 20
340.62635312
  0
VERTEX
  8
0
 10
404.90909669
 20
341.02199654
  0
VERTEX
  8
0
 10
404.59689622
 20
341.42810062
  0
VERTEX
  8
0
 10
403.99759672
 20
342.26554410
  0
VERTEX
  8
0
 10
403.42154430
 20
343.12639029
  0
VERTEX
  8
0
 10
402.29011740
 20
344.86911763
  0
VERTEX
  8
0
 10
401.71021127
 20
345.72641222
  0
VERTEX
  8
0
 10
401.10448894
 20
346.55793637
  0
VERTEX
  8
0
 10
400.78811363
 20
346.96019288
  0
VERTEX
  8
0
 10
400.46068458
 20
347.35139680
  0
VERTEX
  8
0
 10
400.12066856
 20
347.73001147
  0
VERTEX
  8
0
 10
399.76653236
 20
348.09450022
  0
VERTEX
  8
0
 10
399.39674274
 20
348.44332641
  0
VERTEX
  8
0
 10
399.00976648
 20
348.77495336
  0
VERTEX
  8
0
 10
398.60407034
 20
349.08784442
  0
VERTEX
  8
0
 10
398.17812110
 20
349.38046292
  0
VERTEX
  8
0
 10
397.73038553
 20
349.65127221
  0
VERTEX
  8
0
 10
397.25933041
 20
349.89873562
  0
VERTEX
  8
0
 10
396.76342251
 20
350.12131650
  0
VERTEX
  8
0
 10
396.24112859
 20
350.31747818
  0
VERTEX
  8
0
 10
396.30569408
 20
349.43524329
  0
VERTEX
  8
0
 10
396.41674121
 20
348.56985318
  0
VERTEX
  8
0
 10
396.57199689
 20
347.72091536
  0
VERTEX
  8
0
 10
396.76918801
 20
346.88803731
  0
VERTEX
  8
0
 10
397.00604150
 20
346.07082652
  0
VERTEX
  8
0
 10
397.28028423
 20
345.26889046
  0
VERTEX
  8
0
 10
397.58964313
 20
344.48183664
  0
VERTEX
  8
0
 10
397.93184509
 20
343.70927254
  0
VERTEX
  8
0
 10
398.30461701
 20
342.95080564
  0
VERTEX
  8
0
 10
398.70568580
 20
342.20604344
  0
VERTEX
  8
0
 10
399.13277836
 20
341.47459342
  0
VERTEX
  8
0
 10
399.58362159
 20
340.75606307
  0
VERTEX
  8
0
 10
400.05594240
 20
340.05005987
  0
VERTEX
  8
0
 10
400.54746769
 20
339.35619132
  0
VERTEX
  8
0
 10
401.05592436
 20
338.67406490
  0
VERTEX
  8
0
 10
401.57903931
 20
338.00328810
  0
VERTEX
  8
0
 10
402.22756833
 20
337.21769548
  0
VERTEX
  8
0
 10
402.90987832
 20
336.43738526
  0
VERTEX
  8
0
 10
403.62456060
 20
335.66323209
  0
VERTEX
  8
0
 10
404.37020649
 20
334.89611062
  0
VERTEX
  8
0
 10
405.14540731
 20
334.13689551
  0
VERTEX
  8
0
 10
405.94875437
 20
333.38646142
  0
VERTEX
  8
0
 10
406.77883898
 20
332.64568300
  0
VERTEX
  8
0
 10
407.63425248
 20
331.91543490
  0
VERTEX
  8
0
 10
408.51358616
 20
331.19659178
  0
VERTEX
  8
0
 10
409.41543135
 20
330.49002830
  0
VERTEX
  8
0
 10
410.33837936
 20
329.79661911
  0
VERTEX
  8
0
 10
411.28102152
 20
329.11723887
  0
VERTEX
  8
0
 10
412.24194913
 20
328.45276223
  0
VERTEX
  8
0
 10
413.21975351
 20
327.80406384
  0
VERTEX
  8
0
 10
414.21302599
 20
327.17201836
  0
VERTEX
  8
0
 10
415.22035787
 20
326.55750045
  0
VERTEX
  8
0
 10
416.24034048
 20
325.96138476
  0
VERTEX
  8
0
 10
417.27156512
 20
325.38454594
  0
VERTEX
  8
0
 10
418.31262312
 20
324.82785865
  0
VERTEX
  8
0
 10
419.36210579
 20
324.29219756
  0
VERTEX
  8
0
 10
420.41860446
 20
323.77843730
  0
VERTEX
  8
0
 10
421.48071042
 20
323.28745253
  0
VERTEX
  8
0
 10
422.54701501
 20
322.82011792
  0
VERTEX
  8
0
 10
423.61610954
 20
322.37730812
  0
VERTEX
  8
0
 10
424.68658532
 20
321.95989777
  0
VERTEX
  8
0
 10
425.75703367
 20
321.56876154
  0
VERTEX
  8
0
 10
426.82604592
 20
321.20477408
  0
VERTEX
  8
0
 10
427.89221336
 20
320.86881005
  0
VERTEX
  8
0
 10
428.95412733
 20
320.56174410
  0
VERTEX
  8
0
 10
430.01037913
 20
320.28445088
  0
VERTEX
  8
0
 10
431.05956009
 20
320.03780506
  0
VERTEX
  8
0
 10
432.10026152
 20
319.82268128
  0
VERTEX
  8
0
 10
433.02876667
 20
319.65361553
  0
VERTEX
  8
0
 10
433.94870284
 20
319.50704610
  0
VERTEX
  8
0
 10
434.86007255
 20
319.38261920
  0
VERTEX
  8
0
 10
435.76287830
 20
319.27998106
  0
VERTEX
  8
0
 10
436.65712262
 20
319.19877789
  0
VERTEX
  8
0
 10
437.54280801
 20
319.13865592
  0
VERTEX
  8
0
 10
438.41993700
 20
319.09926138
  0
VERTEX
  8
0
 10
439.28851210
 20
319.08024048
  0
VERTEX
  8
0
 10
440.14853582
 20
319.08123945
  0
VERTEX
  8
0
 10
441.00001068
 20
319.10190451
  0
VERTEX
  8
0
 10
441.84293919
 20
319.14188187
  0
VERTEX
  8
0
 10
442.67732388
 20
319.20081777
  0
VERTEX
  8
0
 10
443.50316725
 20
319.27835842
  0
VERTEX
  8
0
 10
444.32047182
 20
319.37415005
  0
VERTEX
  8
0
 10
445.12924010
 20
319.48783887
  0
VERTEX
  8
0
 10
445.92947462
 20
319.61907112
  0
VERTEX
  8
0
 10
446.72117788
 20
319.76749301
  0
VERTEX
  8
0
 10
447.50435240
 20
319.93275076
  0
VERTEX
  8
0
 10
448.27900070
 20
320.11449059
  0
VERTEX
  8
0
 10
449.04512529
 20
320.31235874
  0
VERTEX
  8
0
 10
449.80272868
 20
320.52600141
  0
VERTEX
  8
0
 10
450.55181340
 20
320.75506484
  0
VERTEX
  8
0
 10
451.29238196
 20
320.99919524
  0
VERTEX
  8
0
 10
452.02443687
 20
321.25803884
  0
VERTEX
  8
0
 10
452.74798065
 20
321.53124185
  0
VERTEX
  8
0
 10
453.46301581
 20
321.81845050
  0
VERTEX
  8
0
 10
454.16954486
 20
322.11931102
  0
VERTEX
  8
0
 10
454.86757034
 20
322.43346962
  0
VERTEX
  8
0
 10
455.55709474
 20
322.76057252
  0
VERTEX
  8
0
 10
456.23812058
 20
323.10026595
  0
VERTEX
  8
0
 10
457.57468666
 20
323.81600929
  0
VERTEX
  8
0
 10
458.87728870
 20
324.57786940
  0
VERTEX
  8
0
 10
460.14594682
 20
325.38301605
  0
VERTEX
  8
0
 10
461.38068114
 20
326.22861904
  0
VERTEX
  8
0
 10
462.58151179
 20
327.11184812
  0
VERTEX
  8
0
 10
463.74845888
 20
328.02987308
  0
VERTEX
  8
0
 10
464.88154254
 20
328.97986370
  0
VERTEX
  8
0
 10
465.98078289
 20
329.95898974
  0
VERTEX
  8
0
 10
467.04620005
 20
330.96442099
  0
VERTEX
  8
0
 10
468.07781415
 20
331.99332722
  0
VERTEX
  8
0
 10
469.07564530
 20
333.04287821
  0
VERTEX
  8
0
 10
470.03971363
 20
334.11024372
  0
VERTEX
  8
0
 10
470.97003925
 20
335.19259355
  0
VERTEX
  8
0
 10
471.86664230
 20
336.28709745
  0
VERTEX
  8
0
 10
472.72954289
 20
337.39092522
  0
VERTEX
  8
0
 10
473.55876115
 20
338.50124662
  0
VERTEX
  8
0
 10
474.35431719
 20
339.61523144
  0
VERTEX
  8
0
 10
475.92431465
 20
341.88804130
  0
VERTEX
  8
0
 10
476.69368390
 20
343.04628848
  0
VERTEX
  8
0
 10
477.44340358
 20
344.22492033
  0
VERTEX
  8
0
 10
478.16655126
 20
345.42830422
  0
VERTEX
  8
0
 10
478.85620451
 20
346.66080753
  0
VERTEX
  8
0
 10
479.50544090
 20
347.92679764
  0
VERTEX
  8
0
 10
479.81273952
 20
348.57371504
  0
VERTEX
  8
0
 10
480.10733801
 20
349.23064190
  0
VERTEX
  8
0
 10
480.38837106
 20
349.89812415
  0
VERTEX
  8
0
 10
480.65497339
 20
350.57670771
  0
VERTEX
  8
0
 10
480.90627967
 20
351.26693850
  0
VERTEX
  8
0
 10
481.14142461
 20
351.96936243
  0
VERTEX
  8
0
 10
481.35954291
 20
352.68452544
  0
VERTEX
  8
0
 10
481.55976925
 20
353.41297344
  0
VERTEX
  8
0
 10
481.74123834
 20
354.15525236
  0
VERTEX
  8
0
 10
481.90308488
 20
354.91190812
  0
VERTEX
  8
0
 10
482.04444355
 20
355.68348663
  0
VERTEX
  8
0
 10
482.16444905
 20
356.47053383
  0
VERTEX
  8
0
 10
482.26223609
 20
357.27359563
  0
VERTEX
  8
0
 10
482.33693935
 20
358.09321796
  0
VERTEX
  8
0
 10
482.38769353
 20
358.92994673
  0
VERTEX
  8
0
 10
482.41363333
 20
359.78432787
  0
VERTEX
  8
0
 10
482.41389345
 20
360.65690730
  0
VERTEX
  8
0
 10
482.38760858
 20
361.54823094
  0
VERTEX
  8
0
 10
482.35110141
 20
362.15464293
  0
VERTEX
  8
0
 10
482.29551210
 20
362.75645833
  0
VERTEX
  8
0
 10
482.22110080
 20
363.35339239
  0
VERTEX
  8
0
 10
482.12812769
 20
363.94516030
  0
VERTEX
  8
0
 10
482.01685294
 20
364.53147730
  0
VERTEX
  8
0
 10
481.88753673
 20
365.11205860
  0
VERTEX
  8
0
 10
481.74043922
 20
365.68661941
  0
VERTEX
  8
0
 10
481.57582059
 20
366.25487496
  0
VERTEX
  8
0
 10
481.39394100
 20
366.81654046
  0
VERTEX
  8
0
 10
481.19506063
 20
367.37133113
  0
VERTEX
  8
0
 10
480.97943965
 20
367.91896219
  0
VERTEX
  8
0
 10
480.74733824
 20
368.45914887
  0
VERTEX
  8
0
 10
480.49901656
 20
368.99160636
  0
VERTEX
  8
0
 10
480.23473478
 20
369.51604991
  0
VERTEX
  8
0
 10
479.95475308
 20
370.03219471
  0
VERTEX
  8
0
 10
479.65933164
 20
370.53975600
  0
VERTEX
  8
0
 10
479.34873061
 20
371.03844899
  0
VERTEX
  8
0
 10
479.02321017
 20
371.52798889
  0
VERTEX
  8
0
 10
478.68303049
 20
372.00809093
  0
VERTEX
  8
0
 10
478.32845176
 20
372.47847032
  0
VERTEX
  8
0
 10
477.95973412
 20
372.93884229
  0
VERTEX
  8
0
 10
477.57713777
 20
373.38892205
  0
VERTEX
  8
0
 10
477.18092286
 20
373.82842481
  0
VERTEX
  8
0
 10
476.77134958
 20
374.25706581
  0
VERTEX
  8
0
 10
476.34867809
 20
374.67456024
  0
VERTEX
  8
0
 10
475.91316857
 20
375.08062335
  0
VERTEX
  8
0
 10
475.46508118
 20
375.47497033
  0
VERTEX
  8
0
 10
475.00467609
 20
375.85731641
  0
VERTEX
  8
0
 10
474.53221349
 20
376.22737682
  0
VERTEX
  8
0
 10
474.04795354
 20
376.58486675
  0
VERTEX
  8
0
 10
473.55215641
 20
376.92950145
  0
VERTEX
  8
0
 10
473.04508228
 20
377.26099611
  0
VERTEX
  8
0
 10
472.52699131
 20
377.57906597
  0
VERTEX
  8
0
 10
471.99814368
 20
377.88342624
  0
VERTEX
  8
0
 10
471.45879956
 20
378.17379213
  0
VERTEX
  8
0
 10
470.90921911
 20
378.44987887
  0
VERTEX
  8
0
 10
470.34966252
 20
378.71140168
  0
VERTEX
  8
0
 10
469.78038996
 20
378.95807576
  0
VERTEX
  8
0
 10
469.20166159
 20
379.18961635
  0
VERTEX
  8
0
 10
468.61373758
 20
379.40573866
  0
VERTEX
  8
0
 10
468.01687812
 20
379.60615790
  0
VERTEX
  8
0
 10
467.41134336
 20
379.79058930
  0
VERTEX
  8
0
 10
466.79739349
 20
379.95874807
  0
VERTEX
  8
0
 10
466.17528867
 20
380.11034943
  0
VERTEX
  8
0
 10
465.54528907
 20
380.24510861
  0
VERTEX
  8
0
 10
464.90765487
 20
380.36274081
  0
VERTEX
  8
0
 10
464.26264624
 20
380.46296126
  0
VERTEX
  8
0
 10
463.61052335
 20
380.54548517
  0
VERTEX
  8
0
 10
462.95154637
 20
380.61002776
  0
VERTEX
  8
0
 10
462.28597547
 20
380.65630426
  0
VERTEX
  8
0
 10
461.61407083
 20
380.68402988
  0
VERTEX
  8
0
 10
460.93609261
 20
380.69291983
  0
VERTEX
  8
0
 10
460.25230099
 20
380.68268934
  0
VERTEX
  8
0
 10
459.56295614
 20
380.65305362
  0
VERTEX
  8
0
 10
458.86831823
 20
380.60372790
  0
VERTEX
  8
0
 10
458.16864743
 20
380.53442739
  0
VERTEX
  8
0
 10
457.46420392
 20
380.44486730
  0
VERTEX
  8
0
 10
456.75524786
 20
380.33476287
  0
VERTEX
  8
0
 10
456.04203943
 20
380.20382929
  0
VERTEX
  8
0
 10
455.32483880
 20
380.05178180
  0
VERTEX
  8
0
 10
454.60390613
 20
379.87833562
  0
VERTEX
  8
0
 10
453.87950161
 20
379.68320595
  0
VERTEX
  8
0
 10
453.15188541
 20
379.46610802
  0
VERTEX
  8
0
 10
452.42131769
 20
379.22675705
  0
VERTEX
  8
0
 10
452.83690612
 20
379.75310862
  0
VERTEX
  8
0
 10
453.26443838
 20
380.25124042
  0
VERTEX
  8
0
 10
453.70346877
 20
380.72156795
  0
VERTEX
  8
0
 10
454.15355157
 20
381.16450672
  0
VERTEX
  8
0
 10
454.61424110
 20
381.58047223
  0
VERTEX
  8
0
 10
455.08509164
 20
381.96988001
  0
VERTEX
  8
0
 10
455.56565751
 20
382.33314554
  0
VERTEX
  8
0
 10
456.05549299
 20
382.67068435
  0
VERTEX
  8
0
 10
456.55415239
 20
382.98291194
  0
VERTEX
  8
0
 10
457.06119002
 20
383.27024382
  0
VERTEX
  8
0
 10
457.57616015
 20
383.53309549
  0
VERTEX
  8
0
 10
458.09861711
 20
383.77188247
  0
VERTEX
  8
0
 10
458.62811519
 20
383.98702026
  0
VERTEX
  8
0
 10
459.16420867
 20
384.17892437
  0
VERTEX
  8
0
 10
459.70645188
 20
384.34801030
  0
VERTEX
  8
0
 10
460.25439910
 20
384.49469358
  0
VERTEX
  8
0
 10
460.80760464
 20
384.61938969
  0
VERTEX
  8
0
 10
461.36562279
 20
384.72251416
  0
VERTEX
  8
0
 10
461.92800785
 20
384.80448249
  0
VERTEX
  8
0
 10
462.49431413
 20
384.86571019
  0
VERTEX
  8
0
 10
463.06409592
 20
384.90661276
  0
VERTEX
  8
0
 10
463.63690752
 20
384.92760572
  0
VERTEX
  8
0
 10
464.21230324
 20
384.92910457
  0
VERTEX
  8
0
 10
464.78983736
 20
384.91152482
  0
VERTEX
  8
0
 10
465.36906420
 20
384.87528198
  0
VERTEX
  8
0
 10
465.94953804
 20
384.82079156
  0
VERTEX
  8
0
 10
466.53081320
 20
384.74846906
  0
VERTEX
  8
0
 10
467.11244397
 20
384.65872999
  0
VERTEX
  8
0
 10
467.69398464
 20
384.55198986
  0
VERTEX
  8
0
 10
468.27498952
 20
384.42866418
  0
VERTEX
  8
0
 10
468.85501292
 20
384.28916846
  0
VERTEX
  8
0
 10
469.43360911
 20
384.13391820
  0
VERTEX
  8
0
 10
470.01033242
 20
383.96332891
  0
VERTEX
  8
0
 10
470.58473713
 20
383.77781610
  0
VERTEX
  8
0
 10
471.72480797
 20
383.36368196
  0
VERTEX
  8
0
 10
472.85025603
 20
382.89483984
  0
VERTEX
  8
0
 10
473.95751570
 20
382.37461380
  0
VERTEX
  8
0
 10
475.04302139
 20
381.80632790
  0
VERTEX
  8
0
 10
476.10320748
 20
381.19330622
  0
VERTEX
  8
0
 10
477.13450838
 20
380.53887281
  0
VERTEX
  8
0
 10
478.13335847
 20
379.84635173
  0
VERTEX
  8
0
 10
479.09619216
 20
379.11906706
  0
VERTEX
  8
0
 10
480.01944384
 20
378.36034286
  0
VERTEX
  8
0
 10
480.89954791
 20
377.57350318
  0
VERTEX
  8
0
 10
481.73293876
 20
376.76187210
  0
VERTEX
  8
0
 10
482.51605080
 20
375.92877368
  0
VERTEX
  8
0
 10
483.24531840
 20
375.07753198
  0
VERTEX
  8
0
 10
483.91717598
 20
374.21147107
  0
VERTEX
  8
0
 10
484.52805793
 20
373.33391501
  0
VERTEX
  8
0
 10
484.82650298
 20
372.85310706
  0
VERTEX
  8
0
 10
485.11229561
 20
372.34167862
  0
VERTEX
  8
0
 10
485.38510059
 20
371.80115331
  0
VERTEX
  8
0
 10
485.64458272
 20
371.23305476
  0
VERTEX
  8
0
 10
485.89040676
 20
370.63890659
  0
VERTEX
  8
0
 10
486.12223750
 20
370.02023243
  0
VERTEX
  8
0
 10
486.33973971
 20
369.37855591
  0
VERTEX
  8
0
 10
486.54257817
 20
368.71540065
  0
VERTEX
  8
0
 10
486.73041766
 20
368.03229027
  0
VERTEX
  8
0
 10
486.90292296
 20
367.33074840
  0
VERTEX
  8
0
 10
487.05975884
 20
366.61229867
  0
VERTEX
  8
0
 10
487.20059010
 20
365.87846470
  0
VERTEX
  8
0
 10
487.32508149
 20
365.13077011
  0
VERTEX
  8
0
 10
487.43289782
 20
364.37073854
  0
VERTEX
  8
0
 10
487.52370384
 20
363.59989360
  0
VERTEX
  8
0
 10
487.59716435
 20
362.81975893
  0
VERTEX
  8
0
 10
487.65294411
 20
362.03185815
  0
VERTEX
  8
0
 10
487.69070792
 20
361.23771488
  0
VERTEX
  8
0
 10
487.71012054
 20
360.43885274
  0
VERTEX
  8
0
 10
487.71084675
 20
359.63679538
  0
VERTEX
  8
0
 10
487.69255135
 20
358.83306640
  0
VERTEX
  8
0
 10
487.65489909
 20
358.02918943
  0
VERTEX
  8
0
 10
487.59755477
 20
357.22668811
  0
VERTEX
  8
0
 10
487.52018315
 20
356.42708605
  0
VERTEX
  8
0
 10
487.42244903
 20
355.63190688
  0
VERTEX
  8
0
 10
487.30401717
 20
354.84267423
  0
VERTEX
  8
0
 10
487.16455236
 20
354.06091172
  0
VERTEX
  8
0
 10
487.00371938
 20
353.28814298
  0
VERTEX
  8
0
 10
486.82118300
 20
352.52589163
  0
VERTEX
  8
0
 10
486.61660800
 20
351.77568130
  0
VERTEX
  8
0
 10
486.38965916
 20
351.03903560
  0
VERTEX
  8
0
 10
486.14000126
 20
350.31747818
  0
VERTEX
  8
0
 10
485.79784817
 20
349.42281281
  0
VERTEX
  8
0
 10
485.42957580
 20
348.53084444
  0
VERTEX
  8
0
 10
485.03563784
 20
347.64196951
  0
VERTEX
  8
0
 10
484.61648798
 20
346.75658446
  0
VERTEX
  8
0
 10
484.17257992
 20
345.87508573
  0
VERTEX
  8
0
 10
483.70436735
 20
344.99786976
  0
VERTEX
  8
0
 10
483.21230395
 20
344.12533299
  0
VERTEX
  8
0
 10
482.69684343
 20
343.25787185
  0
VERTEX
  8
0
 10
482.15843946
 20
342.39588279
  0
VERTEX
  8
0
 10
481.59754573
 20
341.53976225
  0
VERTEX
  8
0
 10
481.01461595
 20
340.68990665
  0
VERTEX
  8
0
 10
480.41010381
 20
339.84671245
  0
VERTEX
  8
0
 10
479.78446298
 20
339.01057607
  0
VERTEX
  8
0
 10
479.13814717
 20
338.18189396
  0
VERTEX
  8
0
 10
478.47161006
 20
337.36106256
  0
VERTEX
  8
0
 10
477.78530535
 20
336.54847831
  0
VERTEX
  8
0
 10
477.07968672
 20
335.74453764
  0
VERTEX
  8
0
 10
476.35520787
 20
334.94963700
  0
VERTEX
  8
0
 10
475.61232249
 20
334.16417281
  0
VERTEX
  8
0
 10
474.85148426
 20
333.38854153
  0
VERTEX
  8
0
 10
474.07314689
 20
332.62313959
  0
VERTEX
  8
0
 10
473.27776406
 20
331.86836342
  0
VERTEX
  8
0
 10
472.46578946
 20
331.12460947
  0
VERTEX
  8
0
 10
471.63767678
 20
330.39227418
  0
VERTEX
  8
0
 10
470.79387972
 20
329.67175398
  0
VERTEX
  8
0
 10
469.93485196
 20
328.96344531
  0
VERTEX
  8
0
 10
469.06104719
 20
328.26774462
  0
VERTEX
  8
0
 10
468.17291912
 20
327.58504834
  0
VERTEX
  8
0
 10
467.27092142
 20
326.91575290
  0
VERTEX
  8
0
 10
466.35550778
 20
326.26025476
  0
VERTEX
  8
0
 10
465.42713191
 20
325.61895034
  0
VERTEX
  8
0
 10
464.48624749
 20
324.99223608
  0
VERTEX
  8
0
 10
463.53330821
 20
324.38050843
  0
VERTEX
  8
0
 10
462.56876776
 20
323.78416382
  0
VERTEX
  8
0
 10
461.59307983
 20
323.20359870
  0
VERTEX
  8
0
 10
460.60669812
 20
322.63920949
  0
VERTEX
  8
0
 10
459.61007631
 20
322.09139265
  0
VERTEX
  8
0
 10
458.60366810
 20
321.56054460
  0
VERTEX
  8
0
 10
457.58792717
 20
321.04706179
  0
VERTEX
  8
0
 10
456.56330722
 20
320.55134065
  0
VERTEX
  8
0
 10
455.53026194
 20
320.07377762
  0
VERTEX
  8
0
 10
454.48924502
 20
319.61476915
  0
VERTEX
  8
0
 10
453.44071015
 20
319.17471167
  0
VERTEX
  8
0
 10
452.38511103
 20
318.75400162
  0
VERTEX
  8
0
 10
451.32290133
 20
318.35303544
  0
VERTEX
  8
0
 10
450.25453476
 20
317.97220957
  0
VERTEX
  8
0
 10
449.18046500
 20
317.61192044
  0
VERTEX
  8
0
 10
448.10114575
 20
317.27256450
  0
VERTEX
  8
0
 10
447.01703069
 20
316.95453818
  0
VERTEX
  8
0
 10
445.92857352
 20
316.65823793
  0
VERTEX
  8
0
 10
444.83622793
 20
316.38406017
  0
VERTEX
  8
0
 10
443.74044760
 20
316.13240135
  0
VERTEX
  8
0
 10
442.64168624
 20
315.90365792
  0
VERTEX
  8
0
 10
441.54039752
 20
315.69822630
  0
VERTEX
  8
0
 10
440.43703515
 20
315.51650293
  0
VERTEX
  8
0
 10
439.33205281
 20
315.35888427
  0
VERTEX
  8
0
 10
438.22590420
 20
315.22576673
  0
VERTEX
  8
0
 10
437.11904299
 20
315.11754677
  0
VERTEX
  8
0
 10
436.01192290
 20
315.03462081
  0
VERTEX
  8
0
 10
434.90499760
 20
314.97738531
  0
VERTEX
  8
0
 10
433.79872079
 20
314.94623670
  0
VERTEX
  8
0
 10
432.69354615
 20
314.94157141
  0
VERTEX
  8
0
 10
431.58992739
 20
314.96378589
  0
VERTEX
  8
0
 10
430.48831818
 20
315.01327657
  0
VERTEX
  8
0
 10
428.96456551
 20
315.12651730
  0
VERTEX
  8
0
 10
427.42557909
 20
315.29510565
  0
VERTEX
  8
0
 10
425.87408210
 20
315.51730480
  0
VERTEX
  8
0
 10
424.31279774
 20
315.79137794
  0
VERTEX
  8
0
 10
422.74444920
 20
316.11558825
  0
VERTEX
  8
0
 10
421.17175968
 20
316.48819891
  0
VERTEX
  8
0
 10
419.59745238
 20
316.90747309
  0
VERTEX
  8
0
 10
418.02425048
 20
317.37167399
  0
VERTEX
  8
0
 10
416.45487718
 20
317.87906479
  0
VERTEX
  8
0
 10
414.89205568
 20
318.42790866
  0
VERTEX
  8
0
 10
413.33850916
 20
319.01646879
  0
VERTEX
  8
0
 10
411.79696083
 20
319.64300836
  0
VERTEX
  8
0
 10
410.27013387
 20
320.30579055
  0
VERTEX
  8
0
 10
408.76075148
 20
321.00307854
  0
VERTEX
  8
0
 10
407.27153686
 20
321.73313552
  0
VERTEX
  8
0
 10
405.80521320
 20
322.49422467
  0
VERTEX
  8
0
 10
404.36450368
 20
323.28460916
  0
VERTEX
  8
0
 10
402.95213152
 20
324.10255219
  0
VERTEX
  8
0
 10
401.57081989
 20
324.94631693
  0
VERTEX
  8
0
 10
400.22329200
 20
325.81416656
  0
VERTEX
  8
0
 10
398.91227104
 20
326.70436427
  0
VERTEX
  8
0
 10
397.64048020
 20
327.61517324
  0
VERTEX
  8
0
 10
396.41064267
 20
328.54485665
  0
VERTEX
  8
0
 10
395.22548166
 20
329.49167767
  0
VERTEX
  8
0
 10
394.08772035
 20
330.45389951
  0
VERTEX
  8
0
 10
393.00008194
 20
331.42978532
  0
VERTEX
  8
0
 10
391.96528962
 20
332.41759830
  0
VERTEX
  8
0
 10
390.98606658
 20
333.41560164
  0
VERTEX
  8
0
 10
390.06513603
 20
334.42205850
  0
VERTEX
  8
0
 10
389.20522115
 20
335.43523207
  0
VERTEX
  8
0
 10
388.40904514
 20
336.45338554
  0
VERTEX
  8
0
 10
387.67933119
 20
337.47478209
  0
VERTEX
  8
0
 10
387.16274326
 20
338.25497875
  0
VERTEX
  8
0
 10
386.67163569
 20
339.04555711
  0
VERTEX
  8
0
 10
386.20572889
 20
339.84875681
  0
VERTEX
  8
0
 10
385.76474326
 20
340.66681748
  0
VERTEX
  8
0
 10
385.34839923
 20
341.50197875
  0
VERTEX
  8
0
 10
384.95641717
 20
342.35648025
  0
VERTEX
  8
0
 10
384.58851752
 20
343.23256162
  0
VERTEX
  8
0
 10
384.24442066
 20
344.13246250
  0
VERTEX
  8
0
 10
383.92384700
 20
345.05842251
  0
VERTEX
  8
0
 10
383.62651695
 20
346.01268128
  0
VERTEX
  8
0
 10
383.35215092
 20
346.99747846
  0
VERTEX
  8
0
 10
383.10046931
 20
348.01505367
  0
VERTEX
  8
0
 10
382.87119252
 20
349.06764655
  0
VERTEX
  8
0
 10
382.66404097
 20
350.15749673
  0
VERTEX
  8
0
 10
382.47873505
 20
351.28684385
  0
VERTEX
  8
0
 10
382.31499517
 20
352.45792753
  0
VERTEX
  8
0
 10
381.37542472
 20
352.19531798
  0
VERTEX
  8
0
 10
380.44948215
 20
351.89239044
  0
VERTEX
  8
0
 10
379.53787601
 20
351.55034242
  0
VERTEX
  8
0
 10
378.64131480
 20
351.17037147
  0
VERTEX
  8
0
 10
377.76050705
 20
350.75367509
  0
VERTEX
  8
0
 10
376.89616128
 20
350.30145082
  0
VERTEX
  8
0
 10
376.04898601
 20
349.81489618
  0
VERTEX
  8
0
 10
375.21968977
 20
349.29520870
  0
VERTEX
  8
0
 10
374.40898108
 20
348.74358590
  0
VERTEX
  8
0
 10
373.61756846
 20
348.16122531
  0
VERTEX
  8
0
 10
372.84616042
 20
347.54932445
  0
VERTEX
  8
0
 10
372.09546550
 20
346.90908085
  0
VERTEX
  8
0
 10
371.36619222
 20
346.24169203
  0
VERTEX
  8
0
 10
370.65904910
 20
345.54835552
  0
VERTEX
  8
0
 10
369.97474465
 20
344.83026885
  0
VERTEX
  8
0
 10
369.31398741
 20
344.08862953
  0
VERTEX
  8
0
 10
368.67748589
 20
343.32463510
  0
VERTEX
  8
0
 10
368.06594862
 20
342.53948308
  0
VERTEX
  8
0
 10
367.48008411
 20
341.73437100
  0
VERTEX
  8
0
 10
366.92060090
 20
340.91049637
  0
VERTEX
  8
0
 10
366.38820750
 20
340.06905673
  0
VERTEX
  8
0
 10
365.88361243
 20
339.21124960
  0
VERTEX
  8
0
 10
365.40752422
 20
338.33827251
  0
VERTEX
  8
0
 10
364.96065139
 20
337.45132298
  0
VERTEX
  8
0
 10
364.54370246
 20
336.55159854
  0
VERTEX
  8
0
 10
364.15738595
 20
335.64029671
  0
VERTEX
  8
0
 10
363.80241038
 20
334.71861502
  0
VERTEX
  8
0
 10
363.47948429
 20
333.78775099
  0
VERTEX
  8
0
 10
363.18931618
 20
332.84890215
  0
VERTEX
  8
0
 10
362.93261458
 20
331.90326603
  0
VERTEX
  8
0
 10
362.71008802
 20
330.95204014
  0
VERTEX
  8
0
 10
362.52244501
 20
329.99642201
  0
VERTEX
  8
0
 10
362.42866292
 20
329.41810383
  0
VERTEX
  8
0
 10
362.34652767
 20
328.81319149
  0
VERTEX
  8
0
 10
362.21793265
 20
327.53602826
  0
VERTEX
  8
0
 10
362.13812984
 20
326.18982004
  0
VERTEX
  8
0
 10
362.10858913
 20
324.79945460
  0
VERTEX
  8
0
 10
362.13078041
 20
323.38981965
  0
VERTEX
  8
0
 10
362.20617356
 20
321.98580296
  0
VERTEX
  8
0
 10
362.33623846
 20
320.61229225
  0
VERTEX
  8
0
 10
362.42223216
 20
319.94475406
  0
VERTEX
  8
0
 10
362.52244501
 20
319.29417527
  0
VERTEX
  8
0
 10
362.65783232
 20
318.53735776
  0
VERTEX
  8
0
 10
362.80999930
 20
317.78917924
  0
VERTEX
  8
0
 10
362.97870935
 20
317.04967769
  0
VERTEX
  8
0
 10
363.16372589
 20
316.31889108
  0
VERTEX
  8
0
 10
363.36481232
 20
315.59685740
  0
VERTEX
  8
0
 10
363.58173205
 20
314.88361462
  0
VERTEX
  8
0
 10
363.81424849
 20
314.17920072
  0
VERTEX
  8
0
 10
364.06212505
 20
313.48365367
  0
VERTEX
  8
0
 10
364.32512514
 20
312.79701147
  0
VERTEX
  8
0
 10
364.60301216
 20
312.11931208
  0
VERTEX
  8
0
 10
364.89554952
 20
311.45059349
  0
VERTEX
  8
0
 10
365.20250063
 20
310.79089366
  0
VERTEX
  8
0
 10
365.52362891
 20
310.14025059
  0
VERTEX
  8
0
 10
365.85869775
 20
309.49870225
  0
VERTEX
  8
0
 10
366.20747057
 20
308.86628662
  0
VERTEX
  8
0
 10
366.56971078
 20
308.24304168
  0
VERTEX
  8
0
 10
366.94518177
 20
307.62900540
  0
VERTEX
  8
0
 10
367.33364698
 20
307.02421576
  0
VERTEX
  8
0
 10
367.73486979
 20
306.42871075
  0
VERTEX
  8
0
 10
368.14861362
 20
305.84252833
  0
VERTEX
  8
0
 10
368.57464188
 20
305.26570650
  0
VERTEX
  8
0
 10
369.01271797
 20
304.69828323
  0
VERTEX
  8
0
 10
369.46260531
 20
304.14029649
  0
VERTEX
  8
0
 10
369.92406730
 20
303.59178426
  0
VERTEX
  8
0
 10
370.88076888
 20
302.52333527
  0
VERTEX
  8
0
 10
371.88092997
 20
301.49324008
  0
VERTEX
  8
0
 10
372.92265784
 20
300.50180252
  0
VERTEX
  8
0
 10
374.00405976
 20
299.54932641
  0
VERTEX
  8
0
 10
375.12324299
 20
298.63611559
  0
VERTEX
  8
0
 10
376.27831481
 20
297.76247388
  0
VERTEX
  8
0
 10
377.46738247
 20
296.92870512
  0
VERTEX
  8
0
 10
378.68855326
 20
296.13511312
  0
VERTEX
  8
0
 10
379.93993443
 20
295.38200171
  0
VERTEX
  8
0
 10
381.21963325
 20
294.66967473
  0
VERTEX
  8
0
 10
382.52575700
 20
293.99843600
  0
VERTEX
  8
0
 10
383.85641293
 20
293.36858936
  0
VERTEX
  8
0
 10
385.20970832
 20
292.78043862
  0
VERTEX
  8
0
 10
386.58375043
 20
292.23428761
  0
VERTEX
  8
0
 10
387.97664653
 20
291.73044017
  0
VERTEX
  8
0
 10
389.38650389
 20
291.26920012
  0
VERTEX
  8
0
 10
390.81142978
 20
290.85087129
  0
VERTEX
  8
0
 10
392.24953146
 20
290.47575750
  0
VERTEX
  8
0
 10
393.69891620
 20
290.14416260
  0
VERTEX
  8
0
 10
395.15769127
 20
289.85639039
  0
VERTEX
  8
0
 10
394.84024448
 20
289.60719233
  0
VERTEX
  8
0
 10
394.50262805
 20
289.37851736
  0
VERTEX
  8
0
 10
394.14599809
 20
289.16970246
  0
VERTEX
  8
0
 10
393.77151067
 20
288.98008461
  0
VERTEX
  8
0
 10
393.38032190
 20
288.80900080
  0
VERTEX
  8
0
 10
392.97358787
 20
288.65578803
  0
VERTEX
  8
0
 10
392.55246467
 20
288.51978326
  0
VERTEX
  8
0
 10
392.11810839
 20
288.40032350
  0
VERTEX
  8
0
 10
391.67167513
 20
288.29674572
  0
VERTEX
  8
0
 10
391.21432097
 20
288.20838692
  0
VERTEX
  8
0
 10
390.74720203
 20
288.13458407
  0
VERTEX
  8
0
 10
390.27147437
 20
288.07467417
  0
VERTEX
  8
0
 10
389.29881733
 20
287.99388115
  0
VERTEX
  8
0
 10
388.30559860
 20
287.96070374
  0
VERTEX
  8
0
 10
387.30106691
 20
287.96983782
  0
VERTEX
  8
0
 10
386.29447102
 20
288.01597930
  0
VERTEX
  8
0
 10
385.29505967
 20
288.09382405
  0
VERTEX
  8
0
 10
384.31208161
 20
288.19806797
  0
VERTEX
  8
0
 10
383.35478558
 20
288.32340694
  0
VERTEX
  8
0
 10
382.43242032
 20
288.46453685
  0
VERTEX
  8
0
 10
381.55423459
 20
288.61615360
  0
VERTEX
  8
0
 10
380.72947713
 20
288.77295306
  0
VERTEX
  8
0
 10
379.71041737
 20
288.99250705
  0
VERTEX
  8
0
 10
378.70885687
 20
289.24029442
  0
VERTEX
  8
0
 10
377.72454836
 20
289.51542115
  0
VERTEX
  8
0
 10
376.75724451
 20
289.81699321
  0
VERTEX
  8
0
 10
375.80669804
 20
290.14411656
  0
VERTEX
  8
0
 10
374.87266163
 20
290.49589717
  0
VERTEX
  8
0
 10
373.95488800
 20
290.87144100
  0
VERTEX
  8
0
 10
373.05312983
 20
291.26985404
  0
VERTEX
  8
0
 10
372.16713983
 20
291.69024223
  0
VERTEX
  8
0
 10
371.29667070
 20
292.13171156
  0
VERTEX
  8
0
 10
370.44147512
 20
292.59336799
  0
VERTEX
  8
0
 10
369.60130582
 20
293.07431749
  0
VERTEX
  8
0
 10
368.77591547
 20
293.57366602
  0
VERTEX
  8
0
 10
367.96505678
 20
294.09051955
  0
VERTEX
  8
0
 10
367.16848246
 20
294.62398405
  0
VERTEX
  8
0
 10
366.38594519
 20
295.17316550
  0
VERTEX
  8
0
 10
365.61719768
 20
295.73716984
  0
VERTEX
  8
0
 10
364.86199262
 20
296.31510307
  0
VERTEX
  8
0
 10
364.12008272
 20
296.90607113
  0
VERTEX
  8
0
 10
363.39122067
 20
297.50918000
  0
VERTEX
  8
0
 10
362.67515917
 20
298.12353565
  0
VERTEX
  8
0
 10
361.97165092
 20
298.74824404
  0
VERTEX
  8
0
 10
360.60130497
 20
300.02514294
  0
VERTEX
  8
0
 10
359.27820441
 20
301.33272442
  0
VERTEX
  8
0
 10
358.00037083
 20
302.66383624
  0
VERTEX
  8
0
 10
356.76582581
 20
304.01132613
  0
VERTEX
  8
0
 10
355.57259095
 20
305.36804185
  0
VERTEX
  8
0
 10
351.77998135
 20
306.90705796
  0
VERTEX
  8
0
 10
347.88903293
 20
308.51788363
  0
VERTEX
  8
0
 10
339.88266418
 20
311.84924221
  0
VERTEX
  8
0
 10
335.80251611
 20
313.51691437
  0
VERTEX
  8
0
 10
331.69457375
 20
315.15067463
  0
VERTEX
  8
0
 10
329.63569101
 20
315.94657830
  0
VERTEX
  8
0
 10
327.57647324
 20
316.72409261
  0
VERTEX
  8
0
 10
325.51912497
 20
317.47991375
  0
VERTEX
  8
0
 10
323.46585071
 20
318.21073794
  0
VERTEX
  8
0
 10
322.05944743
 20
318.72300176
  0
VERTEX
  8
0
 10
320.64495169
 20
319.26729673
  0
VERTEX
  8
0
 10
319.22677532
 20
319.82143374
  0
VERTEX
  8
0
 10
317.80933014
 20
320.36322369
  0
VERTEX
  8
0
 10
316.39702799
 20
320.87047745
  0
VERTEX
  8
0
 10
315.69418424
 20
321.10421918
  0
VERTEX
  8
0
 10
314.99428069
 20
321.32100594
  0
VERTEX
  8
0
 10
314.29786880
 20
321.51806411
  0
VERTEX
  8
0
 10
313.60550007
 20
321.69262003
  0
VERTEX
  8
0
 10
312.91772596
 20
321.84190009
  0
VERTEX
  8
0
 10
312.23509795
 20
321.96313063
  0
VERTEX
  8
0
 10
311.14026824
 20
322.10132275
  0
VERTEX
  8
0
 10
310.03039662
 20
322.19394833
  0
VERTEX
  8
0
 10
308.91129689
 20
322.25446775
  0
VERTEX
  8
0
 10
307.78878282
 20
322.29634137
  0
VERTEX
  8
0
 10
305.55676685
 20
322.37799273
  0
VERTEX
  8
0
 10
304.45889253
 20
322.44469122
  0
VERTEX
  8
0
 10
303.38085902
 20
322.54658541
  0
VERTEX
  8
0
 10
302.85109939
 20
322.61493727
  0
VERTEX
  8
0
 10
302.32848013
 20
322.69713569
  0
VERTEX
  8
0
 10
301.81372797
 20
322.79486322
  0
VERTEX
  8
0
 10
301.30756964
 20
322.90980242
  0
VERTEX
  8
0
 10
300.81073185
 20
323.04363582
  0
VERTEX
  8
0
 10
300.32394133
 20
323.19804598
  0
VERTEX
  8
0
 10
299.84792481
 20
323.37471544
  0
VERTEX
  8
0
 10
299.38340900
 20
323.57532674
  0
VERTEX
  8
0
 10
298.93112063
 20
323.80156244
  0
VERTEX
  8
0
 10
298.49178643
 20
324.05510508
  0
VERTEX
  8
0
 10
298.06613312
 20
324.33763721
  0
VERTEX
  8
0
 10
297.65488741
 20
324.65084138
  0
VERTEX
  8
0
 10
297.25877604
 20
324.99640013
  0
VERTEX
  8
0
 10
296.87852573
 20
325.37599600
  0
VERTEX
  8
0
 10
296.51486321
 20
325.79131155
  0
VERTEX
  8
0
 10
296.16851518
 20
326.24402933
  0
VERTEX
  8
0
 10
294.33386612
 20
326.58463570
  0
VERTEX
  8
0
 10
292.43675122
 20
326.90891731
  0
VERTEX
  8
0
 10
290.48469733
 20
327.21252824
  0
VERTEX
  8
0
 10
288.48523132
 20
327.49112254
  0
VERTEX
  8
0
 10
286.44588004
 20
327.74035431
  0
VERTEX
  8
0
 10
284.37417035
 20
327.95587762
  0
VERTEX
  8
0
 10
282.27762910
 20
328.13334653
  0
VERTEX
  8
0
 10
280.16378314
 20
328.26841512
  0
VERTEX
  8
0
 10
278.04015934
 20
328.35673747
  0
VERTEX
  8
0
 10
275.91428455
 20
328.39396766
  0
VERTEX
  8
0
 10
273.79368562
 20
328.37575974
  0
VERTEX
  8
0
 10
272.73771675
 20
328.34450840
  0
VERTEX
  8
0
 10
271.68588942
 20
328.29776781
  0
VERTEX
  8
0
 10
270.63914448
 20
328.23499473
  0
VERTEX
  8
0
 10
269.59842279
 20
328.15564593
  0
VERTEX
  8
0
 10
268.56466521
 20
328.05917816
  0
VERTEX
  8
0
 10
267.53881260
 20
327.94504818
  0
VERTEX
  8
0
 10
266.52180580
 20
327.81271275
  0
VERTEX
  8
0
 10
265.51458569
 20
327.66162863
  0
VERTEX
  8
0
 10
264.51809311
 20
327.49125258
  0
VERTEX
  8
0
 10
263.53326893
 20
327.30104135
  0
VERTEX
  8
0
 10
263.61769607
 20
326.38445862
  0
VERTEX
  8
0
 10
263.73104685
 20
325.49650921
  0
VERTEX
  8
0
 10
263.87329937
 20
324.63719058
  0
VERTEX
  8
0
 10
264.04443173
 20
323.80650018
  0
VERTEX
  8
0
 10
264.24442202
 20
323.00443546
  0
VERTEX
  8
0
 10
264.47324833
 20
322.23099386
  0
VERTEX
  8
0
 10
264.73088876
 20
321.48617284
  0
VERTEX
  8
0
 10
265.01732141
 20
320.76996984
  0
VERTEX
  8
0
 10
265.33252437
 20
320.08238231
  0
VERTEX
  8
0
 10
265.67647572
 20
319.42340771
  0
VERTEX
  8
0
 10
266.04915358
 20
318.79304348
  0
VERTEX
  8
0
 10
266.45053603
 20
318.19128706
  0
VERTEX
  8
0
 10
266.88060117
 20
317.61813592
  0
VERTEX
  8
0
 10
267.33932708
 20
317.07358749
  0
VERTEX
  8
0
 10
267.82669188
 20
316.55763924
  0
VERTEX
  8
0
 10
268.34267364
 20
316.07028859
  0
VERTEX
  8
0
 10
268.79028906
 20
314.64501083
  0
VERTEX
  8
0
 10
269.27397151
 20
313.25580010
  0
VERTEX
  8
0
 10
269.79325824
 20
311.90219365
  0
VERTEX
  8
0
 10
270.34768651
 20
310.58372874
  0
VERTEX
  8
0
 10
270.93679358
 20
309.29994263
  0
VERTEX
  8
0
 10
271.56011670
 20
308.05037257
  0
VERTEX
  8
0
 10
272.21719312
 20
306.83455580
  0
VERTEX
  8
0
 10
272.90756009
 20
305.65202960
  0
VERTEX
  8
0
 10
273.63075488
 20
304.50233120
  0
VERTEX
  8
0
 10
274.38631473
 20
303.38499787
  0
VERTEX
  8
0
 10
275.17377690
 20
302.29956686
  0
VERTEX
  8
0
 10
275.99267864
 20
301.24557542
  0
VERTEX
  8
0
 10
276.84255720
 20
300.22256080
  0
VERTEX
  8
0
 10
277.72294985
 20
299.23006027
  0
VERTEX
  8
0
 10
278.63339383
 20
298.26761107
  0
VERTEX
  8
0
 10
279.57342640
 20
297.33475046
  0
VERTEX
  8
0
 10
279.95858685
 20
296.38213007
  0
VERTEX
  8
0
 10
280.35768103
 20
295.44344340
  0
VERTEX
  8
0
 10
280.77006990
 20
294.51805143
  0
VERTEX
  8
0
 10
281.19511440
 20
293.60531509
  0
VERTEX
  8
0
 10
281.63217550
 20
292.70459534
  0
VERTEX
  8
0
 10
282.08061413
 20
291.81525313
  0
VERTEX
  8
0
 10
283.00906780
 20
290.06814512
  0
VERTEX
  8
0
 10
283.97536304
 20
288.35887867
  0
VERTEX
  8
0
 10
284.97438745
 20
286.68234139
  0
VERTEX
  8
0
 10
286.00102864
 20
285.03342089
  0
VERTEX
  8
0
 10
287.05017420
 20
283.40700477
  0
VERTEX
  8
0
 10
288.11671175
 20
281.79798063
  0
VERTEX
  8
0
 10
289.19552890
 20
280.20123609
  0
VERTEX
  8
0
 10
291.36955239
 20
277.02413621
  0
VERTEX
  8
0
 10
293.53134553
 20
273.83480598
  0
VERTEX
  8
0
 10
294.59487474
 20
272.22277350
  0
VERTEX
  8
0
 10
295.64000917
 20
270.59234625
  0
VERTEX
  8
0
 10
296.47430267
 20
270.94413266
  0
VERTEX
  8
0
 10
297.29416300
 20
271.31042603
  0
VERTEX
  8
0
 10
298.09877830
 20
271.69203460
  0
VERTEX
  8
0
 10
298.88733670
 20
272.08976660
  0
VERTEX
  8
0
 10
299.65902631
 20
272.50443029
  0
VERTEX
  8
0
 10
300.41303527
 20
272.93683391
  0
VERTEX
  8
0
 10
301.14855169
 20
273.38778569
  0
VERTEX
  8
0
 10
301.86476372
 20
273.85809390
  0
VERTEX
  8
0
 10
302.56085947
 20
274.34856677
  0
VERTEX
  8
0
 10
303.23602707
 20
274.86001254
  0
VERTEX
  8
0
 10
303.88945465
 20
275.39323946
  0
VERTEX
  8
0
 10
304.52033033
 20
275.94905578
  0
VERTEX
  8
0
 10
305.12784224
 20
276.52826974
  0
VERTEX
  8
0
 10
305.71117851
 20
277.13168959
  0
VERTEX
  8
0
 10
306.26952727
 20
277.76012356
  0
VERTEX
  8
0
 10
306.80207663
 20
278.41437990
  0
VERTEX
  8
0
 10
307.30801473
 20
279.09526687
  0
VERTEX
  8
0
 10
307.78652969
 20
279.80359269
  0
VERTEX
  8
0
 10
308.23680964
 20
280.54016563
  0
VERTEX
  8
0
 10
308.65804271
 20
281.30579391
  0
VERTEX
  8
0
 10
309.04941702
 20
282.10128579
  0
VERTEX
  8
0
 10
309.41012070
 20
282.92744952
  0
VERTEX
  8
0
 10
309.73934188
 20
283.78509332
  0
VERTEX
  8
0
 10
310.03626867
 20
284.67502546
  0
VERTEX
  8
0
 10
310.30008922
 20
285.59805417
  0
VERTEX
  8
0
 10
310.52999164
 20
286.55498770
  0
VERTEX
  8
0
 10
310.72516406
 20
287.54663429
  0
VERTEX
  8
0
 10
310.88479461
 20
288.57380219
  0
VERTEX
  8
0
 10
311.00807142
 20
289.63729965
  0
VERTEX
  8
0
 10
311.09418261
 20
290.73793489
  0
VERTEX
  8
0
 10
311.14231630
 20
291.87651619
  0
VERTEX
  8
0
 10
311.15166063
 20
293.05385176
  0
VERTEX
  8
0
 10
311.41734372
 20
292.47497013
  0
VERTEX
  8
0
 10
311.66165154
 20
291.89728679
  0
VERTEX
  8
0
 10
311.88488934
 20
291.32099112
  0
VERTEX
  8
0
 10
312.08736234
 20
290.74627251
  0
VERTEX
  8
0
 10
312.26937580
 20
290.17332033
  0
VERTEX
  8
0
 10
312.43123496
 20
289.60232395
  0
VERTEX
  8
0
 10
312.57324505
 20
289.03347277
  0
VERTEX
  8
0
 10
312.69571134
 20
288.46695614
  0
VERTEX
  8
0
 10
312.79893904
 20
287.90296347
  0
VERTEX
  8
0
 10
312.88323342
 20
287.34168411
  0
VERTEX
  8
0
 10
312.94889970
 20
286.78330746
  0
VERTEX
  8
0
 10
312.99624314
 20
286.22802288
  0
VERTEX
  8
0
 10
313.02556898
 20
285.67601976
  0
VERTEX
  8
0
 10
313.03718246
 20
285.12748747
  0
VERTEX
  8
0
 10
313.03138881
 20
284.58261540
  0
VERTEX
  8
0
 10
313.00849330
 20
284.04159292
  0
VERTEX
  8
0
 10
312.96880115
 20
283.50460941
  0
VERTEX
  8
0
 10
312.91261760
 20
282.97185424
  0
VERTEX
  8
0
 10
312.84024791
 20
282.44351681
  0
VERTEX
  8
0
 10
312.75199732
 20
281.91978648
  0
VERTEX
  8
0
 10
312.64817106
 20
281.40085263
  0
VERTEX
  8
0
 10
312.52907439
 20
280.88690464
  0
VERTEX
  8
0
 10
312.39501253
 20
280.37813189
  0
VERTEX
  8
0
 10
312.24629075
 20
279.87472376
  0
VERTEX
  8
0
 10
312.08321427
 20
279.37686962
  0
VERTEX
  8
0
 10
311.90608834
 20
278.88475886
  0
VERTEX
  8
0
 10
311.51090910
 20
277.91852498
  0
VERTEX
  8
0
 10
311.06319498
 20
276.97753713
  0
VERTEX
  8
0
 10
310.56538792
 20
276.06331034
  0
VERTEX
  8
0
 10
310.01992985
 20
275.17735964
  0
VERTEX
  8
0
 10
309.42926272
 20
274.32120005
  0
VERTEX
  8
0
 10
308.79582848
 20
273.49634661
  0
VERTEX
  8
0
 10
308.12206905
 20
272.70431433
  0
VERTEX
  8
0
 10
307.41042638
 20
271.94661825
  0
VERTEX
  8
0
 10
306.66334242
 20
271.22477338
  0
VERTEX
  8
0
 10
305.88325910
 20
270.54029476
  0
VERTEX
  8
0
 10
305.07261837
 20
269.89469742
  0
VERTEX
  8
0
 10
304.23386216
 20
269.28949637
  0
VERTEX
  8
0
 10
303.36943242
 20
268.72620664
  0
VERTEX
  8
0
 10
302.48177109
 20
268.20634326
  0
VERTEX
  8
0
 10
301.57332012
 20
267.73142126
  0
VERTEX
  8
0
 10
300.64652143
 20
267.30295566
  0
VERTEX
  8
0
 10
299.70381697
 20
266.92246150
  0
VERTEX
  8
0
 10
298.74764869
 20
266.59145378
  0
VERTEX
  8
0
 10
297.78045852
 20
266.31144755
  0
VERTEX
  8
0
 10
298.06621614
 20
265.42665177
  0
VERTEX
  8
0
 10
298.39358651
 20
264.58349777
  0
VERTEX
  8
0
 10
298.75884232
 20
263.77828728
  0
VERTEX
  8
0
 10
299.15825627
 20
263.00732202
  0
VERTEX
  8
0
 10
299.58810105
 20
262.26690371
  0
VERTEX
  8
0
 10
300.04464935
 20
261.55333409
  0
VERTEX
  8
0
 10
300.52417386
 20
260.86291487
  0
VERTEX
  8
0
 10
301.02294729
 20
260.19194778
  0
VERTEX
  8
0
 10
301.53724231
 20
259.53673455
  0
VERTEX
  8
0
 10
302.06333163
 20
258.89357690
  0
VERTEX
  8
0
 10
303.13598394
 20
257.62863524
  0
VERTEX
  8
0
 10
304.21108574
 20
256.36753660
  0
VERTEX
  8
0
 10
304.74023694
 20
255.72918273
  0
VERTEX
  8
0
 10
305.25881859
 20
255.08069479
  0
VERTEX
  8
0
 10
306.10082044
 20
251.70217098
  0
VERTEX
  8
0
 10
306.52239821
 20
250.01415848
  0
VERTEX
  8
0
 10
306.95513845
 20
248.33774394
  0
VERTEX
  8
0
 10
307.40712461
 20
246.68100110
  0
VERTEX
  8
0
 10
307.88644011
 20
245.05200374
  0
VERTEX
  8
0
 10
308.40116840
 20
243.45882561
  0
VERTEX
  8
0
 10
308.67433842
 20
242.67819180
  0
VERTEX
  8
0
 10
308.95939292
 20
241.90954046
  0
VERTEX
  8
0
 10
309.25734233
 20
241.15388081
  0
VERTEX
  8
0
 10
309.56919709
 20
240.41222207
  0
VERTEX
  8
0
 10
309.89596762
 20
239.68557345
  0
VERTEX
  8
0
 10
310.23866435
 20
238.97494417
  0
VERTEX
  8
0
 10
310.59829772
 20
238.28134347
  0
VERTEX
  8
0
 10
310.97587815
 20
237.60578055
  0
VERTEX
  8
0
 10
311.37241607
 20
236.94926463
  0
VERTEX
  8
0
 10
311.78892191
 20
236.31280494
  0
VERTEX
  8
0
 10
312.22640610
 20
235.69741070
  0
VERTEX
  8
0
 10
312.68587907
 20
235.10409113
  0
VERTEX
  8
0
 10
313.16835125
 20
234.53385543
  0
VERTEX
  8
0
 10
313.67483307
 20
233.98771285
  0
VERTEX
  8
0
 10
314.20633496
 20
233.46667259
  0
VERTEX
  8
0
 10
314.76386735
 20
232.97174387
  0
VERTEX
  8
0
 10
315.34844067
 20
232.50393592
  0
VERTEX
  8
0
 10
315.96106534
 20
232.06425796
  0
VERTEX
  8
0
 10
315.98278722
 20
230.76878859
  0
VERTEX
  8
0
 10
316.01613212
 20
229.69338932
  0
VERTEX
  8
0
 10
316.08203244
 20
227.92912254
  0
VERTEX
  8
0
 10
316.09675859
 20
227.10341578
  0
VERTEX
  8
0
 10
316.08744921
 20
226.22410062
  0
VERTEX
  8
0
 10
316.04518968
 20
225.22275743
  0
VERTEX
  8
0
 10
315.96106534
 20
224.03096657
  0
VERTEX
  8
0
 10
315.36716212
 20
223.68033042
  0
VERTEX
  8
0
 10
314.76115452
 20
223.38160497
  0
VERTEX
  8
0
 10
314.14398762
 20
223.13207976
  0
VERTEX
  8
0
 10
313.51660651
 20
222.92904432
  0
VERTEX
  8
0
 10
312.87995628
 20
222.76978819
  0
VERTEX
  8
0
 10
312.23498201
 20
222.65160090
  0
VERTEX
  8
0
 10
311.58262877
 20
222.57177198
  0
VERTEX
  8
0
 10
310.92384167
 20
222.52759096
  0
VERTEX
  8
0
 10
310.25956578
 20
222.51634739
  0
VERTEX
  8
0
 10
309.59074619
 20
222.53533078
  0
VERTEX
  8
0
 10
308.91832797
 20
222.58183068
  0
VERTEX
  8
0
 10
308.24325623
 20
222.65313661
  0
VERTEX
  8
0
 10
307.56647603
 20
222.74653812
  0
VERTEX
  8
0
 10
306.88893247
 20
222.85932472
  0
VERTEX
  8
0
 10
305.53533558
 20
223.13221138
  0
VERTEX
  8
0
 10
304.19002625
 20
223.45011284
  0
VERTEX
  8
0
 10
302.86056515
 20
223.79134538
  0
VERTEX
  8
0
 10
301.55451295
 20
224.13422525
  0
VERTEX
  8
0
 10
300.27943033
 20
224.45706872
  0
VERTEX
  8
0
 10
299.04287797
 20
224.73819206
  0
VERTEX
  8
0
 10
298.44141334
 20
224.85633251
  0
VERTEX
  8
0
 10
297.85241653
 20
224.95591152
  0
VERTEX
  8
0
 10
297.27683263
 20
225.03421864
  0
VERTEX
  8
0
 10
296.71560671
 20
225.08854338
  0
VERTEX
  8
0
 10
296.16968386
 20
225.11617529
  0
VERTEX
  8
0
 10
295.64000917
 20
225.11440390
  0
VERTEX
  8
0
 10
295.35888789
 20
225.55174003
  0
VERTEX
  8
0
 10
295.10798685
 20
226.01933633
  0
VERTEX
  8
0
 10
294.88544774
 20
226.51533568
  0
VERTEX
  8
0
 10
294.68941224
 20
227.03788098
  0
VERTEX
  8
0
 10
294.51802204
 20
227.58511513
  0
VERTEX
  8
0
 10
294.36941882
 20
228.15518101
  0
VERTEX
  8
0
 10
294.24174426
 20
228.74622153
  0
VERTEX
  8
0
 10
294.13314006
 20
229.35637957
  0
VERTEX
  8
0
 10
294.04174788
 20
229.98379803
  0
VERTEX
  8
0
 10
293.96570942
 20
230.62661981
  0
VERTEX
  8
0
 10
293.85226040
 20
231.95104487
  0
VERTEX
  8
0
 10
293.77792645
 20
233.31479791
  0
VERTEX
  8
0
 10
293.72784106
 20
234.70302208
  0
VERTEX
  8
0
 10
293.64094981
 20
237.49345640
  0
VERTEX
  8
0
 10
293.57441091
 20
238.86595286
  0
VERTEX
  8
0
 10
293.47265445
 20
240.20349304
  0
VERTEX
  8
0
 10
293.40392384
 20
240.85451176
  0
VERTEX
  8
0
 10
293.32081390
 20
241.49122010
  0
VERTEX
  8
0
 10
293.22146631
 20
242.11176094
  0
VERTEX
  8
0
 10
293.10402275
 20
242.71427719
  0
VERTEX
  8
0
 10
292.96662490
 20
243.29691173
  0
VERTEX
  8
0
 10
292.80741446
 20
243.85780746
  0
VERTEX
  8
0
 10
292.62453309
 20
244.39510727
  0
VERTEX
  8
0
 10
292.41612250
 20
244.90695405
  0
VERTEX
  8
0
 10
292.70479769
 20
245.37459299
  0
VERTEX
  8
0
 10
292.94740608
 20
245.82478765
  0
VERTEX
  8
0
 10
293.14582883
 20
246.25831660
  0
VERTEX
  8
0
 10
293.30194712
 20
246.67595838
  0
VERTEX
  8
0
 10
293.41764213
 20
247.07849157
  0
VERTEX
  8
0
 10
293.49479504
 20
247.46669473
  0
VERTEX
  8
0
 10
293.53528701
 20
247.84134640
  0
VERTEX
  8
0
 10
293.54099924
 20
248.20322516
  0
VERTEX
  8
0
 10
293.51381288
 20
248.55310956
  0
VERTEX
  8
0
 10
293.45560912
 20
248.89177815
  0
VERTEX
  8
0
 10
293.36826914
 20
249.22000951
  0
VERTEX
  8
0
 10
293.25367410
 20
249.53858219
  0
VERTEX
  8
0
 10
293.11370519
 20
249.84827475
  0
VERTEX
  8
0
 10
292.95024359
 20
250.14986575
  0
VERTEX
  8
0
 10
292.76517046
 20
250.44413375
  0
VERTEX
  8
0
 10
292.56036698
 20
250.73185730
  0
VERTEX
  8
0
 10
292.33771434
 20
251.01381498
  0
VERTEX
  8
0
 10
292.09909369
 20
251.29078533
  0
VERTEX
  8
0
 10
291.58147313
 20
251.83287830
  0
VERTEX
  8
0
 10
291.02255470
 20
252.36436470
  0
VERTEX
  8
0
 10
290.43738781
 20
252.89147300
  0
VERTEX
  8
0
 10
289.24850628
 20
253.95746923
  0
VERTEX
  8
0
 10
288.67489046
 20
254.50881410
  0
VERTEX
  8
0
 10
288.13522380
 20
255.08069479
  0
VERTEX
  8
0
 10
287.72853288
 20
255.56342363
  0
VERTEX
  8
0
 10
287.32438852
 20
256.08795958
  0
VERTEX
  8
0
 10
286.92051056
 20
256.64684064
  0
VERTEX
  8
0
 10
286.51461883
 20
257.23260483
  0
VERTEX
  8
0
 10
285.68767339
 20
258.45493458
  0
VERTEX
  8
0
 10
284.82531088
 20
259.69525287
  0
VERTEX
  8
0
 10
284.37514781
 20
260.30350273
  0
VERTEX
  8
0
 10
283.90928998
 20
260.89386374
  0
VERTEX
  8
0
 10
283.42545723
 20
261.45887390
  0
VERTEX
  8
0
 10
282.92136937
 20
261.99107122
  0
VERTEX
  8
0
 10
282.39474626
 20
262.48299371
  0
VERTEX
  8
0
 10
281.84330773
 20
262.92717936
  0
VERTEX
  8
0
 10
281.55757013
 20
263.12903900
  0
VERTEX
  8
0
 10
281.26477361
 20
263.31616618
  0
VERTEX
  8
0
 10
280.96463315
 20
263.48762816
  0
VERTEX
  8
0
 10
280.65686373
 20
263.64249218
  0
VERTEX
  8
0
 10
279.31682640
 20
263.66414015
  0
VERTEX
  8
0
 10
277.98490540
 20
263.72986159
  0
VERTEX
  8
0
 10
276.66191841
 20
263.83886444
  0
VERTEX
  8
0
 10
275.34868317
 20
263.99035664
  0
VERTEX
  8
0
 10
274.04601739
 20
264.18354613
  0
VERTEX
  8
0
 10
272.75473878
 20
264.41764086
  0
VERTEX
  8
0
 10
271.47566505
 20
264.69184875
  0
VERTEX
  8
0
 10
270.20961393
 20
265.00537776
  0
VERTEX
  8
0
 10
268.95740312
 20
265.35743581
  0
VERTEX
  8
0
 10
267.71985035
 20
265.74723086
  0
VERTEX
  8
0
 10
266.49777332
 20
266.17397084
  0
VERTEX
  8
0
 10
265.29198976
 20
266.63686369
  0
VERTEX
  8
0
 10
264.10331737
 20
267.13511735
  0
VERTEX
  8
0
 10
262.93257387
 20
267.66793976
  0
VERTEX
  8
0
 10
261.78057698
 20
268.23453887
  0
VERTEX
  8
0
 10
260.64814441
 20
268.83412260
  0
VERTEX
  8
0
 10
259.53609388
 20
269.46589891
  0
VERTEX
  8
0
 10
258.44524310
 20
270.12907573
  0
VERTEX
  8
0
 10
257.37640979
 20
270.82286100
  0
VERTEX
  8
0
 10
256.33041165
 20
271.54646266
  0
VERTEX
  8
0
 10
255.30806642
 20
272.29908865
  0
VERTEX
  8
0
 10
254.31019179
 20
273.07994692
  0
VERTEX
  8
0
 10
253.33760549
 20
273.88824539
  0
VERTEX
  8
0
 10
252.39112524
 20
274.72319202
  0
VERTEX
  8
0
 10
251.47156874
 20
275.58399474
  0
VERTEX
  8
0
 10
250.57975371
 20
276.46986150
  0
VERTEX
  8
0
 10
249.71649787
 20
277.38000022
  0
VERTEX
  8
0
 10
248.88261892
 20
278.31361886
  0
VERTEX
  8
0
 10
248.07893460
 20
279.26992534
  0
VERTEX
  8
0
 10
247.30626261
 20
280.24812762
  0
VERTEX
  8
0
 10
246.56542066
 20
281.24743364
  0
VERTEX
  8
0
 10
245.85722647
 20
282.26705132
  0
VERTEX
  8
0
 10
245.18249776
 20
283.30618862
  0
VERTEX
  8
0
 10
244.54205224
 20
284.36405347
  0
VERTEX
  8
0
 10
243.93670763
 20
285.43985381
  0
VERTEX
  8
0
 10
243.36728164
 20
286.53279758
  0
VERTEX
  8
0
 10
242.83459198
 20
287.64209273
  0
VERTEX
  8
0
 10
242.33945638
 20
288.76694718
  0
VERTEX
  8
0
 10
241.88269254
 20
289.90656889
  0
VERTEX
  8
0
 10
241.46511818
 20
291.06016580
  0
VERTEX
  8
0
 10
241.08755102
 20
292.22694583
  0
VERTEX
  8
0
 10
240.75080877
 20
293.40611694
  0
VERTEX
  8
0
 10
240.45570914
 20
294.59688706
  0
VERTEX
  8
0
 10
240.20306986
 20
295.79846413
  0
VERTEX
  8
0
 10
239.99370863
 20
297.01005610
  0
VERTEX
  8
0
 10
239.82844317
 20
298.23087090
  0
VERTEX
  8
0
 10
239.70809120
 20
299.46011647
  0
VERTEX
  8
0
 10
239.63347043
 20
300.69700075
  0
VERTEX
  8
0
 10
239.60539857
 20
301.94073169
  0
VERTEX
  8
0
 10
239.62469335
 20
303.19051722
  0
VERTEX
  8
0
 10
239.69217247
 20
304.44556528
  0
VERTEX
  8
0
 10
239.80865365
 20
305.70508382
  0
VERTEX
  8
0
 10
239.97495461
 20
306.96828077
  0
VERTEX
  8
0
 10
240.19189306
 20
308.23436407
  0
VERTEX
  8
0
 10
240.46028671
 20
309.50254166
  0
VERTEX
  8
0
 10
240.78095329
 20
310.77202149
  0
VERTEX
  8
0
 10
241.15471049
 20
312.04201149
  0
VERTEX
  8
0
 10
241.58237605
 20
313.31171960
  0
VERTEX
  8
0
 10
242.06476768
 20
314.58035377
  0
VERTEX
  8
0
 10
242.60270309
 20
315.84712193
  0
VERTEX
  8
0
 10
243.19699999
 20
317.11123202
  0
VERTEX
  8
0
 10
243.84847610
 20
318.37189199
  0
VERTEX
  8
0
 10
244.55794913
 20
319.62830977
  0
VERTEX
  8
0
 10
245.32623681
 20
320.87969330
  0
VERTEX
  8
0
 10
244.66667401
 20
322.14061645
  0
VERTEX
  8
0
 10
243.98083136
 20
323.37974862
  0
VERTEX
  8
0
 10
243.27124249
 20
324.59918925
  0
VERTEX
  8
0
 10
242.54044099
 20
325.80103778
  0
VERTEX
  8
0
 10
241.79096049
 20
326.98739364
  0
VERTEX
  8
0
 10
241.02533457
 20
328.16035628
  0
VERTEX
  8
0
 10
240.24609687
 20
329.32202513
  0
VERTEX
  8
0
 10
239.45578097
 20
330.47449963
  0
VERTEX
  8
0
 10
237.85204905
 20
332.76026333
  0
VERTEX
  8
0
 10
236.23440767
 20
335.03444286
  0
VERTEX
  8
0
 10
234.62312571
 20
337.31383373
  0
VERTEX
  8
0
 10
233.03847203
 20
339.61523144
  0
VERTEX
  8
0
 10
231.48282147
 20
341.94717623
  0
VERTEX
  8
0
 10
229.97310503
 20
344.29979593
  0
VERTEX
  8
0
 10
228.50757043
 20
346.68305650
  0
VERTEX
  8
0
 10
227.08446533
 20
349.10692393
  0
VERTEX
  8
0
 10
226.38827626
 20
350.33719958
  0
VERTEX
  8
0
 10
225.70203745
 20
351.58136418
  0
VERTEX
  8
0
 10
225.02552986
 20
352.84066348
  0
VERTEX
  8
0
 10
224.35853446
 20
354.11634323
  0
VERTEX
  8
0
 10
223.70083221
 20
355.40964917
  0
VERTEX
  8
0
 10
223.05220407
 20
356.72182704
  0
VERTEX
  8
0
 10
222.41243100
 20
358.05412260
  0
VERTEX
  8
0
 10
221.78129397
 20
359.40778159
  0
VERTEX
  8
0
 10
221.09031168
 20
359.51946781
  0
VERTEX
  8
0
 10
220.41178666
 20
359.64361130
  0
VERTEX
  8
0
 10
219.73344460
 20
359.76793774
  0
VERTEX
  8
0
 10
219.04301117
 20
359.88017282
  0
VERTEX
  8
0
 10
218.32821204
 20
359.96804220
  0
VERTEX
  8
0
 10
217.57677289
 20
360.01927155
  0
VERTEX
  8
0
 10
216.77641940
 20
360.02158657
  0
VERTEX
  8
0
 10
216.35406405
 20
360.00056546
  0
VERTEX
  8
0
 10
215.91487723
 20
359.96271291
  0
VERTEX
  8
0
 10
215.79976566
 20
359.67049552
  0
VERTEX
  8
0
 10
215.72151424
 20
359.38469497
  0
VERTEX
  8
0
 10
215.67551325
 20
359.10270611
  0
VERTEX
  8
0
 10
215.65715301
 20
358.82192380
  0
VERTEX
  8
0
 10
215.66182381
 20
358.53974291
  0
VERTEX
  8
0
 10
215.68491596
 20
358.25355829
  0
VERTEX
  8
0
 10
215.76792548
 20
357.65875734
  0
VERTEX
  8
0
 10
215.86930396
 20
357.01667983
  0
VERTEX
  8
0
 10
215.95217382
 20
356.30648465
  0
VERTEX
  8
0
 10
215.97514376
 20
355.91933010
  0
VERTEX
  8
0
 10
215.97965744
 20
355.50733071
  0
VERTEX
  8
0
 10
215.96110517
 20
355.06788135
  0
VERTEX
  8
0
 10
215.91487723
 20
354.59837688
  0
VERTEX
  8
0
 10
214.67230908
 20
349.68281775
  0
VERTEX
  8
0
 10
214.06598484
 20
347.21054286
  0
VERTEX
  8
0
 10
213.47180485
 20
344.72643339
  0
VERTEX
  8
0
 10
212.89139737
 20
342.22886108
  0
VERTEX
  8
0
 10
212.32639067
 20
339.71619766
  0
VERTEX
  8
0
 10
211.77841303
 20
337.18681485
  0
VERTEX
  8
0
 10
211.24909271
 20
334.63908440
  0
VERTEX
  8
0
 10
210.74005798
 20
332.07137803
  0
VERTEX
  8
0
 10
210.25293710
 20
329.48206747
  0
VERTEX
  8
0
 10
209.78935835
 20
326.86952446
  0
VERTEX
  8
0
 10
209.35094999
 20
324.23212073
  0
VERTEX
  8
0
 10
208.93934029
 20
321.56822801
  0
VERTEX
  8
0
 10
208.55615752
 20
318.87621803
  0
VERTEX
  8
0
 10
208.20302995
 20
316.15446253
  0
VERTEX
  8
0
 10
207.88158585
 20
313.40133323
  0
VERTEX
  8
0
 10
208.28054898
 20
312.86744748
  0
VERTEX
  8
0
 10
208.69875823
 20
312.34144036
  0
VERTEX
  8
0
 10
209.13506081
 20
311.82272919
  0
VERTEX
  8
0
 10
209.58830394
 20
311.31073131
  0
VERTEX
  8
0
 10
210.54100071
 20
310.30454473
  0
VERTEX
  8
0
 10
211.54762627
 20
309.31821928
  0
VERTEX
  8
0
 10
212.59895836
 20
308.34709360
  0
VERTEX
  8
0
 10
213.68577472
 20
307.38650636
  0
VERTEX
  8
0
 10
214.79885307
 20
306.43179619
  0
VERTEX
  8
0
 10
215.92897117
 20
305.47830174
  0
VERTEX
  8
0
 10
218.20343750
 20
303.55631464
  0
VERTEX
  8
0
 10
219.32934122
 20
302.57849929
  0
VERTEX
  8
0
 10
220.43539560
 20
301.58325426
  0
VERTEX
  8
0
 10
221.51237840
 20
300.56591821
  0
VERTEX
  8
0
 10
222.55106735
 20
299.52182980
  0
VERTEX
  8
0
 10
223.05316967
 20
298.98829678
  0
VERTEX
  8
0
 10
223.54224018
 20
298.44632766
  0
VERTEX
  8
0
 10
224.01712610
 20
297.89533978
  0
VERTEX
  8
0
 10
224.47667463
 20
297.33475046
  0
VERTEX
  8
0
 10
225.19487528
 20
296.38654341
  0
VERTEX
  8
0
 10
225.92207447
 20
295.33177849
  0
VERTEX
  8
0
 10
226.64535590
 20
294.17932756
  0
VERTEX
  8
0
 10
227.00149112
 20
293.56924230
  0
VERTEX
  8
0
 10
227.35180328
 20
292.93806250
  0
VERTEX
  8
0
 10
227.69467787
 20
292.28689712
  0
VERTEX
  8
0
 10
228.02850033
 20
291.61685516
  0
VERTEX
  8
0
 10
228.35165613
 20
290.92904561
  0
VERTEX
  8
0
 10
228.66253074
 20
290.22457743
  0
VERTEX
  8
0
 10
228.95950961
 20
289.50455962
  0
VERTEX
  8
0
 10
229.24097822
 20
288.77010117
  0
VERTEX
  8
0
 10
229.50532202
 20
288.02231104
  0
VERTEX
  8
0
 10
229.75092647
 20
287.26229823
  0
VERTEX
  8
0
 10
229.97617705
 20
286.49117173
  0
VERTEX
  8
0
 10
230.17945922
 20
285.71004051
  0
VERTEX
  8
0
 10
230.35915843
 20
284.92001355
  0
VERTEX
  8
0
 10
230.51366015
 20
284.12219985
  0
VERTEX
  8
0
 10
230.64134985
 20
283.31770838
  0
VERTEX
  8
0
 10
230.74061299
 20
282.50764812
  0
VERTEX
  8
0
 10
230.80983502
 20
281.69312807
  0
VERTEX
  8
0
 10
230.84740142
 20
280.87525720
  0
VERTEX
  8
0
 10
230.85169765
 20
280.05514451
  0
VERTEX
  8
0
 10
230.82110917
 20
279.23389896
  0
VERTEX
  8
0
 10
230.75402145
 20
278.41262955
  0
VERTEX
  8
0
 10
230.64881994
 20
277.59244525
  0
VERTEX
  8
0
 10
230.50389011
 20
276.77445506
  0
VERTEX
  8
0
 10
230.31761743
 20
275.95976795
  0
VERTEX
  8
0
 10
230.08838736
 20
275.14949292
  0
VERTEX
  8
0
 10
229.81458535
 20
274.34473893
  0
VERTEX
  8
0
 10
229.55242983
 20
273.66704786
  0
VERTEX
  8
0
 10
229.27117113
 20
273.00188462
  0
VERTEX
  8
0
 10
228.97117288
 20
272.34908022
  0
VERTEX
  8
0
 10
228.65279868
 20
271.70846566
  0
VERTEX
  8
0
 10
228.31641217
 20
271.07987196
  0
VERTEX
  8
0
 10
227.96237697
 20
270.46313012
  0
VERTEX
  8
0
 10
227.59105669
 20
269.85807117
  0
VERTEX
  8
0
 10
227.20281497
 20
269.26452611
  0
VERTEX
  8
0
 10
226.79801541
 20
268.68232596
  0
VERTEX
  8
0
 10
226.37702165
 20
268.11130171
  0
VERTEX
  8
0
 10
225.94019731
 20
267.55128440
  0
VERTEX
  8
0
 10
225.48790600
 20
267.00210501
  0
VERTEX
  8
0
 10
225.02051135
 20
266.46359458
  0
VERTEX
  8
0
 10
224.53837698
 20
265.93558410
  0
VERTEX
  8
0
 10
224.04186651
 20
265.41790459
  0
VERTEX
  8
0
 10
223.53134357
 20
264.91038707
  0
VERTEX
  8
0
 10
223.00717177
 20
264.41286253
  0
VERTEX
  8
0
 10
222.46971473
 20
263.92516200
  0
VERTEX
  8
0
 10
221.91933608
 20
263.44711648
  0
VERTEX
  8
0
 10
221.35639945
 20
262.97855699
  0
VERTEX
  8
0
 10
220.19430669
 20
262.06922012
  0
VERTEX
  8
0
 10
218.98634543
 20
261.19579948
  0
VERTEX
  8
0
 10
217.73542465
 20
260.35694317
  0
VERTEX
  8
0
 10
216.44445331
 20
259.55129927
  0
VERTEX
  8
0
 10
215.11634038
 20
258.77751587
  0
VERTEX
  8
0
 10
213.75399485
 20
258.03424106
  0
VERTEX
  8
0
 10
212.36032568
 20
257.32012292
  0
VERTEX
  8
0
 10
210.93824186
 20
256.63380956
  0
VERTEX
  8
0
 10
209.49065234
 20
255.97394904
  0
VERTEX
  8
0
 10
208.02046611
 20
255.33918948
  0
VERTEX
  8
0
 10
206.53059213
 20
254.72817895
  0
VERTEX
  8
0
 10
205.02393939
 20
254.13956554
  0
VERTEX
  8
0
 10
203.50341685
 20
253.57199734
  0
VERTEX
  8
0
 10
201.97193348
 20
253.02412244
  0
VERTEX
  8
0
 10
200.43239827
 20
252.49458893
  0
VERTEX
  8
0
 10
198.88772018
 20
251.98204490
  0
VERTEX
  8
0
 10
195.79457126
 20
251.00251763
  0
VERTEX
  8
0
 10
192.71575852
 20
250.07472535
  0
VERTEX
  8
0
 10
189.67455373
 20
249.18785275
  0
VERTEX
  8
0
 10
189.76871245
 20
248.76630369
  0
VERTEX
  8
0
 10
189.83381327
 20
248.33383816
  0
VERTEX
  8
0
 10
189.87339263
 20
247.89143826
  0
VERTEX
  8
0
 10
189.89098697
 20
247.44008609
  0
VERTEX
  8
0
 10
189.89013275
 20
246.98076376
  0
VERTEX
  8
0
 10
189.87436639
 20
246.51445335
  0
VERTEX
  8
0
 10
189.81224309
 20
245.56479672
  0
VERTEX
  8
0
 10
189.73290861
 20
244.59897301
  0
VERTEX
  8
0
 10
189.66465452
 20
243.62483901
  0
VERTEX
  8
0
 10
189.63577238
 20
242.65025154
  0
VERTEX
  8
0
 10
189.64493689
 20
242.16524299
  0
VERTEX
  8
0
 10
189.67455373
 20
241.68306738
  0
VERTEX
  8
0
 10
189.79487352
 20
240.43880677
  0
VERTEX
  8
0
 10
189.93341716
 20
239.15282126
  0
VERTEX
  8
0
 10
190.23976849
 20
236.48849058
  0
VERTEX
  8
0
 10
190.54279277
 20
233.75570535
  0
VERTEX
  8
0
 10
190.67717760
 20
232.38415165
  0
VERTEX
  8
0
 10
190.79167505
 20
231.02009557
  0
VERTEX
  8
0
 10
190.87993327
 20
229.67174085
  0
VERTEX
  8
0
 10
190.93560038
 20
228.34729125
  0
VERTEX
  8
0
 10
190.95232451
 20
227.05495052
  0
VERTEX
  8
0
 10
190.92375379
 20
225.80292241
  0
VERTEX
  8
0
 10
190.84353635
 20
224.59941068
  0
VERTEX
  8
0
 10
190.78207515
 20
224.01841212
  0
VERTEX
  8
0
 10
190.70532033
 20
223.45261906
  0
VERTEX
  8
0
 10
190.61247788
 20
222.90305697
  0
VERTEX
  8
0
 10
190.50275385
 20
222.37075132
  0
VERTEX
  8
0
 10
190.37535423
 20
221.85672758
  0
VERTEX
  8
0
 10
190.22948504
 20
221.36201121
  0
VERTEX
  8
0
 10
190.08906999
 20
221.00849040
  0
VERTEX
  8
0
 10
189.89570701
 20
220.63274469
  0
VERTEX
  8
0
 10
189.65517477
 20
220.24005798
  0
VERTEX
  8
0
 10
189.37325196
 20
219.83571417
  0
VERTEX
  8
0
 10
189.05571723
 20
219.42499717
  0
VERTEX
  8
0
 10
188.70834926
 20
219.01319088
  0
VERTEX
  8
0
 10
188.33692672
 20
218.60557920
  0
VERTEX
  8
0
 10
187.94722828
 20
218.20744603
  0
VERTEX
  8
0
 10
187.54503262
 20
217.82407527
  0
VERTEX
  8
0
 10
187.13611840
 20
217.46075082
  0
VERTEX
  8
0
 10
186.72626430
 20
217.12275659
  0
VERTEX
  8
0
 10
186.32124898
 20
216.81537647
  0
VERTEX
  8
0
 10
185.92685112
 20
216.54389437
  0
VERTEX
  8
0
 10
185.54884940
 20
216.31359419
  0
VERTEX
  8
0
 10
185.19302247
 20
216.12975983
  0
VERTEX
  8
0
 10
184.86514902
 20
215.99767519
  0
VERTEX
  8
0
 10
184.57462381
 20
215.91322916
  0
VERTEX
  8
0
 10
184.27378661
 20
215.84655898
  0
VERTEX
  8
0
 10
183.96306026
 20
215.79654377
  0
VERTEX
  8
0
 10
183.64286763
 20
215.76206262
  0
VERTEX
  8
0
 10
182.97577494
 20
215.73521898
  0
VERTEX
  8
0
 10
182.27589137
 20
215.75706093
  0
VERTEX
  8
0
 10
181.54659979
 20
215.81862135
  0
VERTEX
  8
0
 10
180.79128305
 20
215.91093311
  0
VERTEX
  8
0
 10
179.21610548
 20
216.15194213
  0
VERTEX
  8
0
 10
177.57742148
 20
216.40835099
  0
VERTEX
  8
0
 10
176.74272169
 20
216.51991254
  0
VERTEX
  8
0
 10
175.90229384
 20
216.60842268
  0
VERTEX
  8
0
 10
175.05952079
 20
216.66491427
  0
VERTEX
  8
0
 10
174.21778539
 20
216.68042019
  0
VERTEX
  8
0
 10
173.38047049
 20
216.64597331
  0
VERTEX
  8
0
 10
172.96452786
 20
216.60721534
  0
VERTEX
  8
0
 10
172.55095893
 20
216.55260650
  0
VERTEX
  8
0
 10
172.32461553
 20
217.34475527
  0
VERTEX
  8
0
 10
172.15324787
 20
218.10825582
  0
VERTEX
  8
0
 10
172.03390017
 20
218.84463433
  0
VERTEX
  8
0
 10
171.96361667
 20
219.55541699
  0
VERTEX
  8
0
 10
171.93944158
 20
220.24212997
  0
VERTEX
  8
0
 10
171.95841914
 20
220.90629947
  0
VERTEX
  8
0
 10
172.01759356
 20
221.54945166
  0
VERTEX
  8
0
 10
172.11400907
 20
222.17311273
  0
VERTEX
  8
0
 10
172.24470991
 20
222.77880887
  0
VERTEX
  8
0
 10
172.40674028
 20
223.36806625
  0
VERTEX
  8
0
 10
172.59714443
 20
223.94241105
  0
VERTEX
  8
0
 10
172.81296656
 20
224.50336948
  0
VERTEX
  8
0
 10
173.05125092
 20
225.05246770
  0
VERTEX
  8
0
 10
173.30904172
 20
225.59123190
  0
VERTEX
  8
0
 10
173.58338319
 20
226.12118826
  0
VERTEX
  8
0
 10
173.87131956
 20
226.64386297
  0
VERTEX
  8
0
 10
174.47615388
 20
227.67347217
  0
VERTEX
  8
0
 10
175.09989848
 20
228.69226896
  0
VERTEX
  8
0
 10
175.71890716
 20
229.71246281
  0
VERTEX
  8
0
 10
176.30953374
 20
230.74626318
  0
VERTEX
  8
0
 10
176.58681430
 20
231.27208128
  0
VERTEX
  8
0
 10
176.84813200
 20
231.80587955
  0
VERTEX
  8
0
 10
177.09053108
 20
232.34918420
  0
VERTEX
  8
0
 10
177.31105576
 20
232.90352139
  0
VERTEX
  8
0
 10
177.50675026
 20
233.47041732
  0
VERTEX
  8
0
 10
177.67465881
 20
234.05139816
  0
VERTEX
  8
0
 10
177.81182563
 20
234.64799010
  0
VERTEX
  8
0
 10
177.91529496
 20
235.26171933
  0
VERTEX
  8
0
 10
177.99857614
 20
236.05658715
  0
VERTEX
  8
0
 10
178.03668846
 20
236.83566522
  0
VERTEX
  8
0
 10
178.03693149
 20
237.60355088
  0
VERTEX
  8
0
 10
178.00660482
 20
238.36484147
  0
VERTEX
  8
0
 10
177.95300802
 20
239.12413434
  0
VERTEX
  8
0
 10
177.88344068
 20
239.88602684
  0
VERTEX
  8
0
 10
177.72559268
 20
241.43600007
  0
VERTEX
  8
0
 10
177.65191119
 20
242.23327549
  0
VERTEX
  8
0
 10
177.59145747
 20
243.05153992
  0
VERTEX
  8
0
 10
177.55153111
 20
243.89539069
  0
VERTEX
  8
0
 10
177.53943168
 20
244.76942515
  0
VERTEX
  8
0
 10
177.56245877
 20
245.67824063
  0
VERTEX
  8
0
 10
177.62791196
 20
246.62643450
  0
VERTEX
  8
0
 10
177.74309083
 20
247.61860409
  0
VERTEX
  8
0
 10
177.91529496
 20
248.65934674
  0
VERTEX
  8
0
 10
175.46614278
 20
248.80218288
  0
VERTEX
  8
0
 10
172.99393295
 20
248.98545171
  0
VERTEX
  8
0
 10
170.50619677
 20
249.21206273
  0
VERTEX
  8
0
 10
168.01046555
 20
249.48492548
  0
VERTEX
  8
0
 10
165.51427056
 20
249.80694947
  0
VERTEX
  8
0
 10
163.02514313
 20
250.18104424
  0
VERTEX
  8
0
 10
160.55061454
 20
250.61011929
  0
VERTEX
  8
0
 10
159.32117834
 20
250.84618365
  0
VERTEX
  8
0
 10
158.09821609
 20
251.09708415
  0
VERTEX
  8
0
 10
156.88266921
 20
251.36318448
  0
VERTEX
  8
0
 10
155.67547909
 20
251.64484834
  0
VERTEX
  8
0
 10
154.47758716
 20
251.94243941
  0
VERTEX
  8
0
 10
153.28993483
 20
252.25632139
  0
VERTEX
  8
0
 10
152.11346351
 20
252.58685796
  0
VERTEX
  8
0
 10
150.94911461
 20
252.93441282
  0
VERTEX
  8
0
 10
149.79782954
 20
253.29934965
  0
VERTEX
  8
0
 10
148.66054972
 20
253.68203214
  0
VERTEX
  8
0
 10
147.53821657
 20
254.08282399
  0
VERTEX
  8
0
 10
146.43177148
 20
254.50208889
  0
VERTEX
  8
0
 10
145.34215588
 20
254.94019052
  0
VERTEX
  8
0
 10
144.27031117
 20
255.39749257
  0
VERTEX
  8
0
 10
143.21717877
 20
255.87435875
  0
VERTEX
  8
0
 10
142.18370009
 20
256.37115273
  0
VERTEX
  8
0
 10
141.17081655
 20
256.88823820
  0
VERTEX
  8
0
 10
140.17946955
 20
257.42597886
  0
VERTEX
  8
0
 10
139.21060051
 20
257.98473840
  0
VERTEX
  8
0
 10
138.26515084
 20
258.56488051
  0
VERTEX
  8
0
 10
137.34406196
 20
259.16676887
  0
VERTEX
  8
0
 10
136.44827527
 20
259.79076719
  0
VERTEX
  8
0
 10
135.57873218
 20
260.43723913
  0
VERTEX
  8
0
 10
134.73637412
 20
261.10654841
  0
VERTEX
  8
0
 10
133.92214249
 20
261.79905871
  0
VERTEX
  8
0
 10
133.13697870
 20
262.51513371
  0
VERTEX
  8
0
 10
132.38182417
 20
263.25513712
  0
VERTEX
  8
0
 10
131.65762031
 20
264.01943261
  0
VERTEX
  8
0
 10
130.96530853
 20
264.80838388
  0
VERTEX
  8
0
 10
130.30583024
 20
265.62235462
  0
VERTEX
  8
0
 10
129.68012686
 20
266.46170853
  0
VERTEX
  8
0
 10
129.08913980
 20
267.32680928
  0
VERTEX
  8
0
 10
128.53381047
 20
268.21802057
  0
VERTEX
  8
0
 10
128.01508029
 20
269.13570609
  0
VERTEX
  8
0
 10
127.53389066
 20
270.08022954
  0
VERTEX
  8
0
 10
127.09118299
 20
271.05195459
  0
VERTEX
  8
0
 10
126.68789871
 20
272.05124495
  0
VERTEX
  8
0
 10
126.32497922
 20
273.07846429
  0
VERTEX
  8
0
 10
126.00336593
 20
274.13397632
  0
VERTEX
  8
0
 10
125.72400027
 20
275.21814472
  0
VERTEX
  8
0
 10
125.48782363
 20
276.33133319
  0
VERTEX
  8
0
 10
125.29577743
 20
277.47390540
  0
VERTEX
  8
0
 10
125.14880309
 20
278.64622506
  0
VERTEX
  8
0
 10
125.04784201
 20
279.84865585
  0
VERTEX
  8
0
 10
124.99383562
 20
281.08156146
  0
VERTEX
  8
0
 10
124.98772531
 20
282.34530559
  0
VERTEX
  8
0
 10
125.03045251
 20
283.64025192
  0
VERTEX
  8
0
 10
125.12295862
 20
284.96676415
  0
VERTEX
  8
0
 10
125.26618507
 20
286.32520596
  0
VERTEX
  8
0
 10
125.46107325
 20
287.71594104
  0
VERTEX
  8
0
 10
125.37143948
 20
287.92214965
  0
VERTEX
  8
0
 10
125.31830673
 20
287.99213385
  0
VERTEX
  8
0
 10
125.26003993
 20
288.04213541
  0
VERTEX
  8
0
 10
125.19694644
 20
288.07372742
  0
VERTEX
  8
0
 10
125.12933365
 20
288.08848297
  0
VERTEX
  8
0
 10
124.98177973
 20
288.07377698
  0
VERTEX
  8
0
 10
124.81983724
 20
288.01060209
  0
VERTEX
  8
0
 10
124.64596524
 20
287.91154295
  0
VERTEX
  8
0
 10
124.27226900
 20
287.65611053
  0
VERTEX
  8
0
 10
124.07736291
 20
287.52490655
  0
VERTEX
  8
0
 10
123.88036359
 20
287.40815692
  0
VERTEX
  8
0
 10
123.68373011
 20
287.31844630
  0
VERTEX
  8
0
 10
123.48992155
 20
287.26835933
  0
VERTEX
  8
0
 10
123.39484508
 20
287.26210742
  0
VERTEX
  8
0
 10
123.30139698
 20
287.27048067
  0
VERTEX
  8
0
 10
123.20988465
 20
287.29505216
  0
VERTEX
  8
0
 10
123.12061547
 20
287.33739497
  0
VERTEX
  8
0
 10
123.03389681
 20
287.39908218
  0
VERTEX
  8
0
 10
122.95003608
 20
287.48168688
  0
VERTEX
  8
0
 10
122.86934064
 20
287.58678213
  0
VERTEX
  8
0
 10
122.79211789
 20
287.71594104
  0
VERTEX
  8
0
 10
123.16658996
 20
288.67808462
  0
VERTEX
  8
0
 10
123.58184707
 20
289.59959121
  0
VERTEX
  8
0
 10
124.03661775
 20
290.48173384
  0
VERTEX
  8
0
 10
124.52963054
 20
291.32578554
  0
VERTEX
  8
0
 10
125.05961399
 20
292.13301932
  0
VERTEX
  8
0
 10
125.62529663
 20
292.90470822
  0
VERTEX
  8
0
 10
126.22540703
 20
293.64212525
  0
VERTEX
  8
0
 10
126.85867371
 20
294.34654345
  0
VERTEX
  8
0
 10
127.52382521
 20
295.01923583
  0
VERTEX
  8
0
 10
128.21959010
 20
295.66147542
  0
VERTEX
  8
0
 10
128.94469689
 20
296.27453525
  0
VERTEX
  8
0
 10
129.69787415
 20
296.85968834
  0
VERTEX
  8
0
 10
130.47785041
 20
297.41820771
  0
VERTEX
  8
0
 10
131.28335421
 20
297.95136640
  0
VERTEX
  8
0
 10
132.11311410
 20
298.46043742
  0
VERTEX
  8
0
 10
132.96585862
 20
298.94669380
  0
VERTEX
  8
0
 10
132.87489128
 20
297.91416606
  0
VERTEX
  8
0
 10
132.75601711
 20
296.90507928
  0
VERTEX
  8
0
 10
132.61687145
 20
295.91715556
  0
VERTEX
  8
0
 10
132.46508964
 20
294.94811702
  0
VERTEX
  8
0
 10
132.15415893
 20
293.05758395
  0
VERTEX
  8
0
 10
132.01028073
 20
292.13153364
  0
VERTEX
  8
0
 10
131.88430773
 20
291.21525697
  0
VERTEX
  8
0
 10
131.78387530
 20
290.30647605
  0
VERTEX
  8
0
 10
131.71661877
 20
289.40291301
  0
VERTEX
  8
0
 10
131.69017348
 20
288.50228994
  0
VERTEX
  8
0
 10
131.71217477
 20
287.60232897
  0
VERTEX
  8
0
 10
131.74372893
 20
287.15188493
  0
VERTEX
  8
0
 10
131.79025799
 20
286.70075221
  0
VERTEX
  8
0
 10
131.85271636
 20
286.24864607
  0
VERTEX
  8
0
 10
131.93205847
 20
285.79528178
  0
VERTEX
  8
0
 10
132.02923874
 20
285.34037460
  0
VERTEX
  8
0
 10
132.14521157
 20
284.88363979
  0
VERTEX
  8
0
 10
132.28093139
 20
284.42479262
  0
VERTEX
  8
0
 10
132.43735261
 20
283.96354835
  0
VERTEX
  8
0
 10
132.19912987
 20
283.92719272
  0
VERTEX
  8
0
 10
131.97871825
 20
283.90857079
  0
VERTEX
  8
0
 10
131.77501047
 20
283.90657527
  0
VERTEX
  8
0
 10
131.58689925
 20
283.92009890
  0
VERTEX
  8
0
 10
131.41327732
 20
283.94803441
  0
VERTEX
  8
0
 10
131.25303741
 20
283.98927451
  0
VERTEX
  8
0
 10
131.10507223
 20
284.04271193
  0
VERTEX
  8
0
 10
130.96827452
 20
284.10723939
  0
VERTEX
  8
0
 10
130.72375239
 20
284.26513537
  0
VERTEX
  8
0
 10
130.51061282
 20
284.45410423
  0
VERTEX
  8
0
 10
130.31999761
 20
284.66528777
  0
VERTEX
  8
0
 10
130.14304855
 20
284.88982781
  0
VERTEX
  8
0
 10
129.79471613
 20
285.34354454
  0
VERTEX
  8
0
 10
129.60561635
 20
285.55500484
  0
VERTEX
  8
0
 10
129.39474994
 20
285.74438883
  0
VERTEX
  8
0
 10
129.15325869
 20
285.90283831
  0
VERTEX
  8
0
 10
128.87228440
 20
286.02149509
  0
VERTEX
  8
0
 10
128.71422293
 20
286.06313302
  0
VERTEX
  8
0
 10
128.54296887
 20
286.09150095
  0
VERTEX
  8
0
 10
128.35741496
 20
286.10549160
  0
VERTEX
  8
0
 10
128.15645391
 20
286.10399770
  0
VERTEX
  8
0
 10
128.06486979
 20
284.80782649
  0
VERTEX
  8
0
 10
128.01496171
 20
283.54304489
  0
VERTEX
  8
0
 10
128.00606075
 20
282.30931581
  0
VERTEX
  8
0
 10
128.03749796
 20
281.10630213
  0
VERTEX
  8
0
 10
128.10860443
 20
279.93366676
  0
VERTEX
  8
0
 10
128.21871123
 20
278.79107258
  0
VERTEX
  8
0
 10
128.36714944
 20
277.67818250
  0
VERTEX
  8
0
 10
128.55325012
 20
276.59465939
  0
VERTEX
  8
0
 10
128.77634435
 20
275.54016616
  0
VERTEX
  8
0
 10
129.03576321
 20
274.51436569
  0
VERTEX
  8
0
 10
129.33083776
 20
273.51692090
  0
VERTEX
  8
0
 10
129.66089909
 20
272.54749465
  0
VERTEX
  8
0
 10
130.02527825
 20
271.60574986
  0
VERTEX
  8
0
 10
130.42330634
 20
270.69134941
  0
VERTEX
  8
0
 10
130.85431441
 20
269.80395620
  0
VERTEX
  8
0
 10
131.31763355
 20
268.94323312
  0
VERTEX
  8
0
 10
131.81259483
 20
268.10884307
  0
VERTEX
  8
0
 10
132.33852932
 20
267.30044893
  0
VERTEX
  8
0
 10
132.89476809
 20
266.51771360
  0
VERTEX
  8
0
 10
133.48064222
 20
265.76029998
  0
VERTEX
  8
0
 10
134.09548278
 20
265.02787096
  0
VERTEX
  8
0
 10
134.73862084
 20
264.32008944
  0
VERTEX
  8
0
 10
135.40938748
 20
263.63661829
  0
VERTEX
  8
0
 10
136.10711377
 20
262.97712043
  0
VERTEX
  8
0
 10
136.83113078
 20
262.34125874
  0
VERTEX
  8
0
 10
137.58076960
 20
261.72869612
  0
VERTEX
  8
0
 10
138.35536128
 20
261.13909546
  0
VERTEX
  8
0
 10
139.15423690
 20
260.57211966
  0
VERTEX
  8
0
 10
139.97672755
 20
260.02743160
  0
VERTEX
  8
0
 10
140.82216428
 20
259.50469418
  0
VERTEX
  8
0
 10
141.68987818
 20
259.00357030
  0
VERTEX
  8
0
 10
142.57920032
 20
258.52372285
  0
VERTEX
  8
0
 10
143.48946177
 20
258.06481472
  0
VERTEX
  8
0
 10
144.41999360
 20
257.62650880
  0
VERTEX
  8
0
 10
145.37012689
 20
257.20846800
  0
VERTEX
  8
0
 10
146.33919271
 20
256.81035520
  0
VERTEX
  8
0
 10
147.32652213
 20
256.43183329
  0
VERTEX
  8
0
 10
148.33144623
 20
256.07256518
  0
VERTEX
  8
0
 10
149.35329608
 20
255.73221375
  0
VERTEX
  8
0
 10
150.39140276
 20
255.41044189
  0
VERTEX
  8
0
 10
151.44509733
 20
255.10691251
  0
VERTEX
  8
0
 10
152.51371088
 20
254.82128850
  0
VERTEX
  8
0
 10
153.59657447
 20
254.55323274
  0
VERTEX
  8
0
 10
154.69301917
 20
254.30240813
  0
VERTEX
  8
0
 10
155.80237607
 20
254.06847757
  0
VERTEX
  8
0
 10
156.92397623
 20
253.85110395
  0
VERTEX
  8
0
 10
158.05715073
 20
253.64995017
  0
VERTEX
  8
0
 10
159.20123064
 20
253.46467911
  0
VERTEX
  8
0
 10
160.35554704
 20
253.29495366
  0
VERTEX
  8
0
 10
161.51943099
 20
253.14043674
  0
VERTEX
  8
0
 10
162.69221358
 20
253.00079122
  0
VERTEX
  8
0
 10
163.87322587
 20
252.87568000
  0
VERTEX
  8
0
 10
166.25726385
 20
252.66771204
  0
VERTEX
  8
0
 10
168.66619353
 20
252.51383601
  0
VERTEX
  8
0
 10
171.09466350
 20
252.41135505
  0
VERTEX
  8
0
 10
173.53732233
 20
252.35757232
  0
VERTEX
  8
0
 10
175.98881863
 20
252.34979096
  0
VERTEX
  8
0
 10
178.44380097
 20
252.38531413
  0
VERTEX
  8
0
 10
178.76850610
 20
252.98268981
  0
VERTEX
  8
0
 10
179.07284063
 20
253.60862368
  0
VERTEX
  8
0
 10
179.35771640
 20
254.26190937
  0
VERTEX
  8
0
 10
179.62404522
 20
254.94134052
  0
VERTEX
  8
0
 10
179.87273892
 20
255.64571077
  0
VERTEX
  8
0
 10
180.10470933
 20
256.37381376
  0
VERTEX
  8
0
 10
180.32086827
 20
257.12444313
  0
VERTEX
  8
0
 10
180.52212758
 20
257.89639253
  0
VERTEX
  8
0
 10
180.70939906
 20
258.68845559
  0
VERTEX
  8
0
 10
180.88359456
 20
259.49942595
  0
VERTEX
  8
0
 10
181.19640490
 20
261.17326314
  0
VERTEX
  8
0
 10
181.46785319
 20
262.90825323
  0
VERTEX
  8
0
 10
181.70523403
 20
264.69474534
  0
VERTEX
  8
0
 10
181.91584205
 20
266.52308860
  0
VERTEX
  8
0
 10
182.10697183
 20
268.38363211
  0
VERTEX
  8
0
 10
182.45997514
 20
272.16271643
  0
VERTEX
  8
0
 10
182.82260080
 20
275.95479129
  0
VERTEX
  8
0
 10
183.02575854
 20
277.83157297
  0
VERTEX
  8
0
 10
183.25320568
 20
279.68264965
  0
VERTEX
  8
0
 10
183.44640849
 20
281.20546446
  0
VERTEX
  8
0
 10
183.61049722
 20
282.74991737
  0
VERTEX
  8
0
 10
183.73242851
 20
284.32641583
  0
VERTEX
  8
0
 10
183.77350906
 20
285.12993447
  0
VERTEX
  8
0
 10
183.79915900
 20
285.94536728
  0
VERTEX
  8
0
 10
183.80774789
 20
286.77401520
  0
VERTEX
  8
0
 10
183.79764532
 20
287.61717916
  0
VERTEX
  8
0
 10
183.76722087
 20
288.47616009
  0
VERTEX
  8
0
 10
183.71484412
 20
289.35225891
  0
VERTEX
  8
0
 10
183.63888465
 20
290.24677656
  0
VERTEX
  8
0
 10
183.53771203
 20
291.16101396
  0
VERTEX
  8
0
 10
183.40969585
 20
292.09627205
  0
VERTEX
  8
0
 10
183.25320568
 20
293.05385176
  0
VERTEX
  8
0
 10
184.00955730
 20
293.64448295
  0
VERTEX
  8
0
 10
184.70706376
 20
294.25232491
  0
VERTEX
  8
0
 10
185.34819137
 20
294.88262630
  0
VERTEX
  8
0
 10
185.93540648
 20
295.54063577
  0
VERTEX
  8
0
 10
186.20956756
 20
295.88167124
  0
VERTEX
  8
0
 10
186.47117539
 20
296.23160198
  0
VERTEX
  8
0
 10
186.72053825
 20
296.59108407
  0
VERTEX
  8
0
 10
186.95796444
 20
296.96077359
  0
VERTEX
  8
0
 10
187.18376224
 20
297.34132663
  0
VERTEX
  8
0
 10
187.39823995
 20
297.73339926
  0
VERTEX
  8
0
 10
187.60170585
 20
298.13764757
  0
VERTEX
  8
0
 10
187.79446824
 20
298.55472765
  0
VERTEX
  8
0
 10
188.14911564
 20
299.43000740
  0
VERTEX
  8
0
 10
188.46464848
 20
300.36448717
  0
VERTEX
  8
0
 10
188.74353307
 20
301.36341564
  0
VERTEX
  8
0
 10
188.98823574
 20
302.43204144
  0
VERTEX
  8
0
 10
189.20122282
 20
303.57561324
  0
VERTEX
  8
0
 10
189.38496062
 20
304.79937969
  0
VERTEX
  8
0
 10
189.54191549
 20
306.10858946
  0
VERTEX
  8
0
 10
189.67455373
 20
307.50849120
  0
VERTEX
  8
0
 10
189.77134190
 20
308.35747462
  0
VERTEX
  8
0
 10
189.91011594
 20
309.19871124
  0
VERTEX
  8
0
 10
190.08392667
 20
310.03253781
  0
VERTEX
  8
0
 10
190.28582494
 20
310.85929107
  0
VERTEX
  8
0
 10
190.50886156
 20
311.67930778
  0
VERTEX
  8
0
 10
190.74608739
 20
312.49292466
  0
VERTEX
  8
0
 10
191.23530994
 20
314.10230595
  0
VERTEX
  8
0
 10
191.69789926
 20
315.69012890
  0
VERTEX
  8
0
 10
191.90183353
 20
316.47679786
  0
VERTEX
  8
0
 10
192.07826200
 20
317.25908747
  0
VERTEX
  8
0
 10
192.22023548
 20
318.03733448
  0
VERTEX
  8
0
 10
192.32080482
 20
318.81187562
  0
VERTEX
  8
0
 10
192.37302085
 20
319.58304764
  0
VERTEX
  8
0
 10
192.36993439
 20
320.35118729
  0
VERTEX
  8
0
 10
191.51705872
 20
321.35720755
  0
VERTEX
  8
0
 10
190.60461998
 20
322.36044611
  0
VERTEX
  8
0
 10
189.63932994
 20
323.36278343
  0
VERTEX
  8
0
 10
188.62790035
 20
324.36609999
  0
VERTEX
  8
0
 10
187.57704299
 20
325.37227623
  0
VERTEX
  8
0
 10
186.49346963
 20
326.38319264
  0
VERTEX
  8
0
 10
184.25502194
 20
328.42676779
  0
VERTEX
  8
0
 10
181.96625143
 20
330.51186916
  0
VERTEX
  8
0
 10
180.81977454
 20
331.57469334
  0
VERTEX
  8
0
 10
179.68085223
 20
332.65354047
  0
VERTEX
  8
0
 10
178.55619629
 20
333.75029101
  0
VERTEX
  8
0
 10
177.45251847
 20
334.86682544
  0
VERTEX
  8
0
 10
176.37653055
 20
336.00502421
  0
VERTEX
  8
0
 10
175.33494429
 20
337.16676779
  0
VERTEX
  8
0
 10
174.33447146
 20
338.35393665
  0
VERTEX
  8
0
 10
173.38182382
 20
339.56841125
  0
VERTEX
  8
0
 10
172.92553187
 20
340.18647585
  0
VERTEX
  8
0
 10
172.48371314
 20
340.81207205
  0
VERTEX
  8
0
 10
172.05720658
 20
341.44543493
  0
VERTEX
  8
0
 10
171.64685118
 20
342.08679953
  0
VERTEX
  8
0
 10
171.25348591
 20
342.73640092
  0
VERTEX
  8
0
 10
170.87794972
 20
343.39447414
  0
VERTEX
  8
0
 10
170.52108161
 20
344.06125427
  0
VERTEX
  8
0
 10
170.18372053
 20
344.73697636
  0
VERTEX
  8
0
 10
169.86670545
 20
345.42187546
  0
VERTEX
  8
0
 10
169.57087536
 20
346.11618664
  0
VERTEX
  8
0
 10
169.29706921
 20
346.82014495
  0
VERTEX
  8
0
 10
169.04612598
 20
347.53398545
  0
VERTEX
  8
0
 10
168.81888464
 20
348.25794320
  0
VERTEX
  8
0
 10
168.61618416
 20
348.99225326
  0
VERTEX
  8
0
 10
168.43886352
 20
349.73715069
  0
VERTEX
  8
0
 10
168.28776167
 20
350.49287053
  0
VERTEX
  8
0
 10
168.16371760
 20
351.25964786
  0
VERTEX
  8
0
 10
168.06757028
 20
352.03771773
  0
VERTEX
  8
0
 10
168.00015867
 20
352.82731520
  0
VERTEX
  8
0
 10
167.96232174
 20
353.62867533
  0
VERTEX
  8
0
 10
167.95489848
 20
354.44203316
  0
VERTEX
  8
0
 10
167.97872784
 20
355.26762377
  0
VERTEX
  8
0
 10
168.03464880
 20
356.10568222
  0
VERTEX
  8
0
 10
168.12350033
 20
356.95644355
  0
VERTEX
  8
0
 10
168.24612139
 20
357.82014282
  0
VERTEX
  8
0
 10
168.40335097
 20
358.69701511
  0
VERTEX
  8
0
 10
168.59602803
 20
359.58729545
  0
VERTEX
  8
0
 10
168.82499155
 20
360.49121892
  0
VERTEX
  8
0
 10
168.96765421
 20
360.98986385
  0
VERTEX
  8
0
 10
169.12397532
 20
361.48005584
  0
VERTEX
  8
0
 10
169.29371672
 20
361.96181022
  0
VERTEX
  8
0
 10
169.47664021
 20
362.43514235
  0
VERTEX
  8
0
 10
169.67250763
 20
362.90006758
  0
VERTEX
  8
0
 10
169.88108080
 20
363.35660126
  0
VERTEX
  8
0
 10
170.33539165
 20
364.24455536
  0
VERTEX
  8
0
 10
170.83766734
 20
365.09912744
  0
VERTEX
  8
0
 10
171.38600245
 20
365.92044031
  0
VERTEX
  8
0
 10
171.97849154
 20
366.70861676
  0
VERTEX
  8
0
 10
172.61322921
 20
367.46377958
  0
VERTEX
  8
0
 10
173.28831001
 20
368.18605157
  0
VERTEX
  8
0
 10
174.00182852
 20
368.87555553
  0
VERTEX
  8
0
 10
174.75187932
 20
369.53241426
  0
VERTEX
  8
0
 10
175.53655698
 20
370.15675054
  0
VERTEX
  8
0
 10
176.35395608
 20
370.74868718
  0
VERTEX
  8
0
 10
177.20217119
 20
371.30834698
  0
VERTEX
  8
0
 10
178.07929689
 20
371.83585273
  0
VERTEX
  8
0
 10
178.98342774
 20
372.33132722
  0
VERTEX
  8
0
 10
179.91265833
 20
372.79489325
  0
VERTEX
  8
0
 10
180.86508322
 20
373.22667362
  0
VERTEX
  8
0
 10
181.83879700
 20
373.62679113
  0
VERTEX
  8
0
 10
182.83189424
 20
373.99536857
  0
VERTEX
  8
0
 10
183.84246950
 20
374.33252874
  0
VERTEX
  8
0
 10
184.86861737
 20
374.63839443
  0
VERTEX
  8
0
 10
185.90843243
 20
374.91308844
  0
VERTEX
  8
0
 10
186.96000923
 20
375.15673357
  0
VERTEX
  8
0
 10
188.02144237
 20
375.36945261
  0
VERTEX
  8
0
 10
189.09082641
 20
375.55136836
  0
VERTEX
  8
0
 10
190.16625592
 20
375.70260362
  0
VERTEX
  8
0
 10
191.24582549
 20
375.82328118
  0
VERTEX
  8
0
 10
192.32762968
 20
375.91352384
  0
VERTEX
  8
0
 10
193.40976308
 20
375.97345440
  0
VERTEX
  8
0
 10
194.49032025
 20
376.00319564
  0
VERTEX
  8
0
 10
195.56739576
 20
376.00287037
  0
VERTEX
  8
0
 10
196.00115182
 20
376.40522573
  0
VERTEX
  8
0
 10
196.39945746
 20
376.84302183
  0
VERTEX
  8
0
 10
196.76610440
 20
377.31245728
  0
VERTEX
  8
0
 10
197.10488433
 20
377.80973069
  0
VERTEX
  8
0
 10
197.41958898
 20
378.33104069
  0
VERTEX
  8
0
 10
197.71401005
 20
378.87258587
  0
VERTEX
  8
0
 10
197.99193926
 20
379.43056485
  0
VERTEX
  8
0
 10
198.25716832
 20
380.00117625
  0
VERTEX
  8
0
 10
198.76469281
 20
381.16509073
  0
VERTEX
  8
0
 10
199.26691721
 20
382.33391822
  0
VERTEX
  8
0
 10
199.52552115
 20
382.91067086
  0
VERTEX
  8
0
 10
199.79417520
 20
383.47724760
  0
VERTEX
  8
0
 10
200.07667107
 20
384.02984703
  0
VERTEX
  8
0
 10
200.37680048
 20
384.56466777
  0
VERTEX
  8
0
 10
199.81416248
 20
384.38004488
  0
VERTEX
  8
0
 10
199.23198106
 20
384.20748743
  0
VERTEX
  8
0
 10
198.02605330
 20
383.86479798
  0
VERTEX
  8
0
 10
197.41083965
 20
383.67778052
  0
VERTEX
  8
0
 10
196.79314795
 20
383.46905759
  0
VERTEX
  8
0
 10
196.17724454
 20
383.23018647
  0
VERTEX
  8
0
 10
195.56739576
 20
382.95272443
  0
VERTEX
  8
0
 10
195.14311047
 20
382.72918769
  0
VERTEX
  8
0
 10
194.70928502
 20
382.47388838
  0
VERTEX
  8
0
 10
193.80852499
 20
381.90171021
  0
VERTEX
  8
0
 10
192.85613832
 20
381.30360622
  0
VERTEX
  8
0
 10
192.35777958
 20
381.01589964
  0
VERTEX
  8
0
 10
191.84314768
 20
380.74699270
  0
VERTEX
  8
0
 10
191.31112044
 20
380.50531246
  0
VERTEX
  8
0
 10
190.76057570
 20
380.29928594
  0
VERTEX
  8
0
 10
190.19039130
 20
380.13734018
  0
VERTEX
  8
0
 10
189.89758354
 20
380.07553103
  0
VERTEX
  8
0
 10
189.59944506
 20
380.02790222
  0
VERTEX
  8
0
 10
189.29583557
 20
379.99550711
  0
VERTEX
  8
0
 10
188.98661481
 20
379.97939909
  0
VERTEX
  8
0
 10
188.67164251
 20
379.98063154
  0
VERTEX
  8
0
 10
188.35077839
 20
380.00025783
  0
VERTEX
  8
0
 10
188.02388219
 20
380.03933136
  0
VERTEX
  8
0
 10
187.69081363
 20
380.09890548
  0
VERTEX
  8
0
 10
187.35143245
 20
380.18003360
  0
VERTEX
  8
0
 10
187.00559837
 20
380.28376907
  0
VERTEX
  8
0
 10
186.54722830
 20
380.45898729
  0
VERTEX
  8
0
 10
186.11649542
 20
380.67126457
  0
VERTEX
  8
0
 10
185.71305513
 20
380.91889190
  0
VERTEX
  8
0
 10
185.33656286
 20
381.20016030
  0
VERTEX
  8
0
 10
184.98667402
 20
381.51336076
  0
VERTEX
  8
0
 10
184.66304400
 20
381.85678429
  0
VERTEX
  8
0
 10
184.36532824
 20
382.22872189
  0
VERTEX
  8
0
 10
184.09318213
 20
382.62746458
  0
VERTEX
  8
0
 10
183.84626109
 20
383.05130334
  0
VERTEX
  8
0
 10
183.62422053
 20
383.49852918
  0
VERTEX
  8
0
 10
183.42671586
 20
383.96743311
  0
VERTEX
  8
0
 10
183.25340250
 20
384.45630613
  0
VERTEX
  8
0
 10
183.10393586
 20
384.96343924
  0
VERTEX
  8
0
 10
182.97797134
 20
385.48712345
  0
VERTEX
  8
0
 10
182.87516436
 20
386.02564976
  0
VERTEX
  8
0
 10
182.79517033
 20
386.57730917
  0
VERTEX
  8
0
 10
182.73764466
 20
387.14039269
  0
VERTEX
  8
0
 10
182.70224277
 20
387.71319132
  0
VERTEX
  8
0
 10
182.68862006
 20
388.29399606
  0
VERTEX
  8
0
 10
182.69643195
 20
388.88109792
  0
VERTEX
  8
0
 10
182.72533385
 20
389.47278790
  0
VERTEX
  8
0
 10
182.77498117
 20
390.06735700
  0
VERTEX
  8
0
 10
182.84502932
 20
390.66309623
  0
VERTEX
  8
0
 10
182.93513371
 20
391.25829658
  0
VERTEX
  8
0
 10
183.04494976
 20
391.85124908
  0
VERTEX
  8
0
 10
183.17413287
 20
392.44024470
  0
VERTEX
  8
0
 10
183.32233847
 20
393.02357447
  0
VERTEX
  8
0
 10
183.48922195
 20
393.59952938
  0
VERTEX
  8
0
 10
183.67443873
 20
394.16640044
  0
VERTEX
  8
0
 10
183.87764423
 20
394.72247865
  0
VERTEX
  8
0
 10
184.09849385
 20
395.26605501
  0
VERTEX
  8
0
 10
184.33664301
 20
395.79542053
  0
VERTEX
  8
0
 10
183.23559103
 20
395.25941219
  0
VERTEX
  8
0
 10
182.07386726
 20
394.71069135
  0
VERTEX
  8
0
 10
180.86058757
 20
394.16540912
  0
VERTEX
  8
0
 10
179.60486786
 20
393.63971660
  0
VERTEX
  8
0
 10
178.31582401
 20
393.14976491
  0
VERTEX
  8
0
 10
177.66165425
 20
392.92323910
  0
VERTEX
  8
0
 10
177.00257191
 20
392.71170516
  0
VERTEX
  8
0
 10
176.33971649
 20
392.51718198
  0
VERTEX
  8
0
 10
175.67422746
 20
392.34168846
  0
VERTEX
  8
0
 10
175.00724431
 20
392.18724347
  0
VERTEX
  8
0
 10
174.33990653
 20
392.05586592
  0
VERTEX
  8
0
 10
173.67335361
 20
391.94957468
  0
VERTEX
  8
0
 10
173.00872503
 20
391.87038864
  0
VERTEX
  8
0
 10
172.34716027
 20
391.82032670
  0
VERTEX
  8
0
 10
171.68979883
 20
391.80140775
  0
VERTEX
  8
0
 10
171.03778018
 20
391.81565066
  0
VERTEX
  8
0
 10
170.39224382
 20
391.86507434
  0
VERTEX
  8
0
 10
169.75432923
 20
391.95169767
  0
VERTEX
  8
0
 10
169.12517590
 20
392.07753953
  0
VERTEX
  8
0
 10
168.50592332
 20
392.24461883
  0
VERTEX
  8
0
 10
167.89771096
 20
392.45495444
  0
VERTEX
  8
0
 10
167.30167832
 20
392.71056525
  0
VERTEX
  8
0
 10
166.71896487
 20
393.01347016
  0
VERTEX
  8
0
 10
166.15071012
 20
393.36568805
  0
VERTEX
  8
0
 10
165.59805354
 20
393.76923781
  0
VERTEX
  8
0
 10
165.06213462
 20
394.22613834
  0
VERTEX
  8
0
 10
164.54409285
 20
394.73840851
  0
VERTEX
  8
0
 10
162.78013058
 20
393.42332633
  0
VERTEX
  8
0
 10
160.83376164
 20
392.01661898
  0
VERTEX
  8
0
 10
158.73249602
 20
390.55141877
  0
VERTEX
  8
0
 10
156.50384368
 20
389.06085802
  0
VERTEX
  8
0
 10
155.35034437
 20
388.31642129
  0
VERTEX
  8
0
 10
154.17531461
 20
387.57806903
  0
VERTEX
  8
0
 10
152.98219317
 20
386.84994279
  0
VERTEX
  8
0
 10
151.77441878
 20
386.13618412
  0
VERTEX
  8
0
 10
150.55543019
 20
385.44093453
  0
VERTEX
  8
0
 10
149.32866616
 20
384.76833558
  0
VERTEX
  8
0
 10
148.09756543
 20
384.12252881
  0
VERTEX
  8
0
 10
146.86556674
 20
383.50765575
  0
VERTEX
  8
0
 10
146.00542128
 20
383.10746426
  0
VERTEX
  8
0
 10
145.10338145
 20
382.72947349
  0
VERTEX
  8
0
 10
144.16498246
 20
382.37652261
  0
VERTEX
  8
0
 10
143.19575955
 20
382.05145080
  0
VERTEX
  8
0
 10
142.20124793
 20
381.75709724
  0
VERTEX
  8
0
 10
141.18698283
 20
381.49630112
  0
VERTEX
  8
0
 10
140.15849946
 20
381.27190162
  0
VERTEX
  8
0
 10
139.12133305
 20
381.08673792
  0
VERTEX
  8
0
 10
138.08101882
 20
380.94364920
  0
VERTEX
  8
0
 10
137.04309200
 20
380.84547464
  0
VERTEX
  8
0
 10
136.01308780
 20
380.79505342
  0
VERTEX
  8
0
 10
134.99654145
 20
380.79522473
  0
VERTEX
  8
0
 10
133.99898817
 20
380.84882774
  0
VERTEX
  8
0
 10
133.50906369
 20
380.89655338
  0
VERTEX
  8
0
 10
133.02596319
 20
380.95870164
  0
VERTEX
  8
0
 10
132.55037856
 20
381.03562742
  0
VERTEX
  8
0
 10
132.08300171
 20
381.12768561
  0
VERTEX
  8
0
 10
131.62452455
 20
381.23523112
  0
VERTEX
  8
0
 10
131.17563898
 20
381.35861884
  0
VERTEX
  8
0
 10
130.73703689
 20
381.49820366
  0
VERTEX
  8
0
 10
130.30941020
 20
381.65434049
  0
VERTEX
  8
0
 10
129.89345080
 20
381.82738422
  0
VERTEX
  8
0
 10
129.48985060
 20
382.01768976
  0
VERTEX
  8
0
 10
129.09930150
 20
382.22561199
  0
VERTEX
  8
0
 10
128.72249540
 20
382.45150582
  0
VERTEX
  8
0
 10
128.36012421
 20
382.69572614
  0
VERTEX
  8
0
 10
128.01287983
 20
382.95862786
  0
VERTEX
  8
0
 10
127.68145416
 20
383.24056586
  0
VERTEX
  8
0
 10
127.36653911
 20
383.54189505
  0
VERTEX
  8
0
 10
127.06882657
 20
383.86297033
  0
VERTEX
  8
0
 10
126.78900846
 20
384.20414659
  0
VERTEX
  8
0
 10
126.52777666
 20
384.56577873
  0
VERTEX
  8
0
 10
126.28582309
 20
384.94822165
  0
VERTEX
  8
0
 10
126.06383965
 20
385.35183024
  0
VERTEX
  8
0
 10
125.86251824
 20
385.77695940
  0
VERTEX
  8
0
 10
125.68255076
 20
386.22396404
  0
VERTEX
  8
0
 10
125.52462913
 20
386.69319905
  0
VERTEX
  8
0
 10
125.38944523
 20
387.18501932
  0
VERTEX
  8
0
 10
125.27769097
 20
387.69977975
  0
VERTEX
  8
0
 10
125.19005825
 20
388.23783525
  0
VERTEX
  8
0
 10
125.12723899
 20
388.79954071
  0
VERTEX
  8
0
 10
125.08992507
 20
389.38525102
  0
VERTEX
  8
0
 10
125.07880841
 20
389.99532109
  0
VERTEX
  8
0
 10
125.09458091
 20
390.63010581
  0
VERTEX
  8
0
 10
125.13793446
 20
391.28996008
  0
VERTEX
  8
0
 10
125.20956097
 20
391.97523880
  0
VERTEX
  8
0
 10
125.31015235
 20
392.68629687
  0
VERTEX
  8
0
 10
125.44040050
 20
393.42348917
  0
VERTEX
  8
0
 10
125.60099731
 20
394.18717062
  0
VERTEX
  8
0
 10
125.79263470
 20
394.97769611
  0
VERTEX
  8
0
 10
126.01600456
 20
395.79542053
  0
VERTEX
  8
0
 10
125.16928433
 20
395.40353382
  0
VERTEX
  8
0
 10
124.35441926
 20
394.97995648
  0
VERTEX
  8
0
 10
123.56772937
 20
394.52837813
  0
VERTEX
  8
0
 10
122.80553471
 20
394.05248842
  0
VERTEX
  8
0
 10
122.06415532
 20
393.55597700
  0
VERTEX
  8
0
 10
121.33991123
 20
393.04253349
  0
VERTEX
  8
0
 10
120.62912249
 20
392.51584753
  0
VERTEX
  8
0
 10
119.92810912
 20
391.97960877
  0
VERTEX
  8
0
 10
118.54068869
 20
390.89323140
  0
VERTEX
  8
0
 10
117.14821023
 20
389.81291848
  0
VERTEX
  8
0
 10
116.44087435
 20
389.28426029
  0
VERTEX
  8
0
 10
115.72123407
 20
388.76818713
  0
VERTEX
  8
0
 10
114.98560944
 20
388.26838863
  0
VERTEX
  8
0
 10
114.23032049
 20
387.78855445
  0
VERTEX
  8
0
 10
113.50623156
 20
387.24693162
  0
VERTEX
  8
0
 10
112.74803256
 20
386.74086775
  0
VERTEX
  8
0
 10
111.96155287
 20
386.26295103
  0
VERTEX
  8
0
 10
111.15262188
 20
385.80576967
  0
VERTEX
  8
0
 10
109.49072350
 20
384.92396581
  0
VERTEX
  8
0
 10
107.80897244
 20
384.03616176
  0
VERTEX
  8
0
 10
107.05297624
 20
383.63672295
  0
VERTEX
  8
0
 10
106.26450826
 20
383.23790801
  0
VERTEX
  8
0
 10
105.46257452
 20
382.82946068
  0
VERTEX
  8
0
 10
104.66618105
 20
382.40112469
  0
VERTEX
  8
0
 10
103.89433388
 20
381.94264380
  0
VERTEX
  8
0
 10
103.52355454
 20
381.69889393
  0
VERTEX
  8
0
 10
103.16603903
 20
381.44376173
  0
VERTEX
  8
0
 10
102.82416311
 20
381.17596518
  0
VERTEX
  8
0
 10
102.50030253
 20
380.89422224
  0
VERTEX
  8
0
 10
102.19683305
 20
380.59725089
  0
VERTEX
  8
0
 10
101.91613041
 20
380.28376907
  0
VERTEX
  8
0
 10
101.46586232
 20
380.41734597
  0
VERTEX
  8
0
 10
101.07331715
 20
380.51678625
  0
VERTEX
  8
0
 10
100.72945852
 20
380.58558842
  0
VERTEX
  8
0
 10
100.42525004
 20
380.62725099
  0
VERTEX
  8
0
 10
100.15165535
 20
380.64527247
  0
VERTEX
  8
0
 10
99.89963806
 20
380.64315136
  0
VERTEX
  8
0
 10
99.42419021
 20
380.59247538
  0
VERTEX
  8
0
 10
98.92661545
 20
380.50321112
  0
VERTEX
  8
0
 10
98.33462279
 20
380.40334661
  0
VERTEX
  8
0
 10
97.57592120
 20
380.32086992
  0
VERTEX
  8
0
 10
97.11146362
 20
380.29489826
  0
VERTEX
  8
0
 10
96.57821968
 20
380.28376907
  0
VERTEX
  8
0
 10
96.15593484
 20
380.50435635
  0
VERTEX
  8
0
 10
95.75648094
 20
380.75968430
  0
VERTEX
  8
0
 10
95.37976121
 20
381.04798308
  0
VERTEX
  8
0
 10
95.02567889
 20
381.36748282
  0
VERTEX
  8
0
 10
94.69413721
 20
381.71641365
  0
VERTEX
  8
0
 10
94.38503938
 20
382.09300571
  0
VERTEX
  8
0
 10
94.09828864
 20
382.49548915
  0
VERTEX
  8
0
 10
93.83378821
 20
382.92209408
  0
VERTEX
  8
0
 10
93.59144133
 20
383.37105067
  0
VERTEX
  8
0
 10
93.37115122
 20
383.84058903
  0
VERTEX
  8
0
 10
93.17282110
 20
384.32893931
  0
VERTEX
  8
0
 10
92.99635421
 20
384.83433164
  0
VERTEX
  8
0
 10
92.84165377
 20
385.35499617
  0
VERTEX
  8
0
 10
92.70862302
 20
385.88916302
  0
VERTEX
  8
0
 10
92.59716517
 20
386.43506234
  0
VERTEX
  8
0
 10
92.50718346
 20
386.99092425
  0
VERTEX
  8
0
 10
92.43858111
 20
387.55497891
  0
VERTEX
  8
0
 10
92.39126135
 20
388.12545644
  0
VERTEX
  8
0
 10
92.36512741
 20
388.70058699
  0
VERTEX
  8
0
 10
92.36008252
 20
389.27860068
  0
VERTEX
  8
0
 10
92.37602990
 20
389.85772767
  0
VERTEX
  8
0
 10
92.41287279
 20
390.43619807
  0
VERTEX
  8
0
 10
92.47051440
 20
391.01224204
  0
VERTEX
  8
0
 10
92.54885797
 20
391.58408970
  0
VERTEX
  8
0
 10
92.64780673
 20
392.14997119
  0
VERTEX
  8
0
 10
92.76726390
 20
392.70811666
  0
VERTEX
  8
0
 10
92.90713270
 20
393.25675624
  0
VERTEX
  8
0
 10
93.06731638
 20
393.79412006
  0
VERTEX
  8
0
 10
93.24771815
 20
394.31843826
  0
VERTEX
  8
0
 10
93.44824125
 20
394.82794098
  0
VERTEX
  8
0
 10
93.66878890
 20
395.32085836
  0
VERTEX
  8
0
 10
93.90926432
 20
395.79542053
  0
VERTEX
  8
0
 10
90.92830431
 20
393.89133737
  0
VERTEX
  8
0
 10
87.93255755
 20
392.00275445
  0
VERTEX
  8
0
 10
84.90603873
 20
390.14572445
  0
VERTEX
  8
0
 10
83.37624439
 20
389.23405826
  0
VERTEX
  8
0
 10
81.83276255
 20
388.33630006
  0
VERTEX
  8
0
 10
80.27359504
 20
387.45445644
  0
VERTEX
  8
0
 10
78.69674371
 20
386.59053397
  0
VERTEX
  8
0
 10
77.10021038
 20
385.74653926
  0
VERTEX
  8
0
 10
75.48199689
 20
384.92447888
  0
VERTEX
  8
0
 10
73.84010509
 20
384.12635942
  0
VERTEX
  8
0
 10
72.17253681
 20
383.35418746
  0
VERTEX
  8
0
 10
70.47729388
 20
382.60996960
  0
VERTEX
  8
0
 10
68.75237814
 20
381.89571241
  0
VERTEX
  8
0
 10
65.52849147
 20
381.89571241
  0
VERTEX
  8
0
 10
65.00481723
 20
381.67316406
  0
VERTEX
  8
0
 10
64.48003114
 20
381.46872532
  0
VERTEX
  8
0
 10
63.95415674
 20
381.28202859
  0
VERTEX
  8
0
 10
63.42721757
 20
381.11270625
  0
VERTEX
  8
0
 10
62.89923718
 20
380.96039069
  0
VERTEX
  8
0
 10
62.37023912
 20
380.82471432
  0
VERTEX
  8
0
 10
61.84024692
 20
380.70530951
  0
VERTEX
  8
0
 10
61.30928414
 20
380.60180867
  0
VERTEX
  8
0
 10
60.77737431
 20
380.51384418
  0
VERTEX
  8
0
 10
60.24454098
 20
380.44104843
  0
VERTEX
  8
0
 10
59.17619800
 20
380.33949275
  0
VERTEX
  8
0
 10
58.10444356
 20
380.29420075
  0
VERTEX
  8
0
 10
57.02946601
 20
380.30223156
  0
VERTEX
  8
0
 10
55.95145371
 20
380.36064433
  0
VERTEX
  8
0
 10
54.87059500
 20
380.46649819
  0
VERTEX
  8
0
 10
53.78707826
 20
380.61685227
  0
VERTEX
  8
0
 10
52.70109183
 20
380.80876571
  0
VERTEX
  8
0
 10
51.61282406
 20
381.03929763
  0
VERTEX
  8
0
 10
50.52246332
 20
381.30550719
  0
VERTEX
  8
0
 10
49.43019796
 20
381.60445350
  0
VERTEX
  8
0
 10
48.33621633
 20
381.93319571
  0
VERTEX
  8
0
 10
47.24070678
 20
382.28879295
  0
VERTEX
  8
0
 10
46.14385769
 20
382.66830435
  0
VERTEX
  8
0
 10
45.04585739
 20
383.06878904
  0
VERTEX
  8
0
 10
43.94689424
 20
383.48730618
  0
VERTEX
  8
0
 10
41.74683284
 20
384.36667428
  0
VERTEX
  8
0
 10
39.54518031
 20
385.28288172
  0
VERTEX
  8
0
 10
37.34344351
 20
386.21240158
  0
VERTEX
  8
0
 10
35.14312928
 20
387.13170695
  0
VERTEX
  8
0
 10
32.94574445
 20
388.01727088
  0
VERTEX
  8
0
 10
31.84862145
 20
388.44004765
  0
VERTEX
  8
0
 10
30.75279587
 20
388.84556647
  0
VERTEX
  8
0
 10
30.10692608
 20
388.55832032
  0
VERTEX
  8
0
 10
29.46174490
 20
388.25027956
  0
VERTEX
  8
0
 10
28.81692839
 20
387.92375723
  0
VERTEX
  8
0
 10
28.17215260
 20
387.58106639
  0
VERTEX
  8
0
 10
26.88142749
 20
386.85643135
  0
VERTEX
  8
0
 10
25.58697810
 20
386.09487881
  0
VERTEX
  8
0
 10
22.97654059
 20
384.53503871
  0
VERTEX
  8
0
 10
21.65536954
 20
383.77375991
  0
VERTEX
  8
0
 10
20.32010833
 20
383.04958109
  0
VERTEX
  8
0
 10
19.64638407
 20
382.70718679
  0
VERTEX
  8
0
 10
18.96816548
 20
382.38100664
  0
VERTEX
  8
0
 10
18.28512861
 20
382.07335367
  0
VERTEX
  8
0
 10
17.59694953
 20
381.78654093
  0
VERTEX
  8
0
 10
16.90330431
 20
381.52288146
  0
VERTEX
  8
0
 10
16.20386901
 20
381.28468833
  0
VERTEX
  8
0
 10
15.49831970
 20
381.07427456
  0
VERTEX
  8
0
 10
14.78633245
 20
380.89395321
  0
VERTEX
  8
0
 10
14.06758332
 20
380.74603733
  0
VERTEX
  8
0
 10
13.34174837
 20
380.63283996
  0
VERTEX
  8
0
 10
12.60850368
 20
380.55667414
  0
VERTEX
  8
0
 10
11.86752531
 20
380.51985294
  0
VERTEX
  8
0
 10
11.11848933
 20
380.52468938
  0
VERTEX
  8
0
 10
10.36107180
 20
380.57349652
  0
VERTEX
  8
0
 10
9.59494879
 20
380.66858741
  0
VERTEX
  8
0
 10
8.81979636
 20
380.81227509
  0
VERTEX
  8
0
 10
8.57583472
 20
381.12723280
  0
VERTEX
  8
0
 10
8.35468637
 20
381.44089596
  0
VERTEX
  8
0
 10
8.15589174
 20
381.75320300
  0
VERTEX
  8
0
 10
7.97899127
 20
382.06409239
  0
VERTEX
  8
0
 10
7.82352539
 20
382.37350257
  0
VERTEX
  8
0
 10
7.68903454
 20
382.68137200
  0
VERTEX
  8
0
 10
7.57505915
 20
382.98763914
  0
VERTEX
  8
0
 10
7.48113967
 20
383.29224242
  0
VERTEX
  8
0
 10
7.40681652
 20
383.59512031
  0
VERTEX
  8
0
 10
7.35163014
 20
383.89621126
  0
VERTEX
  8
0
 10
7.31512097
 20
384.19545372
  0
VERTEX
  8
0
 10
7.29682944
 20
384.49278614
  0
VERTEX
  8
0
 10
7.29629598
 20
384.78814698
  0
VERTEX
  8
0
 10
7.31306105
 20
385.08147469
  0
VERTEX
  8
0
 10
7.34666506
 20
385.37270772
  0
VERTEX
  8
0
 10
7.39664846
 20
385.66178453
  0
VERTEX
  8
0
 10
7.46255168
 20
385.94864356
  0
VERTEX
  8
0
 10
7.54391516
 20
386.23322327
  0
VERTEX
  8
0
 10
7.75118463
 20
386.79529853
  0
VERTEX
  8
0
 10
8.01478035
 20
387.34751795
  0
VERTEX
  8
0
 10
8.33102582
 20
387.88938914
  0
VERTEX
  8
0
 10
8.69624452
 20
388.42041971
  0
VERTEX
  8
0
 10
9.10675993
 20
388.94011730
  0
VERTEX
  8
0
 10
9.55889554
 20
389.44798952
  0
VERTEX
  8
0
 10
10.04897483
 20
389.94354399
  0
VERTEX
  8
0
 10
10.57332130
 20
390.42628833
  0
VERTEX
  8
0
 10
11.12825842
 20
390.89573017
  0
VERTEX
  8
0
 10
11.71010969
 20
391.35137713
  0
VERTEX
  8
0
 10
12.31519859
 20
391.79273682
  0
VERTEX
  8
0
 10
12.93984859
 20
392.21931686
  0
VERTEX
  8
0
 10
13.58038320
 20
392.63062489
  0
VERTEX
  8
0
 10
14.23312590
 20
393.02616851
  0
VERTEX
  8
0
 10
14.89440016
 20
393.40545536
  0
VERTEX
  8
0
 10
15.56052948
 20
393.76799304
  0
VERTEX
  8
0
 10
16.22783735
 20
394.11328919
  0
VERTEX
  8
0
 10
17.55128264
 20
394.75018735
  0
VERTEX
  8
0
 10
18.83532394
 20
395.31221081
  0
VERTEX
  8
0
 10
20.05054912
 20
395.79542053
  0
VERTEX
  8
0
 10
20.51398202
 20
395.99411278
  0
VERTEX
  8
0
 10
20.97450509
 20
396.22453372
  0
VERTEX
  8
0
 10
21.85621270
 20
396.71870468
  0
VERTEX
  8
0
 10
22.63445387
 20
397.15421940
  0
VERTEX
  8
0
 10
22.96564388
 20
397.31132004
  0
VERTEX
  8
0
 10
23.24801049
 20
397.40736387
  0
VERTEX
  8
0
 10
23.80420937
 20
397.52521979
  0
VERTEX
  8
0
 10
24.34373962
 20
397.62087322
  0
VERTEX
  8
0
 10
25.37712165
 20
397.76264791
  0
VERTEX
  8
0
 10
27.29146376
 20
397.96759610
  0
VERTEX
  8
0
 10
28.18973354
 20
398.09907099
  0
VERTEX
  8
0
 10
28.62792960
 20
398.18699956
  0
VERTEX
  8
0
 10
29.06027558
 20
398.29541401
  0
VERTEX
  8
0
 10
29.48785335
 20
398.42858316
  0
VERTEX
  8
0
 10
29.91174474
 20
398.59077585
  0
VERTEX
  8
0
 10
30.33303163
 20
398.78626092
  0
VERTEX
  8
0
 10
30.75279587
 20
399.01930721
  0
VERTEX
  8
0
 10
31.23547698
 20
399.33794001
  0
VERTEX
  8
0
 10
31.67024218
 20
399.68172280
  0
VERTEX
  8
0
 10
32.06314746
 20
400.04569450
  0
VERTEX
  8
0
 10
32.42024878
 20
400.42489401
  0
VERTEX
  8
0
 10
32.74760213
 20
400.81436022
  0
VERTEX
  8
0
 10
33.05126348
 20
401.20913205
  0
VERTEX
  8
0
 10
33.61173409
 20
401.99474816
  0
VERTEX
  8
0
 10
34.15010842
 20
402.74205357
  0
VERTEX
  8
0
 10
34.42614942
 20
403.08893702
  0
VERTEX
  8
0
 10
34.71483429
 20
403.41135951
  0
VERTEX
  8
0
 10
35.02221899
 20
403.70435994
  0
VERTEX
  8
0
 10
35.35435951
 20
403.96297722
  0
VERTEX
  8
0
 10
35.71731182
 20
404.18225025
  0
VERTEX
  8
0
 10
35.91223488
 20
404.27558233
  0
VERTEX
  8
0
 10
36.11713189
 20
404.35721793
  0
VERTEX
  8
0
 10
36.89422599
 20
405.77790902
  0
VERTEX
  8
0
 10
37.64884047
 20
407.20887206
  0
VERTEX
  8
0
 10
38.38273830
 20
408.64908838
  0
VERTEX
  8
0
 10
39.09768248
 20
410.09753928
  0
VERTEX
  8
0
 10
39.79543599
 20
411.55320611
  0
VERTEX
  8
0
 10
40.47776179
 20
413.01507017
  0
VERTEX
  8
0
 10
41.80318224
 20
415.95331533
  0
VERTEX
  8
0
 10
43.08804768
 20
418.90412535
  0
VERTEX
  8
0
 10
44.34646195
 20
421.85935082
  0
VERTEX
  8
0
 10
46.84035240
 20
427.75045048
  0
VERTEX
  8
0
 10
48.10403627
 20
430.67002585
  0
VERTEX
  8
0
 10
49.39768438
 20
433.56141905
  0
VERTEX
  8
0
 10
50.06015247
 20
434.99400064
  0
VERTEX
  8
0
 10
50.73540056
 20
436.41648065
  0
VERTEX
  8
0
 10
51.42519164
 20
437.82784042
  0
VERTEX
  8
0
 10
52.13128868
 20
439.22706126
  0
VERTEX
  8
0
 10
52.85545466
 20
440.61312450
  0
VERTEX
  8
0
 10
53.59945257
 20
441.98501147
  0
VERTEX
  8
0
 10
54.36504539
 20
443.34170348
  0
VERTEX
  8
0
 10
55.15399609
 20
444.68218186
  0
VERTEX
  8
0
 10
55.96806767
 20
446.00542794
  0
VERTEX
  8
0
 10
56.80902309
 20
447.31042303
  0
VERTEX
  8
0
 10
57.67862534
 20
448.59614847
  0
VERTEX
  8
0
 10
58.57863741
 20
449.86158558
  0
VERTEX
  8
0
 10
59.63259624
 20
451.25173378
  0
VERTEX
  8
0
 10
60.74715931
 20
452.62662165
  0
VERTEX
  8
0
 10
61.91839295
 20
453.98420084
  0
VERTEX
  8
0
 10
63.14236350
 20
455.32242296
  0
VERTEX
  8
0
 10
64.41513730
 20
456.63923964
  0
VERTEX
  8
0
 10
65.73278069
 20
457.93260251
  0
VERTEX
  8
0
 10
67.09136002
 20
459.20046320
  0
VERTEX
  8
0
 10
68.48694161
 20
460.44077333
  0
VERTEX
  8
0
 10
69.91559182
 20
461.65148454
  0
VERTEX
  8
0
 10
71.37337698
 20
462.83054844
  0
VERTEX
  8
0
 10
72.85636342
 20
463.97591668
  0
VERTEX
  8
0
 10
74.36061750
 20
465.08554086
  0
VERTEX
  8
0
 10
75.88220555
 20
466.15737264
  0
VERTEX
  8
0
 10
77.41719391
 20
467.18936362
  0
VERTEX
  8
0
 10
78.96164892
 20
468.17946544
  0
VERTEX
  8
0
 10
80.51163691
 20
469.12562972
  0
VERTEX
  8
0
 10
81.02977366
 20
469.41952004
  0
VERTEX
  8
0
 10
81.55883302
 20
469.70199620
  0
VERTEX
  8
0
 10
82.64229742
 20
470.24325503
  0
VERTEX
  8
0
 10
84.85865370
 20
471.30484168
  0
VERTEX
  8
0
 10
85.96185687
 20
471.86736547
  0
VERTEX
  8
0
 10
86.50572031
 20
472.16579034
  0
VERTEX
  8
0
 10
87.04195093
 20
472.47917354
  0
VERTEX
  8
0
 10
87.56869318
 20
472.81015229
  0
VERTEX
  8
0
 10
88.08409152
 20
473.16136386
  0
VERTEX
  8
0
 10
88.58629042
 20
473.53544549
  0
VERTEX
  8
0
 10
89.07343431
 20
473.93503443
  0
VERTEX
  8
0
 10
91.09190691
 20
474.26454285
  0
VERTEX
  8
0
 10
93.02753648
 20
474.58862452
  0
VERTEX
  8
0
 10
94.89150985
 20
474.88179541
  0
VERTEX
  8
0
 10
95.80012136
 20
475.00882554
  0
VERTEX
  8
0
 10
96.69501390
 20
475.11857146
  0
VERTEX
  8
0
 10
97.57758581
 20
475.20784766
  0
VERTEX
  8
0
 10
98.44923545
 20
475.27346863
  0
VERTEX
  8
0
 10
99.31136119
 20
475.31224888
  0
VERTEX
  8
0
 10
100.16536138
 20
475.32100288
  0
VERTEX
  8
0
 10
101.01263437
 20
475.29654515
  0
VERTEX
  8
0
 10
101.85457853
 20
475.23569017
  0
VERTEX
  8
0
 10
102.69259220
 20
475.13525244
  0
VERTEX
  8
0
 10
103.52807374
 20
474.99204646
  0
VERTEX
  8
0
 10
104.21177178
 20
474.84147224
  0
VERTEX
  8
0
 10
104.88311828
 20
474.66029378
  0
VERTEX
  8
0
 10
105.54098857
 20
474.44877096
  0
VERTEX
  8
0
 10
106.18425804
 20
474.20716365
  0
VERTEX
  8
0
 10
106.81180202
 20
473.93573172
  0
VERTEX
  8
0
 10
107.42249588
 20
473.63473505
  0
VERTEX
  8
0
 10
108.01521498
 20
473.30443349
  0
VERTEX
  8
0
 10
108.58883468
 20
472.94508693
  0
VERTEX
  8
0
 10
109.14223032
 20
472.55695524
  0
VERTEX
  8
0
 10
109.67427727
 20
472.14029828
  0
VERTEX
  8
0
 10
110.18385089
 20
471.69537593
  0
VERTEX
  8
0
 10
110.66982653
 20
471.22244806
  0
VERTEX
  8
0
 10
111.13107955
 20
470.72177454
  0
VERTEX
  8
0
 10
111.56648531
 20
470.19361525
  0
VERTEX
  8
0
 10
111.97491916
 20
469.63823005
  0
VERTEX
  8
0
 10
112.35525647
 20
469.05587882
  0
VERTEX
  8
0
 10
112.70637259
 20
468.44682142
  0
VERTEX
  8
0
 10
113.02714287
 20
467.81131774
  0
VERTEX
  8
0
 10
113.31644268
 20
467.14962763
  0
VERTEX
  8
0
 10
113.57314737
 20
466.46201098
  0
VERTEX
  8
0
 10
113.79613229
 20
465.74872765
  0
VERTEX
  8
0
 10
113.98427282
 20
465.01003752
  0
VERTEX
  8
0
 10
114.13644430
 20
464.24620045
  0
VERTEX
  8
0
 10
114.25152209
 20
463.45747632
  0
VERTEX
  8
0
 10
114.32838154
 20
462.64412500
  0
VERTEX
  8
0
 10
114.36589803
 20
461.80640636
  0
VERTEX
  8
0
 10
114.36294689
 20
460.94458027
  0
VERTEX
  8
0
 10
114.31840350
 20
460.05890661
  0
VERTEX
  8
0
 10
114.23114321
 20
459.14964524
  0
VERTEX
  8
0
 10
114.10004136
 20
458.21705604
  0
VERTEX
  8
0
 10
113.92397334
 20
457.26139888
  0
VERTEX
  8
0
 10
113.70181448
 20
456.28293363
  0
VERTEX
  8
0
 10
113.63808139
 20
456.07284558
  0
VERTEX
  8
0
 10
113.55378477
 20
455.86094477
  0
VERTEX
  8
0
 10
113.33312171
 20
455.43046594
  0
VERTEX
  8
0
 10
113.05906676
 20
454.98901922
  0
VERTEX
  8
0
 10
112.75086139
 20
454.53412672
  0
VERTEX
  8
0
 10
112.42774707
 20
454.06331054
  0
VERTEX
  8
0
 10
112.10896528
 20
453.57409278
  0
VERTEX
  8
0
 10
111.81375747
 20
453.06399555
  0
VERTEX
  8
0
 10
111.68100678
 20
452.80034278
  0
VERTEX
  8
0
 10
111.56136513
 20
452.53054094
  0
VERTEX
  8
0
 10
110.94226862
 20
451.03461102
  0
VERTEX
  8
0
 10
110.39593782
 20
449.73839888
  0
VERTEX
  8
0
 10
109.87864051
 20
448.58351355
  0
VERTEX
  8
0
 10
109.34664450
 20
447.51156411
  0
VERTEX
  8
0
 10
109.06146816
 20
446.98844317
  0
VERTEX
  8
0
 10
108.75621756
 20
446.46415959
  0
VERTEX
  8
0
 10
108.42542618
 20
445.93141452
  0
VERTEX
  8
0
 10
108.06362749
 20
445.38290907
  0
VERTEX
  8
0
 10
107.66535496
 20
444.81134438
  0
VERTEX
  8
0
 10
107.22514207
 20
444.20942159
  0
VERTEX
  8
0
 10
106.19702911
 20
442.88530622
  0
VERTEX
  8
0
 10
104.91800231
 20
441.32185854
  0
VERTEX
  8
0
 10
104.28331764
 20
440.57577719
  0
VERTEX
  8
0
 10
103.64666645
 20
439.85110592
  0
VERTEX
  8
0
 10
103.00415946
 20
439.14608107
  0
VERTEX
  8
0
 10
102.35190741
 20
438.45893895
  0
VERTEX
  8
0
 10
101.68602103
 20
437.78791589
  0
VERTEX
  8
0
 10
101.00261107
 20
437.13124821
  0
VERTEX
  8
0
 10
100.29778825
 20
436.48717224
  0
VERTEX
  8
0
 10
99.56766331
 20
435.85392430
  0
VERTEX
  8
0
 10
98.80834699
 20
435.22974071
  0
VERTEX
  8
0
 10
98.01595001
 20
434.61285781
  0
VERTEX
  8
0
 10
97.18658313
 20
434.00151191
  0
VERTEX
  8
0
 10
96.31635706
 20
433.39393934
  0
VERTEX
  8
0
 10
95.40138255
 20
432.78837641
  0
VERTEX
  8
0
 10
94.43777033
 20
432.18305947
  0
VERTEX
  8
0
 10
93.76900520
 20
431.78884229
  0
VERTEX
  8
0
 10
93.22889054
 20
431.49410940
  0
VERTEX
  8
0
 10
92.76275677
 20
431.26721308
  0
VERTEX
  8
0
 10
92.31593431
 20
431.07650562
  0
VERTEX
  8
0
 10
91.26154491
 20
430.67706643
  0
VERTEX
  8
0
 10
90.54463880
 20
430.40503928
  0
VERTEX
  8
0
 10
89.62836562
 20
430.04261012
  0
VERTEX
  8
0
 10
89.14608956
 20
429.86098040
  0
VERTEX
  8
0
 10
88.64690852
 20
429.69171775
  0
VERTEX
  8
0
 10
88.13100068
 20
429.53641774
  0
VERTEX
  8
0
 10
87.59854423
 20
429.39667594
  0
VERTEX
  8
0
 10
87.04971733
 20
429.27408792
  0
VERTEX
  8
0
 10
86.48469816
 20
429.17024927
  0
VERTEX
  8
0
 10
85.90366491
 20
429.08675556
  0
VERTEX
  8
0
 10
85.30679574
 20
429.02520235
  0
VERTEX
  8
0
 10
84.69426885
 20
428.98718524
  0
VERTEX
  8
0
 10
84.06626239
 20
428.97429978
  0
VERTEX
  8
0
 10
83.42295456
 20
428.98814156
  0
VERTEX
  8
0
 10
82.76452352
 20
429.03030615
  0
VERTEX
  8
0
 10
82.09114746
 20
429.10238913
  0
VERTEX
  8
0
 10
81.40300455
 20
429.20598606
  0
VERTEX
  8
0
 10
80.70027297
 20
429.34269253
  0
VERTEX
  8
0
 10
79.98313090
 20
429.51410411
  0
VERTEX
  8
0
 10
79.64955895
 20
429.98320067
  0
VERTEX
  8
0
 10
79.33218301
 20
430.46849323
  0
VERTEX
  8
0
 10
78.71360000
 20
431.45524723
  0
VERTEX
  8
0
 10
78.39618337
 20
431.94049911
  0
VERTEX
  8
0
 10
78.06254360
 20
432.40952785
  0
VERTEX
  8
0
 10
77.70457592
 20
432.85422867
  0
VERTEX
  8
0
 10
77.31417554
 20
433.26649679
  0
VERTEX
  8
0
 10
77.53124551
 20
434.44974841
  0
VERTEX
  8
0
 10
77.78909451
 20
435.59338226
  0
VERTEX
  8
0
 10
78.08398295
 20
436.70106052
  0
VERTEX
  8
0
 10
78.41217122
 20
437.77644537
  0
VERTEX
  8
0
 10
78.76991975
 20
438.82319899
  0
VERTEX
  8
0
 10
79.15348893
 20
439.84498355
  0
VERTEX
  8
0
 10
79.55913918
 20
440.84546123
  0
VERTEX
  8
0
 10
79.98313090
 20
441.82829419
  0
VERTEX
  8
0
 10
80.41932255
 20
441.53447746
  0
VERTEX
  8
0
 10
80.86421322
 20
441.27813162
  0
VERTEX
  8
0
 10
81.31725171
 20
441.05844733
  0
VERTEX
  8
0
 10
81.77788680
 20
440.87461524
  0
VERTEX
  8
0
 10
82.24556728
 20
440.72582601
  0
VERTEX
  8
0
 10
82.71974196
 20
440.61127029
  0
VERTEX
  8
0
 10
83.19985961
 20
440.53013873
  0
VERTEX
  8
0
 10
83.68536904
 20
440.48162199
  0
VERTEX
  8
0
 10
84.17571902
 20
440.46491072
  0
VERTEX
  8
0
 10
84.67035836
 20
440.47919557
  0
VERTEX
  8
0
 10
85.16873584
 20
440.52366719
  0
VERTEX
  8
0
 10
85.67030026
 20
440.59751625
  0
VERTEX
  8
0
 10
86.17450040
 20
440.69993339
  0
VERTEX
  8
0
 10
86.68078506
 20
440.83010926
  0
VERTEX
  8
0
 10
87.18860303
 20
440.98723453
  0
VERTEX
  8
0
 10
87.69740309
 20
441.17049984
  0
VERTEX
  8
0
 10
88.20663405
 20
441.37909584
  0
VERTEX
  8
0
 10
88.71574469
 20
441.61221320
  0
VERTEX
  8
0
 10
89.22418380
 20
441.86904255
  0
VERTEX
  8
0
 10
89.73140017
 20
442.14877457
  0
VERTEX
  8
0
 10
90.23684260
 20
442.45059989
  0
VERTEX
  8
0
 10
90.73995988
 20
442.77370918
  0
VERTEX
  8
0
 10
91.24020079
 20
443.11729308
  0
VERTEX
  8
0
 10
91.73701414
 20
443.48054225
  0
VERTEX
  8
0
 10
92.22984870
 20
443.86264735
  0
VERTEX
  8
0
 10
92.71815327
 20
444.26279902
  0
VERTEX
  8
0
 10
93.20137665
 20
444.68018793
  0
VERTEX
  8
0
 10
93.67896761
 20
445.11400471
  0
VERTEX
  8
0
 10
94.15037497
 20
445.56344004
  0
VERTEX
  8
0
 10
94.61504749
 20
446.02768455
  0
VERTEX
  8
0
 10
95.52198324
 20
446.99736376
  0
VERTEX
  8
0
 10
96.39536518
 20
448.01656757
  0
VERTEX
  8
0
 10
97.23078365
 20
449.07882121
  0
VERTEX
  8
0
 10
98.02382897
 20
450.17764990
  0
VERTEX
  8
0
 10
98.77009148
 20
451.30657887
  0
VERTEX
  8
0
 10
99.46516150
 20
452.45913335
  0
VERTEX
  8
0
 10
100.10462936
 20
453.62883857
  0
VERTEX
  8
0
 10
100.68408539
 20
454.80921974
  0
VERTEX
  8
0
 10
100.94993095
 20
455.40139045
  0
VERTEX
  8
0
 10
101.19911993
 20
455.99380211
  0
VERTEX
  8
0
 10
101.43110111
 20
456.58564537
  0
VERTEX
  8
0
 10
101.64532329
 20
457.17611089
  0
VERTEX
  8
0
 10
101.84123526
 20
457.76438932
  0
VERTEX
  8
0
 10
102.01828581
 20
458.34967131
  0
VERTEX
  8
0
 10
102.17592373
 20
458.93114752
  0
VERTEX
  8
0
 10
102.31359782
 20
459.50800860
  0
VERTEX
  8
0
 10
102.43075686
 20
460.07944520
  0
VERTEX
  8
0
 10
102.52684965
 20
460.64464798
  0
VERTEX
  8
0
 10
102.60132497
 20
461.20280760
  0
VERTEX
  8
0
 10
102.65363162
 20
461.75311469
  0
VERTEX
  8
0
 10
102.68321839
 20
462.29475993
  0
VERTEX
  8
0
 10
102.68953407
 20
462.82693395
  0
VERTEX
  8
0
 10
102.67202745
 20
463.34882742
  0
VERTEX
  8
0
 10
102.63014733
 20
463.85963099
  0
VERTEX
  8
0
 10
102.56334249
 20
464.35853530
  0
VERTEX
  8
0
 10
102.47106172
 20
464.84473102
  0
VERTEX
  8
0
 10
102.37766210
 20
465.20994552
  0
VERTEX
  8
0
 10
102.26512310
 20
465.56193021
  0
VERTEX
  8
0
 10
102.13401664
 20
465.90062150
  0
VERTEX
  8
0
 10
101.98491463
 20
466.22595578
  0
VERTEX
  8
0
 10
101.81838898
 20
466.53786945
  0
VERTEX
  8
0
 10
101.63501160
 20
466.83629890
  0
VERTEX
  8
0
 10
101.43535440
 20
467.12118053
  0
VERTEX
  8
0
 10
101.21998931
 20
467.39245074
  0
VERTEX
  8
0
 10
100.98948822
 20
467.65004591
  0
VERTEX
  8
0
 10
100.74442305
 20
467.89390245
  0
VERTEX
  8
0
 10
100.48536571
 20
468.12395674
  0
VERTEX
  8
0
 10
100.21288812
 20
468.34014520
  0
VERTEX
  8
0
 10
99.92756218
 20
468.54240420
  0
VERTEX
  8
0
 10
99.62995982
 20
468.73067015
  0
VERTEX
  8
0
 10
99.32065293
 20
468.90487944
  0
VERTEX
  8
0
 10
99.00021343
 20
469.06496846
  0
VERTEX
  8
0
 10
98.66921324
 20
469.21087362
  0
VERTEX
  8
0
 10
98.32822427
 20
469.34253131
  0
VERTEX
  8
0
 10
97.97781842
 20
469.45987791
  0
VERTEX
  8
0
 10
97.61856761
 20
469.56284984
  0
VERTEX
  8
0
 10
97.25104376
 20
469.65138348
  0
VERTEX
  8
0
 10
96.87581877
 20
469.72541523
  0
VERTEX
  8
0
 10
96.49346455
 20
469.78488149
  0
VERTEX
  8
0
 10
96.10455302
 20
469.82971864
  0
VERTEX
  8
0
 10
95.70965610
 20
469.85986309
  0
VERTEX
  8
0
 10
95.30934568
 20
469.87525123
  0
VERTEX
  8
0
 10
94.49477203
 20
469.86150417
  0
VERTEX
  8
0
 10
93.66540737
 20
469.78796862
  0
VERTEX
  8
0
 10
92.82582700
 20
469.65413573
  0
VERTEX
  8
0
 10
92.45073905
 20
469.56986966
  0
VERTEX
  8
0
 10
92.08671049
 20
469.46841244
  0
VERTEX
  8
0
 10
91.73311602
 20
469.35073221
  0
VERTEX
  8
0
 10
91.38933036
 20
469.21779711
  0
VERTEX
  8
0
 10
91.05472820
 20
469.07057528
  0
VERTEX
  8
0
 10
90.72868426
 20
468.91003487
  0
VERTEX
  8
0
 10
90.09976986
 20
468.55287083
  0
VERTEX
  8
0
 10
89.49758482
 20
468.15405012
  0
VERTEX
  8
0
 10
88.91712680
 20
467.72131787
  0
VERTEX
  8
0
 10
88.35339345
 20
467.26241920
  0
VERTEX
  8
0
 10
87.80138244
 20
466.78509923
  0
VERTEX
  8
0
 10
86.71251806
 20
465.80617590
  0
VERTEX
  8
0
 10
86.16566001
 20
465.32006278
  0
VERTEX
  8
0
 10
85.61051494
 20
464.84650887
  0
VERTEX
  8
0
 10
85.04208050
 20
464.39325928
  0
VERTEX
  8
0
 10
84.45535435
 20
463.96805913
  0
VERTEX
  8
0
 10
83.84533416
 20
463.57865356
  0
VERTEX
  8
0
 10
83.20701758
 20
463.23278769
  0
VERTEX
  8
0
 10
81.94133353
 20
461.18568808
  0
VERTEX
  8
0
 10
80.71030458
 20
459.10404237
  0
VERTEX
  8
0
 10
79.51021320
 20
456.99156600
  0
VERTEX
  8
0
 10
78.33734184
 20
454.85197440
  0
VERTEX
  8
0
 10
77.18797295
 20
452.68898302
  0
VERTEX
  8
0
 10
76.05838898
 20
450.50630729
  0
VERTEX
  8
0
 10
74.94487241
 20
448.30766265
  0
VERTEX
  8
0
 10
73.84370567
 20
446.09676454
  0
VERTEX
  8
0
 10
71.66355155
 20
441.65306965
  0
VERTEX
  8
0
 10
69.48818628
 20
437.20494613
  0
VERTEX
  8
0
 10
68.39300559
 20
434.98851222
  0
VERTEX
  8
0
 10
67.28786949
 20
432.78211748
  0
VERTEX
  8
0
 10
66.16906042
 20
430.58947733
  0
VERTEX
  8
0
 10
65.03286084
 20
428.41430721
  0
VERTEX
  8
0
 10
63.87555321
 20
426.26032256
  0
VERTEX
  8
0
 10
62.69341998
 20
424.13123882
  0
VERTEX
  8
0
 10
61.48274362
 20
422.03077143
  0
VERTEX
  8
0
 10
60.23980656
 20
419.96263582
  0
VERTEX
  8
0
 10
58.96089128
 20
417.93054744
  0
VERTEX
  8
0
 10
57.64228023
 20
415.93822171
  0
VERTEX
  8
0
 10
56.96692706
 20
414.95813093
  0
VERTEX
  8
0
 10
56.28025586
 20
413.98937409
  0
VERTEX
  8
0
 10
55.58180195
 20
413.03241564
  0
VERTEX
  8
0
 10
54.87110064
 20
412.08772000
  0
VERTEX
  8
0
 10
54.14768722
 20
411.15575161
  0
VERTEX
  8
0
 10
53.41109701
 20
410.23697489
  0
VERTEX
  8
0
 10
52.66086531
 20
409.33185427
  0
VERTEX
  8
0
 10
51.89652743
 20
408.44085419
  0
VERTEX
  8
0
 10
51.11761868
 20
407.56443907
  0
VERTEX
  8
0
 10
50.32367436
 20
406.70307334
  0
VERTEX
  8
0
 10
49.51422978
 20
405.85722144
  0
VERTEX
  8
0
 10
48.68882025
 20
405.02734778
  0
VERTEX
  8
0
 10
47.84698108
 20
404.21391681
  0
VERTEX
  8
0
 10
46.98824757
 20
403.41739295
  0
VERTEX
  8
0
 10
46.11215503
 20
402.63824063
  0
VERTEX
  8
0
 10
45.21823877
 20
401.87692429
  0
VERTEX
  8
0
 10
44.30603409
 20
401.13390834
  0
VERTEX
  8
0
 10
43.37507629
 20
400.40965723
  0
VERTEX
  8
0
 10
42.42490070
 20
399.70463537
  0
VERTEX
  8
0
 10
41.45504261
 20
399.01930721
  0
VERTEX
  8
0
 10
41.99358384
 20
398.89411484
  0
VERTEX
  8
0
 10
42.52368196
 20
398.79367994
  0
VERTEX
  8
0
 10
43.04610448
 20
398.71627425
  0
VERTEX
  8
0
 10
43.56161890
 20
398.66016953
  0
VERTEX
  8
0
 10
44.07099273
 20
398.62363754
  0
VERTEX
  8
0
 10
44.57499350
 20
398.60495003
  0
VERTEX
  8
0
 10
45.07438869
 20
398.60237875
  0
VERTEX
  8
0
 10
45.56994583
 20
398.61419546
  0
VERTEX
  8
0
 10
46.55261598
 20
398.67407985
  0
VERTEX
  8
0
 10
47.52914400
 20
398.77077725
  0
VERTEX
  8
0
 10
49.48833400
 20
399.01930721
  0
VERTEX
  8
0
 10
50.04062281
 20
398.62300310
  0
VERTEX
  8
0
 10
50.62671900
 20
398.26451404
  0
VERTEX
  8
0
 10
51.24365338
 20
397.93941530
  0
VERTEX
  8
0
 10
51.88845672
 20
397.64328218
  0
VERTEX
  8
0
 10
52.55815984
 20
397.37168997
  0
VERTEX
  8
0
 10
53.24979353
 20
397.12021396
  0
VERTEX
  8
0
 10
53.96038858
 20
396.88442943
  0
VERTEX
  8
0
 10
54.68697579
 20
396.65991169
  0
VERTEX
  8
0
 10
57.69386215
 20
395.78601428
  0
VERTEX
  8
0
 10
58.45587210
 20
395.55145977
  0
VERTEX
  8
0
 10
59.21605899
 20
395.30162378
  0
VERTEX
  8
0
 10
59.97145361
 20
395.03208159
  0
VERTEX
  8
0
 10
60.71908676
 20
394.73840851
  0
VERTEX
  8
0
 10
60.88581736
 20
394.65931780
  0
VERTEX
  8
0
 10
61.04153918
 20
394.56913239
  0
VERTEX
  8
0
 10
61.32562656
 20
394.36251224
  0
VERTEX
  8
0
 10
61.58268909
 20
394.13261768
  0
VERTEX
  8
0
 10
61.82406698
 20
393.89351832
  0
VERTEX
  8
0
 10
62.06110042
 20
393.65928377
  0
VERTEX
  8
0
 10
62.30512962
 20
393.44398365
  0
VERTEX
  8
0
 10
62.56749479
 20
393.26168758
  0
VERTEX
  8
0
 10
62.70909716
 20
393.18731282
  0
VERTEX
  8
0
 10
62.85953611
 20
393.12646517
  0
VERTEX
  8
0
 10
63.01157067
 20
393.08347067
  0
VERTEX
  8
0
 10
63.16904138
 20
393.05580442
  0
VERTEX
  8
0
 10
63.49732023
 20
393.03823183
  0
VERTEX
  8
0
 10
63.83843076
 20
393.05729772
  0
VERTEX
  8
0
 10
64.18643105
 20
393.09655239
  0
VERTEX
  8
0
 10
64.53537917
 20
393.13954616
  0
VERTEX
  8
0
 10
64.87933323
 20
393.16982934
  0
VERTEX
  8
0
 10
65.21235130
 20
393.17095224
  0
VERTEX
  8
0
 10
65.52849147
 20
393.12646517
  0
VERTEX
  8
0
 10
65.70730746
 20
393.07619083
  0
VERTEX
  8
0
 10
65.86087317
 20
393.01666251
  0
VERTEX
  8
0
 10
65.99236881
 20
392.94941210
  0
VERTEX
  8
0
 10
66.10497460
 20
392.87597149
  0
VERTEX
  8
0
 10
66.28623748
 20
392.71664716
  0
VERTEX
  8
0
 10
66.43010357
 20
392.55094458
  0
VERTEX
  8
0
 10
66.56201460
 20
392.39111883
  0
VERTEX
  8
0
 10
66.70741232
 20
392.24942497
  0
VERTEX
  8
0
 10
66.79311924
 20
392.18920720
  0
VERTEX
  8
0
 10
66.89173848
 20
392.13811805
  0
VERTEX
  8
0
 10
67.00645026
 20
392.09768940
  0
VERTEX
  8
0
 10
67.14043480
 20
392.06945315
  0
VERTEX
  8
0
 10
68.03195656
 20
391.94147632
  0
VERTEX
  8
0
 10
68.92210423
 20
391.85706702
  0
VERTEX
  8
0
 10
69.81151207
 20
391.81243335
  0
VERTEX
  8
0
 10
70.70081432
 20
391.80378341
  0
VERTEX
  8
0
 10
71.59064524
 20
391.82732532
  0
VERTEX
  8
0
 10
72.48163909
 20
391.87926716
  0
VERTEX
  8
0
 10
73.37443012
 20
391.95581705
  0
VERTEX
  8
0
 10
74.26965257
 20
392.05318309
  0
VERTEX
  8
0
 10
76.06992880
 20
392.29519602
  0
VERTEX
  8
0
 10
77.88754180
 20
392.57497080
  0
VERTEX
  8
0
 10
79.72756560
 20
392.86217224
  0
VERTEX
  8
0
 10
81.59507424
 20
393.12646517
  0
VERTEX
  8
0
 10
82.09863148
 20
393.53500458
  0
VERTEX
  8
0
 10
82.61234624
 20
393.92878547
  0
VERTEX
  8
0
 10
83.13529978
 20
394.30902411
  0
VERTEX
  8
0
 10
83.66657339
 20
394.67693675
  0
VERTEX
  8
0
 10
84.75040592
 20
395.38064908
  0
VERTEX
  8
0
 10
85.85649402
 20
396.04965253
  0
VERTEX
  8
0
 10
86.97748792
 20
396.69367718
  0
VERTEX
  8
0
 10
88.10603781
 20
397.32245311
  0
VERTEX
  8
0
 10
90.35640644
 20
398.57317909
  0
VERTEX
  8
0
 10
91.46352559
 20
399.21458931
  0
VERTEX
  8
0
 10
92.54880159
 20
399.87967110
  0
VERTEX
  8
0
 10
93.60488464
 20
400.57815454
  0
VERTEX
  8
0
 10
94.11968200
 20
400.94296253
  0
VERTEX
  8
0
 10
94.62442495
 20
401.31976972
  0
VERTEX
  8
0
 10
95.11819477
 20
401.70979235
  0
VERTEX
  8
0
 10
95.60007273
 20
402.11424670
  0
VERTEX
  8
0
 10
96.06914012
 20
402.53434902
  0
VERTEX
  8
0
 10
96.52447820
 20
402.97131556
  0
VERTEX
  8
0
 10
96.96516825
 20
403.42636260
  0
VERTEX
  8
0
 10
97.39029156
 20
403.90070639
  0
VERTEX
  8
0
 10
97.79892939
 20
404.39556318
  0
VERTEX
  8
0
 10
98.19016302
 20
404.91214924
  0
VERTEX
  8
0
 10
98.48511263
 20
405.33919700
  0
VERTEX
  8
0
 10
98.76946545
 20
405.78559473
  0
VERTEX
  8
0
 10
99.31233298
 20
406.72824087
  0
VERTEX
  8
0
 10
99.83067020
 20
407.72368915
  0
VERTEX
  8
0
 10
100.33638167
 20
408.75554108
  0
VERTEX
  8
0
 10
101.35754571
 20
410.86286190
  0
VERTEX
  8
0
 10
101.89680743
 20
411.90553379
  0
VERTEX
  8
0
 10
102.47106172
 20
412.91901533
  0
VERTEX
  8
0
 10
104.10360539
 20
415.65117675
  0
VERTEX
  8
0
 10
105.78522329
 20
418.40800271
  0
VERTEX
  8
0
 10
107.50636685
 20
421.17898475
  0
VERTEX
  8
0
 10
109.25748752
 20
423.95361440
  0
VERTEX
  8
0
 10
111.02903671
 20
426.72138322
  0
VERTEX
  8
0
 10
112.81146587
 20
429.47178275
  0
VERTEX
  8
0
 10
116.37076984
 20
434.87844013
  0
VERTEX
  8
0
 10
118.77794957
 20
434.86853064
  0
VERTEX
  8
0
 10
121.18017455
 20
434.87844013
  0
VERTEX
  8
0
 10
122.02017602
 20
435.20088815
  0
VERTEX
  8
0
 10
122.83412517
 20
435.48350410
  0
VERTEX
  8
0
 10
123.62752895
 20
435.73037660
  0
VERTEX
  8
0
 10
124.40589427
 20
435.94559431
  0
VERTEX
  8
0
 10
125.17472808
 20
436.13324585
  0
VERTEX
  8
0
 10
125.93953730
 20
436.29741986
  0
VERTEX
  8
0
 10
126.70582887
 20
436.44220497
  0
VERTEX
  8
0
 10
127.47910971
 20
436.57168982
  0
VERTEX
  8
0
 10
129.06866693
 20
436.80111329
  0
VERTEX
  8
0
 10
130.75226441
 20
437.01839933
  0
VERTEX
  8
0
 10
132.57395761
 20
437.25625704
  0
VERTEX
  8
0
 10
134.57780196
 20
437.54739549
  0
VERTEX
  8
0
 10
133.54015293
 20
435.79345700
  0
VERTEX
  8
0
 10
132.48521132
 20
434.06146886
  0
VERTEX
  8
0
 10
131.41476100
 20
432.34809472
  0
VERTEX
  8
0
 10
130.33058586
 20
430.64999821
  0
VERTEX
  8
0
 10
128.12819654
 20
427.28629266
  0
VERTEX
  8
0
 10
125.89231434
 20
423.94366131
  0
VERTEX
  8
0
 10
123.63721020
 20
420.59541326
  0
VERTEX
  8
0
 10
121.37715510
 20
417.21485761
  0
VERTEX
  8
0
 10
119.12642000
 20
413.77530348
  0
VERTEX
  8
0
 10
118.00900712
 20
412.02506108
  0
VERTEX
  8
0
 10
116.89927585
 20
410.25005996
  0
VERTEX
  8
0
 10
115.79344078
 20
408.48510736
  0
VERTEX
  8
0
 10
114.69936586
 20
406.72748279
  0
VERTEX
  8
0
 10
114.16843515
 20
405.83645952
  0
VERTEX
  8
0
 10
113.65448052
 20
404.92931745
  0
VERTEX
  8
0
 10
113.16218064
 20
404.00007300
  0
VERTEX
  8
0
 10
112.69621420
 20
403.04274255
  0
VERTEX
  8
0
 10
112.26125987
 20
402.05134251
  0
VERTEX
  8
0
 10
111.86199633
 20
401.01988927
  0
VERTEX
  8
0
 10
111.50310226
 20
399.94239924
  0
VERTEX
  8
0
 10
111.34025587
 20
399.38452055
  0
VERTEX
  8
0
 10
111.18925635
 20
398.81288882
  0
VERTEX
  8
0
 10
111.05068854
 20
398.22675608
  0
VERTEX
  8
0
 10
110.92513727
 20
397.62537440
  0
VERTEX
  8
0
 10
110.81318738
 20
397.00799582
  0
VERTEX
  8
0
 10
110.71542370
 20
396.37387239
  0
VERTEX
  8
0
 10
110.63243106
 20
395.72225616
  0
VERTEX
  8
0
 10
110.56479432
 20
395.05239918
  0
VERTEX
  8
0
 10
110.51309828
 20
394.36355351
  0
VERTEX
  8
0
 10
110.47792780
 20
393.65497118
  0
VERTEX
  8
0
 10
110.94352325
 20
393.51950123
  0
VERTEX
  8
0
 10
111.40306822
 20
393.41459051
  0
VERTEX
  8
0
 10
111.85664660
 20
393.33903206
  0
VERTEX
  8
0
 10
112.30434232
 20
393.29161894
  0
VERTEX
  8
0
 10
112.74623927
 20
393.27114418
  0
VERTEX
  8
0
 10
113.18242136
 20
393.27640083
  0
VERTEX
  8
0
 10
113.61297250
 20
393.30618191
  0
VERTEX
  8
0
 10
114.03797659
 20
393.35928049
  0
VERTEX
  8
0
 10
114.45751754
 20
393.43448960
  0
VERTEX
  8
0
 10
114.87167926
 20
393.53060227
  0
VERTEX
  8
0
 10
115.28054566
 20
393.64641156
  0
VERTEX
  8
0
 10
115.68420063
 20
393.78071050
  0
VERTEX
  8
0
 10
116.08272809
 20
393.93229214
  0
VERTEX
  8
0
 10
116.47621195
 20
394.09994952
  0
VERTEX
  8
0
 10
117.24838446
 20
394.47866366
  0
VERTEX
  8
0
 10
118.00138942
 20
394.90719725
  0
VERTEX
  8
0
 10
118.73589809
 20
395.37589463
  0
VERTEX
  8
0
 10
119.45258170
 20
395.87510013
  0
VERTEX
  8
0
 10
120.15211153
 20
396.39515809
  0
VERTEX
  8
0
 10
121.50239479
 20
397.45920872
  0
VERTEX
  8
0
 10
122.79211789
 20
398.49080119
  0
VERTEX
  8
0
 10
123.41193052
 20
398.98886367
  0
VERTEX
  8
0
 10
124.01541861
 20
399.50424755
  0
VERTEX
  8
0
 10
124.60334318
 20
400.03632281
  0
VERTEX
  8
0
 10
125.17646523
 20
400.58445941
  0
VERTEX
  8
0
 10
125.73554577
 20
401.14802735
  0
VERTEX
  8
0
 10
126.28134582
 20
401.72639658
  0
VERTEX
  8
0
 10
126.81462640
 20
402.31893710
  0
VERTEX
  8
0
 10
127.33614850
 20
402.92501887
  0
VERTEX
  8
0
 10
127.84667315
 20
403.54401187
  0
VERTEX
  8
0
 10
128.34696135
 20
404.17528607
  0
VERTEX
  8
0
 10
129.31987247
 20
405.47215801
  0
VERTEX
  8
0
 10
130.26096995
 20
406.81059447
  0
VERTEX
  8
0
 10
131.17634189
 20
408.18555528
  0
VERTEX
  8
0
 10
132.07207638
 20
409.59200023
  0
VERTEX
  8
0
 10
132.95426153
 20
411.02488913
  0
VERTEX
  8
0
 10
134.70233614
 20
413.94983802
  0
VERTEX
  8
0
 10
136.46927050
 20
416.92008039
  0
VERTEX
  8
0
 10
137.37503031
 20
418.40958614
  0
VERTEX
  8
0
 10
138.30376935
 20
419.89529469
  0
VERTEX
  8
0
 10
138.94179094
 20
420.87509089
  0
VERTEX
  8
0
 10
139.59139842
 20
421.84462684
  0
VERTEX
  8
0
 10
140.91141805
 20
423.75675821
  0
VERTEX
  8
0
 10
142.23592228
 20
425.63936935
  0
VERTEX
  8
0
 10
143.53700516
 20
427.50014078
  0
VERTEX
  8
0
 10
144.78676073
 20
429.34675304
  0
VERTEX
  8
0
 10
145.38367016
 20
430.26714965
  0
VERTEX
  8
0
 10
145.95728304
 20
431.18688666
  0
VERTEX
  8
0
 10
146.50411111
 20
432.10692415
  0
VERTEX
  8
0
 10
147.02066614
 20
433.02822218
  0
VERTEX
  8
0
 10
147.50345987
 20
433.95174082
  0
VERTEX
  8
0
 10
147.94900407
 20
434.87844013
  0
VERTEX
  8
0
 10
150.88799297
 20
434.86853064
  0
VERTEX
  8
0
 10
153.84184610
 20
434.87844013
  0
VERTEX
  8
0
 10
154.13143127
 20
434.81831671
  0
VERTEX
  8
0
 10
154.36539024
 20
434.81440978
  0
VERTEX
  8
0
 10
154.55119130
 20
434.85922204
  0
VERTEX
  8
0
 10
154.69630271
 20
434.94525622
  0
VERTEX
  8
0
 10
154.80819272
 20
435.06501499
  0
VERTEX
  8
0
 10
154.89432962
 20
435.21100107
  0
VERTEX
  8
0
 10
154.96218166
 20
435.37571716
  0
VERTEX
  8
0
 10
155.01921711
 20
435.55166595
  0
VERTEX
  8
0
 10
155.13071132
 20
435.90727249
  0
VERTEX
  8
0
 10
155.20010660
 20
436.07193563
  0
VERTEX
  8
0
 10
155.28855835
 20
436.21784229
  0
VERTEX
  8
0
 10
155.40353485
 20
436.33749517
  0
VERTEX
  8
0
 10
155.55250436
 20
436.42339698
  0
VERTEX
  8
0
 10
155.74293513
 20
436.46805041
  0
VERTEX
  8
0
 10
155.98229545
 20
436.46395817
  0
VERTEX
  8
0
 10
156.43696283
 20
436.37398312
  0
VERTEX
  8
0
 10
156.87950120
 20
436.30650575
  0
VERTEX
  8
0
 10
157.31034783
 20
436.26007522
  0
VERTEX
  8
0
 10
157.72994000
 20
436.23324069
  0
VERTEX
  8
0
 10
158.13871499
 20
436.22455129
  0
VERTEX
  8
0
 10
158.53711006
 20
436.23255618
  0
VERTEX
  8
0
 10
159.30450956
 20
436.29284543
  0
VERTEX
  8
0
 10
160.03563669
 20
436.40250164
  0
VERTEX
  8
0
 10
160.73398966
 20
436.54991802
  0
VERTEX
  8
0
 10
161.40306664
 20
436.72348777
  0
VERTEX
  8
0
 10
162.04636584
 20
436.91160408
  0
VERTEX
  8
0
 10
163.26962365
 20
437.28504924
  0
VERTEX
  8
0
 10
163.85657864
 20
437.44716448
  0
VERTEX
  8
0
 10
164.43174862
 20
437.57739911
  0
VERTEX
  8
0
 10
164.99863177
 20
437.66414632
  0
VERTEX
  8
0
 10
165.28005897
 20
437.68758502
  0
VERTEX
  8
0
 10
165.56072629
 20
437.69579932
  0
VERTEX
  8
0
 10
165.84107100
 20
437.68733837
  0
VERTEX
  8
0
 10
166.12153037
 20
437.66075131
  0
VERTEX
  8
0
 10
166.40254168
 20
437.61458730
  0
VERTEX
  8
0
 10
166.68454220
 20
437.54739549
  0
VERTEX
  8
0
 10
165.68794270
 20
435.91030505
  0
VERTEX
  8
0
 10
164.60513993
 20
434.20880875
  0
VERTEX
  8
0
 10
163.44674549
 20
432.44803592
  0
VERTEX
  8
0
 10
162.22337101
 20
430.63311587
  0
VERTEX
  8
0
 10
159.62412835
 20
426.86135146
  0
VERTEX
  8
0
 10
156.89230485
 20
422.93455010
  0
VERTEX
  8
0
 10
154.11279343
 20
418.89374640
  0
VERTEX
  8
0
 10
152.73168379
 20
416.84341699
  0
VERTEX
  8
0
 10
151.37048700
 20
414.77997496
  0
VERTEX
  8
0
 10
150.03981469
 20
412.70854966
  0
VERTEX
  8
0
 10
148.75027846
 20
410.63427039
  0
VERTEX
  8
0
 10
147.51248994
 20
408.56226649
  0
VERTEX
  8
0
 10
146.33706073
 20
406.49766728
  0
VERTEX
  8
0
 10
145.21011504
 20
404.48406794
  0
VERTEX
  8
0
 10
144.59962631
 20
403.36948184
  0
VERTEX
  8
0
 10
143.98777756
 20
402.20533670
  0
VERTEX
  8
0
 10
143.39705672
 20
401.00835650
  0
VERTEX
  8
0
 10
142.84995171
 20
399.79526518
  0
VERTEX
  8
0
 10
142.59978263
 20
399.18790408
  0
VERTEX
  8
0
 10
142.36895048
 20
398.58278669
  0
VERTEX
  8
0
 10
142.16026626
 20
397.98200349
  0
VERTEX
  8
0
 10
141.97654095
 20
397.38764498
  0
VERTEX
  8
0
 10
141.82058555
 20
396.80180165
  0
VERTEX
  8
0
 10
141.69521104
 20
396.22656401
  0
VERTEX
  8
0
 10
141.60322843
 20
395.66402253
  0
VERTEX
  8
0
 10
141.54744870
 20
395.11626773
  0
VERTEX
  8
0
 10
141.53068284
 20
394.58539008
  0
VERTEX
  8
0
 10
141.55574184
 20
394.07348008
  0
VERTEX
  8
0
 10
141.62543670
 20
393.58262824
  0
VERTEX
  8
0
 10
141.74257840
 20
393.11492503
  0
VERTEX
  8
0
 10
141.90997794
 20
392.67246097
  0
VERTEX
  8
0
 10
142.01340283
 20
392.46134689
  0
VERTEX
  8
0
 10
142.13044630
 20
392.25732653
  0
VERTEX
  8
0
 10
142.26145973
 20
392.06066120
  0
VERTEX
  8
0
 10
142.40679449
 20
391.87161222
  0
VERTEX
  8
0
 10
142.56680195
 20
391.69044089
  0
VERTEX
  8
0
 10
142.74183348
 20
391.51740852
  0
VERTEX
  8
0
 10
142.93224047
 20
391.35277644
  0
VERTEX
  8
0
 10
143.13837428
 20
391.19680594
  0
VERTEX
  8
0
 10
143.36058629
 20
391.04975835
  0
VERTEX
  8
0
 10
143.59922787
 20
390.91189496
  0
VERTEX
  8
0
 10
143.85465040
 20
390.78347711
  0
VERTEX
  8
0
 10
144.12720524
 20
390.66476609
  0
VERTEX
  8
0
 10
144.41724379
 20
390.55602322
  0
VERTEX
  8
0
 10
144.72511739
 20
390.45750981
  0
VERTEX
  8
0
 10
145.11366559
 20
390.35766830
  0
VERTEX
  8
0
 10
145.49288943
 20
390.29059033
  0
VERTEX
  8
0
 10
145.86326478
 20
390.25399528
  0
VERTEX
  8
0
 10
146.22526751
 20
390.24560251
  0
VERTEX
  8
0
 10
146.57937349
 20
390.26313143
  0
VERTEX
  8
0
 10
146.92605859
 20
390.30430139
  0
VERTEX
  8
0
 10
147.26579869
 20
390.36683177
  0
VERTEX
  8
0
 10
147.59906967
 20
390.44844197
  0
VERTEX
  8
0
 10
147.92634738
 20
390.54685134
  0
VERTEX
  8
0
 10
148.24810771
 20
390.65977928
  0
VERTEX
  8
0
 10
148.87697970
 20
390.92006834
  0
VERTEX
  8
0
 10
149.48949261
 20
391.21106419
  0
VERTEX
  8
0
 10
150.08945342
 20
391.51452183
  0
VERTEX
  8
0
 10
151.68461982
 20
392.34206561
  0
VERTEX
  8
0
 10
153.47647957
 20
393.29009183
  0
VERTEX
  8
0
 10
155.35870135
 20
394.33302796
  0
VERTEX
  8
0
 10
156.30046945
 20
394.88209583
  0
VERTEX
  8
0
 10
157.22495380
 20
395.44530148
  0
VERTEX
  8
0
 10
158.11886299
 20
396.01944836
  0
VERTEX
  8
0
 10
158.96890559
 20
396.60133989
  0
VERTEX
  8
0
 10
159.76179018
 20
397.18777951
  0
VERTEX
  8
0
 10
160.48422536
 20
397.77557066
  0
VERTEX
  8
0
 10
161.12291970
 20
398.36151677
  0
VERTEX
  8
0
 10
161.40671048
 20
398.65279901
  0
VERTEX
  8
0
 10
161.66458178
 20
398.94242128
  0
VERTEX
  8
0
 10
161.89487215
 20
399.22998401
  0
VERTEX
  8
0
 10
162.09592018
 20
399.51508762
  0
VERTEX
  8
0
 10
162.26606444
 20
399.79733255
  0
VERTEX
  8
0
 10
162.40364350
 20
400.07631923
  0
VERTEX
  8
0
 10
162.35934143
 20
401.52828919
  0
VERTEX
  8
0
 10
162.35871892
 20
402.94466793
  0
VERTEX
  8
0
 10
162.40071463
 20
404.32623202
  0
VERTEX
  8
0
 10
162.48426722
 20
405.67375806
  0
VERTEX
  8
0
 10
162.60831535
 20
406.98802264
  0
VERTEX
  8
0
 10
162.77179768
 20
408.26980235
  0
VERTEX
  8
0
 10
162.97365286
 20
409.51987377
  0
VERTEX
  8
0
 10
163.21281957
 20
410.73901349
  0
VERTEX
  8
0
 10
163.48823645
 20
411.92799812
  0
VERTEX
  8
0
 10
163.79884216
 20
413.08760422
  0
VERTEX
  8
0
 10
164.14357537
 20
414.21860840
  0
VERTEX
  8
0
 10
164.52137473
 20
415.32178724
  0
VERTEX
  8
0
 10
164.93117890
 20
416.39791733
  0
VERTEX
  8
0
 10
165.37192655
 20
417.44777527
  0
VERTEX
  8
0
 10
165.84255632
 20
418.47213763
  0
VERTEX
  8
0
 10
166.34200688
 20
419.47178102
  0
VERTEX
  8
0
 10
166.86921689
 20
420.44748201
  0
VERTEX
  8
0
 10
167.42312501
 20
421.40001721
  0
VERTEX
  8
0
 10
168.00266989
 20
422.33016319
  0
VERTEX
  8
0
 10
168.60679020
 20
423.23869654
  0
VERTEX
  8
0
 10
169.23442460
 20
424.12639387
  0
VERTEX
  8
0
 10
169.88451173
 20
424.99403175
  0
VERTEX
  8
0
 10
170.55599027
 20
425.84238677
  0
VERTEX
  8
0
 10
171.24779887
 20
426.67223554
  0
VERTEX
  8
0
 10
171.95887619
 20
427.48435462
  0
VERTEX
  8
0
 10
172.68816089
 20
428.27952062
  0
VERTEX
  8
0
 10
173.43459162
 20
429.05851012
  0
VERTEX
  8
0
 10
174.19710706
 20
429.82209971
  0
VERTEX
  8
0
 10
174.97464585
 20
430.57106598
  0
VERTEX
  8
0
 10
175.76614665
 20
431.30618553
  0
VERTEX
  8
0
 10
176.57054813
 20
432.02823493
  0
VERTEX
  8
0
 10
177.38678895
 20
432.73799078
  0
VERTEX
  8
0
 10
178.68021467
 20
433.84384250
  0
VERTEX
  8
0
 10
179.32788493
 20
434.38017913
  0
VERTEX
  8
0
 10
179.98285226
 20
434.89631549
  0
VERTEX
  8
0
 10
180.65011076
 20
435.38539595
  0
VERTEX
  8
0
 10
181.33465454
 20
435.84056491
  0
VERTEX
  8
0
 10
182.04147769
 20
436.25496678
  0
VERTEX
  8
0
 10
182.40480469
 20
436.44473768
  0
VERTEX
  8
0
 10
182.77557432
 20
436.62174595
  0
VERTEX
  8
0
 10
183.15441085
 20
436.78513464
  0
VERTEX
  8
0
 10
183.54193853
 20
436.93404681
  0
VERTEX
  8
0
 10
183.93878164
 20
437.06762550
  0
VERTEX
  8
0
 10
184.34556444
 20
437.18501376
  0
VERTEX
  8
0
 10
184.76291118
 20
437.28535464
  0
VERTEX
  8
0
 10
185.19144613
 20
437.36779119
  0
VERTEX
  8
0
 10
185.63179355
 20
437.43146646
  0
VERTEX
  8
0
 10
186.08457771
 20
437.47552351
  0
VERTEX
  8
0
 10
186.55042287
 20
437.49910537
  0
VERTEX
  8
0
 10
187.02995329
 20
437.50135510
  0
VERTEX
  8
0
 10
187.52379324
 20
437.48141574
  0
VERTEX
  8
0
 10
188.03256697
 20
437.43843036
  0
VERTEX
  8
0
 10
188.55689876
 20
437.37154199
  0
VERTEX
  8
0
 10
189.09741285
 20
437.27989369
  0
VERTEX
  8
0
 10
189.65473353
 20
437.16262850
  0
VERTEX
  8
0
 10
190.22948504
 20
437.01888948
  0
VERTEX
  8
0
 10
190.20092551
 20
436.23925441
  0
VERTEX
  8
0
 10
190.15448309
 20
435.47099951
  0
VERTEX
  8
0
 10
190.09056591
 20
434.71388503
  0
VERTEX
  8
0
 10
190.00958207
 20
433.96767125
  0
VERTEX
  8
0
 10
189.91193970
 20
433.23211843
  0
VERTEX
  8
0
 10
189.79804691
 20
432.50698683
  0
VERTEX
  8
0
 10
189.66831180
 20
431.79203671
  0
VERTEX
  8
0
 10
189.52314251
 20
431.08702835
  0
VERTEX
  8
0
 10
189.36294714
 20
430.39172201
  0
VERTEX
  8
0
 10
189.18813381
 20
429.70587794
  0
VERTEX
  8
0
 10
188.99911064
 20
429.02925643
  0
VERTEX
  8
0
 10
188.79628573
 20
428.36161772
  0
VERTEX
  8
0
 10
188.58006721
 20
427.70272209
  0
VERTEX
  8
0
 10
188.35086319
 20
427.05232979
  0
VERTEX
  8
0
 10
187.85513111
 20
425.77609628
  0
VERTEX
  8
0
 10
187.31235442
 20
424.53099930
  0
VERTEX
  8
0
 10
186.72579803
 20
423.31512097
  0
VERTEX
  8
0
 10
186.09872687
 20
422.12654340
  0
VERTEX
  8
0
 10
185.43440586
 20
420.96334872
  0
VERTEX
  8
0
 10
184.73609993
 20
419.82361903
  0
VERTEX
  8
0
 10
184.00707399
 20
418.70543646
  0
VERTEX
  8
0
 10
183.25059297
 20
417.60688311
  0
VERTEX
  8
0
 10
182.46992178
 20
416.52604111
  0
VERTEX
  8
0
 10
181.66832536
 20
415.46099258
  0
VERTEX
  8
0
 10
180.84906863
 20
414.40981962
  0
VERTEX
  8
0
 10
180.01541650
 20
413.37060436
  0
VERTEX
  8
0
 10
179.17063390
 20
412.34142891
  0
VERTEX
  8
0
 10
177.46073697
 20
410.30552592
  0
VERTEX
  8
0
 10
175.74549722
 20
408.28676756
  0
VERTEX
  8
0
 10
174.05103402
 20
406.26981079
  0
VERTEX
  8
0
 10
173.21975594
 20
405.25721328
  0
VERTEX
  8
0
 10
172.40346676
 20
404.23931252
  0
VERTEX
  8
0
 10
171.60543142
 20
403.21419062
  0
VERTEX
  8
0
 10
170.82891482
 20
402.17992969
  0
VERTEX
  8
0
 10
170.07718189
 20
401.13461186
  0
VERTEX
  8
0
 10
169.35349756
 20
400.07631923
  0
VERTEX
  8
0
 10
169.55902567
 20
399.75760936
  0
VERTEX
  8
0
 10
169.77579890
 20
399.46135452
  0
VERTEX
  8
0
 10
170.00340710
 20
399.18706051
  0
VERTEX
  8
0
 10
170.24144012
 20
398.93423311
  0
VERTEX
  8
0
 10
170.48948782
 20
398.70237809
  0
VERTEX
  8
0
 10
170.74714004
 20
398.49100125
  0
VERTEX
  8
0
 10
171.01398664
 20
398.29960837
  0
VERTEX
  8
0
 10
171.28961747
 20
398.12770522
  0
VERTEX
  8
0
 10
171.57362239
 20
397.97479760
  0
VERTEX
  8
0
 10
171.86559123
 20
397.84039129
  0
VERTEX
  8
0
 10
172.16511386
 20
397.72399207
  0
VERTEX
  8
0
 10
172.47178013
 20
397.62510573
  0
VERTEX
  8
0
 10
172.78517989
 20
397.54323805
  0
VERTEX
  8
0
 10
173.10490298
 20
397.47789481
  0
VERTEX
  8
0
 10
173.43053926
 20
397.42858179
  0
VERTEX
  8
0
 10
173.76167859
 20
397.39480479
  0
VERTEX
  8
0
 10
174.43882578
 20
397.37188195
  0
VERTEX
  8
0
 10
175.13306336
 20
397.40517256
  0
VERTEX
  8
0
 10
175.84111014
 20
397.49072288
  0
VERTEX
  8
0
 10
176.55968493
 20
397.62457919
  0
VERTEX
  8
0
 10
177.28550656
 20
397.80278776
  0
VERTEX
  8
0
 10
178.01529382
 20
398.02139485
  0
VERTEX
  8
0
 10
178.74576554
 20
398.27644674
  0
VERTEX
  8
0
 10
179.47364052
 20
398.56398970
  0
VERTEX
  8
0
 10
180.19563758
 20
398.88006999
  0
VERTEX
  8
0
 10
180.90847553
 20
399.22073388
  0
VERTEX
  8
0
 10
181.60887319
 20
399.58202765
  0
VERTEX
  8
0
 10
182.29354937
 20
399.95999756
  0
VERTEX
  8
0
 10
182.95922287
 20
400.35068989
  0
VERTEX
  8
0
 10
183.60261252
 20
400.75015090
  0
VERTEX
  8
0
 10
184.22043713
 20
401.15442686
  0
VERTEX
  8
0
 10
184.80941550
 20
401.55956404
  0
VERTEX
  8
0
 10
185.36626645
 20
401.96160872
  0
VERTEX
  8
0
 10
185.88770880
 20
402.35660716
  0
VERTEX
  8
0
 10
186.37046136
 20
402.74060564
  0
VERTEX
  8
0
 10
186.81124293
 20
403.10965041
  0
VERTEX
  8
0
 10
187.20677234
 20
403.45978776
  0
VERTEX
  8
0
 10
187.55376840
 20
403.78706395
  0
VERTEX
  8
0
 10
187.84894991
 20
404.08752525
  0
VERTEX
  8
0
 10
188.08903569
 20
404.35721793
  0
VERTEX
  8
0
 10
188.35238354
 20
404.70839810
  0
VERTEX
  8
0
 10
188.62141181
 20
405.12093947
  0
VERTEX
  8
0
 10
188.89691103
 20
405.58982689
  0
VERTEX
  8
0
 10
189.17967172
 20
406.11004520
  0
VERTEX
  8
0
 10
189.77013964
 20
407.28441387
  0
VERTEX
  8
0
 10
190.39913977
 20
408.60392427
  0
VERTEX
  8
0
 10
191.07299630
 20
410.02845517
  0
VERTEX
  8
0
 10
191.79803345
 20
411.51788536
  0
VERTEX
  8
0
 10
192.58057542
 20
413.03209359
  0
VERTEX
  8
0
 10
192.99538703
 20
413.78595160
  0
VERTEX
  8
0
 10
193.42694642
 20
414.53095866
  0
VERTEX
  8
0
 10
193.80084523
 20
415.14125110
  0
VERTEX
  8
0
 10
194.19443750
 20
415.75369166
  0
VERTEX
  8
0
 10
195.02318272
 20
416.97835894
  0
VERTEX
  8
0
 10
196.72427825
 20
419.38023056
  0
VERTEX
  8
0
 10
197.52654990
 20
420.53080206
  0
VERTEX
  8
0
 10
198.24991837
 20
421.63004209
  0
VERTEX
  8
0
 10
198.57106412
 20
422.15625143
  0
VERTEX
  8
0
 10
198.85934433
 20
422.66463424
  0
VERTEX
  8
0
 10
199.11037908
 20
423.15352597
  0
VERTEX
  8
0
 10
199.31978845
 20
423.62126207
  0
VERTEX
  8
0
 10
199.52859660
 20
424.15881192
  0
VERTEX
  8
0
 10
199.72625127
 20
424.70808480
  0
VERTEX
  8
0
 10
200.09320391
 20
425.83662132
  0
VERTEX
  8
0
 10
200.43085383
 20
426.99651497
  0
VERTEX
  8
0
 10
200.74940849
 20
428.17740910
  0
VERTEX
  8
0
 10
201.37006185
 20
430.56077212
  0
VERTEX
  8
0
 10
201.69257547
 20
431.74252770
  0
VERTEX
  8
0
 10
202.03682366
 20
432.90385711
  0
VERTEX
  8
0
 10
202.41301387
 20
434.03440368
  0
VERTEX
  8
0
 10
202.61627707
 20
434.58489695
  0
VERTEX
  8
0
 10
202.83135357
 20
435.12381076
  0
VERTEX
  8
0
 10
203.05951930
 20
435.64985054
  0
VERTEX
  8
0
 10
203.30205021
 20
436.16172169
  0
VERTEX
  8
0
 10
203.56022221
 20
436.65812964
  0
VERTEX
  8
0
 10
203.83531124
 20
437.13777980
  0
VERTEX
  8
0
 10
204.12859324
 20
437.59937759
  0
VERTEX
  8
0
 10
204.44134413
 20
438.04162843
  0
VERTEX
  8
0
 10
204.77483986
 20
438.46323774
  0
VERTEX
  8
0
 10
205.13035634
 20
438.86291093
  0
VERTEX
  8
0
 10
205.50916952
 20
439.23935341
  0
VERTEX
  8
0
 10
205.91255532
 20
439.59127062
  0
VERTEX
  8
0
 10
206.34178968
 20
439.91736796
  0
VERTEX
  8
0
 10
206.79814852
 20
440.21635085
  0
VERTEX
  8
0
 10
207.22475967
 20
440.45934266
  0
VERTEX
  8
0
 10
207.65356203
 20
440.67530928
  0
VERTEX
  8
0
 10
208.08460495
 20
440.86614207
  0
VERTEX
  8
0
 10
208.51793778
 20
441.03373238
  0
VERTEX
  8
0
 10
208.95360986
 20
441.17997160
  0
VERTEX
  8
0
 10
209.39167053
 20
441.30675106
  0
VERTEX
  8
0
 10
209.83216913
 20
441.41596214
  0
VERTEX
  8
0
 10
210.27515502
 20
441.50949619
  0
VERTEX
  8
0
 10
211.16878600
 20
441.65709865
  0
VERTEX
  8
0
 10
212.07295824
 20
441.76468935
  0
VERTEX
  8
0
 10
212.98806646
 20
441.84739915
  0
VERTEX
  8
0
 10
213.91450543
 20
441.92035895
  0
VERTEX
  8
0
 10
214.85266989
 20
441.99869963
  0
VERTEX
  8
0
 10
215.80295460
 20
442.09755208
  0
VERTEX
  8
0
 10
216.76575430
 20
442.23204719
  0
VERTEX
  8
0
 10
217.74146375
 20
442.41731584
  0
VERTEX
  8
0
 10
218.23428299
 20
442.53371864
  0
VERTEX
  8
0
 10
218.73047769
 20
442.66848891
  0
VERTEX
  8
0
 10
219.23009720
 20
442.82351801
  0
VERTEX
  8
0
 10
219.73319087
 20
443.00069729
  0
VERTEX
  8
0
 10
220.23980804
 20
443.20191813
  0
VERTEX
  8
0
 10
220.74999805
 20
443.42907188
  0
VERTEX
  8
0
 10
221.26381024
 20
443.68404989
  0
VERTEX
  8
0
 10
221.78129397
 20
443.96874354
  0
VERTEX
  8
0
 10
221.78129397
 20
446.63769890
  0
VERTEX
  8
0
 10
220.61546720
 20
446.87436142
  0
VERTEX
  8
0
 10
219.49831646
 20
447.16024188
  0
VERTEX
  8
0
 10
218.95775363
 20
447.32137369
  0
VERTEX
  8
0
 10
218.42907065
 20
447.49449179
  0
VERTEX
  8
0
 10
217.91217114
 20
447.67949013
  0
VERTEX
  8
0
 10
217.40695871
 20
447.87626265
  0
VERTEX
  8
0
 10
216.91333697
 20
448.08470328
  0
VERTEX
  8
0
 10
216.43120954
 20
448.30470596
  0
VERTEX
  8
0
 10
215.96048004
 20
448.53616463
  0
VERTEX
  8
0
 10
215.50105207
 20
448.77897322
  0
VERTEX
  8
0
 10
215.05282926
 20
449.03302567
  0
VERTEX
  8
0
 10
214.61571521
 20
449.29821592
  0
VERTEX
  8
0
 10
214.18961355
 20
449.57443791
  0
VERTEX
  8
0
 10
213.77442788
 20
449.86158558
  0
VERTEX
  8
0
 10
213.72517988
 20
450.07872599
  0
VERTEX
  8
0
 10
213.69435803
 20
450.28202630
  0
VERTEX
  8
0
 10
213.68097555
 20
450.47243925
  0
VERTEX
  8
0
 10
213.68404564
 20
450.65091756
  0
VERTEX
  8
0
 10
213.70258152
 20
450.81841400
  0
VERTEX
  8
0
 10
213.73559640
 20
450.97588130
  0
VERTEX
  8
0
 10
213.84111597
 20
451.26453947
  0
VERTEX
  8
0
 10
213.99271003
 20
451.52451400
  0
VERTEX
  8
0
 10
214.18248425
 20
451.76342685
  0
VERTEX
  8
0
 10
214.40254431
 20
451.98889995
  0
VERTEX
  8
0
 10
214.64499587
 20
452.20855526
  0
VERTEX
  8
0
 10
215.16549620
 20
452.66090025
  0
VERTEX
  8
0
 10
215.42775631
 20
452.90883383
  0
VERTEX
  8
0
 10
215.68083062
 20
453.18143738
  0
VERTEX
  8
0
 10
215.91682479
 20
453.48633286
  0
VERTEX
  8
0
 10
216.12784451
 20
453.83114221
  0
VERTEX
  8
0
 10
216.30599543
 20
454.22348737
  0
VERTEX
  8
0
 10
216.38027813
 20
454.43986774
  0
VERTEX
  8
0
 10
216.44338325
 20
454.67099029
  0
VERTEX
  8
0
 10
216.54264651
 20
455.16233701
  0
VERTEX
  8
0
 10
216.61373219
 20
455.67020538
  0
VERTEX
  8
0
 10
216.65903073
 20
456.19311903
  0
VERTEX
  8
0
 10
216.68093261
 20
456.72960160
  0
VERTEX
  8
0
 10
216.68182827
 20
457.27817673
  0
VERTEX
  8
0
 10
216.66410818
 20
457.83736807
  0
VERTEX
  8
0
 10
216.58238256
 20
458.98169392
  0
VERTEX
  8
0
 10
216.45487941
 20
460.15076828
  0
VERTEX
  8
0
 10
216.30072239
 20
461.33278029
  0
VERTEX
  8
0
 10
216.13903517
 20
462.51591906
  0
VERTEX
  8
0
 10
215.98894141
 20
463.68837374
  0
VERTEX
  8
0
 10
215.86956476
 20
464.83833345
  0
VERTEX
  8
0
 10
215.80002890
 20
465.95398731
  0
VERTEX
  8
0
 10
215.78992741
 20
466.49525866
  0
VERTEX
  8
0
 10
215.79945749
 20
467.02352446
  0
VERTEX
  8
0
 10
215.83100959
 20
467.53730838
  0
VERTEX
  8
0
 10
215.88697418
 20
468.03513403
  0
VERTEX
  8
0
 10
215.96974171
 20
468.51552508
  0
VERTEX
  8
0
 10
216.08170264
 20
468.97700515
  0
VERTEX
  8
0
 10
216.22524743
 20
469.41809789
  0
VERTEX
  8
0
 10
216.40276654
 20
469.83732694
  0
VERTEX
  8
0
 10
216.61665042
 20
470.23321594
  0
VERTEX
  8
0
 10
216.86928953
 20
470.60428854
  0
VERTEX
  8
0
 10
217.16307432
 20
470.94906837
  0
VERTEX
  8
0
 10
217.50039527
 20
471.26607907
  0
VERTEX
  8
0
 10
217.32778325
 20
471.55820331
  0
VERTEX
  8
0
 10
217.13386597
 20
471.82946745
  0
VERTEX
  8
0
 10
216.92049616
 20
472.08170486
  0
VERTEX
  8
0
 10
216.68952654
 20
472.31674890
  0
VERTEX
  8
0
 10
216.44280983
 20
472.53643294
  0
VERTEX
  8
0
 10
216.18219875
 20
472.74259034
  0
VERTEX
  8
0
 10
215.62670438
 20
473.12165872
  0
VERTEX
  8
0
 10
215.03786520
 20
473.46862099
  0
VERTEX
  8
0
 10
214.43050299
 20
473.79814407
  0
VERTEX
  8
0
 10
213.81943952
 20
474.12489491
  0
VERTEX
  8
0
 10
213.21949657
 20
474.46354044
  0
VERTEX
  8
0
 10
212.63011147
 20
474.25141831
  0
VERTEX
  8
0
 10
212.05245259
 20
474.02741511
  0
VERTEX
  8
0
 10
210.91317615
 20
473.56290290
  0
VERTEX
  8
0
 10
209.76339248
 20
473.10827857
  0
VERTEX
  8
0
 10
209.17259959
 20
472.89663521
  0
VERTEX
  8
0
 10
208.56482686
 20
472.70181685
  0
VERTEX
  8
0
 10
207.93528995
 20
472.52860783
  0
VERTEX
  8
0
 10
207.27920453
 20
472.38179250
  0
VERTEX
  8
0
 10
206.59178624
 20
472.26615519
  0
VERTEX
  8
0
 10
205.86825074
 20
472.18648026
  0
VERTEX
  8
0
 10
205.10381370
 20
472.14755204
  0
VERTEX
  8
0
 10
204.29369076
 20
472.15415488
  0
VERTEX
  8
0
 10
203.43309758
 20
472.21107311
  0
VERTEX
  8
0
 10
202.51724983
 20
472.32309109
  0
VERTEX
  8
0
 10
202.26875672
 20
472.20429486
  0
VERTEX
  8
0
 10
202.03248084
 20
472.07324511
  0
VERTEX
  8
0
 10
201.80815899
 20
471.93020746
  0
VERTEX
  8
0
 10
201.59552799
 20
471.77544751
  0
VERTEX
  8
0
 10
201.39432463
 20
471.60923089
  0
VERTEX
  8
0
 10
201.20428573
 20
471.43182319
  0
VERTEX
  8
0
 10
201.02514810
 20
471.24349003
  0
VERTEX
  8
0
 10
200.85664855
 20
471.04449702
  0
VERTEX
  8
0
 10
200.55051093
 20
470.61559387
  0
VERTEX
  8
0
 10
200.28376734
 20
470.14723863
  0
VERTEX
  8
0
 10
200.05431227
 20
469.64155616
  0
VERTEX
  8
0
 10
199.86004018
 20
469.10067136
  0
VERTEX
  8
0
 10
199.69884556
 20
468.52670908
  0
VERTEX
  8
0
 10
199.56862289
 20
467.92179421
  0
VERTEX
  8
0
 10
199.46726664
 20
467.28805163
  0
VERTEX
  8
0
 10
199.39267129
 20
466.62760621
  0
VERTEX
  8
0
 10
199.34273132
 20
465.94258283
  0
VERTEX
  8
0
 10
199.31534120
 20
465.23510637
  0
VERTEX
  8
0
 10
199.30839542
 20
464.50730170
  0
VERTEX
  8
0
 10
199.31978845
 20
463.76129370
  0
VERTEX
  8
0
 10
199.12713706
 20
463.61734508
  0
VERTEX
  8
0
 10
198.91176492
 20
463.49681397
  0
VERTEX
  8
0
 10
198.67433172
 20
463.39911810
  0
VERTEX
  8
0
 10
198.41549716
 20
463.32367519
  0
VERTEX
  8
0
 10
198.13592092
 20
463.26990297
  0
VERTEX
  8
0
 10
197.83626270
 20
463.23721917
  0
VERTEX
  8
0
 10
197.51718220
 20
463.22504150
  0
VERTEX
  8
0
 10
197.17933910
 20
463.23278769
  0
VERTEX
  8
0
 10
196.95068445
 20
462.38888867
  0
VERTEX
  8
0
 10
196.69202529
 20
461.57526513
  0
VERTEX
  8
0
 10
196.40292275
 20
460.79231723
  0
VERTEX
  8
0
 10
196.08293794
 20
460.04044514
  0
VERTEX
  8
0
 10
195.73163200
 20
459.32004902
  0
VERTEX
  8
0
 10
195.34856604
 20
458.63152903
  0
VERTEX
  8
0
 10
194.93330121
 20
457.97528534
  0
VERTEX
  8
0
 10
194.48539862
 20
457.35171812
  0
VERTEX
  8
0
 10
194.00441940
 20
456.76122753
  0
VERTEX
  8
0
 10
193.48992467
 20
456.20421374
  0
VERTEX
  8
0
 10
192.94147556
 20
455.68107691
  0
VERTEX
  8
0
 10
192.35863320
 20
455.19221720
  0
VERTEX
  8
0
 10
191.74095871
 20
454.73803479
  0
VERTEX
  8
0
 10
191.08801322
 20
454.31892984
  0
VERTEX
  8
0
 10
190.39935785
 20
453.93530251
  0
VERTEX
  8
0
 10
189.67455373
 20
453.58755296
  0
VERTEX
  8
0
 10
189.84146390
 20
453.93386160
  0
VERTEX
  8
0
 10
189.98947509
 20
454.28701396
  0
VERTEX
  8
0
 10
190.11924537
 20
454.64681479
  0
VERTEX
  8
0
 10
190.23143282
 20
455.01306883
  0
VERTEX
  8
0
 10
190.32669552
 20
455.38558084
  0
VERTEX
  8
0
 10
190.40569154
 20
455.76415558
  0
VERTEX
  8
0
 10
190.46907896
 20
456.14859778
  0
VERTEX
  8
0
 10
190.51751585
 20
456.53871221
  0
VERTEX
  8
0
 10
190.57217038
 20
457.33517675
  0
VERTEX
  8
0
 10
190.57491973
 20
458.15198719
  0
VERTEX
  8
0
 10
190.53102852
 20
458.98758156
  0
VERTEX
  8
0
 10
190.44576135
 20
459.84039785
  0
VERTEX
  8
0
 10
190.32438283
 20
460.70887409
  0
VERTEX
  8
0
 10
190.17215759
 20
461.59144827
  0
VERTEX
  8
0
 10
189.99435023
 20
462.48655842
  0
VERTEX
  8
0
 10
189.79622536
 20
463.39264254
  0
VERTEX
  8
0
 10
189.36008155
 20
465.23148472
  0
VERTEX
  8
0
 10
188.90584306
 20
467.09547892
  0
VERTEX
  8
0
 10
188.47562677
 20
468.97212920
  0
VERTEX
  8
0
 10
188.28268848
 20
469.91129540
  0
VERTEX
  8
0
 10
188.11154958
 20
470.84893965
  0
VERTEX
  8
0
 10
187.96747469
 20
471.78349996
  0
VERTEX
  8
0
 10
187.85572840
 20
472.71341435
  0
VERTEX
  8
0
 10
187.78157533
 20
473.63712082
  0
VERTEX
  8
0
 10
187.75028010
 20
474.55305739
  0
VERTEX
  8
0
 10
187.76710732
 20
475.45966206
  0
VERTEX
  8
0
 10
187.83732159
 20
476.35537284
  0
VERTEX
  8
0
 10
187.89409407
 20
476.79865490
  0
VERTEX
  8
0
 10
187.96618754
 20
477.23862775
  0
VERTEX
  8
0
 10
188.05426008
 20
477.67509613
  0
VERTEX
  8
0
 10
188.15896977
 20
478.10786479
  0
VERTEX
  8
0
 10
188.28097468
 20
478.53673849
  0
VERTEX
  8
0
 10
188.42093289
 20
478.96152198
  0
VERTEX
  8
0
 10
188.57950247
 20
479.38202000
  0
VERTEX
  8
0
 10
188.75734151
 20
479.79803732
  0
VERTEX
  8
0
 10
188.95510808
 20
480.20937867
  0
VERTEX
  8
0
 10
189.17346026
 20
480.61584882
  0
VERTEX
  8
0
 10
189.41305611
 20
481.01725252
  0
VERTEX
  8
0
 10
189.67455373
 20
481.41339450
  0
VERTEX
  8
0
 10
189.87445381
 20
481.68391309
  0
VERTEX
  8
0
 10
190.08847818
 20
481.94019321
  0
VERTEX
  8
0
 10
190.31640742
 20
482.18256341
  0
VERTEX
  8
0
 10
190.55802213
 20
482.41135222
  0
VERTEX
  8
0
 10
190.81310290
 20
482.62688820
  0
VERTEX
  8
0
 10
191.08143033
 20
482.82949988
  0
VERTEX
  8
0
 10
191.36278501
 20
483.01951581
  0
VERTEX
  8
0
 10
191.65694753
 20
483.19726452
  0
VERTEX
  8
0
 10
191.96369849
 20
483.36307457
  0
VERTEX
  8
0
 10
192.28281848
 20
483.51727449
  0
VERTEX
  8
0
 10
192.95728792
 20
483.79215813
  0
VERTEX
  8
0
 10
193.67860060
 20
484.02454378
  0
VERTEX
  8
0
 10
194.44500127
 20
484.21705977
  0
VERTEX
  8
0
 10
195.25473467
 20
484.37233446
  0
VERTEX
  8
0
 10
196.10604556
 20
484.49299617
  0
VERTEX
  8
0
 10
196.99717867
 20
484.58167326
  0
VERTEX
  8
0
 10
197.92637876
 20
484.64099406
  0
VERTEX
  8
0
 10
198.89189057
 20
484.67358691
  0
VERTEX
  8
0
 10
199.89195885
 20
484.68208015
  0
VERTEX
  8
0
 10
200.92482835
 20
484.66910213
  0
VERTEX
  8
0
 10
201.98874381
 20
484.63728118
  0
VERTEX
  8
0
 10
202.00047896
 20
484.95786225
  0
VERTEX
  8
0
 10
202.05177579
 20
485.23973323
  0
VERTEX
  8
0
 10
202.14052411
 20
485.48523659
  0
VERTEX
  8
0
 10
202.26461371
 20
485.69671475
  0
VERTEX
  8
0
 10
202.42193441
 20
485.87651018
  0
VERTEX
  8
0
 10
202.61037601
 20
486.02696532
  0
VERTEX
  8
0
 10
202.82782832
 20
486.15042261
  0
VERTEX
  8
0
 10
203.07218114
 20
486.24922452
  0
VERTEX
  8
0
 10
203.86575692
 20
486.32374290
  0
VERTEX
  8
0
 10
204.62738297
 20
486.36631033
  0
VERTEX
  8
0
 10
205.35826175
 20
486.37812807
  0
VERTEX
  8
0
 10
206.05959575
 20
486.36039741
  0
VERTEX
  8
0
 10
206.73258744
 20
486.31431960
  0
VERTEX
  8
0
 10
207.37843931
 20
486.24109592
  0
VERTEX
  8
0
 10
207.99835383
 20
486.14192763
  0
VERTEX
  8
0
 10
208.59353349
 20
486.01801602
  0
VERTEX
  8
0
 10
209.16518076
 20
485.87056234
  0
VERTEX
  8
0
 10
209.71449813
 20
485.70076787
  0
VERTEX
  8
0
 10
210.24268807
 20
485.50983387
  0
VERTEX
  8
0
 10
210.75095306
 20
485.29896162
  0
VERTEX
  8
0
 10
211.24049559
 20
485.06935239
  0
VERTEX
  8
0
 10
211.71251813
 20
484.82220745
  0
VERTEX
  8
0
 10
212.16822316
 20
484.55872806
  0
VERTEX
  8
0
 10
212.60881316
 20
484.28011549
  0
VERTEX
  8
0
 10
213.03549061
 20
483.98757103
  0
VERTEX
  8
0
 10
213.44945799
 20
483.68229593
  0
VERTEX
  8
0
 10
213.85191779
 20
483.36549147
  0
VERTEX
  8
0
 10
214.24407247
 20
483.03835891
  0
VERTEX
  8
0
 10
215.00227642
 20
482.35791459
  0
VERTEX
  8
0
 10
215.73368968
 20
481.65057314
  0
VERTEX
  8
0
 10
216.44793210
 20
480.92594471
  0
VERTEX
  8
0
 10
217.15462349
 20
480.19363946
  0
VERTEX
  8
0
 10
217.86338372
 20
479.46326755
  0
VERTEX
  8
0
 10
218.58383260
 20
478.74443914
  0
SEQEND
  0
POLYLINE
  8
Default_Layer
 66
   1
 39
0.000000
 70
    1
  0
VERTEX
  8
0
 10
412.83621737
 20
416.14290200
  0
VERTEX
  8
0
 10
414.10798655
 20
416.38224494
  0
VERTEX
  8
0
 10
415.40464947
 20
416.64783064
  0
VERTEX
  8
0
 10
416.70841264
 20
416.94725218
  0
VERTEX
  8
0
 10
418.00148256
 20
417.28810268
  0
VERTEX
  8
0
 10
418.63844710
 20
417.47643663
  0
VERTEX
  8
0
 10
419.26606576
 20
417.67797523
  0
VERTEX
  8
0
 10
419.88211438
 20
417.89366762
  0
VERTEX
  8
0
 10
420.48436875
 20
418.12446293
  0
VERTEX
  8
0
 10
421.07060470
 20
418.37131031
  0
VERTEX
  8
0
 10
421.63859803
 20
418.63515888
  0
VERTEX
  8
0
 10
422.18612457
 20
418.91695779
  0
VERTEX
  8
0
 10
422.71096013
 20
419.21765617
  0
VERTEX
  8
0
 10
423.21088051
 20
419.53820316
  0
VERTEX
  8
0
 10
423.68366154
 20
419.87954790
  0
VERTEX
  8
0
 10
424.12707903
 20
420.24263953
  0
VERTEX
  8
0
 10
424.53890879
 20
420.62842718
  0
VERTEX
  8
0
 10
424.91692664
 20
421.03785999
  0
VERTEX
  8
0
 10
425.25890838
 20
421.47188710
  0
VERTEX
  8
0
 10
425.56262985
 20
421.93145764
  0
VERTEX
  8
0
 10
425.82586684
 20
422.41752076
  0
VERTEX
  8
0
 10
426.04639517
 20
422.93102558
  0
VERTEX
  8
0
 10
426.22199066
 20
423.47292126
  0
VERTEX
  8
0
 10
426.35042912
 20
424.04415691
  0
VERTEX
  8
0
 10
426.42948637
 20
424.64568169
  0
VERTEX
  8
0
 10
426.45693821
 20
425.27844472
  0
VERTEX
  8
0
 10
426.43056047
 20
425.94339516
  0
VERTEX
  8
0
 10
426.34812896
 20
426.64148212
  0
VERTEX
  8
0
 10
426.20741948
 20
427.37365476
  0
VERTEX
  8
0
 10
425.54170616
 20
427.26954450
  0
VERTEX
  8
0
 10
424.90150597
 20
427.13996226
  0
VERTEX
  8
0
 10
424.28586670
 20
426.98586263
  0
VERTEX
  8
0
 10
423.69383616
 20
426.80820024
  0
VERTEX
  8
0
 10
423.12446217
 20
426.60792970
  0
VERTEX
  8
0
 10
422.57679251
 20
426.38600562
  0
VERTEX
  8
0
 10
422.04987501
 20
426.14338261
  0
VERTEX
  8
0
 10
421.54275745
 20
425.88101530
  0
VERTEX
  8
0
 10
421.05448766
 20
425.59985828
  0
VERTEX
  8
0
 10
420.58411344
 20
425.30086619
  0
VERTEX
  8
0
 10
420.13068259
 20
424.98499362
  0
VERTEX
  8
0
 10
419.69324291
 20
424.65319520
  0
VERTEX
  8
0
 10
419.27084222
 20
424.30642553
  0
VERTEX
  8
0
 10
418.86252832
 20
423.94563924
  0
VERTEX
  8
0
 10
418.46734901
 20
423.57179093
  0
VERTEX
  8
0
 10
418.08435210
 20
423.18583522
  0
VERTEX
  8
0
 10
417.35109671
 20
422.38142005
  0
VERTEX
  8
0
 10
416.65514458
 20
421.54003063
  0
VERTEX
  8
0
 10
415.98887817
 20
420.66930389
  0
VERTEX
  8
0
 10
415.34467991
 20
419.77687672
  0
VERTEX
  8
0
 10
414.09201765
 20
417.95746875
  0
VERTEX
  8
0
 10
413.46831854
 20
417.04576177
  0
VERTEX
  8
0
 10
412.83621737
 20
416.14290200
  0
SEQEND
  0
POLYLINE
  8
Default_Layer
 66
   1
 39
0.000000
 70
    1
  0
VERTEX
  8
0
 10
244.26922479
 20
396.35035184
  0
VERTEX
  8
0
 10
243.75618253
 20
395.20183005
  0
VERTEX
  8
0
 10
243.21453897
 20
394.07450495
  0
VERTEX
  8
0
 10
242.67431712
 20
392.96896351
  0
VERTEX
  8
0
 10
242.16553997
 20
391.88579268
  0
VERTEX
  8
0
 10
241.93232533
 20
391.35277967
  0
VERTEX
  8
0
 10
241.71823050
 20
390.82557941
  0
VERTEX
  8
0
 10
241.52700833
 20
390.30426528
  0
VERTEX
  8
0
 10
241.36241170
 20
389.78891064
  0
VERTEX
  8
0
 10
241.22819349
 20
389.27958887
  0
VERTEX
  8
0
 10
241.12810658
 20
388.77637334
  0
VERTEX
  8
0
 10
241.06590383
 20
388.27933741
  0
VERTEX
  8
0
 10
241.04533811
 20
387.78855445
  0
VERTEX
  8
0
 10
241.07403821
 20
387.28480030
  0
VERTEX
  8
0
 10
241.14820877
 20
386.77378649
  0
VERTEX
  8
0
 10
241.26209931
 20
386.25617271
  0
VERTEX
  8
0
 10
241.40995932
 20
385.73261866
  0
VERTEX
  8
0
 10
241.58603833
 20
385.20378403
  0
VERTEX
  8
0
 10
241.78458582
 20
384.67032851
  0
VERTEX
  8
0
 10
242.22608430
 20
383.59219359
  0
VERTEX
  8
0
 10
242.68845079
 20
382.50349143
  0
VERTEX
  8
0
 10
243.12568134
 20
381.40949960
  0
VERTEX
  8
0
 10
243.32049440
 20
380.86216928
  0
VERTEX
  8
0
 10
243.49177199
 20
380.31549562
  0
VERTEX
  8
0
 10
243.63376361
 20
379.77013831
  0
VERTEX
  8
0
 10
243.74071878
 20
379.22675705
  0
VERTEX
  8
0
 10
243.80089512
 20
378.72940325
  0
VERTEX
  8
0
 10
243.83286293
 20
378.24646632
  0
VERTEX
  8
0
 10
243.84189133
 20
377.77566563
  0
VERTEX
  8
0
 10
243.83324944
 20
377.31472057
  0
VERTEX
  8
0
 10
243.78403129
 20
376.41327480
  0
VERTEX
  8
0
 10
243.72736145
 20
375.52388405
  0
VERTEX
  8
0
 10
243.70940495
 20
375.07800776
  0
VERTEX
  8
0
 10
243.70539290
 20
374.62830335
  0
VERTEX
  8
0
 10
243.72059441
 20
374.17249020
  0
VERTEX
  8
0
 10
243.76027862
 20
373.70828770
  0
VERTEX
  8
0
 10
243.82971464
 20
373.23341522
  0
VERTEX
  8
0
 10
243.93417159
 20
372.74559213
  0
VERTEX
  8
0
 10
244.07891860
 20
372.24253783
  0
VERTEX
  8
0
 10
244.26922479
 20
371.72197168
  0
VERTEX
  8
0
 10
244.89972148
 20
372.09364613
  0
VERTEX
  8
0
 10
245.49312373
 20
372.50255049
  0
VERTEX
  8
0
 10
246.05272037
 20
372.94537659
  0
VERTEX
  8
0
 10
246.58180025
 20
373.41881624
  0
VERTEX
  8
0
 10
247.08365217
 20
373.91956125
  0
VERTEX
  8
0
 10
247.56156499
 20
374.44430344
  0
VERTEX
  8
0
 10
248.01882753
 20
374.98973461
  0
VERTEX
  8
0
 10
248.45872861
 20
375.55254659
  0
VERTEX
  8
0
 10
248.88455708
 20
376.12943118
  0
VERTEX
  8
0
 10
249.29960176
 20
376.71708021
  0
VERTEX
  8
0
 10
250.11049508
 20
377.91143883
  0
VERTEX
  8
0
 10
250.91771923
 20
379.10915694
  0
VERTEX
  8
0
 10
251.74758486
 20
380.28376907
  0
VERTEX
  8
0
 10
251.03742352
 20
380.23612407
  0
VERTEX
  8
0
 10
250.36239431
 20
380.22598082
  0
VERTEX
  8
0
 10
249.72195142
 20
380.25216077
  0
VERTEX
  8
0
 10
249.11554903
 20
380.31348542
  0
VERTEX
  8
0
 10
248.54264134
 20
380.40877625
  0
VERTEX
  8
0
 10
248.00268252
 20
380.53685472
  0
VERTEX
  8
0
 10
247.49512676
 20
380.69654232
  0
VERTEX
  8
0
 10
247.01942825
 20
380.88666053
  0
VERTEX
  8
0
 10
246.57504116
 20
381.10603082
  0
VERTEX
  8
0
 10
246.16141969
 20
381.35347468
  0
VERTEX
  8
0
 10
245.77801802
 20
381.62781357
  0
VERTEX
  8
0
 10
245.42429034
 20
381.92786898
  0
VERTEX
  8
0
 10
245.09969083
 20
382.25246239
  0
VERTEX
  8
0
 10
244.80367367
 20
382.60041527
  0
VERTEX
  8
0
 10
244.53569306
 20
382.97054910
  0
VERTEX
  8
0
 10
244.29520317
 20
383.36168536
  0
VERTEX
  8
0
 10
244.08165819
 20
383.77264553
  0
VERTEX
  8
0
 10
243.89451231
 20
384.20225108
  0
VERTEX
  8
0
 10
243.73321971
 20
384.64932349
  0
VERTEX
  8
0
 10
243.59723458
 20
385.11268425
  0
VERTEX
  8
0
 10
243.48601110
 20
385.59115482
  0
VERTEX
  8
0
 10
243.39900346
 20
386.08355669
  0
VERTEX
  8
0
 10
243.33566583
 20
386.58871134
  0
VERTEX
  8
0
 10
243.29545242
 20
387.10544024
  0
VERTEX
  8
0
 10
243.27781740
 20
387.63256486
  0
VERTEX
  8
0
 10
243.28221495
 20
388.16890670
  0
VERTEX
  8
0
 10
243.30809927
 20
388.71328722
  0
VERTEX
  8
0
 10
243.35492453
 20
389.26452790
  0
VERTEX
  8
0
 10
243.42214493
 20
389.82145023
  0
VERTEX
  8
0
 10
243.50921465
 20
390.38287567
  0
VERTEX
  8
0
 10
243.61558787
 20
390.94762571
  0
VERTEX
  8
0
 10
243.74071878
 20
391.51452183
  0
VERTEX
  8
0
 10
243.90872043
 20
392.14907817
  0
VERTEX
  8
0
 10
244.12026310
 20
392.79054912
  0
VERTEX
  8
0
 10
244.37169228
 20
393.43843394
  0
VERTEX
  8
0
 10
244.65935343
 20
394.09223191
  0
VERTEX
  8
0
 10
244.97959204
 20
394.75144231
  0
VERTEX
  8
0
 10
245.32875359
 20
395.41556440
  0
VERTEX
  8
0
 10
245.70318355
 20
396.08409745
  0
VERTEX
  8
0
 10
246.09922739
 20
396.75654075
  0
VERTEX
  8
0
 10
246.94153867
 20
398.11115517
  0
VERTEX
  8
0
 10
247.82645123
 20
399.47540182
  0
VERTEX
  8
0
 10
248.72472890
 20
400.84527490
  0
VERTEX
  8
0
 10
249.60713551
 20
402.21676858
  0
VERTEX
  8
0
 10
250.44195386
 20
403.50858814
  0
VERTEX
  8
0
 10
251.28181128
 20
404.77058225
  0
VERTEX
  8
0
 10
252.10658921
 20
406.00281079
  0
VERTEX
  8
0
 10
252.89616906
 20
407.20533365
  0
VERTEX
  8
0
 10
253.63043226
 20
408.37821071
  0
VERTEX
  8
0
 10
253.97053306
 20
408.95355078
  0
VERTEX
  8
0
 10
254.28926023
 20
409.52150186
  0
VERTEX
  8
0
 10
254.58409896
 20
410.08207143
  0
VERTEX
  8
0
 10
254.85253441
 20
410.63526699
  0
VERTEX
  8
0
 10
255.09205177
 20
411.18109601
  0
VERTEX
  8
0
 10
255.30013621
 20
411.71956598
  0
VERTEX
  8
0
 10
255.47427292
 20
412.25068438
  0
VERTEX
  8
0
 10
255.61194706
 20
412.77445872
  0
VERTEX
  8
0
 10
255.71064383
 20
413.29089646
  0
VERTEX
  8
0
 10
255.76784839
 20
413.80000509
  0
VERTEX
  8
0
 10
255.78104593
 20
414.30179211
  0
VERTEX
  8
0
 10
255.74772162
 20
414.79626499
  0
VERTEX
  8
0
 10
255.66536065
 20
415.28343123
  0
VERTEX
  8
0
 10
255.53144818
 20
415.76329830
  0
VERTEX
  8
0
 10
255.34346940
 20
416.23587370
  0
VERTEX
  8
0
 10
255.09890949
 20
416.70116491
  0
VERTEX
  8
0
 10
254.79525362
 20
417.15917941
  0
VERTEX
  8
0
 10
254.42998697
 20
417.60992470
  0
VERTEX
  8
0
 10
254.00059473
 20
418.05340825
  0
VERTEX
  8
0
 10
253.50456206
 20
418.48963756
  0
VERTEX
  8
0
 10
252.93937415
 20
418.91862010
  0
VERTEX
  8
0
 10
252.30251617
 20
419.34036337
  0
VERTEX
  8
0
 10
251.73335521
 20
417.92128464
  0
VERTEX
  8
0
 10
251.19328924
 20
416.49704764
  0
VERTEX
  8
0
 10
250.67800020
 20
415.06824923
  0
VERTEX
  8
0
 10
250.18317003
 20
413.63548628
  0
VERTEX
  8
0
 10
249.23761404
 20
410.76045414
  0
VERTEX
  8
0
 10
248.32207678
 20
407.87672609
  0
VERTEX
  8
0
 10
247.40201372
 20
404.98907698
  0
VERTEX
  8
0
 10
246.92948987
 20
403.54527417
  0
VERTEX
  8
0
 10
246.44288038
 20
402.10228167
  0
VERTEX
  8
0
 10
245.93786719
 20
400.66069632
  0
VERTEX
  8
0
 10
245.41013223
 20
399.22111500
  0
VERTEX
  8
0
 10
244.85535745
 20
397.78413456
  0
VERTEX
  8
0
 10
244.26922479
 20
396.35035184
  0
SEQEND
  0
POLYLINE
  8
Default_Layer
 66
   1
 39
0.000000
 70
    1
  0
VERTEX
  8
0
 10
205.21263049
 20
404.91214924
  0
VERTEX
  8
0
 10
205.46395811
 20
404.80436021
  0
VERTEX
  8
0
 10
205.71514411
 20
404.71416785
  0
VERTEX
  8
0
 10
205.96587582
 20
404.64104600
  0
VERTEX
  8
0
 10
206.21584055
 20
404.58446850
  0
VERTEX
  8
0
 10
206.46472562
 20
404.54390920
  0
VERTEX
  8
0
 10
206.71221835
 20
404.51884194
  0
VERTEX
  8
0
 10
207.20177608
 20
404.51307889
  0
VERTEX
  8
0
 10
207.68201229
 20
404.56297010
  0
VERTEX
  8
0
 10
208.15042555
 20
404.66430630
  0
VERTEX
  8
0
 10
208.60451442
 20
404.81287822
  0
VERTEX
  8
0
 10
209.04177744
 20
405.00447660
  0
VERTEX
  8
0
 10
209.45971319
 20
405.23489218
  0
VERTEX
  8
0
 10
209.85582021
 20
405.49991569
  0
VERTEX
  8
0
 10
210.22759708
 20
405.79533788
  0
VERTEX
  8
0
 10
210.57254234
 20
406.11694947
  0
VERTEX
  8
0
 10
210.88815456
 20
406.46054120
  0
VERTEX
  8
0
 10
211.17193229
 20
406.82190381
  0
VERTEX
  8
0
 10
211.42137410
 20
407.19682803
  0
VERTEX
  8
0
 10
211.63397854
 20
407.58110460
  0
VERTEX
  8
0
 10
211.21903937
 20
408.03787778
  0
VERTEX
  8
0
 10
210.81980817
 20
408.50966217
  0
VERTEX
  8
0
 10
210.42070096
 20
408.98079636
  0
VERTEX
  8
0
 10
210.00613377
 20
409.43561899
  0
VERTEX
  8
0
 10
209.56052264
 20
409.85846865
  0
VERTEX
  8
0
 10
209.32120560
 20
410.05300943
  0
VERTEX
  8
0
 10
209.06828359
 20
410.23368396
  0
VERTEX
  8
0
 10
208.79980860
 20
410.39853455
  0
VERTEX
  8
0
 10
208.51383265
 20
410.54560353
  0
VERTEX
  8
0
 10
208.20840773
 20
410.67293323
  0
VERTEX
  8
0
 10
207.88158585
 20
410.77856598
  0
VERTEX
  8
0
 10
207.71888262
 20
410.40616331
  0
VERTEX
  8
0
 10
207.52400066
 20
410.06597810
  0
VERTEX
  8
0
 10
207.30371806
 20
409.75127094
  0
VERTEX
  8
0
 10
207.06481296
 20
409.45530241
  0
VERTEX
  8
0
 10
206.55824770
 20
408.89262363
  0
VERTEX
  8
0
 10
206.05852979
 20
408.32402649
  0
VERTEX
  8
0
 10
205.82818390
 20
408.02066003
  0
VERTEX
  8
0
 10
205.61988419
 20
407.69559575
  0
VERTEX
  8
0
 10
205.44040879
 20
407.34209426
  0
VERTEX
  8
0
 10
205.29653581
 20
406.95341614
  0
VERTEX
  8
0
 10
205.19504338
 20
406.52282198
  0
VERTEX
  8
0
 10
205.14270960
 20
406.04357239
  0
VERTEX
  8
0
 10
205.13709537
 20
405.78359573
  0
VERTEX
  8
0
 10
205.14631260
 20
405.50892794
  0
VERTEX
  8
0
 10
205.21263049
 20
404.91214924
  0
SEQEND
  0
POLYLINE
  8
Default_Layer
 66
   1
 39
0.000000
 70
    1
  0
VERTEX
  8
0
 10
203.60068715
 20
393.12646517
  0
VERTEX
  8
0
 10
203.64150605
 20
393.83831639
  0
VERTEX
  8
0
 10
203.64656552
 20
394.51363399
  0
VERTEX
  8
0
 10
203.61847638
 20
395.15487398
  0
VERTEX
  8
0
 10
203.55984949
 20
395.76449236
  0
VERTEX
  8
0
 10
203.47329568
 20
396.34494513
  0
VERTEX
  8
0
 10
203.36142579
 20
396.89868831
  0
VERTEX
  8
0
 10
203.22685066
 20
397.42817789
  0
VERTEX
  8
0
 10
203.07218114
 20
397.93586988
  0
VERTEX
  8
0
 10
201.46023780
 20
397.93586988
  0
VERTEX
  8
0
 10
201.29074477
 20
397.62863012
  0
VERTEX
  8
0
 10
201.14072466
 20
397.26222492
  0
VERTEX
  8
0
 10
201.01466957
 20
396.84952265
  0
VERTEX
  8
0
 10
200.91707165
 20
396.40339167
  0
VERTEX
  8
0
 10
200.85242301
 20
395.93670035
  0
VERTEX
  8
0
 10
200.82521576
 20
395.46231705
  0
VERTEX
  8
0
 10
200.83994204
 20
394.99311013
  0
VERTEX
  8
0
 10
200.90109396
 20
394.54194796
  0
VERTEX
  8
0
 10
200.95048333
 20
394.32715502
  0
VERTEX
  8
0
 10
201.01316365
 20
394.12169890
  0
VERTEX
  8
0
 10
201.08969645
 20
393.92718815
  0
VERTEX
  8
0
 10
201.18064323
 20
393.74523131
  0
VERTEX
  8
0
 10
201.28656551
 20
393.57743694
  0
VERTEX
  8
0
 10
201.40802482
 20
393.42541357
  0
VERTEX
  8
0
 10
201.54558265
 20
393.29076975
  0
VERTEX
  8
0
 10
201.69980053
 20
393.17511402
  0
VERTEX
  8
0
 10
201.87123998
 20
393.08005494
  0
VERTEX
  8
0
 10
202.06046250
 20
393.00720105
  0
VERTEX
  8
0
 10
202.26802962
 20
392.95816089
  0
VERTEX
  8
0
 10
202.49450285
 20
392.93454301
  0
VERTEX
  8
0
 10
202.74044370
 20
392.93795595
  0
VERTEX
  8
0
 10
203.00641369
 20
392.97000826
  0
VERTEX
  8
0
 10
203.29297434
 20
393.03230848
  0
VERTEX
  8
0
 10
203.60068715
 20
393.12646517
  0
SEQEND
  0
POLYLINE
  8
Default_Layer
 66
   1
 39
0.000000
 70
    1
  0
VERTEX
  8
0
 10
409.61233070
 20
393.65497118
  0
VERTEX
  8
0
 10
408.12225818
 20
392.23648082
  0
VERTEX
  8
0
 10
406.61167191
 20
390.83839900
  0
VERTEX
  8
0
 10
405.08455287
 20
389.45677093
  0
VERTEX
  8
0
 10
403.54488209
 20
388.08764182
  0
VERTEX
  8
0
 10
400.44380928
 20
385.37106129
  0
VERTEX
  8
0
 10
397.34030152
 20
382.65701905
  0
VERTEX
  8
0
 10
395.79758705
 20
381.29106279
  0
VERTEX
  8
0
 10
394.26620686
 20
379.91387672
  0
VERTEX
  8
0
 10
392.75014195
 20
378.52150604
  0
VERTEX
  8
0
 10
391.25337333
 20
377.10999596
  0
VERTEX
  8
0
 10
389.77988201
 20
375.67539167
  0
VERTEX
  8
0
 10
388.33364898
 20
374.21373839
  0
VERTEX
  8
0
 10
386.91865526
 20
372.72108132
  0
VERTEX
  8
0
 10
385.53888184
 20
371.19346566
  0
VERTEX
  8
0
 10
385.87926094
 20
371.06616653
  0
VERTEX
  8
0
 10
386.22657707
 20
370.95946020
  0
VERTEX
  8
0
 10
386.58020481
 20
370.87264677
  0
VERTEX
  8
0
 10
386.93951872
 20
370.80502634
  0
VERTEX
  8
0
 10
387.30389337
 20
370.75589902
  0
VERTEX
  8
0
 10
387.67270332
 20
370.72456490
  0
VERTEX
  8
0
 10
388.04532314
 20
370.71032409
  0
VERTEX
  8
0
 10
388.42112741
 20
370.71247668
  0
VERTEX
  8
0
 10
388.79949068
 20
370.73032277
  0
VERTEX
  8
0
 10
389.17978752
 20
370.76316247
  0
VERTEX
  8
0
 10
389.94368018
 20
370.87102309
  0
VERTEX
  8
0
 10
390.70780194
 20
371.03045933
  0
VERTEX
  8
0
 10
391.46714931
 20
371.23587200
  0
VERTEX
  8
0
 10
392.21671883
 20
371.48166189
  0
VERTEX
  8
0
 10
392.95150705
 20
371.76222982
  0
VERTEX
  8
0
 10
393.66651048
 20
372.07197659
  0
VERTEX
  8
0
 10
394.35672566
 20
372.40530299
  0
VERTEX
  8
0
 10
395.01714914
 20
372.75660983
  0
VERTEX
  8
0
 10
395.64277743
 20
373.12029792
  0
VERTEX
  8
0
 10
396.22860707
 20
373.49076805
  0
VERTEX
  8
0
 10
396.76963460
 20
373.86242103
  0
VERTEX
  8
0
 10
397.33435324
 20
374.27824558
  0
VERTEX
  8
0
 10
397.89913268
 20
374.71617469
  0
VERTEX
  8
0
 10
398.46323773
 20
375.17530560
  0
VERTEX
  8
0
 10
399.02593321
 20
375.65473554
  0
VERTEX
  8
0
 10
399.58648393
 20
376.15356176
  0
VERTEX
  8
0
 10
400.14415471
 20
376.67088150
  0
VERTEX
  8
0
 10
401.24791572
 20
377.75739047
  0
VERTEX
  8
0
 10
402.33133477
 20
378.90704036
  0
VERTEX
  8
0
 10
403.38853038
 20
380.11260907
  0
VERTEX
  8
0
 10
404.41362108
 20
381.36687452
  0
VERTEX
  8
0
 10
405.40072541
 20
382.66261460
  0
VERTEX
  8
0
 10
406.34396190
 20
383.99260723
  0
VERTEX
  8
0
 10
407.23744906
 20
385.34963032
  0
VERTEX
  8
0
 10
408.07530544
 20
386.72646177
  0
VERTEX
  8
0
 10
408.47153412
 20
387.42004872
  0
VERTEX
  8
0
 10
408.85164956
 20
388.11587948
  0
VERTEX
  8
0
 10
409.21491656
 20
388.81305129
  0
VERTEX
  8
0
 10
409.56059995
 20
389.51066138
  0
VERTEX
  8
0
 10
409.88796454
 20
390.20780698
  0
VERTEX
  8
0
 10
410.19627514
 20
390.90358535
  0
VERTEX
  8
0
 10
410.48479657
 20
391.59709372
  0
VERTEX
  8
0
 10
410.75279366
 20
392.28742932
  0
VERTEX
  8
0
 10
410.99953121
 20
392.97368939
  0
VERTEX
  8
0
 10
411.22427404
 20
393.65497118
  0
VERTEX
  8
0
 10
409.61233070
 20
393.65497118
  0
SEQEND
  0
POLYLINE
  8
Default_Layer
 66
   1
 39
0.000000
 70
    1
  0
VERTEX
  8
0
 10
173.10589025
 20
351.92942152
  0
VERTEX
  8
0
 10
173.19452088
 20
350.98044509
  0
VERTEX
  8
0
 10
173.32506646
 20
350.05048852
  0
VERTEX
  8
0
 10
173.49567260
 20
349.13923840
  0
VERTEX
  8
0
 10
173.70448490
 20
348.24638130
  0
VERTEX
  8
0
 10
173.94964898
 20
347.37160381
  0
VERTEX
  8
0
 10
174.22931044
 20
346.51459253
  0
VERTEX
  8
0
 10
174.54161490
 20
345.67503403
  0
VERTEX
  8
0
 10
174.88470795
 20
344.85261491
  0
VERTEX
  8
0
 10
175.25673522
 20
344.04702174
  0
VERTEX
  8
0
 10
175.65584231
 20
343.25794112
  0
VERTEX
  8
0
 10
176.08017482
 20
342.48505962
  0
VERTEX
  8
0
 10
176.52787837
 20
341.72806384
  0
VERTEX
  8
0
 10
176.99709856
 20
340.98664037
  0
VERTEX
  8
0
 10
177.48598101
 20
340.26047578
  0
VERTEX
  8
0
 10
177.99267132
 20
339.54925666
  0
VERTEX
  8
0
 10
178.51531510
 20
338.85266960
  0
VERTEX
  8
0
 10
179.05205796
 20
338.17040119
  0
VERTEX
  8
0
 10
179.60104551
 20
337.50213800
  0
VERTEX
  8
0
 10
180.16042336
 20
336.84756664
  0
VERTEX
  8
0
 10
180.72833711
 20
336.20637367
  0
VERTEX
  8
0
 10
181.88235477
 20
334.96286929
  0
VERTEX
  8
0
 10
183.04826335
 20
333.76911755
  0
VERTEX
  8
0
 10
184.21122774
 20
332.62261113
  0
VERTEX
  8
0
 10
185.35641279
 20
331.52084273
  0
VERTEX
  8
0
 10
187.53410438
 20
329.44149070
  0
VERTEX
  8
0
 10
187.82302323
 20
329.14710779
  0
VERTEX
  8
0
 10
188.12085622
 20
328.81352045
  0
VERTEX
  8
0
 10
188.73714629
 20
328.07314103
  0
VERTEX
  8
0
 10
189.37073789
 20
327.30916953
  0
VERTEX
  8
0
 10
189.69019780
 20
326.94609210
  0
VERTEX
  8
0
 10
190.00939433
 20
326.61042306
  0
VERTEX
  8
0
 10
190.32679789
 20
326.31326455
  0
VERTEX
  8
0
 10
190.64087890
 20
326.06571870
  0
VERTEX
  8
0
 10
190.95010776
 20
325.87888766
  0
VERTEX
  8
0
 10
191.10242464
 20
325.81170961
  0
VERTEX
  8
0
 10
191.25295490
 20
325.76387356
  0
VERTEX
  8
0
 10
191.40150732
 20
325.73676729
  0
VERTEX
  8
0
 10
191.54789071
 20
325.73177854
  0
VERTEX
  8
0
 10
191.69191388
 20
325.75029511
  0
VERTEX
  8
0
 10
191.83338563
 20
325.79370474
  0
VERTEX
  8
0
 10
191.97211475
 20
325.86339521
  0
VERTEX
  8
0
 10
192.10791005
 20
325.96075429
  0
VERTEX
  8
0
 10
192.24058033
 20
326.08716974
  0
VERTEX
  8
0
 10
192.36993439
 20
326.24402933
  0
VERTEX
  8
0
 10
192.49885991
 20
327.76858146
  0
VERTEX
  8
0
 10
192.57873131
 20
329.32169280
  0
VERTEX
  8
0
 10
192.61637659
 20
330.90049541
  0
VERTEX
  8
0
 10
192.61862376
 20
332.50212137
  0
VERTEX
  8
0
 10
192.59230085
 20
334.12370275
  0
VERTEX
  8
0
 10
192.54423585
 20
335.76237161
  0
VERTEX
  8
0
 10
192.41019169
 20
339.07950009
  0
VERTEX
  8
0
 10
192.27111535
 20
342.43056335
  0
VERTEX
  8
0
 10
192.21676016
 20
344.11165071
  0
VERTEX
  8
0
 10
192.18163096
 20
345.79261797
  0
VERTEX
  8
0
 10
192.17255577
 20
347.47059722
  0
VERTEX
  8
0
 10
192.19636261
 20
349.14272051
  0
VERTEX
  8
0
 10
192.25987948
 20
350.80611993
  0
VERTEX
  8
0
 10
192.36993439
 20
352.45792753
  0
VERTEX
  8
0
 10
192.49941196
 20
353.81071321
  0
VERTEX
  8
0
 10
192.66747807
 20
355.14441178
  0
VERTEX
  8
0
 10
192.86693038
 20
356.45886241
  0
VERTEX
  8
0
 10
193.09056654
 20
357.75390423
  0
VERTEX
  8
0
 10
193.33118422
 20
359.02937642
  0
VERTEX
  8
0
 10
193.58158108
 20
360.28511811
  0
VERTEX
  8
0
 10
194.08290297
 20
362.73676664
  0
VERTEX
  8
0
 10
194.31942333
 20
363.93235178
  0
VERTEX
  8
0
 10
194.53691350
 20
365.10756304
  0
VERTEX
  8
0
 10
194.72817116
 20
366.26223957
  0
VERTEX
  8
0
 10
194.88599395
 20
367.39622053
  0
VERTEX
  8
0
 10
195.00317955
 20
368.50934507
  0
VERTEX
  8
0
 10
195.07252561
 20
369.60145233
  0
VERTEX
  8
0
 10
195.08682979
 20
370.67238149
  0
VERTEX
  8
0
 10
195.07109044
 20
371.19985400
  0
VERTEX
  8
0
 10
195.03888975
 20
371.72197168
  0
VERTEX
  8
0
 10
193.63777464
 20
371.66245910
  0
VERTEX
  8
0
 10
192.28068266
 20
371.56895938
  0
VERTEX
  8
0
 10
190.96782899
 20
371.44126474
  0
VERTEX
  8
0
 10
189.69942877
 20
371.27916741
  0
VERTEX
  8
0
 10
188.47569717
 20
371.08245964
  0
VERTEX
  8
0
 10
187.29684937
 20
370.85093365
  0
VERTEX
  8
0
 10
186.16310051
 20
370.58438168
  0
VERTEX
  8
0
 10
185.07466577
 20
370.28259596
  0
VERTEX
  8
0
 10
184.03176031
 20
369.94536872
  0
VERTEX
  8
0
 10
183.03459928
 20
369.57249220
  0
VERTEX
  8
0
 10
182.08339786
 20
369.16375864
  0
VERTEX
  8
0
 10
181.17837120
 20
368.71896026
  0
VERTEX
  8
0
 10
180.31973448
 20
368.23788930
  0
VERTEX
  8
0
 10
179.50770285
 20
367.72033799
  0
VERTEX
  8
0
 10
178.74249147
 20
367.16609857
  0
VERTEX
  8
0
 10
178.02431551
 20
366.57496327
  0
VERTEX
  8
0
 10
177.35339013
 20
365.94672432
  0
VERTEX
  8
0
 10
177.03571365
 20
365.61862606
  0
VERTEX
  8
0
 10
176.72993050
 20
365.28117397
  0
VERTEX
  8
0
 10
176.43606758
 20
364.93434208
  0
VERTEX
  8
0
 10
176.15415178
 20
364.57810443
  0
VERTEX
  8
0
 10
175.88420999
 20
364.21243504
  0
VERTEX
  8
0
 10
175.62626912
 20
363.83730795
  0
VERTEX
  8
0
 10
175.38035606
 20
363.45269718
  0
VERTEX
  8
0
 10
175.14649771
 20
363.05857676
  0
VERTEX
  8
0
 10
174.92472095
 20
362.65492072
  0
VERTEX
  8
0
 10
174.71505269
 20
362.24170309
  0
VERTEX
  8
0
 10
174.51751981
 20
361.81889790
  0
VERTEX
  8
0
 10
174.33214923
 20
361.38647917
  0
VERTEX
  8
0
 10
173.99800249
 20
360.49269725
  0
VERTEX
  8
0
 10
173.71282764
 20
359.56014955
  0
VERTEX
  8
0
 10
173.47683985
 20
358.58862830
  0
VERTEX
  8
0
 10
173.29025426
 20
357.57792575
  0
VERTEX
  8
0
 10
173.15328605
 20
356.52783412
  0
VERTEX
  8
0
 10
173.06615038
 20
355.43814565
  0
VERTEX
  8
0
 10
173.02906242
 20
354.30865257
  0
VERTEX
  8
0
 10
173.04223732
 20
353.13914712
  0
VERTEX
  8
0
 10
173.10589025
 20
351.92942152
  0
SEQEND
  0
POLYLINE
  8
Default_Layer
 66
   1
 39
0.000000
 70
    1
  0
VERTEX
  8
0
 10
378.58902778
 20
366.91256697
  0
VERTEX
  8
0
 10
377.79119109
 20
365.65179602
  0
VERTEX
  8
0
 10
376.98010296
 20
364.40438262
  0
VERTEX
  8
0
 10
376.15608238
 20
363.17000190
  0
VERTEX
  8
0
 10
375.31944836
 20
361.94832901
  0
VERTEX
  8
0
 10
374.47051991
 20
360.73903909
  0
VERTEX
  8
0
 10
373.60961604
 20
359.54180727
  0
VERTEX
  8
0
 10
372.73705575
 20
358.35630871
  0
VERTEX
  8
0
 10
371.85315805
 20
357.18221854
  0
VERTEX
  8
0
 10
370.95824194
 20
356.01921190
  0
VERTEX
  8
0
 10
370.05262643
 20
354.86696394
  0
VERTEX
  8
0
 10
368.21057324
 20
352.59344460
  0
VERTEX
  8
0
 10
366.32955052
 20
350.35906167
  0
VERTEX
  8
0
 10
364.41211033
 20
348.16121626
  0
VERTEX
  8
0
 10
362.46080471
 20
345.99730952
  0
VERTEX
  8
0
 10
360.47818572
 20
343.86474258
  0
VERTEX
  8
0
 10
358.46680540
 20
341.76091657
  0
VERTEX
  8
0
 10
356.42921579
 20
339.68323261
  0
VERTEX
  8
0
 10
354.36796896
 20
337.62909185
  0
VERTEX
  8
0
 10
352.28561695
 20
335.59589542
  0
VERTEX
  8
0
 10
350.18471181
 20
333.58104444
  0
VERTEX
  8
0
 10
348.06780558
 20
331.58194005
  0
VERTEX
  8
0
 10
348.31303817
 20
330.18407237
  0
VERTEX
  8
0
 10
348.60736570
 20
328.79223014
  0
VERTEX
  8
0
 10
348.94855010
 20
327.40971745
  0
VERTEX
  8
0
 10
349.33435331
 20
326.03983835
  0
VERTEX
  8
0
 10
349.76253726
 20
324.68589691
  0
VERTEX
  8
0
 10
350.23086389
 20
323.35119719
  0
VERTEX
  8
0
 10
350.73709513
 20
322.03904328
  0
VERTEX
  8
0
 10
351.27899292
 20
320.75273922
  0
VERTEX
  8
0
 10
351.85431918
 20
319.49558910
  0
VERTEX
  8
0
 10
352.46083586
 20
318.27089697
  0
VERTEX
  8
0
 10
353.09630489
 20
317.08196691
  0
VERTEX
  8
0
 10
353.75848820
 20
315.93210298
  0
VERTEX
  8
0
 10
354.44514773
 20
314.82460924
  0
VERTEX
  8
0
 10
355.15404542
 20
313.76278977
  0
VERTEX
  8
0
 10
355.88294319
 20
312.74994863
  0
VERTEX
  8
0
 10
356.62960298
 20
311.78938989
  0
VERTEX
  8
0
 10
357.36545342
 20
310.93056709
  0
VERTEX
  8
0
 10
358.20578875
 20
310.03803988
  0
VERTEX
  8
0
 10
358.65489216
 20
309.59295630
  0
VERTEX
  8
0
 10
359.11782146
 20
309.15602962
  0
VERTEX
  8
0
 10
359.59047823
 20
308.73278751
  0
VERTEX
  8
0
 10
360.06876402
 20
308.32875763
  0
VERTEX
  8
0
 10
360.54858040
 20
307.94946766
  0
VERTEX
  8
0
 10
361.02582891
 20
307.60044526
  0
VERTEX
  8
0
 10
361.49641113
 20
307.28721809
  0
VERTEX
  8
0
 10
361.95622861
 20
307.01531383
  0
VERTEX
  8
0
 10
362.40118291
 20
306.79026014
  0
VERTEX
  8
0
 10
362.82717559
 20
306.61758469
  0
VERTEX
  8
0
 10
363.23010822
 20
306.50281514
  0
VERTEX
  8
0
 10
363.42164624
 20
306.46887248
  0
VERTEX
  8
0
 10
363.60588234
 20
306.45147917
  0
VERTEX
  8
0
 10
363.03952187
 20
307.62100270
  0
VERTEX
  8
0
 10
362.49362485
 20
308.80417822
  0
VERTEX
  8
0
 10
361.97234352
 20
310.00383142
  0
VERTEX
  8
0
 10
361.47983011
 20
311.22278797
  0
VERTEX
  8
0
 10
361.02023688
 20
312.46387357
  0
VERTEX
  8
0
 10
360.59771605
 20
313.72991391
  0
VERTEX
  8
0
 10
360.21641988
 20
315.02373467
  0
VERTEX
  8
0
 10
359.88050060
 20
316.34816153
  0
VERTEX
  8
0
 10
359.59411046
 20
317.70602019
  0
VERTEX
  8
0
 10
359.47078640
 20
318.39836946
  0
VERTEX
  8
0
 10
359.36140170
 20
319.10013632
  0
VERTEX
  8
0
 10
359.26647542
 20
319.81167397
  0
VERTEX
  8
0
 10
359.18652656
 20
320.53333563
  0
VERTEX
  8
0
 10
359.12207418
 20
321.26547449
  0
VERTEX
  8
0
 10
359.07363729
 20
322.00844378
  0
VERTEX
  8
0
 10
359.04173492
 20
322.76259671
  0
VERTEX
  8
0
 10
359.02688611
 20
323.52828648
  0
VERTEX
  8
0
 10
359.02960989
 20
324.30586631
  0
VERTEX
  8
0
 10
359.05042529
 20
325.09568941
  0
VERTEX
  8
0
 10
359.08985133
 20
325.89810898
  0
VERTEX
  8
0
 10
359.14840705
 20
326.71347824
  0
VERTEX
  8
0
 10
359.22661148
 20
327.54215040
  0
VERTEX
  8
0
 10
359.32498364
 20
328.38447868
  0
VERTEX
  8
0
 10
359.47016217
 20
329.37534100
  0
VERTEX
  8
0
 10
359.65739216
 20
330.37416110
  0
VERTEX
  8
0
 10
359.88498418
 20
331.37925404
  0
VERTEX
  8
0
 10
360.15124877
 20
332.38893486
  0
VERTEX
  8
0
 10
360.45449650
 20
333.40151864
  0
VERTEX
  8
0
 10
360.79303792
 20
334.41532043
  0
VERTEX
  8
0
 10
361.16518358
 20
335.42865527
  0
VERTEX
  8
0
 10
361.56924404
 20
336.43983824
  0
VERTEX
  8
0
 10
362.00352985
 20
337.44718439
  0
VERTEX
  8
0
 10
362.46635158
 20
338.44900877
  0
VERTEX
  8
0
 10
362.95601977
 20
339.44362645
  0
VERTEX
  8
0
 10
363.47084497
 20
340.42935247
  0
VERTEX
  8
0
 10
364.00913776
 20
341.40450190
  0
VERTEX
  8
0
 10
364.56920867
 20
342.36738979
  0
VERTEX
  8
0
 10
365.14936827
 20
343.31633121
  0
VERTEX
  8
0
 10
365.74792712
 20
344.24964120
  0
VERTEX
  8
0
 10
366.36319575
 20
345.16563483
  0
VERTEX
  8
0
 10
366.99348474
 20
346.06262714
  0
VERTEX
  8
0
 10
367.63710464
 20
346.93893321
  0
VERTEX
  8
0
 10
368.29236600
 20
347.79286808
  0
VERTEX
  8
0
 10
368.95757937
 20
348.62274682
  0
VERTEX
  8
0
 10
369.63105532
 20
349.42688448
  0
VERTEX
  8
0
 10
370.31110439
 20
350.20359611
  0
VERTEX
  8
0
 10
370.99603715
 20
350.95119678
  0
VERTEX
  8
0
 10
371.68416415
 20
351.66800154
  0
VERTEX
  8
0
 10
372.37379594
 20
352.35232544
  0
VERTEX
  8
0
 10
373.06324308
 20
353.00248356
  0
VERTEX
  8
0
 10
373.75081612
 20
353.61679093
  0
VERTEX
  8
0
 10
374.43482562
 20
354.19356263
  0
VERTEX
  8
0
 10
375.11358214
 20
354.73111370
  0
VERTEX
  8
0
 10
375.78539622
 20
355.22775921
  0
VERTEX
  8
0
 10
376.44857843
 20
355.68181421
  0
VERTEX
  8
0
 10
376.75819212
 20
355.87153316
  0
VERTEX
  8
0
 10
377.07973581
 20
356.04750994
  0
VERTEX
  8
0
 10
377.74735599
 20
356.37117284
  0
VERTEX
  8
0
 10
378.42892445
 20
356.67867461
  0
VERTEX
  8
0
 10
379.10192668
 20
356.99588693
  0
VERTEX
  8
0
 10
379.42817968
 20
357.16621945
  0
VERTEX
  8
0
 10
379.74384818
 20
357.34868150
  0
VERTEX
  8
0
 10
380.04611787
 20
357.54650703
  0
VERTEX
  8
0
 10
380.33217443
 20
357.76293000
  0
VERTEX
  8
0
 10
380.59920355
 20
358.00118438
  0
VERTEX
  8
0
 10
380.84439092
 20
358.26450413
  0
VERTEX
  8
0
 10
381.06492222
 20
358.55612321
  0
VERTEX
  8
0
 10
381.25798315
 20
358.87927558
  0
VERTEX
  8
0
 10
381.37791973
 20
359.09845975
  0
VERTEX
  8
0
 10
381.48346877
 20
359.32872531
  0
VERTEX
  8
0
 10
381.57507682
 20
359.56916965
  0
VERTEX
  8
0
 10
381.65319040
 20
359.81889015
  0
VERTEX
  8
0
 10
381.77072029
 20
360.34254917
  0
VERTEX
  8
0
 10
381.83963073
 20
360.89248145
  0
VERTEX
  8
0
 10
381.86349398
 20
361.46146607
  0
VERTEX
  8
0
 10
381.84588232
 20
362.04228210
  0
VERTEX
  8
0
 10
381.79036802
 20
362.62770863
  0
VERTEX
  8
0
 10
381.70052336
 20
363.21052472
  0
VERTEX
  8
0
 10
381.57992061
 20
363.78350945
  0
VERTEX
  8
0
 10
381.43213204
 20
364.33944190
  0
VERTEX
  8
0
 10
381.26072993
 20
364.87110114
  0
VERTEX
  8
0
 10
381.06928656
 20
365.37126626
  0
VERTEX
  8
0
 10
380.86137418
 20
365.83271632
  0
VERTEX
  8
0
 10
380.64056509
 20
366.24823041
  0
VERTEX
  8
0
 10
380.41043154
 20
366.61058760
  0
VERTEX
  8
0
 10
380.17454582
 20
366.91256697
  0
VERTEX
  8
0
 10
378.58902778
 20
366.91256697
  0
SEQEND
  0
POLYLINE
  8
Default_Layer
 66
   1
 39
0.000000
 70
    1
  0
VERTEX
  8
0
 10
239.98832609
 20
352.45792753
  0
VERTEX
  8
0
 10
239.93012536
 20
352.94974415
  0
VERTEX
  8
0
 10
239.89537126
 20
353.41825931
  0
VERTEX
  8
0
 10
239.88258991
 20
353.86493719
  0
VERTEX
  8
0
 10
239.89030742
 20
354.29124201
  0
VERTEX
  8
0
 10
239.91704993
 20
354.69863797
  0
VERTEX
  8
0
 10
239.96134356
 20
355.08858925
  0
VERTEX
  8
0
 10
240.02171442
 20
355.46256007
  0
VERTEX
  8
0
 10
240.09668865
 20
355.82201463
  0
VERTEX
  8
0
 10
240.28455167
 20
356.50323175
  0
VERTEX
  8
0
 10
240.51314160
 20
357.14395421
  0
VERTEX
  8
0
 10
240.77066742
 20
357.75589561
  0
VERTEX
  8
0
 10
241.04533811
 20
358.35076957
  0
VERTEX
  8
0
 10
240.80260837
 20
358.37959630
  0
VERTEX
  8
0
 10
240.56661867
 20
358.37189851
  0
VERTEX
  8
0
 10
240.33804790
 20
358.32995459
  0
VERTEX
  8
0
 10
240.11757494
 20
358.25604296
  0
VERTEX
  8
0
 10
239.90587868
 20
358.15244200
  0
VERTEX
  8
0
 10
239.70363801
 20
358.02143013
  0
VERTEX
  8
0
 10
239.51153182
 20
357.86528573
  0
VERTEX
  8
0
 10
239.33023899
 20
357.68628722
  0
VERTEX
  8
0
 10
239.16043841
 20
357.48671298
  0
VERTEX
  8
0
 10
239.00280897
 20
357.26884143
  0
VERTEX
  8
0
 10
238.85802955
 20
357.03495095
  0
VERTEX
  8
0
 10
238.72677904
 20
356.78731996
  0
VERTEX
  8
0
 10
238.60973633
 20
356.52822685
  0
VERTEX
  8
0
 10
238.50758030
 20
356.25995002
  0
VERTEX
  8
0
 10
238.42098984
 20
355.98476787
  0
VERTEX
  8
0
 10
238.35064385
 20
355.70495881
  0
VERTEX
  8
0
 10
238.29722120
 20
355.42280122
  0
VERTEX
  8
0
 10
238.26140078
 20
355.14057352
  0
VERTEX
  8
0
 10
238.24386148
 20
354.86055410
  0
VERTEX
  8
0
 10
238.24528219
 20
354.58502137
  0
VERTEX
  8
0
 10
238.26634179
 20
354.31625372
  0
VERTEX
  8
0
 10
238.30771918
 20
354.05652955
  0
VERTEX
  8
0
 10
238.37009323
 20
353.80812727
  0
VERTEX
  8
0
 10
238.45414283
 20
353.57332527
  0
VERTEX
  8
0
 10
238.56054688
 20
353.35440195
  0
VERTEX
  8
0
 10
238.68998426
 20
353.15363572
  0
VERTEX
  8
0
 10
238.84313385
 20
352.97330498
  0
VERTEX
  8
0
 10
239.02067454
 20
352.81568812
  0
VERTEX
  8
0
 10
239.22328523
 20
352.68306354
  0
VERTEX
  8
0
 10
239.45164479
 20
352.57770965
  0
VERTEX
  8
0
 10
239.70643211
 20
352.50190485
  0
VERTEX
  8
0
 10
239.98832609
 20
352.45792753
  0
SEQEND
  0
POLYLINE
  8
Default_Layer
 66
   1
 39
0.000000
 70
    1
  0
VERTEX
  8
0
 10
341.64645753
 20
328.38447868
  0
VERTEX
  8
0
 10
341.14133447
 20
328.00163055
  0
VERTEX
  8
0
 10
340.61053472
 20
327.63432755
  0
VERTEX
  8
0
 10
340.05587231
 20
327.28158887
  0
VERTEX
  8
0
 10
339.47916127
 20
326.94243371
  0
VERTEX
  8
0
 10
338.88221564
 20
326.61588127
  0
VERTEX
  8
0
 10
338.26684943
 20
326.30095074
  0
VERTEX
  8
0
 10
337.63487667
 20
325.99666132
  0
VERTEX
  8
0
 10
336.98811140
 20
325.70203221
  0
VERTEX
  8
0
 10
335.65745943
 20
325.13783169
  0
VERTEX
  8
0
 10
334.28940573
 20
324.60050276
  0
VERTEX
  8
0
 10
332.89846255
 20
324.08219899
  0
VERTEX
  8
0
 10
331.49914210
 20
323.57507397
  0
VERTEX
  8
0
 10
331.21795941
 20
323.48980484
  0
VERTEX
  8
0
 10
330.91407478
 20
323.42733180
  0
VERTEX
  8
0
 10
330.25921584
 20
323.34569063
  0
VERTEX
  8
0
 10
329.57659751
 20
323.27998367
  0
VERTEX
  8
0
 10
329.23801365
 20
323.23742839
  0
VERTEX
  8
0
 10
328.90825203
 20
323.18004413
  0
VERTEX
  8
0
 10
328.59256668
 20
323.10156003
  0
VERTEX
  8
0
 10
328.29621164
 20
322.99570524
  0
VERTEX
  8
0
 10
328.02444093
 20
322.85620891
  0
VERTEX
  8
0
 10
327.78250858
 20
322.67680021
  0
VERTEX
  8
0
 10
327.67437368
 20
322.57016907
  0
VERTEX
  8
0
 10
327.57566863
 20
322.45120827
  0
VERTEX
  8
0
 10
327.48705018
 20
322.31913396
  0
VERTEX
  8
0
 10
327.40917509
 20
322.17316226
  0
VERTEX
  8
0
 10
327.34270011
 20
322.01250934
  0
VERTEX
  8
0
 10
327.28828200
 20
321.83639133
  0
VERTEX
  8
0
 10
327.24657751
 20
321.64402437
  0
VERTEX
  8
0
 10
327.21824340
 20
321.43462462
  0
VERTEX
  8
0
 10
328.81072167
 20
321.02043162
  0
VERTEX
  8
0
 10
330.36939915
 20
320.57243784
  0
VERTEX
  8
0
 10
331.89707308
 20
320.09344050
  0
VERTEX
  8
0
 10
333.39654070
 20
319.58623686
  0
VERTEX
  8
0
 10
334.87059924
 20
319.05362414
  0
VERTEX
  8
0
 10
336.32204596
 20
318.49839958
  0
VERTEX
  8
0
 10
337.75367808
 20
317.92336044
  0
VERTEX
  8
0
 10
339.16829284
 20
317.33130394
  0
VERTEX
  8
0
 10
340.56868749
 20
316.72502732
  0
VERTEX
  8
0
 10
341.95765927
 20
316.10732783
  0
VERTEX
  8
0
 10
344.71252314
 20
314.84884918
  0
VERTEX
  8
0
 10
347.45526239
 20
313.57824590
  0
VERTEX
  8
0
 10
350.20825493
 20
312.31789591
  0
VERTEX
  8
0
 10
349.78023185
 20
313.32798885
  0
VERTEX
  8
0
 10
349.33661423
 20
314.32249692
  0
VERTEX
  8
0
 10
348.41523722
 20
316.27743904
  0
VERTEX
  8
0
 10
346.52440914
 20
320.13979116
  0
VERTEX
  8
0
 10
345.60552551
 20
322.09792343
  0
VERTEX
  8
0
 10
345.16377793
 20
323.09482411
  0
VERTEX
  8
0
 10
344.73804045
 20
324.10784135
  0
VERTEX
  8
0
 10
344.33147354
 20
325.14014528
  0
VERTEX
  8
0
 10
343.94723766
 20
326.19490605
  0
VERTEX
  8
0
 10
343.58849328
 20
327.27529380
  0
VERTEX
  8
0
 10
343.25840087
 20
328.38447868
  0
VERTEX
  8
0
 10
341.64645753
 20
328.38447868
  0
SEQEND
  0
POLYLINE
  8
Default_Layer
 66
   1
 39
0.000000
 70
    1
  0
VERTEX
  8
0
 10
246.93818015
 20
297.33475046
  0
VERTEX
  8
0
 10
247.03161667
 20
296.56157232
  0
VERTEX
  8
0
 10
247.13936817
 20
295.79511894
  0
VERTEX
  8
0
 10
247.26131772
 20
295.03553337
  0
VERTEX
  8
0
 10
247.39734834
 20
294.28295867
  0
VERTEX
  8
0
 10
247.54734310
 20
293.53753788
  0
VERTEX
  8
0
 10
247.71118504
 20
292.79941404
  0
VERTEX
  8
0
 10
247.88875721
 20
292.06873022
  0
VERTEX
  8
0
 10
248.07994265
 20
291.34562945
  0
VERTEX
  8
0
 10
248.28462443
 20
290.63025478
  0
VERTEX
  8
0
 10
248.50268558
 20
289.92274928
  0
VERTEX
  8
0
 10
248.73400916
 20
289.22325597
  0
VERTEX
  8
0
 10
248.97847821
 20
288.53191792
  0
VERTEX
  8
0
 10
249.23597578
 20
287.84887817
  0
VERTEX
  8
0
 10
249.50638492
 20
287.17427977
  0
VERTEX
  8
0
 10
249.78958869
 20
286.50826576
  0
VERTEX
  8
0
 10
250.08547012
 20
285.85097921
  0
VERTEX
  8
0
 10
250.39391226
 20
285.20256315
  0
VERTEX
  8
0
 10
250.71479818
 20
284.56316063
  0
VERTEX
  8
0
 10
251.04801091
 20
283.93291471
  0
VERTEX
  8
0
 10
251.39343350
 20
283.31196844
  0
VERTEX
  8
0
 10
251.75094900
 20
282.70046485
  0
VERTEX
  8
0
 10
252.12044046
 20
282.09854700
  0
VERTEX
  8
0
 10
252.50179094
 20
281.50635795
  0
VERTEX
  8
0
 10
252.89488347
 20
280.92404073
  0
VERTEX
  8
0
 10
253.29960110
 20
280.35173840
  0
VERTEX
  8
0
 10
253.71582689
 20
279.78959400
  0
VERTEX
  8
0
 10
254.14344389
 20
279.23775059
  0
VERTEX
  8
0
 10
254.58233514
 20
278.69635121
  0
VERTEX
  8
0
 10
255.03238369
 20
278.16553892
  0
VERTEX
  8
0
 10
255.49347259
 20
277.64545675
  0
VERTEX
  8
0
 10
255.96548489
 20
277.13624777
  0
VERTEX
  8
0
 10
256.44830363
 20
276.63805501
  0
VERTEX
  8
0
 10
256.94181187
 20
276.15102153
  0
VERTEX
  8
0
 10
257.44589266
 20
275.67529038
  0
VERTEX
  8
0
 10
257.96042904
 20
275.21100460
  0
VERTEX
  8
0
 10
258.48530406
 20
274.75830725
  0
VERTEX
  8
0
 10
259.02040077
 20
274.31734136
  0
VERTEX
  8
0
 10
259.56560222
 20
273.88825000
  0
VERTEX
  8
0
 10
260.12079146
 20
273.47117621
  0
VERTEX
  8
0
 10
260.68585154
 20
273.06626304
  0
VERTEX
  8
0
 10
261.26066550
 20
272.67365354
  0
VERTEX
  8
0
 10
261.84511640
 20
272.29349075
  0
VERTEX
  8
0
 10
262.43908728
 20
271.92591773
  0
VERTEX
  8
0
 10
263.04246119
 20
271.57107753
  0
VERTEX
  8
0
 10
263.65512118
 20
271.22911318
  0
VERTEX
  8
0
 10
264.27695030
 20
270.90016775
  0
VERTEX
  8
0
 10
264.90783160
 20
270.58438428
  0
VERTEX
  8
0
 10
265.54764813
 20
270.28190582
  0
VERTEX
  8
0
 10
266.19628293
 20
269.99287542
  0
VERTEX
  8
0
 10
266.85361905
 20
269.71743612
  0
VERTEX
  8
0
 10
267.51953955
 20
269.45573098
  0
VERTEX
  8
0
 10
268.19392746
 20
269.20790305
  0
VERTEX
  8
0
 10
268.87666585
 20
268.97409536
  0
VERTEX
  8
0
 10
269.56763775
 20
268.75445099
  0
VERTEX
  8
0
 10
270.26672623
 20
268.54911296
  0
VERTEX
  8
0
 10
270.97381432
 20
268.35822433
  0
VERTEX
  8
0
 10
271.68878507
 20
268.18192815
  0
VERTEX
  8
0
 10
272.41152154
 20
268.02036747
  0
VERTEX
  8
0
 10
273.14190676
 20
267.87368534
  0
VERTEX
  8
0
 10
273.87982380
 20
267.74202480
  0
VERTEX
  8
0
 10
274.62515570
 20
267.62552890
  0
VERTEX
  8
0
 10
275.37778551
 20
267.52434070
  0
VERTEX
  8
0
 10
276.13759627
 20
267.43860324
  0
VERTEX
  8
0
 10
276.90447104
 20
267.36845957
  0
VERTEX
  8
0
 10
276.80554945
 20
267.79256702
  0
VERTEX
  8
0
 10
276.68889088
 20
268.20580337
  0
VERTEX
  8
0
 10
276.55539951
 20
268.60867726
  0
VERTEX
  8
0
 10
276.40597950
 20
269.00169733
  0
VERTEX
  8
0
 10
276.24153502
 20
269.38537224
  0
VERTEX
  8
0
 10
276.06297024
 20
269.76021062
  0
VERTEX
  8
0
 10
275.66709643
 20
270.48541238
  0
VERTEX
  8
0
 10
275.22559141
 20
271.18137178
  0
VERTEX
  8
0
 10
274.74568852
 20
271.85215795
  0
VERTEX
  8
0
 10
274.23462109
 20
272.50184006
  0
VERTEX
  8
0
 10
273.69962247
 20
273.13448725
  0
VERTEX
  8
0
 10
273.14792599
 20
273.75416868
  0
VERTEX
  8
0
 10
272.58676499
 20
274.36495351
  0
VERTEX
  8
0
 10
271.46498278
 20
275.57610996
  0
VERTEX
  8
0
 10
270.91882825
 20
276.18461989
  0
VERTEX
  8
0
 10
270.39214254
 20
276.80050982
  0
VERTEX
  8
0
 10
269.89215900
 20
277.42784891
  0
VERTEX
  8
0
 10
269.42611097
 20
278.07070632
  0
VERTEX
  8
0
 10
268.96982230
 20
278.75414849
  0
VERTEX
  8
0
 10
268.53223300
 20
279.44979941
  0
VERTEX
  8
0
 10
268.10991524
 20
280.15561810
  0
VERTEX
  8
0
 10
267.69944120
 20
280.86956358
  0
VERTEX
  8
0
 10
266.90031292
 20
282.31367103
  0
VERTEX
  8
0
 10
266.10742551
 20
283.76579396
  0
VERTEX
  8
0
 10
265.29335632
 20
285.20960455
  0
VERTEX
  8
0
 10
264.86980899
 20
285.92329029
  0
VERTEX
  8
0
 10
264.43068271
 20
286.62877502
  0
VERTEX
  8
0
 10
263.97254967
 20
287.32401777
  0
VERTEX
  8
0
 10
263.49198202
 20
288.00697756
  0
VERTEX
  8
0
 10
262.98555195
 20
288.67561342
  0
VERTEX
  8
0
 10
262.44983161
 20
289.32788438
  0
VERTEX
  8
0
 10
262.40171455
 20
289.60895342
  0
VERTEX
  8
0
 10
262.39993025
 20
289.84385423
  0
VERTEX
  8
0
 10
262.43785975
 20
290.03921543
  0
VERTEX
  8
0
 10
262.50888406
 20
290.20166568
  0
VERTEX
  8
0
 10
262.60638424
 20
290.33783361
  0
VERTEX
  8
0
 10
262.72374131
 20
290.45434787
  0
VERTEX
  8
0
 10
262.99155027
 20
290.65492994
  0
VERTEX
  8
0
 10
263.25935923
 20
290.85644103
  0
VERTEX
  8
0
 10
263.37671630
 20
290.97411655
  0
VERTEX
  8
0
 10
263.47421648
 20
291.11191026
  0
VERTEX
  8
0
 10
263.54524079
 20
291.27645079
  0
VERTEX
  8
0
 10
263.58317028
 20
291.47436679
  0
VERTEX
  8
0
 10
263.58138598
 20
291.71228689
  0
VERTEX
  8
0
 10
263.53326893
 20
291.99683974
  0
VERTEX
  8
0
 10
263.32571184
 20
292.49105857
  0
VERTEX
  8
0
 10
263.10914896
 20
292.96878627
  0
VERTEX
  8
0
 10
262.65063361
 20
293.87896771
  0
VERTEX
  8
0
 10
262.16097834
 20
294.73578293
  0
VERTEX
  8
0
 10
261.64343862
 20
295.54763079
  0
VERTEX
  8
0
 10
261.10126992
 20
296.32291015
  0
VERTEX
  8
0
 10
260.53772772
 20
297.07001986
  0
VERTEX
  8
0
 10
259.95606747
 20
297.79735880
  0
VERTEX
  8
0
 10
259.35954465
 20
298.51332581
  0
VERTEX
  8
0
 10
258.13493315
 20
299.94473949
  0
VERTEX
  8
0
 10
257.51335541
 20
300.67698389
  0
VERTEX
  8
0
 10
256.88993696
 20
301.43145181
  0
VERTEX
  8
0
 10
256.26793328
 20
302.21654210
  0
VERTEX
  8
0
 10
255.65059984
 20
303.04065363
  0
VERTEX
  8
0
 10
255.04119210
 20
303.91218525
  0
VERTEX
  8
0
 10
254.44296552
 20
304.83953583
  0
VERTEX
  8
0
 10
254.04019654
 20
305.51088322
  0
VERTEX
  8
0
 10
253.66120100
 20
306.19177723
  0
VERTEX
  8
0
 10
253.30186935
 20
306.87722349
  0
VERTEX
  8
0
 10
252.95809204
 20
307.56222762
  0
VERTEX
  8
0
 10
252.30076219
 20
308.91093201
  0
VERTEX
  8
0
 10
251.65633499
 20
310.19793541
  0
VERTEX
  8
0
 10
251.32868599
 20
310.80581331
  0
VERTEX
  8
0
 10
250.99193398
 20
311.38328283
  0
VERTEX
  8
0
 10
250.64196940
 20
311.92534961
  0
VERTEX
  8
0
 10
250.27468270
 20
312.42701927
  0
VERTEX
  8
0
 10
249.88596432
 20
312.88329744
  0
VERTEX
  8
0
 10
249.47170469
 20
313.28918974
  0
VERTEX
  8
0
 10
249.25371267
 20
313.47168045
  0
VERTEX
  8
0
 10
249.02779427
 20
313.63970180
  0
VERTEX
  8
0
 10
248.79343577
 20
313.79262950
  0
VERTEX
  8
0
 10
248.55012349
 20
313.92983924
  0
VERTEX
  8
0
 10
248.27033352
 20
312.99771322
  0
VERTEX
  8
0
 10
248.01338280
 20
312.02178882
  0
VERTEX
  8
0
 10
247.77949274
 20
311.00844949
  0
VERTEX
  8
0
 10
247.56888473
 20
309.96407869
  0
VERTEX
  8
0
 10
247.38178019
 20
308.89505986
  0
VERTEX
  8
0
 10
247.21840051
 20
307.80777646
  0
VERTEX
  8
0
 10
247.07896711
 20
306.70861194
  0
VERTEX
  8
0
 10
246.96370137
 20
305.60394975
  0
VERTEX
  8
0
 10
246.87282472
 20
304.50017335
  0
VERTEX
  8
0
 10
246.80655854
 20
303.40366618
  0
VERTEX
  8
0
 10
246.76512425
 20
302.32081171
  0
VERTEX
  8
0
 10
246.74874324
 20
301.25799337
  0
VERTEX
  8
0
 10
246.75763692
 20
300.22159462
  0
VERTEX
  8
0
 10
246.79202670
 20
299.21799892
  0
VERTEX
  8
0
 10
246.85213397
 20
298.25358972
  0
VERTEX
  8
0
 10
246.93818015
 20
297.33475046
  0
SEQEND
  0
POLYLINE
  8
Default_Layer
 66
   1
 39
0.000000
 70
    1
  0
VERTEX
  8
0
 10
202.51724983
 20
298.41818779
  0
VERTEX
  8
0
 10
202.46741643
 20
298.05139817
  0
VERTEX
  8
0
 10
202.44758438
 20
297.68729496
  0
VERTEX
  8
0
 10
202.45373956
 20
297.32525929
  0
VERTEX
  8
0
 10
202.48186788
 20
296.96467226
  0
VERTEX
  8
0
 10
202.52795524
 20
296.60491498
  0
VERTEX
  8
0
 10
202.58798754
 20
296.24536855
  0
VERTEX
  8
0
 10
202.73383060
 20
295.52443272
  0
VERTEX
  8
0
 10
202.88728426
 20
294.79691365
  0
VERTEX
  8
0
 10
203.01623576
 20
294.05786021
  0
VERTEX
  8
0
 10
203.06148795
 20
293.68246088
  0
VERTEX
  8
0
 10
203.08857231
 20
293.30232128
  0
VERTEX
  8
0
 10
203.09347474
 20
292.91682254
  0
VERTEX
  8
0
 10
203.07218114
 20
292.52534575
  0
VERTEX
  8
0
 10
202.96806053
 20
291.77496157
  0
VERTEX
  8
0
 10
202.81079073
 20
291.02807205
  0
VERTEX
  8
0
 10
202.60709125
 20
290.28436921
  0
VERTEX
  8
0
 10
202.36368163
 20
289.54354505
  0
VERTEX
  8
0
 10
202.08728138
 20
288.80529161
  0
VERTEX
  8
0
 10
201.78461004
 20
288.06930088
  0
VERTEX
  8
0
 10
201.12733219
 20
286.60287567
  0
VERTEX
  8
0
 10
200.44560429
 20
285.14180554
  0
VERTEX
  8
0
 10
199.79318256
 20
283.68362663
  0
VERTEX
  8
0
 10
199.49476032
 20
282.95485142
  0
VERTEX
  8
0
 10
199.22382320
 20
282.22587507
  0
VERTEX
  8
0
 10
198.98709073
 20
281.49638958
  0
VERTEX
  8
0
 10
198.79128244
 20
280.76608698
  0
VERTEX
  8
0
 10
198.70155539
 20
280.34631581
  0
VERTEX
  8
0
 10
198.63302047
 20
279.91845484
  0
VERTEX
  8
0
 10
198.58270921
 20
279.48377343
  0
VERTEX
  8
0
 10
198.54765310
 20
279.04354092
  0
VERTEX
  8
0
 10
198.51143239
 20
278.15150000
  0
VERTEX
  8
0
 10
198.50061041
 20
277.25248685
  0
VERTEX
  8
0
 10
198.49143922
 20
276.35665626
  0
VERTEX
  8
0
 10
198.46017090
 20
275.47416301
  0
VERTEX
  8
0
 10
198.42882909
 20
275.04109125
  0
VERTEX
  8
0
 10
198.38305752
 20
274.61516187
  0
VERTEX
  8
0
 10
198.31988769
 20
274.19764421
  0
VERTEX
  8
0
 10
198.23635113
 20
273.78980762
  0
VERTEX
  8
0
 10
198.06982147
 20
273.11222085
  0
VERTEX
  8
0
 10
197.88724745
 20
272.44097984
  0
VERTEX
  8
0
 10
197.47907689
 20
271.11609496
  0
VERTEX
  8
0
 10
197.02206058
 20
269.81227270
  0
VERTEX
  8
0
 10
196.52641964
 20
268.52663277
  0
VERTEX
  8
0
 10
196.00237519
 20
267.25629488
  0
VERTEX
  8
0
 10
195.46014837
 20
265.99837875
  0
VERTEX
  8
0
 10
194.36203210
 20
263.50829064
  0
VERTEX
  8
0
 10
193.82658490
 20
262.27035807
  0
VERTEX
  8
0
 10
193.31383983
 20
261.03332613
  0
VERTEX
  8
0
 10
192.83401801
 20
259.79431452
  0
VERTEX
  8
0
 10
192.39734057
 20
258.55044295
  0
VERTEX
  8
0
 10
192.19837509
 20
257.92578460
  0
VERTEX
  8
0
 10
192.01402862
 20
257.29883115
  0
VERTEX
  8
0
 10
191.84557882
 20
256.66922257
  0
VERTEX
  8
0
 10
191.69430331
 20
256.03659882
  0
VERTEX
  8
0
 10
191.56147974
 20
255.40059987
  0
VERTEX
  8
0
 10
191.44838575
 20
254.76086568
  0
VERTEX
  8
0
 10
191.35629898
 20
254.11703622
  0
VERTEX
  8
0
 10
191.28649707
 20
253.46875145
  0
VERTEX
  8
0
 10
193.13277581
 20
253.83755483
  0
VERTEX
  8
0
 10
195.02520896
 20
254.26070127
  0
VERTEX
  8
0
 10
196.95277917
 20
254.73799823
  0
VERTEX
  8
0
 10
198.90446910
 20
255.26925314
  0
VERTEX
  8
0
 10
200.86926142
 20
255.85427345
  0
VERTEX
  8
0
 10
202.83613879
 20
256.49286659
  0
VERTEX
  8
0
 10
204.79408387
 20
257.18484002
  0
VERTEX
  8
0
 10
206.73207933
 20
257.93000117
  0
VERTEX
  8
0
 10
207.69015303
 20
258.32246697
  0
VERTEX
  8
0
 10
208.63910782
 20
258.72815749
  0
VERTEX
  8
0
 10
209.57756653
 20
259.14704866
  0
VERTEX
  8
0
 10
210.50415201
 20
259.57911642
  0
VERTEX
  8
0
 10
211.41748707
 20
260.02433669
  0
VERTEX
  8
0
 10
212.31619456
 20
260.48268540
  0
VERTEX
  8
0
 10
213.19889730
 20
260.95413848
  0
VERTEX
  8
0
 10
214.06421814
 20
261.43867187
  0
VERTEX
  8
0
 10
214.91077989
 20
261.93626149
  0
VERTEX
  8
0
 10
215.73720540
 20
262.44688327
  0
VERTEX
  8
0
 10
216.54211749
 20
262.97051316
  0
VERTEX
  8
0
 10
217.32413901
 20
263.50712706
  0
VERTEX
  8
0
 10
218.08189278
 20
264.05670092
  0
VERTEX
  8
0
 10
218.81400163
 20
264.61921067
  0
VERTEX
  8
0
 10
219.51908841
 20
265.19463223
  0
VERTEX
  8
0
 10
220.19577593
 20
265.78294153
  0
VERTEX
  8
0
 10
220.93110279
 20
266.47993073
  0
VERTEX
  8
0
 10
221.67934349
 20
267.26482522
  0
VERTEX
  8
0
 10
222.43007567
 20
268.13228330
  0
VERTEX
  8
0
 10
223.17287693
 20
269.07696327
  0
VERTEX
  8
0
 10
223.53804648
 20
269.57659219
  0
VERTEX
  8
0
 10
223.89732491
 20
270.09352345
  0
VERTEX
  8
0
 10
224.24940943
 20
270.62708933
  0
VERTEX
  8
0
 10
224.59299723
 20
271.17662213
  0
VERTEX
  8
0
 10
224.92678552
 20
271.74145414
  0
VERTEX
  8
0
 10
225.24947151
 20
272.32091763
  0
VERTEX
  8
0
 10
225.55975239
 20
272.91434491
  0
VERTEX
  8
0
 10
225.85632537
 20
273.52106826
  0
VERTEX
  8
0
 10
226.13788765
 20
274.14041996
  0
VERTEX
  8
0
 10
226.40313644
 20
274.77173231
  0
VERTEX
  8
0
 10
226.65076894
 20
275.41433759
  0
VERTEX
  8
0
 10
226.87948234
 20
276.06756809
  0
VERTEX
  8
0
 10
227.08797386
 20
276.73075611
  0
VERTEX
  8
0
 10
227.27494069
 20
277.40323392
  0
VERTEX
  8
0
 10
227.43908004
 20
278.08433382
  0
VERTEX
  8
0
 10
227.57908911
 20
278.77338809
  0
VERTEX
  8
0
 10
227.69366511
 20
279.46972903
  0
VERTEX
  8
0
 10
227.78150523
 20
280.17268892
  0
VERTEX
  8
0
 10
227.84130669
 20
280.88160004
  0
VERTEX
  8
0
 10
227.87176667
 20
281.59579470
  0
VERTEX
  8
0
 10
227.87158240
 20
282.31460517
  0
VERTEX
  8
0
 10
227.83945106
 20
283.03736375
  0
VERTEX
  8
0
 10
227.77406986
 20
283.76340272
  0
VERTEX
  8
0
 10
227.67413601
 20
284.49205437
  0
VERTEX
  8
0
 10
227.58328110
 20
285.00635167
  0
VERTEX
  8
0
 10
227.47766963
 20
285.51388119
  0
VERTEX
  8
0
 10
227.35768013
 20
286.01475883
  0
VERTEX
  8
0
 10
227.22369113
 20
286.50910048
  0
VERTEX
  8
0
 10
226.91522880
 20
287.47863940
  0
VERTEX
  8
0
 10
226.55531095
 20
288.42342512
  0
VERTEX
  8
0
 10
226.14696588
 20
289.34438481
  0
VERTEX
  8
0
 10
225.69322190
 20
290.24244563
  0
VERTEX
  8
0
 10
225.19710731
 20
291.11853476
  0
VERTEX
  8
0
 10
224.66165041
 20
291.97357936
  0
VERTEX
  8
0
 10
224.08987952
 20
292.80850661
  0
VERTEX
  8
0
 10
223.48482293
 20
293.62424366
  0
VERTEX
  8
0
 10
222.84950896
 20
294.42171769
  0
VERTEX
  8
0
 10
222.18696589
 20
295.20185586
  0
VERTEX
  8
0
 10
221.50022205
 20
295.96558534
  0
VERTEX
  8
0
 10
220.79230573
 20
296.71383331
  0
VERTEX
  8
0
 10
220.06624524
 20
297.44752693
  0
VERTEX
  8
0
 10
219.32506888
 20
298.16759336
  0
VERTEX
  8
0
 10
218.57180496
 20
298.87495978
  0
VERTEX
  8
0
 10
217.80948179
 20
299.57055335
  0
VERTEX
  8
0
 10
216.26977088
 20
300.93013062
  0
VERTEX
  8
0
 10
213.21488337
 20
303.54880639
  0
VERTEX
  8
0
 10
211.74815965
 20
304.82273959
  0
VERTEX
  8
0
 10
210.35421787
 20
306.08295944
  0
VERTEX
  8
0
 10
209.69211096
 20
306.71024479
  0
VERTEX
  8
0
 10
209.05728445
 20
307.33688331
  0
VERTEX
  8
0
 10
208.45276665
 20
307.96380216
  0
VERTEX
  8
0
 10
207.88158585
 20
308.59192852
  0
VERTEX
  8
0
 10
207.07313681
 20
308.58201903
  0
VERTEX
  8
0
 10
206.26964251
 20
308.59192852
  0
VERTEX
  8
0
 10
206.32036991
 20
308.16188119
  0
VERTEX
  8
0
 10
206.34636263
 20
307.74666553
  0
VERTEX
  8
0
 10
206.34901032
 20
307.34552171
  0
VERTEX
  8
0
 10
206.32970266
 20
306.95768991
  0
VERTEX
  8
0
 10
206.28982930
 20
306.58241030
  0
VERTEX
  8
0
 10
206.23077991
 20
306.21892307
  0
VERTEX
  8
0
 10
206.15394415
 20
305.86646837
  0
VERTEX
  8
0
 10
206.06071170
 20
305.52428639
  0
VERTEX
  8
0
 10
205.95247221
 20
305.19161730
  0
VERTEX
  8
0
 10
205.83061534
 20
304.86770128
  0
VERTEX
  8
0
 10
205.55160815
 20
304.24308914
  0
VERTEX
  8
0
 10
205.23480745
 20
303.64437135
  0
VERTEX
  8
0
 10
204.89133054
 20
303.06546931
  0
VERTEX
  8
0
 10
204.16881738
 20
301.94279810
  0
VERTEX
  8
0
 10
203.81201576
 20
301.38687171
  0
VERTEX
  8
0
 10
203.47300720
 20
300.82644666
  0
VERTEX
  8
0
 10
203.16290901
 20
300.25544434
  0
VERTEX
  8
0
 10
202.89283851
 20
299.66778616
  0
VERTEX
  8
0
 10
202.77628780
 20
299.36581156
  0
VERTEX
  8
0
 10
202.67391301
 20
299.05739351
  0
VERTEX
  8
0
 10
202.58710379
 20
298.74177220
  0
VERTEX
  8
0
 10
202.51724983
 20
298.41818779
  0
SEQEND
  0
POLYLINE
  8
Default_Layer
 66
   1
 39
0.000000
 70
    1
  0
VERTEX
  8
0
 10
147.94900407
 20
462.14935036
  0
VERTEX
  8
0
 10
146.81017518
 20
459.46502522
  0
VERTEX
  8
0
 10
146.21070093
 20
458.08591258
  0
VERTEX
  8
0
 10
145.58025135
 20
456.72153944
  0
VERTEX
  8
0
 10
145.25084782
 20
456.05410820
  0
VERTEX
  8
0
 10
144.91062486
 20
455.40143545
  0
VERTEX
  8
0
 10
144.55855728
 20
454.76721241
  0
VERTEX
  8
0
 10
144.19361987
 20
454.15513027
  0
VERTEX
  8
0
 10
143.81478744
 20
453.56888024
  0
VERTEX
  8
0
 10
143.42103480
 20
453.01215354
  0
VERTEX
  8
0
 10
143.01133673
 20
452.48864137
  0
VERTEX
  8
0
 10
142.58466804
 20
452.00203493
  0
VERTEX
  8
0
 10
142.24365485
 20
451.66482861
  0
VERTEX
  8
0
 10
141.86503096
 20
451.35161133
  0
VERTEX
  8
0
 10
141.45324483
 20
451.05824164
  0
VERTEX
  8
0
 10
141.01274492
 20
450.78057809
  0
VERTEX
  8
0
 10
140.54797967
 20
450.51447922
  0
VERTEX
  8
0
 10
140.06339755
 20
450.25580358
  0
VERTEX
  8
0
 10
139.05257648
 20
449.74415617
  0
VERTEX
  8
0
 10
138.01586936
 20
449.21250422
  0
VERTEX
  8
0
 10
137.49892966
 20
448.92882292
  0
VERTEX
  8
0
 10
136.98886381
 20
448.62771612
  0
VERTEX
  8
0
 10
136.49012026
 20
448.30504237
  0
VERTEX
  8
0
 10
136.00714747
 20
447.95666023
  0
VERTEX
  8
0
 10
135.54439389
 20
447.57842822
  0
VERTEX
  8
0
 10
135.10630797
 20
447.16620492
  0
VERTEX
  8
0
 10
134.02310614
 20
447.05522157
  0
VERTEX
  8
0
 10
132.99706903
 20
447.00112230
  0
VERTEX
  8
0
 10
132.02490606
 20
447.00064557
  0
VERTEX
  8
0
 10
131.10332664
 20
447.05052981
  0
VERTEX
  8
0
 10
130.22904019
 20
447.14751348
  0
VERTEX
  8
0
 10
129.39875612
 20
447.28833502
  0
VERTEX
  8
0
 10
128.60918385
 20
447.46973287
  0
VERTEX
  8
0
 10
127.85703279
 20
447.68844549
  0
VERTEX
  8
0
 10
127.13901237
 20
447.94121132
  0
VERTEX
  8
0
 10
126.45183199
 20
448.22476881
  0
VERTEX
  8
0
 10
125.79220107
 20
448.53585640
  0
VERTEX
  8
0
 10
125.15682902
 20
448.87121255
  0
VERTEX
  8
0
 10
124.54242526
 20
449.22757569
  0
VERTEX
  8
0
 10
123.94569921
 20
449.60168428
  0
VERTEX
  8
0
 10
123.36336028
 20
449.99027677
  0
VERTEX
  8
0
 10
122.79211789
 20
450.39009159
  0
VERTEX
  8
0
 10
123.47946999
 20
451.07280197
  0
VERTEX
  8
0
 10
124.15072374
 20
451.77175586
  0
VERTEX
  8
0
 10
124.80785755
 20
452.48496518
  0
VERTEX
  8
0
 10
125.45284982
 20
453.21044183
  0
VERTEX
  8
0
 10
126.71432340
 20
454.69024481
  0
VERTEX
  8
0
 10
127.95097176
 20
456.19526009
  0
VERTEX
  8
0
 10
129.17862219
 20
457.70958299
  0
VERTEX
  8
0
 10
130.41310195
 20
459.21730879
  0
VERTEX
  8
0
 10
131.67023834
 20
460.70253282
  0
VERTEX
  8
0
 10
132.31224879
 20
461.43173644
  0
VERTEX
  8
0
 10
132.96585862
 20
462.14935036
  0
VERTEX
  8
0
 10
133.33131636
 20
461.87788648
  0
VERTEX
  8
0
 10
133.71564992
 20
461.62700950
  0
VERTEX
  8
0
 10
134.11763473
 20
461.39641212
  0
VERTEX
  8
0
 10
134.53604620
 20
461.18578703
  0
VERTEX
  8
0
 10
134.96965977
 20
460.99482691
  0
VERTEX
  8
0
 10
135.41725084
 20
460.82322445
  0
VERTEX
  8
0
 10
135.87759485
 20
460.67067235
  0
VERTEX
  8
0
 10
136.34946720
 20
460.53686328
  0
VERTEX
  8
0
 10
136.83164333
 20
460.42148995
  0
VERTEX
  8
0
 10
137.32289866
 20
460.32424504
  0
VERTEX
  8
0
 10
137.82200860
 20
460.24482123
  0
VERTEX
  8
0
 10
138.32774858
 20
460.18291123
  0
VERTEX
  8
0
 10
138.83889401
 20
460.13820771
  0
VERTEX
  8
0
 10
139.35422032
 20
460.11040337
  0
VERTEX
  8
0
 10
139.87250293
 20
460.09919090
  0
VERTEX
  8
0
 10
140.39251726
 20
460.10426298
  0
VERTEX
  8
0
 10
140.91303874
 20
460.12531231
  0
VERTEX
  8
0
 10
141.43284277
 20
460.16203158
  0
VERTEX
  8
0
 10
141.95070479
 20
460.21411346
  0
VERTEX
  8
0
 10
142.46540021
 20
460.28125066
  0
VERTEX
  8
0
 10
142.97570446
 20
460.36313586
  0
VERTEX
  8
0
 10
143.48039295
 20
460.45946176
  0
VERTEX
  8
0
 10
143.97824111
 20
460.56992103
  0
VERTEX
  8
0
 10
144.46802436
 20
460.69420638
  0
VERTEX
  8
0
 10
144.94851812
 20
460.83201048
  0
VERTEX
  8
0
 10
145.41849781
 20
460.98302603
  0
VERTEX
  8
0
 10
145.87673885
 20
461.14694572
  0
VERTEX
  8
0
 10
146.32201667
 20
461.32346224
  0
VERTEX
  8
0
 10
146.75310667
 20
461.51226827
  0
VERTEX
  8
0
 10
147.16878430
 20
461.71305651
  0
VERTEX
  8
0
 10
147.56782495
 20
461.92551964
  0
VERTEX
  8
0
 10
147.94900407
 20
462.14935036
  0
SEQEND
  0
POLYLINE
  8
Default_Layer
 66
   1
 39
0.000000
 70
    1
  0
VERTEX
  8
0
 10
334.69660347
 20
422.56425005
  0
VERTEX
  8
0
 10
334.28515320
 20
421.63728709
  0
VERTEX
  8
0
 10
333.85515692
 20
420.72891094
  0
VERTEX
  8
0
 10
333.40659522
 20
419.83914100
  0
VERTEX
  8
0
 10
332.93944871
 20
418.96799668
  0
VERTEX
  8
0
 10
332.45369795
 20
418.11549741
  0
VERTEX
  8
0
 10
331.94932355
 20
417.28166257
  0
VERTEX
  8
0
 10
331.42630608
 20
416.46651160
  0
VERTEX
  8
0
 10
330.88462615
 20
415.67006390
  0
VERTEX
  8
0
 10
330.32426434
 20
414.89233887
  0
VERTEX
  8
0
 10
329.74520123
 20
414.13335594
  0
VERTEX
  8
0
 10
329.14741742
 20
413.39313451
  0
VERTEX
  8
0
 10
328.53089350
 20
412.67169400
  0
VERTEX
  8
0
 10
327.89561005
 20
411.96905380
  0
VERTEX
  8
0
 10
327.24154766
 20
411.28523335
  0
VERTEX
  8
0
 10
326.56868693
 20
410.62025204
  0
VERTEX
  8
0
 10
325.87700844
 20
409.97412929
  0
VERTEX
  8
0
 10
325.16649278
 20
409.34688451
  0
VERTEX
  8
0
 10
324.43712054
 20
408.73853710
  0
VERTEX
  8
0
 10
323.68887230
 20
408.14910649
  0
VERTEX
  8
0
 10
322.92172866
 20
407.57861208
  0
VERTEX
  8
0
 10
322.13567021
 20
407.02707329
  0
VERTEX
  8
0
 10
321.33067754
 20
406.49450952
  0
VERTEX
  8
0
 10
320.50673122
 20
405.98094018
  0
VERTEX
  8
0
 10
319.66381186
 20
405.48638469
  0
VERTEX
  8
0
 10
318.80190005
 20
405.01086246
  0
VERTEX
  8
0
 10
317.92097636
 20
404.55439290
  0
VERTEX
  8
0
 10
317.02102139
 20
404.11699541
  0
VERTEX
  8
0
 10
316.10201573
 20
403.69868942
  0
VERTEX
  8
0
 10
315.16393997
 20
403.29949433
  0
VERTEX
  8
0
 10
314.20677469
 20
402.91942955
  0
VERTEX
  8
0
 10
313.23050049
 20
402.55851450
  0
VERTEX
  8
0
 10
312.23509795
 20
402.21676858
  0
VERTEX
  8
0
 10
312.86027345
 20
403.16238863
  0
VERTEX
  8
0
 10
313.51537174
 20
404.07824204
  0
VERTEX
  8
0
 10
314.18947285
 20
404.97525845
  0
VERTEX
  8
0
 10
314.87165681
 20
405.86436752
  0
VERTEX
  8
0
 10
315.55100365
 20
406.75649890
  0
VERTEX
  8
0
 10
316.21659340
 20
407.66258222
  0
VERTEX
  8
0
 10
316.85750610
 20
408.59354713
  0
VERTEX
  8
0
 10
317.46282178
 20
409.56032328
  0
VERTEX
  8
0
 10
317.74871824
 20
410.06055609
  0
VERTEX
  8
0
 10
318.02162046
 20
410.57384032
  0
VERTEX
  8
0
 10
318.28016344
 20
411.10154219
  0
VERTEX
  8
0
 10
318.52298218
 20
411.64502789
  0
VERTEX
  8
0
 10
318.74871169
 20
412.20566364
  0
VERTEX
  8
0
 10
318.95598697
 20
412.78481564
  0
VERTEX
  8
0
 10
319.14344303
 20
413.38385010
  0
VERTEX
  8
0
 10
319.30971486
 20
414.00413322
  0
VERTEX
  8
0
 10
319.45343748
 20
414.64703120
  0
VERTEX
  8
0
 10
319.57324588
 20
415.31391026
  0
VERTEX
  8
0
 10
319.66777507
 20
416.00613660
  0
VERTEX
  8
0
 10
319.73566006
 20
416.72507642
  0
VERTEX
  8
0
 10
319.77553584
 20
417.47209594
  0
VERTEX
  8
0
 10
319.78603743
 20
418.24856135
  0
VERTEX
  8
0
 10
319.76579982
 20
419.05583886
  0
VERTEX
  8
0
 10
319.71345803
 20
419.89529469
  0
VERTEX
  8
0
 10
321.43215357
 20
420.39671450
  0
VERTEX
  8
0
 10
323.25428298
 20
420.94357612
  0
VERTEX
  8
0
 10
325.15015757
 20
421.48918717
  0
VERTEX
  8
0
 10
326.11647158
 20
421.74693235
  0
VERTEX
  8
0
 10
327.09008862
 20
421.98685525
  0
VERTEX
  8
0
 10
328.06729760
 20
422.20311930
  0
VERTEX
  8
0
 10
329.04438744
 20
422.38988797
  0
VERTEX
  8
0
 10
330.01764704
 20
422.54132469
  0
VERTEX
  8
0
 10
330.98336532
 20
422.65159293
  0
VERTEX
  8
0
 10
331.93783119
 20
422.71485614
  0
VERTEX
  8
0
 10
332.87733356
 20
422.72527776
  0
VERTEX
  8
0
 10
333.34031373
 20
422.70884905
  0
VERTEX
  8
0
 10
333.79816135
 20
422.67702124
  0
VERTEX
  8
0
 10
334.25041256
 20
422.62906477
  0
VERTEX
  8
0
 10
334.69660347
 20
422.56425005
  0
SEQEND
  0
POLYLINE
  8
Default_Layer
 66
   1
 39
0.000000
 70
    1
  0
VERTEX
  8
0
 10
481.85910256
 20
385.64810510
  0
VERTEX
  8
0
 10
481.31495944
 20
385.52657063
  0
VERTEX
  8
0
 10
480.77596710
 20
385.43653478
  0
VERTEX
  8
0
 10
480.24177527
 20
385.37616987
  0
VERTEX
  8
0
 10
479.71203369
 20
385.34364824
  0
VERTEX
  8
0
 10
479.18639210
 20
385.33714220
  0
VERTEX
  8
0
 10
478.66450025
 20
385.35482409
  0
VERTEX
  8
0
 10
478.14600786
 20
385.39486623
  0
VERTEX
  8
0
 10
477.63056469
 20
385.45544096
  0
VERTEX
  8
0
 10
477.11782047
 20
385.53472059
  0
VERTEX
  8
0
 10
476.60742493
 20
385.63087746
  0
VERTEX
  8
0
 10
475.59227889
 20
385.86651222
  0
VERTEX
  8
0
 10
474.58232447
 20
386.14772386
  0
VERTEX
  8
0
 10
473.57475959
 20
386.45989099
  0
VERTEX
  8
0
 10
471.55559012
 20
387.11860624
  0
VERTEX
  8
0
 10
470.53838135
 20
387.43591159
  0
VERTEX
  8
0
 10
469.51235378
 20
387.72568692
  0
VERTEX
  8
0
 10
468.47470533
 20
387.97331085
  0
VERTEX
  8
0
 10
467.95064762
 20
388.07674686
  0
VERTEX
  8
0
 10
467.42263390
 20
388.16416201
  0
VERTEX
  8
0
 10
466.89031392
 20
388.23372861
  0
VERTEX
  8
0
 10
466.35333741
 20
388.28361900
  0
VERTEX
  8
0
 10
465.81135412
 20
388.31200551
  0
VERTEX
  8
0
 10
465.26401378
 20
388.31706046
  0
VERTEX
  8
0
 10
464.54989001
 20
388.29260515
  0
VERTEX
  8
0
 10
463.85602244
 20
388.24176627
  0
VERTEX
  8
0
 10
463.18154035
 20
388.16561381
  0
VERTEX
  8
0
 10
462.52557305
 20
388.06521770
  0
VERTEX
  8
0
 10
461.88724982
 20
387.94164793
  0
VERTEX
  8
0
 10
461.26569996
 20
387.79597445
  0
VERTEX
  8
0
 10
460.66005277
 20
387.62926723
  0
VERTEX
  8
0
 10
460.06943752
 20
387.44259623
  0
VERTEX
  8
0
 10
459.49298352
 20
387.23703141
  0
VERTEX
  8
0
 10
458.92982006
 20
387.01364274
  0
VERTEX
  8
0
 10
458.37907644
 20
386.77350018
  0
VERTEX
  8
0
 10
457.83988194
 20
386.51767369
  0
VERTEX
  8
0
 10
457.31136585
 20
386.24723324
  0
VERTEX
  8
0
 10
456.79265748
 20
385.96324879
  0
VERTEX
  8
0
 10
455.78118103
 20
385.35892775
  0
VERTEX
  8
0
 10
454.79848694
 20
384.71327027
  0
VERTEX
  8
0
 10
453.83760954
 20
384.03483606
  0
VERTEX
  8
0
 10
452.89158319
 20
383.33218482
  0
VERTEX
  8
0
 10
451.95344221
 20
382.61387627
  0
VERTEX
  8
0
 10
450.07295378
 20
381.16452606
  0
VERTEX
  8
0
 10
449.11667501
 20
380.45060380
  0
VERTEX
  8
0
 10
448.14041899
 20
379.75526306
  0
VERTEX
  8
0
 10
448.30510442
 20
380.15581995
  0
VERTEX
  8
0
 10
448.49128511
 20
380.56382924
  0
VERTEX
  8
0
 10
448.69845129
 20
380.97864865
  0
VERTEX
  8
0
 10
448.92609319
 20
381.39963589
  0
VERTEX
  8
0
 10
449.44076507
 20
382.25754479
  0
VERTEX
  8
0
 10
450.03122260
 20
383.13241768
  0
VERTEX
  8
0
 10
450.69338761
 20
384.01911632
  0
VERTEX
  8
0
 10
451.42318193
 20
384.91250246
  0
VERTEX
  8
0
 10
452.21652740
 20
385.80743787
  0
VERTEX
  8
0
 10
453.06934587
 20
386.69878430
  0
VERTEX
  8
0
 10
453.97755917
 20
387.58140350
  0
VERTEX
  8
0
 10
454.93708913
 20
388.45015724
  0
VERTEX
  8
0
 10
455.94385760
 20
389.29990727
  0
VERTEX
  8
0
 10
456.99378642
 20
390.12551534
  0
VERTEX
  8
0
 10
458.08279741
 20
390.92184321
  0
VERTEX
  8
0
 10
459.20681243
 20
391.68375264
  0
VERTEX
  8
0
 10
460.36175330
 20
392.40610539
  0
VERTEX
  8
0
 10
461.54354187
 20
393.08376320
  0
VERTEX
  8
0
 10
462.74809997
 20
393.71158785
  0
VERTEX
  8
0
 10
463.97134944
 20
394.28444108
  0
VERTEX
  8
0
 10
464.58870901
 20
394.54864771
  0
VERTEX
  8
0
 10
465.20921212
 20
394.79718465
  0
VERTEX
  8
0
 10
465.83234899
 20
395.02940961
  0
VERTEX
  8
0
 10
466.45760985
 20
395.24468031
  0
VERTEX
  8
0
 10
467.08448493
 20
395.44235448
  0
VERTEX
  8
0
 10
467.71246446
 20
395.62178983
  0
VERTEX
  8
0
 10
468.34103867
 20
395.78234408
  0
VERTEX
  8
0
 10
468.96969780
 20
395.92337496
  0
VERTEX
  8
0
 10
469.59793206
 20
396.04424018
  0
VERTEX
  8
0
 10
470.22523169
 20
396.14429745
  0
VERTEX
  8
0
 10
470.85108693
 20
396.22290451
  0
VERTEX
  8
0
 10
471.47498799
 20
396.27941907
  0
VERTEX
  8
0
 10
472.09642511
 20
396.31319885
  0
VERTEX
  8
0
 10
472.71488852
 20
396.32360157
  0
VERTEX
  8
0
 10
473.32986845
 20
396.30998494
  0
VERTEX
  8
0
 10
473.94085512
 20
396.27170670
  0
VERTEX
  8
0
 10
474.54733878
 20
396.20812455
  0
VERTEX
  8
0
 10
475.14880964
 20
396.11859622
  0
VERTEX
  8
0
 10
475.74475794
 20
396.00247943
  0
VERTEX
  8
0
 10
476.33467391
 20
395.85913189
  0
VERTEX
  8
0
 10
476.91804777
 20
395.68791133
  0
VERTEX
  8
0
 10
477.49436976
 20
395.48817546
  0
VERTEX
  8
0
 10
478.06313011
 20
395.25928202
  0
VERTEX
  8
0
 10
478.62381905
 20
395.00058870
  0
VERTEX
  8
0
 10
479.17592680
 20
394.71145324
  0
VERTEX
  8
0
 10
479.71894359
 20
394.39123335
  0
VERTEX
  8
0
 10
480.25235966
 20
394.03928676
  0
VERTEX
  8
0
 10
480.77566524
 20
393.65497118
  0
VERTEX
  8
0
 10
481.05948767
 20
393.40965456
  0
VERTEX
  8
0
 10
481.34795656
 20
393.10424643
  0
VERTEX
  8
0
 10
481.63390174
 20
392.74433460
  0
VERTEX
  8
0
 10
481.91015302
 20
392.33550691
  0
VERTEX
  8
0
 10
482.16954025
 20
391.88335118
  0
VERTEX
  8
0
 10
482.40489325
 20
391.39345522
  0
VERTEX
  8
0
 10
482.60904185
 20
390.87140687
  0
VERTEX
  8
0
 10
482.77481586
 20
390.32279396
  0
VERTEX
  8
0
 10
482.89504513
 20
389.75320429
  0
VERTEX
  8
0
 10
482.96255948
 20
389.16822571
  0
VERTEX
  8
0
 10
482.97430788
 20
388.87171177
  0
VERTEX
  8
0
 10
482.97018873
 20
388.57344604
  0
VERTEX
  8
0
 10
482.94930577
 20
388.27412698
  0
VERTEX
  8
0
 10
482.91076272
 20
387.97445309
  0
VERTEX
  8
0
 10
482.85366331
 20
387.67512284
  0
VERTEX
  8
0
 10
482.77711127
 20
387.37683470
  0
VERTEX
  8
0
 10
482.68021033
 20
387.08028716
  0
VERTEX
  8
0
 10
482.56206421
 20
386.78617869
  0
VERTEX
  8
0
 10
482.42177665
 20
386.49520777
  0
VERTEX
  8
0
 10
482.25845136
 20
386.20807288
  0
VERTEX
  8
0
 10
482.07119209
 20
385.92547249
  0
VERTEX
  8
0
 10
481.85910256
 20
385.64810510
  0
SEQEND
  0
POLYLINE
  8
Default_Layer
 66
   1
 39
0.000000
 70
    1
  0
VERTEX
  8
0
 10
195.03888975
 20
371.72197168
  0
VERTEX
  8
0
 10
195.07109044
 20
371.19985400
  0
VERTEX
  8
0
 10
195.08682979
 20
370.67238149
  0
VERTEX
  8
0
 10
195.07252561
 20
369.60145233
  0
VERTEX
  8
0
 10
195.00317955
 20
368.50934507
  0
VERTEX
  8
0
 10
194.88599395
 20
367.39622053
  0
VERTEX
  8
0
 10
194.72817116
 20
366.26223957
  0
VERTEX
  8
0
 10
194.53691350
 20
365.10756304
  0
VERTEX
  8
0
 10
194.31942333
 20
363.93235178
  0
VERTEX
  8
0
 10
194.08290297
 20
362.73676664
  0
VERTEX
  8
0
 10
193.58158108
 20
360.28511811
  0
VERTEX
  8
0
 10
193.33118422
 20
359.02937642
  0
VERTEX
  8
0
 10
193.09056654
 20
357.75390423
  0
VERTEX
  8
0
 10
192.86693038
 20
356.45886241
  0
VERTEX
  8
0
 10
192.66747807
 20
355.14441178
  0
VERTEX
  8
0
 10
192.49941196
 20
353.81071321
  0
VERTEX
  8
0
 10
192.36993439
 20
352.45792753
  0
VERTEX
  8
0
 10
192.25987948
 20
350.80611993
  0
VERTEX
  8
0
 10
192.19636261
 20
349.14272051
  0
VERTEX
  8
0
 10
192.17255577
 20
347.47059722
  0
VERTEX
  8
0
 10
192.18163096
 20
345.79261797
  0
VERTEX
  8
0
 10
192.21676016
 20
344.11165071
  0
VERTEX
  8
0
 10
192.27111535
 20
342.43056335
  0
VERTEX
  8
0
 10
192.41019169
 20
339.07950009
  0
VERTEX
  8
0
 10
192.54423585
 20
335.76237161
  0
VERTEX
  8
0
 10
192.59230085
 20
334.12370275
  0
VERTEX
  8
0
 10
192.61862376
 20
332.50212137
  0
VERTEX
  8
0
 10
192.61637659
 20
330.90049541
  0
VERTEX
  8
0
 10
192.57873131
 20
329.32169280
  0
VERTEX
  8
0
 10
192.49885991
 20
327.76858146
  0
VERTEX
  8
0
 10
192.36993439
 20
326.24402933
  0
VERTEX
  8
0
 10
192.24058033
 20
326.08716974
  0
VERTEX
  8
0
 10
192.10791005
 20
325.96075429
  0
VERTEX
  8
0
 10
191.97211475
 20
325.86339521
  0
VERTEX
  8
0
 10
191.83338563
 20
325.79370474
  0
VERTEX
  8
0
 10
191.69191388
 20
325.75029511
  0
VERTEX
  8
0
 10
191.54789071
 20
325.73177854
  0
VERTEX
  8
0
 10
191.40150732
 20
325.73676729
  0
VERTEX
  8
0
 10
191.25295490
 20
325.76387356
  0
VERTEX
  8
0
 10
191.10242464
 20
325.81170961
  0
VERTEX
  8
0
 10
190.95010776
 20
325.87888766
  0
VERTEX
  8
0
 10
190.64087890
 20
326.06571870
  0
VERTEX
  8
0
 10
190.32679789
 20
326.31326455
  0
VERTEX
  8
0
 10
190.00939433
 20
326.61042306
  0
VERTEX
  8
0
 10
189.69019780
 20
326.94609210
  0
VERTEX
  8
0
 10
189.37073789
 20
327.30916953
  0
VERTEX
  8
0
 10
188.73714629
 20
328.07314103
  0
VERTEX
  8
0
 10
188.12085622
 20
328.81352045
  0
VERTEX
  8
0
 10
187.82302323
 20
329.14710779
  0
VERTEX
  8
0
 10
187.53410438
 20
329.44149070
  0
VERTEX
  8
0
 10
185.35641279
 20
331.52084273
  0
VERTEX
  8
0
 10
184.21122774
 20
332.62261113
  0
VERTEX
  8
0
 10
183.04826335
 20
333.76911755
  0
VERTEX
  8
0
 10
181.88235477
 20
334.96286929
  0
VERTEX
  8
0
 10
180.72833711
 20
336.20637367
  0
VERTEX
  8
0
 10
180.16042336
 20
336.84756664
  0
VERTEX
  8
0
 10
179.60104551
 20
337.50213800
  0
VERTEX
  8
0
 10
179.05205796
 20
338.17040119
  0
VERTEX
  8
0
 10
178.51531510
 20
338.85266960
  0
VERTEX
  8
0
 10
177.99267132
 20
339.54925666
  0
VERTEX
  8
0
 10
177.48598101
 20
340.26047578
  0
VERTEX
  8
0
 10
176.99709856
 20
340.98664037
  0
VERTEX
  8
0
 10
176.52787837
 20
341.72806384
  0
VERTEX
  8
0
 10
176.08017482
 20
342.48505962
  0
VERTEX
  8
0
 10
175.65584231
 20
343.25794112
  0
VERTEX
  8
0
 10
175.25673522
 20
344.04702174
  0
VERTEX
  8
0
 10
174.88470795
 20
344.85261491
  0
VERTEX
  8
0
 10
174.54161490
 20
345.67503403
  0
VERTEX
  8
0
 10
174.22931044
 20
346.51459253
  0
VERTEX
  8
0
 10
173.94964898
 20
347.37160381
  0
VERTEX
  8
0
 10
173.70448490
 20
348.24638130
  0
VERTEX
  8
0
 10
173.49567260
 20
349.13923840
  0
VERTEX
  8
0
 10
173.32506646
 20
350.05048852
  0
VERTEX
  8
0
 10
173.19452088
 20
350.98044509
  0
VERTEX
  8
0
 10
173.10589025
 20
351.92942152
  0
VERTEX
  8
0
 10
173.04223732
 20
353.13914712
  0
VERTEX
  8
0
 10
173.02906242
 20
354.30865257
  0
VERTEX
  8
0
 10
173.06615038
 20
355.43814565
  0
VERTEX
  8
0
 10
173.15328605
 20
356.52783412
  0
VERTEX
  8
0
 10
173.29025426
 20
357.57792575
  0
VERTEX
  8
0
 10
173.47683985
 20
358.58862830
  0
VERTEX
  8
0
 10
173.71282764
 20
359.56014955
  0
VERTEX
  8
0
 10
173.99800249
 20
360.49269725
  0
VERTEX
  8
0
 10
174.33214923
 20
361.38647917
  0
VERTEX
  8
0
 10
174.51751981
 20
361.81889790
  0
VERTEX
  8
0
 10
174.71505269
 20
362.24170309
  0
VERTEX
  8
0
 10
174.92472095
 20
362.65492072
  0
VERTEX
  8
0
 10
175.14649771
 20
363.05857676
  0
VERTEX
  8
0
 10
175.38035606
 20
363.45269718
  0
VERTEX
  8
0
 10
175.62626912
 20
363.83730795
  0
VERTEX
  8
0
 10
175.88420999
 20
364.21243504
  0
VERTEX
  8
0
 10
176.15415178
 20
364.57810443
  0
VERTEX
  8
0
 10
176.43606758
 20
364.93434208
  0
VERTEX
  8
0
 10
176.72993050
 20
365.28117397
  0
VERTEX
  8
0
 10
177.03571365
 20
365.61862606
  0
VERTEX
  8
0
 10
177.35339013
 20
365.94672432
  0
VERTEX
  8
0
 10
178.02431551
 20
366.57496327
  0
VERTEX
  8
0
 10
178.74249147
 20
367.16609857
  0
VERTEX
  8
0
 10
179.50770285
 20
367.72033799
  0
VERTEX
  8
0
 10
180.31973448
 20
368.23788930
  0
VERTEX
  8
0
 10
181.17837120
 20
368.71896026
  0
VERTEX
  8
0
 10
182.08339786
 20
369.16375864
  0
VERTEX
  8
0
 10
183.03459928
 20
369.57249220
  0
VERTEX
  8
0
 10
184.03176031
 20
369.94536872
  0
VERTEX
  8
0
 10
185.07466577
 20
370.28259596
  0
VERTEX
  8
0
 10
186.16310051
 20
370.58438168
  0
VERTEX
  8
0
 10
187.29684937
 20
370.85093365
  0
VERTEX
  8
0
 10
188.47569717
 20
371.08245964
  0
VERTEX
  8
0
 10
189.69942877
 20
371.27916741
  0
VERTEX
  8
0
 10
190.96782899
 20
371.44126474
  0
VERTEX
  8
0
 10
192.28068266
 20
371.56895938
  0
VERTEX
  8
0
 10
193.63777464
 20
371.66245910
  0
VERTEX
  8
0
 10
195.03888975
 20
371.72197168
  0
SEQEND
  0
POLYLINE
  8
Default_Layer
 66
   1
 39
0.000000
 70
    1
  0
VERTEX
  8
0
 10
343.25840087
 20
328.38447868
  0
VERTEX
  8
0
 10
343.58849328
 20
327.27529380
  0
VERTEX
  8
0
 10
343.94723766
 20
326.19490605
  0
VERTEX
  8
0
 10
344.33147354
 20
325.14014528
  0
VERTEX
  8
0
 10
344.73804045
 20
324.10784135
  0
VERTEX
  8
0
 10
345.16377793
 20
323.09482411
  0
VERTEX
  8
0
 10
345.60552551
 20
322.09792343
  0
VERTEX
  8
0
 10
346.52440914
 20
320.13979116
  0
VERTEX
  8
0
 10
348.41523722
 20
316.27743904
  0
VERTEX
  8
0
 10
349.33661423
 20
314.32249692
  0
VERTEX
  8
0
 10
349.78023185
 20
313.32798885
  0
VERTEX
  8
0
 10
350.20825493
 20
312.31789591
  0
VERTEX
  8
0
 10
347.45526239
 20
313.57824590
  0
VERTEX
  8
0
 10
344.71252314
 20
314.84884918
  0
VERTEX
  8
0
 10
341.95765927
 20
316.10732783
  0
VERTEX
  8
0
 10
340.56868749
 20
316.72502732
  0
VERTEX
  8
0
 10
339.16829284
 20
317.33130394
  0
VERTEX
  8
0
 10
337.75367808
 20
317.92336044
  0
VERTEX
  8
0
 10
336.32204596
 20
318.49839958
  0
VERTEX
  8
0
 10
334.87059924
 20
319.05362414
  0
VERTEX
  8
0
 10
333.39654070
 20
319.58623686
  0
VERTEX
  8
0
 10
331.89707308
 20
320.09344050
  0
VERTEX
  8
0
 10
330.36939915
 20
320.57243784
  0
VERTEX
  8
0
 10
328.81072167
 20
321.02043162
  0
VERTEX
  8
0
 10
327.21824340
 20
321.43462462
  0
VERTEX
  8
0
 10
327.24657751
 20
321.64402437
  0
VERTEX
  8
0
 10
327.28828200
 20
321.83639133
  0
VERTEX
  8
0
 10
327.34270011
 20
322.01250934
  0
VERTEX
  8
0
 10
327.40917509
 20
322.17316226
  0
VERTEX
  8
0
 10
327.48705018
 20
322.31913396
  0
VERTEX
  8
0
 10
327.57566863
 20
322.45120827
  0
VERTEX
  8
0
 10
327.67437368
 20
322.57016907
  0
VERTEX
  8
0
 10
327.78250858
 20
322.67680021
  0
VERTEX
  8
0
 10
328.02444093
 20
322.85620891
  0
VERTEX
  8
0
 10
328.29621164
 20
322.99570524
  0
VERTEX
  8
0
 10
328.59256668
 20
323.10156003
  0
VERTEX
  8
0
 10
328.90825203
 20
323.18004413
  0
VERTEX
  8
0
 10
329.23801365
 20
323.23742839
  0
VERTEX
  8
0
 10
329.57659751
 20
323.27998367
  0
VERTEX
  8
0
 10
330.25921584
 20
323.34569063
  0
VERTEX
  8
0
 10
330.91407478
 20
323.42733180
  0
VERTEX
  8
0
 10
331.21795941
 20
323.48980484
  0
VERTEX
  8
0
 10
331.49914210
 20
323.57507397
  0
VERTEX
  8
0
 10
332.89846255
 20
324.08219899
  0
VERTEX
  8
0
 10
334.28940573
 20
324.60050276
  0
VERTEX
  8
0
 10
335.65745943
 20
325.13783169
  0
VERTEX
  8
0
 10
336.98811140
 20
325.70203221
  0
VERTEX
  8
0
 10
337.63487667
 20
325.99666132
  0
VERTEX
  8
0
 10
338.26684943
 20
326.30095074
  0
VERTEX
  8
0
 10
338.88221564
 20
326.61588127
  0
VERTEX
  8
0
 10
339.47916127
 20
326.94243371
  0
VERTEX
  8
0
 10
340.05587231
 20
327.28158887
  0
VERTEX
  8
0
 10
340.61053472
 20
327.63432755
  0
VERTEX
  8
0
 10
341.14133447
 20
328.00163055
  0
VERTEX
  8
0
 10
341.64645753
 20
328.38447868
  0
VERTEX
  8
0
 10
343.25840087
 20
328.38447868
  0
SEQEND
  0
POLYLINE
  8
Default_Layer
 66
   1
 39
0.000000
 70
    1
  0
VERTEX
  8
0
 10
248.55012349
 20
313.92983924
  0
VERTEX
  8
0
 10
248.79343577
 20
313.79262950
  0
VERTEX
  8
0
 10
249.02779427
 20
313.63970180
  0
VERTEX
  8
0
 10
249.25371267
 20
313.47168045
  0
VERTEX
  8
0
 10
249.47170469
 20
313.28918974
  0
VERTEX
  8
0
 10
249.88596432
 20
312.88329744
  0
VERTEX
  8
0
 10
250.27468270
 20
312.42701927
  0
VERTEX
  8
0
 10
250.64196940
 20
311.92534961
  0
VERTEX
  8
0
 10
250.99193398
 20
311.38328283
  0
VERTEX
  8
0
 10
251.32868599
 20
310.80581331
  0
VERTEX
  8
0
 10
251.65633499
 20
310.19793541
  0
VERTEX
  8
0
 10
252.30076219
 20
308.91093201
  0
VERTEX
  8
0
 10
252.95809204
 20
307.56222762
  0
VERTEX
  8
0
 10
253.30186935
 20
306.87722349
  0
VERTEX
  8
0
 10
253.66120100
 20
306.19177723
  0
VERTEX
  8
0
 10
254.04019654
 20
305.51088322
  0
VERTEX
  8
0
 10
254.44296552
 20
304.83953583
  0
VERTEX
  8
0
 10
255.04119210
 20
303.91218525
  0
VERTEX
  8
0
 10
255.65059984
 20
303.04065363
  0
VERTEX
  8
0
 10
256.26793328
 20
302.21654210
  0
VERTEX
  8
0
 10
256.88993696
 20
301.43145181
  0
VERTEX
  8
0
 10
257.51335541
 20
300.67698389
  0
VERTEX
  8
0
 10
258.13493315
 20
299.94473949
  0
VERTEX
  8
0
 10
259.35954465
 20
298.51332581
  0
VERTEX
  8
0
 10
259.95606747
 20
297.79735880
  0
VERTEX
  8
0
 10
260.53772772
 20
297.07001986
  0
VERTEX
  8
0
 10
261.10126992
 20
296.32291015
  0
VERTEX
  8
0
 10
261.64343862
 20
295.54763079
  0
VERTEX
  8
0
 10
262.16097834
 20
294.73578293
  0
VERTEX
  8
0
 10
262.65063361
 20
293.87896771
  0
VERTEX
  8
0
 10
263.10914896
 20
292.96878627
  0
VERTEX
  8
0
 10
263.32571184
 20
292.49105857
  0
VERTEX
  8
0
 10
263.53326893
 20
291.99683974
  0
VERTEX
  8
0
 10
263.58138598
 20
291.71228689
  0
VERTEX
  8
0
 10
263.58317028
 20
291.47436679
  0
VERTEX
  8
0
 10
263.54524079
 20
291.27645079
  0
VERTEX
  8
0
 10
263.47421648
 20
291.11191026
  0
VERTEX
  8
0
 10
263.37671630
 20
290.97411655
  0
VERTEX
  8
0
 10
263.25935923
 20
290.85644103
  0
VERTEX
  8
0
 10
262.99155027
 20
290.65492994
  0
VERTEX
  8
0
 10
262.72374131
 20
290.45434787
  0
VERTEX
  8
0
 10
262.60638424
 20
290.33783361
  0
VERTEX
  8
0
 10
262.50888406
 20
290.20166568
  0
VERTEX
  8
0
 10
262.43785975
 20
290.03921543
  0
VERTEX
  8
0
 10
262.39993025
 20
289.84385423
  0
VERTEX
  8
0
 10
262.40171455
 20
289.60895342
  0
VERTEX
  8
0
 10
262.44983161
 20
289.32788438
  0
VERTEX
  8
0
 10
262.98555195
 20
288.67561342
  0
VERTEX
  8
0
 10
263.49198202
 20
288.00697756
  0
VERTEX
  8
0
 10
263.97254967
 20
287.32401777
  0
VERTEX
  8
0
 10
264.43068271
 20
286.62877502
  0
VERTEX
  8
0
 10
264.86980899
 20
285.92329029
  0
VERTEX
  8
0
 10
265.29335632
 20
285.20960455
  0
VERTEX
  8
0
 10
266.10742551
 20
283.76579396
  0
VERTEX
  8
0
 10
266.90031292
 20
282.31367103
  0
VERTEX
  8
0
 10
267.69944120
 20
280.86956358
  0
VERTEX
  8
0
 10
268.10991524
 20
280.15561810
  0
VERTEX
  8
0
 10
268.53223300
 20
279.44979941
  0
VERTEX
  8
0
 10
268.96982230
 20
278.75414849
  0
VERTEX
  8
0
 10
269.42611097
 20
278.07070632
  0
VERTEX
  8
0
 10
269.89215900
 20
277.42784891
  0
VERTEX
  8
0
 10
270.39214254
 20
276.80050982
  0
VERTEX
  8
0
 10
270.91882825
 20
276.18461989
  0
VERTEX
  8
0
 10
271.46498278
 20
275.57610996
  0
VERTEX
  8
0
 10
272.58676499
 20
274.36495351
  0
VERTEX
  8
0
 10
273.14792599
 20
273.75416868
  0
VERTEX
  8
0
 10
273.69962247
 20
273.13448725
  0
VERTEX
  8
0
 10
274.23462109
 20
272.50184006
  0
VERTEX
  8
0
 10
274.74568852
 20
271.85215795
  0
VERTEX
  8
0
 10
275.22559141
 20
271.18137178
  0
VERTEX
  8
0
 10
275.66709643
 20
270.48541238
  0
VERTEX
  8
0
 10
276.06297024
 20
269.76021062
  0
VERTEX
  8
0
 10
276.24153502
 20
269.38537224
  0
VERTEX
  8
0
 10
276.40597950
 20
269.00169733
  0
VERTEX
  8
0
 10
276.55539951
 20
268.60867726
  0
VERTEX
  8
0
 10
276.68889088
 20
268.20580337
  0
VERTEX
  8
0
 10
276.80554945
 20
267.79256702
  0
VERTEX
  8
0
 10
276.90447104
 20
267.36845957
  0
VERTEX
  8
0
 10
276.13759627
 20
267.43860324
  0
VERTEX
  8
0
 10
275.37778551
 20
267.52434070
  0
VERTEX
  8
0
 10
274.62515570
 20
267.62552890
  0
VERTEX
  8
0
 10
273.87982380
 20
267.74202480
  0
VERTEX
  8
0
 10
273.14190676
 20
267.87368534
  0
VERTEX
  8
0
 10
272.41152154
 20
268.02036747
  0
VERTEX
  8
0
 10
271.68878507
 20
268.18192815
  0
VERTEX
  8
0
 10
270.97381432
 20
268.35822433
  0
VERTEX
  8
0
 10
270.26672623
 20
268.54911296
  0
VERTEX
  8
0
 10
269.56763775
 20
268.75445099
  0
VERTEX
  8
0
 10
268.87666585
 20
268.97409536
  0
VERTEX
  8
0
 10
268.19392746
 20
269.20790305
  0
VERTEX
  8
0
 10
267.51953955
 20
269.45573098
  0
VERTEX
  8
0
 10
266.85361905
 20
269.71743612
  0
VERTEX
  8
0
 10
266.19628293
 20
269.99287542
  0
VERTEX
  8
0
 10
265.54764813
 20
270.28190582
  0
VERTEX
  8
0
 10
264.90783160
 20
270.58438428
  0
VERTEX
  8
0
 10
264.27695030
 20
270.90016775
  0
VERTEX
  8
0
 10
263.65512118
 20
271.22911318
  0
VERTEX
  8
0
 10
263.04246119
 20
271.57107753
  0
VERTEX
  8
0
 10
262.43908728
 20
271.92591773
  0
VERTEX
  8
0
 10
261.84511640
 20
272.29349075
  0
VERTEX
  8
0
 10
261.26066550
 20
272.67365354
  0
VERTEX
  8
0
 10
260.68585154
 20
273.06626304
  0
VERTEX
  8
0
 10
260.12079146
 20
273.47117621
  0
VERTEX
  8
0
 10
259.56560222
 20
273.88825000
  0
VERTEX
  8
0
 10
259.02040077
 20
274.31734136
  0
VERTEX
  8
0
 10
258.48530406
 20
274.75830725
  0
VERTEX
  8
0
 10
257.96042904
 20
275.21100460
  0
VERTEX
  8
0
 10
257.44589266
 20
275.67529038
  0
VERTEX
  8
0
 10
256.94181187
 20
276.15102153
  0
VERTEX
  8
0
 10
256.44830363
 20
276.63805501
  0
VERTEX
  8
0
 10
255.96548489
 20
277.13624777
  0
VERTEX
  8
0
 10
255.49347259
 20
277.64545675
  0
VERTEX
  8
0
 10
255.03238369
 20
278.16553892
  0
VERTEX
  8
0
 10
254.58233514
 20
278.69635121
  0
VERTEX
  8
0
 10
254.14344389
 20
279.23775059
  0
VERTEX
  8
0
 10
253.71582689
 20
279.78959400
  0
VERTEX
  8
0
 10
253.29960110
 20
280.35173840
  0
VERTEX
  8
0
 10
252.89488347
 20
280.92404073
  0
VERTEX
  8
0
 10
252.50179094
 20
281.50635795
  0
VERTEX
  8
0
 10
252.12044046
 20
282.09854700
  0
VERTEX
  8
0
 10
251.75094900
 20
282.70046485
  0
VERTEX
  8
0
 10
251.39343350
 20
283.31196844
  0
VERTEX
  8
0
 10
251.04801091
 20
283.93291471
  0
VERTEX
  8
0
 10
250.71479818
 20
284.56316063
  0
VERTEX
  8
0
 10
250.39391226
 20
285.20256315
  0
VERTEX
  8
0
 10
250.08547012
 20
285.85097921
  0
VERTEX
  8
0
 10
249.78958869
 20
286.50826576
  0
VERTEX
  8
0
 10
249.50638492
 20
287.17427977
  0
VERTEX
  8
0
 10
249.23597578
 20
287.84887817
  0
VERTEX
  8
0
 10
248.97847821
 20
288.53191792
  0
VERTEX
  8
0
 10
248.73400916
 20
289.22325597
  0
VERTEX
  8
0
 10
248.50268558
 20
289.92274928
  0
VERTEX
  8
0
 10
248.28462443
 20
290.63025478
  0
VERTEX
  8
0
 10
248.07994265
 20
291.34562945
  0
VERTEX
  8
0
 10
247.88875721
 20
292.06873022
  0
VERTEX
  8
0
 10
247.71118504
 20
292.79941404
  0
VERTEX
  8
0
 10
247.54734310
 20
293.53753788
  0
VERTEX
  8
0
 10
247.39734834
 20
294.28295867
  0
VERTEX
  8
0
 10
247.26131772
 20
295.03553337
  0
VERTEX
  8
0
 10
247.13936817
 20
295.79511894
  0
VERTEX
  8
0
 10
247.03161667
 20
296.56157232
  0
VERTEX
  8
0
 10
246.93818015
 20
297.33475046
  0
VERTEX
  8
0
 10
246.85213397
 20
298.25358972
  0
VERTEX
  8
0
 10
246.79202670
 20
299.21799892
  0
VERTEX
  8
0
 10
246.75763692
 20
300.22159462
  0
VERTEX
  8
0
 10
246.74874324
 20
301.25799337
  0
VERTEX
  8
0
 10
246.76512425
 20
302.32081171
  0
VERTEX
  8
0
 10
246.80655854
 20
303.40366618
  0
VERTEX
  8
0
 10
246.87282472
 20
304.50017335
  0
VERTEX
  8
0
 10
246.96370137
 20
305.60394975
  0
VERTEX
  8
0
 10
247.07896711
 20
306.70861194
  0
VERTEX
  8
0
 10
247.21840051
 20
307.80777646
  0
VERTEX
  8
0
 10
247.38178019
 20
308.89505986
  0
VERTEX
  8
0
 10
247.56888473
 20
309.96407869
  0
VERTEX
  8
0
 10
247.77949274
 20
311.00844949
  0
VERTEX
  8
0
 10
248.01338280
 20
312.02178882
  0
VERTEX
  8
0
 10
248.27033352
 20
312.99771322
  0
VERTEX
  8
0
 10
248.55012349
 20
313.92983924
  0
SEQEND
  0
POLYLINE
  8
Default_Layer
 66
   1
 39
0.000000
 70
    1
  0
VERTEX
  8
0
 10
206.26964251
 20
308.59192852
  0
VERTEX
  8
0
 10
207.07313681
 20
308.58201903
  0
VERTEX
  8
0
 10
207.88158585
 20
308.59192852
  0
VERTEX
  8
0
 10
208.45276665
 20
307.96380216
  0
VERTEX
  8
0
 10
209.05728445
 20
307.33688331
  0
VERTEX
  8
0
 10
209.69211096
 20
306.71024479
  0
VERTEX
  8
0
 10
210.35421787
 20
306.08295944
  0
VERTEX
  8
0
 10
211.74815965
 20
304.82273959
  0
VERTEX
  8
0
 10
213.21488337
 20
303.54880639
  0
VERTEX
  8
0
 10
216.26977088
 20
300.93013062
  0
VERTEX
  8
0
 10
217.80948179
 20
299.57055335
  0
VERTEX
  8
0
 10
218.57180496
 20
298.87495978
  0
VERTEX
  8
0
 10
219.32506888
 20
298.16759336
  0
VERTEX
  8
0
 10
220.06624524
 20
297.44752693
  0
VERTEX
  8
0
 10
220.79230573
 20
296.71383331
  0
VERTEX
  8
0
 10
221.50022205
 20
295.96558534
  0
VERTEX
  8
0
 10
222.18696589
 20
295.20185586
  0
VERTEX
  8
0
 10
222.84950896
 20
294.42171769
  0
VERTEX
  8
0
 10
223.48482293
 20
293.62424366
  0
VERTEX
  8
0
 10
224.08987952
 20
292.80850661
  0
VERTEX
  8
0
 10
224.66165041
 20
291.97357936
  0
VERTEX
  8
0
 10
225.19710731
 20
291.11853476
  0
VERTEX
  8
0
 10
225.69322190
 20
290.24244563
  0
VERTEX
  8
0
 10
226.14696588
 20
289.34438481
  0
VERTEX
  8
0
 10
226.55531095
 20
288.42342512
  0
VERTEX
  8
0
 10
226.91522880
 20
287.47863940
  0
VERTEX
  8
0
 10
227.22369113
 20
286.50910048
  0
VERTEX
  8
0
 10
227.35768013
 20
286.01475883
  0
VERTEX
  8
0
 10
227.47766963
 20
285.51388119
  0
VERTEX
  8
0
 10
227.58328110
 20
285.00635167
  0
VERTEX
  8
0
 10
227.67413601
 20
284.49205437
  0
VERTEX
  8
0
 10
227.77406986
 20
283.76340272
  0
VERTEX
  8
0
 10
227.83945106
 20
283.03736375
  0
VERTEX
  8
0
 10
227.87158240
 20
282.31460517
  0
VERTEX
  8
0
 10
227.87176667
 20
281.59579470
  0
VERTEX
  8
0
 10
227.84130669
 20
280.88160004
  0
VERTEX
  8
0
 10
227.78150523
 20
280.17268892
  0
VERTEX
  8
0
 10
227.69366511
 20
279.46972903
  0
VERTEX
  8
0
 10
227.57908911
 20
278.77338809
  0
VERTEX
  8
0
 10
227.43908004
 20
278.08433382
  0
VERTEX
  8
0
 10
227.27494069
 20
277.40323392
  0
VERTEX
  8
0
 10
227.08797386
 20
276.73075611
  0
VERTEX
  8
0
 10
226.87948234
 20
276.06756809
  0
VERTEX
  8
0
 10
226.65076894
 20
275.41433759
  0
VERTEX
  8
0
 10
226.40313644
 20
274.77173231
  0
VERTEX
  8
0
 10
226.13788765
 20
274.14041996
  0
VERTEX
  8
0
 10
225.85632537
 20
273.52106826
  0
VERTEX
  8
0
 10
225.55975239
 20
272.91434491
  0
VERTEX
  8
0
 10
225.24947151
 20
272.32091763
  0
VERTEX
  8
0
 10
224.92678552
 20
271.74145414
  0
VERTEX
  8
0
 10
224.59299723
 20
271.17662213
  0
VERTEX
  8
0
 10
224.24940943
 20
270.62708933
  0
VERTEX
  8
0
 10
223.89732491
 20
270.09352345
  0
VERTEX
  8
0
 10
223.53804648
 20
269.57659219
  0
VERTEX
  8
0
 10
223.17287693
 20
269.07696327
  0
VERTEX
  8
0
 10
222.43007567
 20
268.13228330
  0
VERTEX
  8
0
 10
221.67934349
 20
267.26482522
  0
VERTEX
  8
0
 10
220.93110279
 20
266.47993073
  0
VERTEX
  8
0
 10
220.19577593
 20
265.78294153
  0
VERTEX
  8
0
 10
219.51908841
 20
265.19463223
  0
VERTEX
  8
0
 10
218.81400163
 20
264.61921067
  0
VERTEX
  8
0
 10
218.08189278
 20
264.05670092
  0
VERTEX
  8
0
 10
217.32413901
 20
263.50712706
  0
VERTEX
  8
0
 10
216.54211749
 20
262.97051316
  0
VERTEX
  8
0
 10
215.73720540
 20
262.44688327
  0
VERTEX
  8
0
 10
214.91077989
 20
261.93626149
  0
VERTEX
  8
0
 10
214.06421814
 20
261.43867187
  0
VERTEX
  8
0
 10
213.19889730
 20
260.95413848
  0
VERTEX
  8
0
 10
212.31619456
 20
260.48268540
  0
VERTEX
  8
0
 10
211.41748707
 20
260.02433669
  0
VERTEX
  8
0
 10
210.50415201
 20
259.57911642
  0
VERTEX
  8
0
 10
209.57756653
 20
259.14704866
  0
VERTEX
  8
0
 10
208.63910782
 20
258.72815749
  0
VERTEX
  8
0
 10
207.69015303
 20
258.32246697
  0
VERTEX
  8
0
 10
206.73207933
 20
257.93000117
  0
VERTEX
  8
0
 10
204.79408387
 20
257.18484002
  0
VERTEX
  8
0
 10
202.83613879
 20
256.49286659
  0
VERTEX
  8
0
 10
200.86926142
 20
255.85427345
  0
VERTEX
  8
0
 10
198.90446910
 20
255.26925314
  0
VERTEX
  8
0
 10
196.95277917
 20
254.73799823
  0
VERTEX
  8
0
 10
195.02520896
 20
254.26070127
  0
VERTEX
  8
0
 10
193.13277581
 20
253.83755483
  0
VERTEX
  8
0
 10
191.28649707
 20
253.46875145
  0
VERTEX
  8
0
 10
191.35629898
 20
254.11703622
  0
VERTEX
  8
0
 10
191.44838575
 20
254.76086568
  0
VERTEX
  8
0
 10
191.56147974
 20
255.40059987
  0
VERTEX
  8
0
 10
191.69430331
 20
256.03659882
  0
VERTEX
  8
0
 10
191.84557882
 20
256.66922257
  0
VERTEX
  8
0
 10
192.01402862
 20
257.29883115
  0
VERTEX
  8
0
 10
192.19837509
 20
257.92578460
  0
VERTEX
  8
0
 10
192.39734057
 20
258.55044295
  0
VERTEX
  8
0
 10
192.83401801
 20
259.79431452
  0
VERTEX
  8
0
 10
193.31383983
 20
261.03332613
  0
VERTEX
  8
0
 10
193.82658490
 20
262.27035807
  0
VERTEX
  8
0
 10
194.36203210
 20
263.50829064
  0
VERTEX
  8
0
 10
195.46014837
 20
265.99837875
  0
VERTEX
  8
0
 10
196.00237519
 20
267.25629488
  0
VERTEX
  8
0
 10
196.52641964
 20
268.52663277
  0
VERTEX
  8
0
 10
197.02206058
 20
269.81227270
  0
VERTEX
  8
0
 10
197.47907689
 20
271.11609496
  0
VERTEX
  8
0
 10
197.88724745
 20
272.44097984
  0
VERTEX
  8
0
 10
198.06982147
 20
273.11222085
  0
VERTEX
  8
0
 10
198.23635113
 20
273.78980762
  0
VERTEX
  8
0
 10
198.31988769
 20
274.19764421
  0
VERTEX
  8
0
 10
198.38305752
 20
274.61516187
  0
VERTEX
  8
0
 10
198.42882909
 20
275.04109125
  0
VERTEX
  8
0
 10
198.46017090
 20
275.47416301
  0
VERTEX
  8
0
 10
198.49143922
 20
276.35665626
  0
VERTEX
  8
0
 10
198.50061041
 20
277.25248685
  0
VERTEX
  8
0
 10
198.51143239
 20
278.15150000
  0
VERTEX
  8
0
 10
198.54765310
 20
279.04354092
  0
VERTEX
  8
0
 10
198.58270921
 20
279.48377343
  0
VERTEX
  8
0
 10
198.63302047
 20
279.91845484
  0
VERTEX
  8
0
 10
198.70155539
 20
280.34631581
  0
VERTEX
  8
0
 10
198.79128244
 20
280.76608698
  0
VERTEX
  8
0
 10
198.98709073
 20
281.49638958
  0
VERTEX
  8
0
 10
199.22382320
 20
282.22587507
  0
VERTEX
  8
0
 10
199.49476032
 20
282.95485142
  0
VERTEX
  8
0
 10
199.79318256
 20
283.68362663
  0
VERTEX
  8
0
 10
200.44560429
 20
285.14180554
  0
VERTEX
  8
0
 10
201.12733219
 20
286.60287567
  0
VERTEX
  8
0
 10
201.78461004
 20
288.06930088
  0
VERTEX
  8
0
 10
202.08728138
 20
288.80529161
  0
VERTEX
  8
0
 10
202.36368163
 20
289.54354505
  0
VERTEX
  8
0
 10
202.60709125
 20
290.28436921
  0
VERTEX
  8
0
 10
202.81079073
 20
291.02807205
  0
VERTEX
  8
0
 10
202.96806053
 20
291.77496157
  0
VERTEX
  8
0
 10
203.07218114
 20
292.52534575
  0
VERTEX
  8
0
 10
203.09347474
 20
292.91682254
  0
VERTEX
  8
0
 10
203.08857231
 20
293.30232128
  0
VERTEX
  8
0
 10
203.06148795
 20
293.68246088
  0
VERTEX
  8
0
 10
203.01623576
 20
294.05786021
  0
VERTEX
  8
0
 10
202.88728426
 20
294.79691365
  0
VERTEX
  8
0
 10
202.73383060
 20
295.52443272
  0
VERTEX
  8
0
 10
202.58798754
 20
296.24536855
  0
VERTEX
  8
0
 10
202.52795524
 20
296.60491498
  0
VERTEX
  8
0
 10
202.48186788
 20
296.96467226
  0
VERTEX
  8
0
 10
202.45373956
 20
297.32525929
  0
VERTEX
  8
0
 10
202.44758438
 20
297.68729496
  0
VERTEX
  8
0
 10
202.46741643
 20
298.05139817
  0
VERTEX
  8
0
 10
202.51724983
 20
298.41818779
  0
VERTEX
  8
0
 10
202.58710379
 20
298.74177220
  0
VERTEX
  8
0
 10
202.67391301
 20
299.05739351
  0
VERTEX
  8
0
 10
202.77628780
 20
299.36581156
  0
VERTEX
  8
0
 10
202.89283851
 20
299.66778616
  0
VERTEX
  8
0
 10
203.16290901
 20
300.25544434
  0
VERTEX
  8
0
 10
203.47300720
 20
300.82644666
  0
VERTEX
  8
0
 10
203.81201576
 20
301.38687171
  0
VERTEX
  8
0
 10
204.16881738
 20
301.94279810
  0
VERTEX
  8
0
 10
204.89133054
 20
303.06546931
  0
VERTEX
  8
0
 10
205.23480745
 20
303.64437135
  0
VERTEX
  8
0
 10
205.55160815
 20
304.24308914
  0
VERTEX
  8
0
 10
205.83061534
 20
304.86770128
  0
VERTEX
  8
0
 10
205.95247221
 20
305.19161730
  0
VERTEX
  8
0
 10
206.06071170
 20
305.52428639
  0
VERTEX
  8
0
 10
206.15394415
 20
305.86646837
  0
VERTEX
  8
0
 10
206.23077991
 20
306.21892307
  0
VERTEX
  8
0
 10
206.28982930
 20
306.58241030
  0
VERTEX
  8
0
 10
206.32970266
 20
306.95768991
  0
VERTEX
  8
0
 10
206.34901032
 20
307.34552171
  0
VERTEX
  8
0
 10
206.34636263
 20
307.74666553
  0
VERTEX
  8
0
 10
206.32036991
 20
308.16188119
  0
VERTEX
  8
0
 10
206.26964251
 20
308.59192852
  0
SEQEND
  0
POLYLINE
  8
Default_Layer
 66
   1
 39
0.000000
 70
    1
  0
VERTEX
  8
0
 10
380.17454582
 20
366.91256697
  0
VERTEX
  8
0
 10
380.41043154
 20
366.61058760
  0
VERTEX
  8
0
 10
380.64056509
 20
366.24823041
  0
VERTEX
  8
0
 10
380.86137418
 20
365.83271632
  0
VERTEX
  8
0
 10
381.06928656
 20
365.37126626
  0
VERTEX
  8
0
 10
381.26072993
 20
364.87110114
  0
VERTEX
  8
0
 10
381.43213204
 20
364.33944190
  0
VERTEX
  8
0
 10
381.57992061
 20
363.78350945
  0
VERTEX
  8
0
 10
381.70052336
 20
363.21052472
  0
VERTEX
  8
0
 10
381.79036802
 20
362.62770863
  0
VERTEX
  8
0
 10
381.84588232
 20
362.04228210
  0
VERTEX
  8
0
 10
381.86349398
 20
361.46146607
  0
VERTEX
  8
0
 10
381.83963073
 20
360.89248145
  0
VERTEX
  8
0
 10
381.77072029
 20
360.34254917
  0
VERTEX
  8
0
 10
381.65319040
 20
359.81889015
  0
VERTEX
  8
0
 10
381.57507682
 20
359.56916965
  0
VERTEX
  8
0
 10
381.48346877
 20
359.32872531
  0
VERTEX
  8
0
 10
381.37791973
 20
359.09845975
  0
VERTEX
  8
0
 10
381.25798315
 20
358.87927558
  0
VERTEX
  8
0
 10
381.06492222
 20
358.55612321
  0
VERTEX
  8
0
 10
380.84439092
 20
358.26450413
  0
VERTEX
  8
0
 10
380.59920355
 20
358.00118438
  0
VERTEX
  8
0
 10
380.33217443
 20
357.76293000
  0
VERTEX
  8
0
 10
380.04611787
 20
357.54650703
  0
VERTEX
  8
0
 10
379.74384818
 20
357.34868150
  0
VERTEX
  8
0
 10
379.42817968
 20
357.16621945
  0
VERTEX
  8
0
 10
379.10192668
 20
356.99588693
  0
VERTEX
  8
0
 10
378.42892445
 20
356.67867461
  0
VERTEX
  8
0
 10
377.74735599
 20
356.37117284
  0
VERTEX
  8
0
 10
377.07973581
 20
356.04750994
  0
VERTEX
  8
0
 10
376.75819212
 20
355.87153316
  0
VERTEX
  8
0
 10
376.44857843
 20
355.68181421
  0
VERTEX
  8
0
 10
375.78539622
 20
355.22775921
  0
VERTEX
  8
0
 10
375.11358214
 20
354.73111370
  0
VERTEX
  8
0
 10
374.43482562
 20
354.19356263
  0
VERTEX
  8
0
 10
373.75081612
 20
353.61679093
  0
VERTEX
  8
0
 10
373.06324308
 20
353.00248356
  0
VERTEX
  8
0
 10
372.37379594
 20
352.35232544
  0
VERTEX
  8
0
 10
371.68416415
 20
351.66800154
  0
VERTEX
  8
0
 10
370.99603715
 20
350.95119678
  0
VERTEX
  8
0
 10
370.31110439
 20
350.20359611
  0
VERTEX
  8
0
 10
369.63105532
 20
349.42688448
  0
VERTEX
  8
0
 10
368.95757937
 20
348.62274682
  0
VERTEX
  8
0
 10
368.29236600
 20
347.79286808
  0
VERTEX
  8
0
 10
367.63710464
 20
346.93893321
  0
VERTEX
  8
0
 10
366.99348474
 20
346.06262714
  0
VERTEX
  8
0
 10
366.36319575
 20
345.16563483
  0
VERTEX
  8
0
 10
365.74792712
 20
344.24964120
  0
VERTEX
  8
0
 10
365.14936827
 20
343.31633121
  0
VERTEX
  8
0
 10
364.56920867
 20
342.36738979
  0
VERTEX
  8
0
 10
364.00913776
 20
341.40450190
  0
VERTEX
  8
0
 10
363.47084497
 20
340.42935247
  0
VERTEX
  8
0
 10
362.95601977
 20
339.44362645
  0
VERTEX
  8
0
 10
362.46635158
 20
338.44900877
  0
VERTEX
  8
0
 10
362.00352985
 20
337.44718439
  0
VERTEX
  8
0
 10
361.56924404
 20
336.43983824
  0
VERTEX
  8
0
 10
361.16518358
 20
335.42865527
  0
VERTEX
  8
0
 10
360.79303792
 20
334.41532043
  0
VERTEX
  8
0
 10
360.45449650
 20
333.40151864
  0
VERTEX
  8
0
 10
360.15124877
 20
332.38893486
  0
VERTEX
  8
0
 10
359.88498418
 20
331.37925404
  0
VERTEX
  8
0
 10
359.65739216
 20
330.37416110
  0
VERTEX
  8
0
 10
359.47016217
 20
329.37534100
  0
VERTEX
  8
0
 10
359.32498364
 20
328.38447868
  0
VERTEX
  8
0
 10
359.22661148
 20
327.54215040
  0
VERTEX
  8
0
 10
359.14840705
 20
326.71347824
  0
VERTEX
  8
0
 10
359.08985133
 20
325.89810898
  0
VERTEX
  8
0
 10
359.05042529
 20
325.09568941
  0
VERTEX
  8
0
 10
359.02960989
 20
324.30586631
  0
VERTEX
  8
0
 10
359.02688611
 20
323.52828648
  0
VERTEX
  8
0
 10
359.04173492
 20
322.76259671
  0
VERTEX
  8
0
 10
359.07363729
 20
322.00844378
  0
VERTEX
  8
0
 10
359.12207418
 20
321.26547449
  0
VERTEX
  8
0
 10
359.18652656
 20
320.53333563
  0
VERTEX
  8
0
 10
359.26647542
 20
319.81167397
  0
VERTEX
  8
0
 10
359.36140170
 20
319.10013632
  0
VERTEX
  8
0
 10
359.47078640
 20
318.39836946
  0
VERTEX
  8
0
 10
359.59411046
 20
317.70602019
  0
VERTEX
  8
0
 10
359.88050060
 20
316.34816153
  0
VERTEX
  8
0
 10
360.21641988
 20
315.02373467
  0
VERTEX
  8
0
 10
360.59771605
 20
313.72991391
  0
VERTEX
  8
0
 10
361.02023688
 20
312.46387357
  0
VERTEX
  8
0
 10
361.47983011
 20
311.22278797
  0
VERTEX
  8
0
 10
361.97234352
 20
310.00383142
  0
VERTEX
  8
0
 10
362.49362485
 20
308.80417822
  0
VERTEX
  8
0
 10
363.03952187
 20
307.62100270
  0
VERTEX
  8
0
 10
363.60588234
 20
306.45147917
  0
VERTEX
  8
0
 10
363.42164624
 20
306.46887248
  0
VERTEX
  8
0
 10
363.23010822
 20
306.50281514
  0
VERTEX
  8
0
 10
362.82717559
 20
306.61758469
  0
VERTEX
  8
0
 10
362.40118291
 20
306.79026014
  0
VERTEX
  8
0
 10
361.95622861
 20
307.01531383
  0
VERTEX
  8
0
 10
361.49641113
 20
307.28721809
  0
VERTEX
  8
0
 10
361.02582891
 20
307.60044526
  0
VERTEX
  8
0
 10
360.54858040
 20
307.94946766
  0
VERTEX
  8
0
 10
360.06876402
 20
308.32875763
  0
VERTEX
  8
0
 10
359.59047823
 20
308.73278751
  0
VERTEX
  8
0
 10
359.11782146
 20
309.15602962
  0
VERTEX
  8
0
 10
358.65489216
 20
309.59295630
  0
VERTEX
  8
0
 10
358.20578875
 20
310.03803988
  0
VERTEX
  8
0
 10
357.36545342
 20
310.93056709
  0
VERTEX
  8
0
 10
356.62960298
 20
311.78938989
  0
VERTEX
  8
0
 10
355.88294319
 20
312.74994863
  0
VERTEX
  8
0
 10
355.15404542
 20
313.76278977
  0
VERTEX
  8
0
 10
354.44514773
 20
314.82460924
  0
VERTEX
  8
0
 10
353.75848820
 20
315.93210298
  0
VERTEX
  8
0
 10
353.09630489
 20
317.08196691
  0
VERTEX
  8
0
 10
352.46083586
 20
318.27089697
  0
VERTEX
  8
0
 10
351.85431918
 20
319.49558910
  0
VERTEX
  8
0
 10
351.27899292
 20
320.75273922
  0
VERTEX
  8
0
 10
350.73709513
 20
322.03904328
  0
VERTEX
  8
0
 10
350.23086389
 20
323.35119719
  0
VERTEX
  8
0
 10
349.76253726
 20
324.68589691
  0
VERTEX
  8
0
 10
349.33435331
 20
326.03983835
  0
VERTEX
  8
0
 10
348.94855010
 20
327.40971745
  0
VERTEX
  8
0
 10
348.60736570
 20
328.79223014
  0
VERTEX
  8
0
 10
348.31303817
 20
330.18407237
  0
VERTEX
  8
0
 10
348.06780558
 20
331.58194005
  0
VERTEX
  8
0
 10
350.18471181
 20
333.58104444
  0
VERTEX
  8
0
 10
352.28561695
 20
335.59589542
  0
VERTEX
  8
0
 10
354.36796896
 20
337.62909185
  0
VERTEX
  8
0
 10
356.42921579
 20
339.68323261
  0
VERTEX
  8
0
 10
358.46680540
 20
341.76091657
  0
VERTEX
  8
0
 10
360.47818572
 20
343.86474258
  0
VERTEX
  8
0
 10
362.46080471
 20
345.99730952
  0
VERTEX
  8
0
 10
364.41211033
 20
348.16121626
  0
VERTEX
  8
0
 10
366.32955052
 20
350.35906167
  0
VERTEX
  8
0
 10
368.21057324
 20
352.59344460
  0
VERTEX
  8
0
 10
370.05262643
 20
354.86696394
  0
VERTEX
  8
0
 10
370.95824194
 20
356.01921190
  0
VERTEX
  8
0
 10
371.85315805
 20
357.18221854
  0
VERTEX
  8
0
 10
372.73705575
 20
358.35630871
  0
VERTEX
  8
0
 10
373.60961604
 20
359.54180727
  0
VERTEX
  8
0
 10
374.47051991
 20
360.73903909
  0
VERTEX
  8
0
 10
375.31944836
 20
361.94832901
  0
VERTEX
  8
0
 10
376.15608238
 20
363.17000190
  0
VERTEX
  8
0
 10
376.98010296
 20
364.40438262
  0
VERTEX
  8
0
 10
377.79119109
 20
365.65179602
  0
VERTEX
  8
0
 10
378.58902778
 20
366.91256697
  0
VERTEX
  8
0
 10
380.17454582
 20
366.91256697
  0
SEQEND
  0
ENDSEC
  0
EOF
