  0
SECTION
  2
HEADER
  9
$ACADVER
  1
AC1009
  9
$EXTMIN
 10
1.94948481
 20
0.52352747
 30
0.0
  9
$EXTMAX
 10
8.05051519
 20
9.47647253
 30
0.0
  0
ENDSEC
  0
SECTION
  2
TABLES
  0
TABLE
  2
LAYER
 70
1
 0
LAYER
 2
Default_Layer
 70
0
 62
1
 6
CONTINUOUS
 0
ENDTAB
 0
ENDSEC
  0
SECTION
  2
ENTITIES
  0
POLYLINE
  8
Default_Layer
 66
   1
 39
0.000000
 70
    1
  0
VERTEX
  8
0
 10
3.69929180
 20
9.18284326
  0
VERTEX
  8
0
 10
3.63971484
 20
9.19560975
  0
VERTEX
  8
0
 10
3.57422919
 20
9.17388826
  0
VERTEX
  8
0
 10
3.51630545
 20
9.14879929
  0
VERTEX
  8
0
 10
3.48861865
 20
9.15436202
  0
VERTEX
  8
0
 10
3.46949498
 20
9.17858777
  0
VERTEX
  8
0
 10
3.29247172
 20
9.24349096
  0
VERTEX
  8
0
 10
3.12271782
 20
9.31629026
  0
VERTEX
  8
0
 10
2.94336614
 20
9.37981527
  0
VERTEX
  8
0
 10
2.73754958
 20
9.41689557
  0
VERTEX
  8
0
 10
2.78945919
 20
9.42846877
  0
VERTEX
  8
0
 10
2.84819249
 20
9.43391756
  0
VERTEX
  8
0
 10
2.98011288
 20
9.42540657
  0
VERTEX
  8
0
 10
3.27970138
 20
9.39848635
  0
VERTEX
  8
0
 10
3.55460491
 20
9.33604114
  0
VERTEX
  8
0
 10
3.67293485
 20
9.28277200
  0
VERTEX
  8
0
 10
3.71196510
 20
9.23851477
  0
VERTEX
  8
0
 10
3.71388579
 20
9.21209014
  0
VERTEX
  8
0
 10
3.69929180
 20
9.18284326
  0
SEQEND
  0
POLYLINE
  8
Default_Layer
 66
   1
 39
0.000000
 70
    1
  0
VERTEX
  8
0
 10
4.09930847
 20
9.37008511
  0
VERTEX
  8
0
 10
4.10356397
 20
9.34880763
  0
VERTEX
  8
0
 10
4.12484145
 20
9.34880763
  0
VERTEX
  8
0
 10
4.11171835
 20
9.28428334
  0
VERTEX
  8
0
 10
4.07803099
 20
9.24242022
  0
VERTEX
  8
0
 10
4.05595470
 20
9.23139151
  0
VERTEX
  8
0
 10
4.03973152
 20
9.21263174
  0
VERTEX
  8
0
 10
3.96297976
 20
9.25411283
  0
VERTEX
  8
0
 10
3.91903272
 20
9.26707084
  0
VERTEX
  8
0
 10
3.87802265
 20
9.25518671
  0
VERTEX
  8
0
 10
3.85825034
 20
9.22570909
  0
VERTEX
  8
0
 10
3.84823418
 20
9.18284326
  0
VERTEX
  8
0
 10
3.79478264
 20
9.16306361
  0
VERTEX
  8
0
 10
3.74610226
 20
9.14028830
  0
VERTEX
  8
0
 10
3.74388030
 20
9.12619910
  0
VERTEX
  8
0
 10
3.73759127
 20
9.11901082
  0
VERTEX
  8
0
 10
3.72675204
 20
9.12726765
  0
VERTEX
  8
0
 10
3.72482478
 20
9.14028830
  0
VERTEX
  8
0
 10
3.76312424
 20
9.20837624
  0
VERTEX
  8
0
 10
3.80567921
 20
9.26795320
  0
VERTEX
  8
0
 10
3.86420395
 20
9.31773937
  0
VERTEX
  8
0
 10
3.93582049
 20
9.35840585
  0
VERTEX
  8
0
 10
4.01577370
 20
9.37937898
  0
VERTEX
  8
0
 10
4.09930847
 20
9.37008511
  0
SEQEND
  0
POLYLINE
  8
Default_Layer
 66
   1
 39
0.000000
 70
    1
  0
VERTEX
  8
0
 10
4.69082249
 20
9.05943387
  0
VERTEX
  8
0
 10
4.67805600
 20
9.06368936
  0
VERTEX
  8
0
 10
4.63102718
 20
9.07656820
  0
VERTEX
  8
0
 10
4.56741309
 20
9.07645585
  0
VERTEX
  8
0
 10
4.55444085
 20
9.13972510
  0
VERTEX
  8
0
 10
4.52308523
 20
9.18438253
  0
VERTEX
  8
0
 10
4.47133857
 20
9.20805672
  0
VERTEX
  8
0
 10
4.39719323
 20
9.20837624
  0
VERTEX
  8
0
 10
4.37964569
 20
9.25577721
  0
VERTEX
  8
0
 10
4.34612727
 20
9.28071969
  0
VERTEX
  8
0
 10
4.31283155
 20
9.27704439
  0
VERTEX
  8
0
 10
4.27943103
 20
9.25888143
  0
VERTEX
  8
0
 10
4.22271787
 20
9.21263174
  0
VERTEX
  8
0
 10
4.18441840
 20
9.18709876
  0
VERTEX
  8
0
 10
4.15462993
 20
9.21263174
  0
VERTEX
  8
0
 10
4.12484145
 20
9.23390922
  0
VERTEX
  8
0
 10
4.15909562
 20
9.28892597
  0
VERTEX
  8
0
 10
4.20479643
 20
9.33263472
  0
VERTEX
  8
0
 10
4.26264958
 20
9.36208857
  0
VERTEX
  8
0
 10
4.33336078
 20
9.37434061
  0
VERTEX
  8
0
 10
4.45604967
 20
9.35157509
  0
VERTEX
  8
0
 10
4.55464660
 20
9.29774167
  0
VERTEX
  8
0
 10
4.64836535
 20
9.20392574
  0
VERTEX
  8
0
 10
4.67818674
 20
9.14024660
  0
VERTEX
  8
0
 10
4.69082249
 20
9.05943387
  0
SEQEND
  0
POLYLINE
  8
Default_Layer
 66
   1
 39
0.000000
 70
    1
  0
VERTEX
  8
0
 10
5.81427358
 20
9.37008511
  0
VERTEX
  8
0
 10
5.54534253
 20
9.29422855
  0
VERTEX
  8
0
 10
5.29084750
 20
9.20412075
  0
VERTEX
  8
0
 10
5.12913863
 20
9.13603280
  0
VERTEX
  8
0
 10
5.04828420
 20
9.08922234
  0
VERTEX
  8
0
 10
4.80146540
 20
8.94879096
  0
VERTEX
  8
0
 10
4.75465494
 20
9.05092287
  0
VERTEX
  8
0
 10
4.79263600
 20
9.09754155
  0
VERTEX
  8
0
 10
4.84213252
 20
9.13291315
  0
VERTEX
  8
0
 10
4.95891877
 20
9.18284326
  0
VERTEX
  8
0
 10
5.14671779
 20
9.24524775
  0
VERTEX
  8
0
 10
5.35169584
 20
9.29617719
  0
VERTEX
  8
0
 10
5.78022960
 20
9.36582962
  0
VERTEX
  8
0
 10
5.81427358
 20
9.37008511
  0
SEQEND
  0
POLYLINE
  8
Default_Layer
 66
   1
 39
0.000000
 70
    1
  0
VERTEX
  8
0
 10
3.98015457
 20
9.14454380
  0
VERTEX
  8
0
 10
4.02270953
 20
9.14454380
  0
VERTEX
  8
0
 10
4.07033758
 20
9.18382719
  0
VERTEX
  8
0
 10
4.10188339
 20
9.18927943
  0
VERTEX
  8
0
 10
4.13335244
 20
9.17858777
  0
VERTEX
  8
0
 10
4.15657392
 20
9.14604576
  0
VERTEX
  8
0
 10
4.15714301
 20
9.10784556
  0
VERTEX
  8
0
 10
4.14049745
 20
9.07203637
  0
VERTEX
  8
0
 10
4.11207496
 20
9.04666738
  0
VERTEX
  8
0
 10
4.07803099
 20
9.03815638
  0
VERTEX
  8
0
 10
4.06526450
 20
8.99985691
  0
VERTEX
  8
0
 10
4.10883855
 20
8.96679947
  0
VERTEX
  8
0
 10
4.12484145
 20
8.90623599
  0
VERTEX
  8
0
 10
4.10356397
 20
8.89772500
  0
VERTEX
  8
0
 10
4.08675763
 20
8.86430281
  0
VERTEX
  8
0
 10
4.06100900
 20
8.84665904
  0
VERTEX
  8
0
 10
4.01116134
 20
8.86941094
  0
VERTEX
  8
0
 10
3.96313258
 20
8.89346950
  0
VERTEX
  8
0
 10
3.94487137
 20
8.88194567
  0
VERTEX
  8
0
 10
3.93584118
 20
8.86006885
  0
VERTEX
  8
0
 10
3.91206662
 20
8.81687056
  0
VERTEX
  8
0
 10
3.85760106
 20
8.82046239
  0
VERTEX
  8
0
 10
3.81697569
 20
8.83821087
  0
VERTEX
  8
0
 10
3.75461325
 20
8.89346950
  0
VERTEX
  8
0
 10
3.78009506
 20
8.96927426
  0
VERTEX
  8
0
 10
3.82270120
 20
9.02538989
  0
VERTEX
  8
0
 10
3.78865722
 20
9.05517837
  0
VERTEX
  8
0
 10
3.77589073
 20
9.09347784
  0
VERTEX
  8
0
 10
3.79624722
 20
9.12008187
  0
VERTEX
  8
0
 10
3.82695669
 20
9.14028830
  0
VERTEX
  8
0
 10
3.88653364
 20
9.12752181
  0
VERTEX
  8
0
 10
3.90034598
 20
9.15710900
  0
VERTEX
  8
0
 10
3.89504464
 20
9.19560975
  0
VERTEX
  8
0
 10
3.91632212
 20
9.22965373
  0
VERTEX
  8
0
 10
3.97164357
 20
9.22114273
  0
VERTEX
  8
0
 10
3.98213039
 20
9.18975839
  0
VERTEX
  8
0
 10
3.98015457
 20
9.14454380
  0
SEQEND
  0
POLYLINE
  8
Default_Layer
 66
   1
 39
0.000000
 70
    1
  0
VERTEX
  8
0
 10
4.33761628
 20
9.22965373
  0
VERTEX
  8
0
 10
4.36314926
 20
9.14028830
  0
VERTEX
  8
0
 10
4.39211592
 20
9.14475706
  0
VERTEX
  8
0
 10
4.41434809
 20
9.15858529
  0
VERTEX
  8
0
 10
4.43864158
 20
9.17071214
  0
VERTEX
  8
0
 10
4.47379217
 20
9.17007678
  0
VERTEX
  8
0
 10
4.50734070
 20
9.14596651
  0
VERTEX
  8
0
 10
4.52510957
 20
9.09879992
  0
VERTEX
  8
0
 10
4.52573073
 20
9.04365292
  0
VERTEX
  8
0
 10
4.50783614
 20
8.99560142
  0
VERTEX
  8
0
 10
4.43549270
 20
8.97857943
  0
VERTEX
  8
0
 10
4.43469570
 20
8.87817727
  0
VERTEX
  8
0
 10
4.42581376
 20
8.83609440
  0
VERTEX
  8
0
 10
4.40570422
 20
8.80410407
  0
VERTEX
  8
0
 10
4.35889376
 20
8.79559308
  0
VERTEX
  8
0
 10
4.32787975
 20
8.82833056
  0
VERTEX
  8
0
 10
4.31633879
 20
8.87644751
  0
VERTEX
  8
0
 10
4.28229482
 20
8.88070301
  0
VERTEX
  8
0
 10
4.22697337
 20
8.81687056
  0
VERTEX
  8
0
 10
4.16739642
 20
8.82112606
  0
VERTEX
  8
0
 10
4.14611893
 20
8.85517003
  0
VERTEX
  8
0
 10
4.16350827
 20
8.88515359
  0
VERTEX
  8
0
 10
4.16711970
 20
8.92203245
  0
VERTEX
  8
0
 10
4.15037443
 20
8.99560142
  0
VERTEX
  8
0
 10
4.13335244
 20
8.99985691
  0
VERTEX
  8
0
 10
4.18246172
 20
9.05906765
  0
VERTEX
  8
0
 10
4.21287251
 20
9.13720264
  0
VERTEX
  8
0
 10
4.25458923
 20
9.20411397
  0
VERTEX
  8
0
 10
4.28906369
 20
9.22393954
  0
VERTEX
  8
0
 10
4.33761628
 20
9.22965373
  0
SEQEND
  0
POLYLINE
  8
Default_Layer
 66
   1
 39
0.000000
 70
    1
  0
VERTEX
  8
0
 10
3.71631378
 20
8.84665904
  0
VERTEX
  8
0
 10
3.69929180
 20
8.83389255
  0
VERTEX
  8
0
 10
3.69503630
 20
8.80410407
  0
VERTEX
  8
0
 10
3.63545935
 20
8.75729361
  0
VERTEX
  8
0
 10
3.55886041
 20
8.73176063
  0
VERTEX
  8
0
 10
3.51630545
 20
8.77431560
  0
VERTEX
  8
0
 10
3.54609392
 20
8.90623599
  0
VERTEX
  8
0
 10
3.49235120
 20
8.93279603
  0
VERTEX
  8
0
 10
3.46098399
 20
8.98283493
  0
VERTEX
  8
0
 10
3.49275547
 20
9.04682472
  0
VERTEX
  8
0
 10
3.56311591
 20
9.07220035
  0
VERTEX
  8
0
 10
3.58439339
 20
9.15731029
  0
VERTEX
  8
0
 10
3.63481800
 20
9.15532055
  0
VERTEX
  8
0
 10
3.66917187
 20
9.13757553
  0
VERTEX
  8
0
 10
3.70354729
 20
9.06794486
  0
VERTEX
  8
0
 10
3.73444108
 20
9.04368885
  0
VERTEX
  8
0
 10
3.75461325
 20
9.01687890
  0
VERTEX
  8
0
 10
3.72482478
 20
8.97432393
  0
VERTEX
  8
0
 10
3.71083451
 20
8.91475422
  0
VERTEX
  8
0
 10
3.71631378
 20
8.84665904
  0
SEQEND
  0
POLYLINE
  8
Default_Layer
 66
   1
 39
0.000000
 70
    1
  0
VERTEX
  8
0
 10
3.46523949
 20
9.08922234
  0
VERTEX
  8
0
 10
3.46070366
 20
9.07495169
  0
VERTEX
  8
0
 10
3.44821750
 20
9.06794486
  0
VERTEX
  8
0
 10
3.42268452
 20
9.00411241
  0
VERTEX
  8
0
 10
3.05201705
 20
9.02247153
  0
VERTEX
  8
0
 10
2.67371713
 20
9.01262340
  0
VERTEX
  8
0
 10
2.84368381
 20
9.06549079
  0
VERTEX
  8
0
 10
3.04143304
 20
9.09671084
  0
VERTEX
  8
0
 10
3.25320491
 20
9.10503691
  0
VERTEX
  8
0
 10
3.46523949
 20
9.08922234
  0
SEQEND
  0
POLYLINE
  8
Default_Layer
 66
   1
 39
0.000000
 70
    1
  0
VERTEX
  8
0
 10
5.63128722
 20
9.05092287
  0
VERTEX
  8
0
 10
5.49797763
 20
9.01545389
  0
VERTEX
  8
0
 10
5.36319094
 20
8.98709042
  0
VERTEX
  8
0
 10
5.25680353
 20
8.94879096
  0
VERTEX
  8
0
 10
4.94189679
 20
8.82112606
  0
VERTEX
  8
0
 10
4.94189679
 20
8.85942553
  0
VERTEX
  8
0
 10
4.90359732
 20
8.88495851
  0
VERTEX
  8
0
 10
4.96519590
 20
8.92725298
  0
VERTEX
  8
0
 10
5.03977321
 20
8.95304645
  0
VERTEX
  8
0
 10
5.28664956
 20
9.01361988
  0
VERTEX
  8
0
 10
5.55468829
 20
9.05092287
  0
VERTEX
  8
0
 10
5.63128722
 20
9.05092287
  0
SEQEND
  0
POLYLINE
  8
Default_Layer
 66
   1
 39
0.000000
 70
    1
  0
VERTEX
  8
0
 10
4.68231150
 20
9.00836791
  0
VERTEX
  8
0
 10
4.67331091
 20
8.95774580
  0
VERTEX
  8
0
 10
4.65252302
 20
8.92325798
  0
VERTEX
  8
0
 10
4.68684658
 20
8.90398680
  0
VERTEX
  8
0
 10
4.73337746
 20
8.89772500
  0
VERTEX
  8
0
 10
4.73997369
 20
8.84375493
  0
VERTEX
  8
0
 10
4.72912196
 20
8.79133758
  0
VERTEX
  8
0
 10
4.68661465
 20
8.76142958
  0
VERTEX
  8
0
 10
4.63975653
 20
8.73176063
  0
VERTEX
  8
0
 10
4.61422355
 20
8.68495017
  0
VERTEX
  8
0
 10
4.58719626
 20
8.64797347
  0
VERTEX
  8
0
 10
4.55039110
 20
8.63388421
  0
VERTEX
  8
0
 10
4.51633447
 20
8.64785751
  0
VERTEX
  8
0
 10
4.49081415
 20
8.67643918
  0
VERTEX
  8
0
 10
4.43974819
 20
8.72324964
  0
VERTEX
  8
0
 10
4.49932515
 20
8.94453546
  0
VERTEX
  8
0
 10
4.55464660
 20
8.98709042
  0
VERTEX
  8
0
 10
4.60996806
 20
9.03390089
  0
VERTEX
  8
0
 10
4.64874462
 20
9.02991583
  0
VERTEX
  8
0
 10
4.68231150
 20
9.00836791
  0
SEQEND
  0
POLYLINE
  8
Default_Layer
 66
   1
 39
0.000000
 70
    1
  0
VERTEX
  8
0
 10
3.32906360
 20
8.97857943
  0
VERTEX
  8
0
 10
3.30996227
 20
8.95693183
  0
VERTEX
  8
0
 10
3.28225314
 20
8.94453546
  0
VERTEX
  8
0
 10
2.90125225
 20
8.76002878
  0
VERTEX
  8
0
 10
2.71904796
 20
8.65825249
  0
VERTEX
  8
0
 10
2.55456323
 20
8.54026329
  0
VERTEX
  8
0
 10
2.50775277
 20
8.50621932
  0
VERTEX
  8
0
 10
2.51200826
 20
8.51473031
  0
VERTEX
  8
0
 10
2.58435170
 20
8.58281825
  0
VERTEX
  8
0
 10
2.84819249
 20
8.79133758
  0
VERTEX
  8
0
 10
3.06486418
 20
8.91676430
  0
VERTEX
  8
0
 10
3.19007509
 20
8.96040903
  0
VERTEX
  8
0
 10
3.32906360
 20
8.97857943
  0
SEQEND
  0
POLYLINE
  8
Default_Layer
 66
   1
 39
0.000000
 70
    1
  0
VERTEX
  8
0
 10
3.48651697
 20
8.88495851
  0
VERTEX
  8
0
 10
3.47672544
 20
8.82019059
  0
VERTEX
  8
0
 10
3.47800598
 20
8.75729361
  0
VERTEX
  8
0
 10
3.49928346
 20
8.71899414
  0
VERTEX
  8
0
 10
3.49165309
 20
8.66195208
  0
VERTEX
  8
0
 10
3.46098399
 20
8.62111772
  0
VERTEX
  8
0
 10
3.40173508
 20
8.61343171
  0
VERTEX
  8
0
 10
3.37448243
 20
8.61216564
  0
VERTEX
  8
0
 10
3.35034108
 20
8.62537322
  0
VERTEX
  8
0
 10
3.27591218
 20
8.62564733
  0
VERTEX
  8
0
 10
3.22693168
 20
8.65941719
  0
VERTEX
  8
0
 10
3.23651096
 20
8.70720525
  0
VERTEX
  8
0
 10
3.26097565
 20
8.75303811
  0
VERTEX
  8
0
 10
3.29896330
 20
8.77911292
  0
VERTEX
  8
0
 10
3.32480810
 20
8.80835957
  0
VERTEX
  8
0
 10
3.29927512
 20
8.82538156
  0
VERTEX
  8
0
 10
3.30265062
 20
8.87727990
  0
VERTEX
  8
0
 10
3.32415924
 20
8.91094166
  0
VERTEX
  8
0
 10
3.36195041
 20
8.92842023
  0
VERTEX
  8
0
 10
3.41417353
 20
8.93176897
  0
VERTEX
  8
0
 10
3.48651697
 20
8.88495851
  0
SEQEND
  0
POLYLINE
  8
Default_Layer
 66
   1
 39
0.000000
 70
    1
  0
VERTEX
  8
0
 10
4.89934182
 20
8.77857109
  0
VERTEX
  8
0
 10
4.86561770
 20
8.76735637
  0
VERTEX
  8
0
 10
4.84827586
 20
8.74027162
  0
VERTEX
  8
0
 10
4.88524809
 20
8.69396182
  0
VERTEX
  8
0
 10
4.89934182
 20
8.63813971
  0
VERTEX
  8
0
 10
4.88750978
 20
8.60161840
  0
VERTEX
  8
0
 10
4.85678685
 20
8.58281825
  0
VERTEX
  8
0
 10
4.82274288
 20
8.58281825
  0
VERTEX
  8
0
 10
4.78869891
 20
8.56154077
  0
VERTEX
  8
0
 10
4.75045253
 20
8.57780884
  0
VERTEX
  8
0
 10
4.72061097
 20
8.60409574
  0
VERTEX
  8
0
 10
4.66528951
 20
8.54877428
  0
VERTEX
  8
0
 10
4.61096826
 20
8.56132060
  0
VERTEX
  8
0
 10
4.57592408
 20
8.59132925
  0
VERTEX
  8
0
 10
4.62853910
 20
8.63475590
  0
VERTEX
  8
0
 10
4.66528951
 20
8.69346116
  0
VERTEX
  8
0
 10
4.72133775
 20
8.72663090
  0
VERTEX
  8
0
 10
4.76742143
 20
8.77006010
  0
VERTEX
  8
0
 10
4.78869891
 20
8.86793652
  0
VERTEX
  8
0
 10
4.83936982
 20
8.87168716
  0
VERTEX
  8
0
 10
4.87805088
 20
8.85686383
  0
VERTEX
  8
0
 10
4.89971668
 20
8.82523549
  0
VERTEX
  8
0
 10
4.89934182
 20
8.77857109
  0
SEQEND
  0
POLYLINE
  8
Default_Layer
 66
   1
 39
0.000000
 70
    1
  0
VERTEX
  8
0
 10
5.69086418
 20
8.69346116
  0
VERTEX
  8
0
 10
5.64523169
 20
8.69136491
  0
VERTEX
  8
0
 10
5.59298776
 20
8.70622765
  0
VERTEX
  8
0
 10
5.31953705
 20
8.76073503
  0
VERTEX
  8
0
 10
5.01849572
 20
8.78708209
  0
VERTEX
  8
0
 10
5.01840141
 20
8.79533599
  0
VERTEX
  8
0
 10
5.03126221
 20
8.80410407
  0
VERTEX
  8
0
 10
5.10301627
 20
8.82749851
  0
VERTEX
  8
0
 10
5.19722658
 20
8.82963705
  0
VERTEX
  8
0
 10
5.33212131
 20
8.81229179
  0
VERTEX
  8
0
 10
5.46056777
 20
8.77806974
  0
VERTEX
  8
0
 10
5.69086418
 20
8.69346116
  0
SEQEND
  0
POLYLINE
  8
Default_Layer
 66
   1
 39
0.000000
 70
    1
  0
VERTEX
  8
0
 10
3.96313258
 20
8.81687056
  0
VERTEX
  8
0
 10
4.03973152
 20
8.81687056
  0
VERTEX
  8
0
 10
4.11633046
 20
8.81687056
  0
VERTEX
  8
0
 10
4.14186344
 20
8.79984858
  0
VERTEX
  8
0
 10
4.21961354
 20
8.77292107
  0
VERTEX
  8
0
 10
4.25718212
 20
8.78044271
  0
VERTEX
  8
0
 10
4.27803933
 20
8.81687056
  0
VERTEX
  8
0
 10
4.32669720
 20
8.77476939
  0
VERTEX
  8
0
 10
4.35415976
 20
8.75791086
  0
VERTEX
  8
0
 10
4.39293773
 20
8.75303811
  0
VERTEX
  8
0
 10
4.42765381
 20
8.68621442
  0
VERTEX
  8
0
 10
4.48230316
 20
8.63388421
  0
VERTEX
  8
0
 10
4.56315759
 20
8.56154077
  0
VERTEX
  8
0
 10
4.58869057
 20
8.50621932
  0
VERTEX
  8
0
 10
4.54613561
 20
8.45940885
  0
VERTEX
  8
0
 10
4.52480153
 20
8.36665499
  0
VERTEX
  8
0
 10
4.53336912
 20
8.26365601
  0
VERTEX
  8
0
 10
4.58017958
 20
8.08492516
  0
VERTEX
  8
0
 10
4.58055694
 20
8.07632161
  0
VERTEX
  8
0
 10
4.57592408
 20
8.06790317
  0
VERTEX
  8
0
 10
4.56303179
 20
7.96302529
  0
VERTEX
  8
0
 10
4.52060263
 20
7.87215033
  0
VERTEX
  8
0
 10
4.47804766
 20
7.80406239
  0
VERTEX
  8
0
 10
4.43123720
 20
7.74874093
  0
VERTEX
  8
0
 10
4.42272621
 20
7.71895246
  0
VERTEX
  8
0
 10
4.37198558
 20
7.62543670
  0
VERTEX
  8
0
 10
4.30357230
 20
7.54447710
  0
VERTEX
  8
0
 10
4.19043684
 20
7.46506661
  0
VERTEX
  8
0
 10
4.11612513
 20
7.44183674
  0
VERTEX
  8
0
 10
4.02696503
 20
7.43808968
  0
VERTEX
  8
0
 10
3.90781113
 20
7.47213366
  0
VERTEX
  8
0
 10
3.87802265
 20
7.48915564
  0
VERTEX
  8
0
 10
3.85847747
 20
7.51801424
  0
VERTEX
  8
0
 10
3.82695669
 20
7.53596610
  0
VERTEX
  8
0
 10
3.82695669
 20
7.55298809
  0
VERTEX
  8
0
 10
3.71097075
 20
7.68571687
  0
VERTEX
  8
0
 10
3.61205944
 20
7.83556519
  0
VERTEX
  8
0
 10
3.53335907
 20
8.00583383
  0
VERTEX
  8
0
 10
3.47800598
 20
8.19982356
  0
VERTEX
  8
0
 10
3.57175637
 20
8.17197421
  0
VERTEX
  8
0
 10
3.66950332
 20
8.15726860
  0
VERTEX
  8
0
 10
3.72145303
 20
8.16913512
  0
VERTEX
  8
0
 10
3.76168307
 20
8.19292083
  0
VERTEX
  8
0
 10
3.83121219
 20
8.25088952
  0
VERTEX
  8
0
 10
3.82847609
 20
8.30092275
  0
VERTEX
  8
0
 10
3.80748343
 20
8.34118499
  0
VERTEX
  8
0
 10
3.74184676
 20
8.40408740
  0
VERTEX
  8
0
 10
3.70465968
 20
8.43302047
  0
VERTEX
  8
0
 10
3.66099233
 20
8.44664236
  0
VERTEX
  8
0
 10
3.56522748
 20
8.42581868
  0
VERTEX
  8
0
 10
3.46523949
 20
8.39983190
  0
VERTEX
  8
0
 10
3.46098399
 20
8.47643084
  0
VERTEX
  8
0
 10
3.44821750
 20
8.54451878
  0
VERTEX
  8
0
 10
3.46918598
 20
8.58432789
  0
VERTEX
  8
0
 10
3.49928346
 20
8.62111772
  0
VERTEX
  8
0
 10
3.54609392
 20
8.68920567
  0
VERTEX
  8
0
 10
3.63575319
 20
8.71227939
  0
VERTEX
  8
0
 10
3.70354729
 20
8.75729361
  0
VERTEX
  8
0
 10
3.72914139
 20
8.78848199
  0
VERTEX
  8
0
 10
3.75461325
 20
8.80835957
  0
VERTEX
  8
0
 10
3.78896000
 20
8.80327026
  0
VERTEX
  8
0
 10
3.82695669
 20
8.78708209
  0
VERTEX
  8
0
 10
3.87222698
 20
8.77402436
  0
VERTEX
  8
0
 10
3.91632212
 20
8.77431560
  0
VERTEX
  8
0
 10
3.94337905
 20
8.79215618
  0
VERTEX
  8
0
 10
3.96313258
 20
8.81687056
  0
SEQEND
  0
POLYLINE
  8
Default_Layer
 66
   1
 39
0.000000
 70
    1
  0
VERTEX
  8
0
 10
3.98866556
 20
8.73176063
  0
VERTEX
  8
0
 10
3.98441006
 20
8.70197216
  0
VERTEX
  8
0
 10
4.05208150
 20
8.67768540
  0
VERTEX
  8
0
 10
4.13221846
 20
8.66565128
  0
VERTEX
  8
0
 10
4.21292241
 20
8.65475561
  0
VERTEX
  8
0
 10
4.28229482
 20
8.63388421
  0
VERTEX
  8
0
 10
4.31302956
 20
8.61941414
  0
VERTEX
  8
0
 10
4.35038277
 20
8.61686223
  0
VERTEX
  8
0
 10
4.35038277
 20
8.65516169
  0
VERTEX
  8
0
 10
4.18136237
 20
8.71772819
  0
VERTEX
  8
0
 10
4.08855006
 20
8.73714620
  0
VERTEX
  8
0
 10
3.98866556
 20
8.73176063
  0
SEQEND
  0
POLYLINE
  8
Default_Layer
 66
   1
 39
0.000000
 70
    1
  0
VERTEX
  8
0
 10
3.82695669
 20
8.68920567
  0
VERTEX
  8
0
 10
3.62568314
 20
8.63937976
  0
VERTEX
  8
0
 10
3.54582501
 20
8.59534396
  0
VERTEX
  8
0
 10
3.48651697
 20
8.53175229
  0
VERTEX
  8
0
 10
3.51204995
 20
8.50621932
  0
VERTEX
  8
0
 10
3.54070896
 20
8.52330875
  0
VERTEX
  8
0
 10
3.56311591
 20
8.54877428
  0
VERTEX
  8
0
 10
3.68698815
 20
8.61586133
  0
VERTEX
  8
0
 10
3.82695669
 20
8.65941719
  0
VERTEX
  8
0
 10
3.82695669
 20
8.68920567
  0
SEQEND
  0
POLYLINE
  8
Default_Layer
 66
   1
 39
0.000000
 70
    1
  0
VERTEX
  8
0
 10
4.35038277
 20
8.44664236
  0
VERTEX
  8
0
 10
4.37166025
 20
8.54451878
  0
VERTEX
  8
0
 10
4.34612727
 20
8.54877428
  0
VERTEX
  8
0
 10
4.32783114
 20
8.50741351
  0
VERTEX
  8
0
 10
4.30782780
 20
8.46791985
  0
VERTEX
  8
0
 10
4.23548436
 20
8.53175229
  0
VERTEX
  8
0
 10
4.18363390
 20
8.54722517
  0
VERTEX
  8
0
 10
4.13335244
 20
8.54877428
  0
VERTEX
  8
0
 10
4.05546654
 20
8.51616317
  0
VERTEX
  8
0
 10
4.00230007
 20
8.45015294
  0
VERTEX
  8
0
 10
3.96891319
 20
8.36536543
  0
VERTEX
  8
0
 10
3.95036609
 20
8.27642250
  0
VERTEX
  8
0
 10
3.93266311
 20
8.25746016
  0
VERTEX
  8
0
 10
3.93899684
 20
8.24059941
  0
VERTEX
  8
0
 10
3.98441006
 20
8.21259005
  0
VERTEX
  8
0
 10
4.05249801
 20
8.19556807
  0
VERTEX
  8
0
 10
4.15553741
 20
8.20503820
  0
VERTEX
  8
0
 10
4.23441144
 20
8.24698979
  0
VERTEX
  8
0
 10
4.29041670
 20
8.30897710
  0
VERTEX
  8
0
 10
4.32484979
 20
8.37855442
  0
VERTEX
  8
0
 10
4.41421521
 20
8.45089786
  0
VERTEX
  8
0
 10
4.45169162
 20
8.49258571
  0
VERTEX
  8
0
 10
4.46953667
 20
8.55302978
  0
VERTEX
  8
0
 10
4.43549270
 20
8.57430726
  0
VERTEX
  8
0
 10
4.41063193
 20
8.49229629
  0
VERTEX
  8
0
 10
4.35038277
 20
8.44664236
  0
SEQEND
  0
POLYLINE
  8
Default_Layer
 66
   1
 39
0.000000
 70
    1
  0
VERTEX
  8
0
 10
4.26952833
 20
8.22110105
  0
VERTEX
  8
0
 10
4.26527284
 20
8.22110105
  0
VERTEX
  8
0
 10
4.26527284
 20
8.18705707
  0
VERTEX
  8
0
 10
4.29191097
 20
8.17445676
  0
VERTEX
  8
0
 10
4.30782780
 20
8.15301310
  0
VERTEX
  8
0
 10
4.29506131
 20
8.08492516
  0
VERTEX
  8
0
 10
4.23645828
 20
8.06284711
  0
VERTEX
  8
0
 10
4.17590741
 20
8.04662569
  0
VERTEX
  8
0
 10
4.13188866
 20
8.05978831
  0
VERTEX
  8
0
 10
4.09505297
 20
8.07641416
  0
VERTEX
  8
0
 10
4.03547602
 20
8.06364768
  0
VERTEX
  8
0
 10
4.00461287
 20
8.01251783
  0
VERTEX
  8
0
 10
3.97164357
 20
7.95726026
  0
VERTEX
  8
0
 10
3.90874212
 20
7.97801485
  0
VERTEX
  8
0
 10
3.84397868
 20
7.99130423
  0
VERTEX
  8
0
 10
3.78014623
 20
7.94023828
  0
VERTEX
  8
0
 10
3.76737974
 20
7.86363934
  0
VERTEX
  8
0
 10
3.79408507
 20
7.81923839
  0
VERTEX
  8
0
 10
3.83722159
 20
7.79204795
  0
VERTEX
  8
0
 10
3.96313258
 20
7.77852941
  0
VERTEX
  8
0
 10
3.98419623
 20
7.73827198
  0
VERTEX
  8
0
 10
3.99292106
 20
7.69767497
  0
VERTEX
  8
0
 10
3.96313258
 20
7.63384252
  0
VERTEX
  8
0
 10
3.94611060
 20
7.56149908
  0
VERTEX
  8
0
 10
3.97383776
 20
7.52861606
  0
VERTEX
  8
0
 10
4.01845404
 20
7.50617763
  0
VERTEX
  8
0
 10
4.08309168
 20
7.51681727
  0
VERTEX
  8
0
 10
4.12909695
 20
7.54873259
  0
VERTEX
  8
0
 10
4.20002161
 20
7.64319848
  0
VERTEX
  8
0
 10
4.25801700
 20
7.76498645
  0
VERTEX
  8
0
 10
4.33761628
 20
8.01258172
  0
VERTEX
  8
0
 10
4.36314926
 20
8.01683721
  0
VERTEX
  8
0
 10
4.37616464
 20
8.07260789
  0
VERTEX
  8
0
 10
4.37166025
 20
8.12748012
  0
VERTEX
  8
0
 10
4.37591575
 20
8.17003509
  0
VERTEX
  8
0
 10
4.35038277
 20
8.18280158
  0
VERTEX
  8
0
 10
4.33761628
 20
8.21684555
  0
VERTEX
  8
0
 10
4.26952833
 20
8.22110105
  0
SEQEND
  0
POLYLINE
  8
Default_Layer
 66
   1
 39
0.000000
 70
    1
  0
VERTEX
  8
0
 10
3.91206662
 20
8.13599112
  0
VERTEX
  8
0
 10
3.95887709
 20
8.11045814
  0
VERTEX
  8
0
 10
3.98866556
 20
8.15726860
  0
VERTEX
  8
0
 10
3.94313467
 20
8.16069470
  0
VERTEX
  8
0
 10
3.91206662
 20
8.13599112
  0
SEQEND
  0
POLYLINE
  8
Default_Layer
 66
   1
 39
0.000000
 70
    1
  0
VERTEX
  8
0
 10
3.76312424
 20
8.07215867
  0
VERTEX
  8
0
 10
3.78784405
 20
8.06041036
  0
VERTEX
  8
0
 10
3.81844570
 20
8.06364768
  0
VERTEX
  8
0
 10
3.81844570
 20
8.11045814
  0
VERTEX
  8
0
 10
3.76737974
 20
8.12748012
  0
VERTEX
  8
0
 10
3.76312424
 20
8.07215867
  0
SEQEND
  0
POLYLINE
  8
Default_Layer
 66
   1
 39
0.000000
 70
    1
  0
VERTEX
  8
0
 10
4.35038277
 20
8.65516169
  0
VERTEX
  8
0
 10
4.35038277
 20
8.61686223
  0
VERTEX
  8
0
 10
4.31302956
 20
8.61941414
  0
VERTEX
  8
0
 10
4.28229482
 20
8.63388421
  0
VERTEX
  8
0
 10
4.21292241
 20
8.65475561
  0
VERTEX
  8
0
 10
4.13221846
 20
8.66565128
  0
VERTEX
  8
0
 10
4.05208150
 20
8.67768540
  0
VERTEX
  8
0
 10
3.98441006
 20
8.70197216
  0
VERTEX
  8
0
 10
3.98866556
 20
8.73176063
  0
VERTEX
  8
0
 10
4.08855006
 20
8.73714620
  0
VERTEX
  8
0
 10
4.18136237
 20
8.71772819
  0
VERTEX
  8
0
 10
4.35038277
 20
8.65516169
  0
SEQEND
  0
POLYLINE
  8
Default_Layer
 66
   1
 39
0.000000
 70
    1
  0
VERTEX
  8
0
 10
3.82695669
 20
8.65941719
  0
VERTEX
  8
0
 10
3.68698815
 20
8.61586133
  0
VERTEX
  8
0
 10
3.56311591
 20
8.54877428
  0
VERTEX
  8
0
 10
3.54070896
 20
8.52330875
  0
VERTEX
  8
0
 10
3.51204995
 20
8.50621932
  0
VERTEX
  8
0
 10
3.48651697
 20
8.53175229
  0
VERTEX
  8
0
 10
3.54582501
 20
8.59534396
  0
VERTEX
  8
0
 10
3.62568314
 20
8.63937976
  0
VERTEX
  8
0
 10
3.82695669
 20
8.68920567
  0
VERTEX
  8
0
 10
3.82695669
 20
8.65941719
  0
SEQEND
  0
POLYLINE
  8
Default_Layer
 66
   1
 39
0.000000
 70
    1
  0
VERTEX
  8
0
 10
4.43549270
 20
8.57430726
  0
VERTEX
  8
0
 10
4.46953667
 20
8.55302978
  0
VERTEX
  8
0
 10
4.45169162
 20
8.49258571
  0
VERTEX
  8
0
 10
4.41421521
 20
8.45089786
  0
VERTEX
  8
0
 10
4.32484979
 20
8.37855442
  0
VERTEX
  8
0
 10
4.29041670
 20
8.30897710
  0
VERTEX
  8
0
 10
4.23441144
 20
8.24698979
  0
VERTEX
  8
0
 10
4.15553741
 20
8.20503820
  0
VERTEX
  8
0
 10
4.05249801
 20
8.19556807
  0
VERTEX
  8
0
 10
3.98441006
 20
8.21259005
  0
VERTEX
  8
0
 10
3.93899684
 20
8.24059941
  0
VERTEX
  8
0
 10
3.93266311
 20
8.25746016
  0
VERTEX
  8
0
 10
3.95036609
 20
8.27642250
  0
VERTEX
  8
0
 10
3.96891319
 20
8.36536543
  0
VERTEX
  8
0
 10
4.00230007
 20
8.45015294
  0
VERTEX
  8
0
 10
4.05546654
 20
8.51616317
  0
VERTEX
  8
0
 10
4.13335244
 20
8.54877428
  0
VERTEX
  8
0
 10
4.18363390
 20
8.54722517
  0
VERTEX
  8
0
 10
4.23548436
 20
8.53175229
  0
VERTEX
  8
0
 10
4.30782780
 20
8.46791985
  0
VERTEX
  8
0
 10
4.32783114
 20
8.50741351
  0
VERTEX
  8
0
 10
4.34612727
 20
8.54877428
  0
VERTEX
  8
0
 10
4.37166025
 20
8.54451878
  0
VERTEX
  8
0
 10
4.35038277
 20
8.44664236
  0
VERTEX
  8
0
 10
4.41063193
 20
8.49229629
  0
VERTEX
  8
0
 10
4.43549270
 20
8.57430726
  0
SEQEND
  0
POLYLINE
  8
Default_Layer
 66
   1
 39
0.000000
 70
    1
  0
VERTEX
  8
0
 10
4.12909695
 20
8.48919733
  0
VERTEX
  8
0
 10
4.12058595
 20
8.40834289
  0
VERTEX
  8
0
 10
4.15555640
 20
8.38216835
  0
VERTEX
  8
0
 10
4.19718489
 20
8.36578793
  0
VERTEX
  8
0
 10
4.21940401
 20
8.37898226
  0
VERTEX
  8
0
 10
4.23548436
 20
8.40408740
  0
VERTEX
  8
0
 10
4.19852354
 20
8.41126770
  0
VERTEX
  8
0
 10
4.17874402
 20
8.43713659
  0
VERTEX
  8
0
 10
4.17165191
 20
8.51473031
  0
VERTEX
  8
0
 10
4.12909695
 20
8.48919733
  0
SEQEND
  0
POLYLINE
  8
Default_Layer
 66
   1
 39
0.000000
 70
    1
  0
VERTEX
  8
0
 10
4.17165191
 20
8.32748846
  0
VERTEX
  8
0
 10
4.12803168
 20
8.34278875
  0
VERTEX
  8
0
 10
4.09917549
 20
8.37860751
  0
VERTEX
  8
0
 10
4.08528003
 20
8.42929395
  0
VERTEX
  8
0
 10
4.08654198
 20
8.48919733
  0
VERTEX
  8
0
 10
4.04367530
 20
8.46113047
  0
VERTEX
  8
0
 10
4.02270953
 20
8.40834289
  0
VERTEX
  8
0
 10
3.99837155
 20
8.33506862
  0
VERTEX
  8
0
 10
3.98866556
 20
8.25088952
  0
VERTEX
  8
0
 10
4.00634534
 20
8.24557201
  0
VERTEX
  8
0
 10
4.00994304
 20
8.22961204
  0
VERTEX
  8
0
 10
4.11964490
 20
8.23950114
  0
VERTEX
  8
0
 10
4.20298684
 20
8.27753308
  0
VERTEX
  8
0
 10
4.26215031
 20
8.33841497
  0
VERTEX
  8
0
 10
4.29931681
 20
8.41685389
  0
VERTEX
  8
0
 10
4.24706197
 20
8.35488056
  0
VERTEX
  8
0
 10
4.21467773
 20
8.33299469
  0
VERTEX
  8
0
 10
4.17165191
 20
8.32748846
  0
SEQEND
  0
POLYLINE
  8
Default_Layer
 66
   1
 39
0.000000
 70
    1
  0
VERTEX
  8
0
 10
4.22697337
 20
8.48919733
  0
VERTEX
  8
0
 10
4.21109255
 20
8.47805277
  0
VERTEX
  8
0
 10
4.20569588
 20
8.45940885
  0
VERTEX
  8
0
 10
4.26101734
 20
8.45515336
  0
VERTEX
  8
0
 10
4.22697337
 20
8.48919733
  0
SEQEND
  0
POLYLINE
  8
Default_Layer
 66
   1
 39
0.000000
 70
    1
  0
VERTEX
  8
0
 10
4.84827586
 20
8.52324130
  0
VERTEX
  8
0
 10
4.84626689
 20
8.50525252
  0
VERTEX
  8
0
 10
4.86104235
 20
8.49770832
  0
VERTEX
  8
0
 10
4.88826792
 20
8.39178851
  0
VERTEX
  8
0
 10
4.90074761
 20
8.28051620
  0
VERTEX
  8
0
 10
4.89631552
 20
8.04627259
  0
VERTEX
  8
0
 10
4.87743847
 20
7.80369454
  0
VERTEX
  8
0
 10
4.87380884
 20
7.56149908
  0
VERTEX
  8
0
 10
4.87905379
 20
7.55662266
  0
VERTEX
  8
0
 10
4.88657533
 20
7.55298809
  0
VERTEX
  8
0
 10
4.91756330
 20
7.40294638
  0
VERTEX
  8
0
 10
4.96661026
 20
7.27105974
  0
VERTEX
  8
0
 10
5.01181148
 20
7.13545039
  0
VERTEX
  8
0
 10
5.03126221
 20
6.97424056
  0
VERTEX
  8
0
 10
4.85743380
 20
7.06084912
  0
VERTEX
  8
0
 10
4.65677852
 20
7.11892744
  0
VERTEX
  8
0
 10
4.64467599
 20
7.17900218
  0
VERTEX
  8
0
 10
4.63488223
 20
7.20381606
  0
VERTEX
  8
0
 10
4.61422355
 20
7.21680386
  0
VERTEX
  8
0
 10
4.63625654
 20
7.24980650
  0
VERTEX
  8
0
 10
4.63185200
 20
7.28929189
  0
VERTEX
  8
0
 10
4.58869057
 20
7.36149075
  0
VERTEX
  8
0
 10
4.56741309
 20
7.39127922
  0
VERTEX
  8
0
 10
4.47379217
 20
7.37425724
  0
VERTEX
  8
0
 10
4.43123720
 20
7.35297975
  0
VERTEX
  8
0
 10
4.42698170
 20
7.37425724
  0
VERTEX
  8
0
 10
4.43123720
 20
7.45085617
  0
VERTEX
  8
0
 10
4.42698170
 20
7.48490015
  0
VERTEX
  8
0
 10
4.43974819
 20
7.55724359
  0
VERTEX
  8
0
 10
4.51470813
 20
7.78110563
  0
VERTEX
  8
0
 10
4.59720157
 20
7.99555973
  0
VERTEX
  8
0
 10
4.61828947
 20
7.97024506
  0
VERTEX
  8
0
 10
4.62699004
 20
7.93172728
  0
VERTEX
  8
0
 10
4.63975653
 20
7.85512834
  0
VERTEX
  8
0
 10
4.65200630
 20
7.77628655
  0
VERTEX
  8
0
 10
4.65252302
 20
7.69341948
  0
VERTEX
  8
0
 10
4.61847905
 20
7.57001008
  0
VERTEX
  8
0
 10
4.59294607
 20
7.44234518
  0
VERTEX
  8
0
 10
4.62038312
 20
7.44813446
  0
VERTEX
  8
0
 10
4.63975653
 20
7.46787816
  0
VERTEX
  8
0
 10
4.71635547
 20
7.61682054
  0
VERTEX
  8
0
 10
4.72912196
 20
7.62107604
  0
VERTEX
  8
0
 10
4.76272836
 20
7.74962586
  0
VERTEX
  8
0
 10
4.77167692
 20
7.89342781
  0
VERTEX
  8
0
 10
4.74635411
 20
8.04262276
  0
VERTEX
  8
0
 10
4.70784448
 20
8.17429059
  0
VERTEX
  8
0
 10
4.69507799
 20
8.18280158
  0
VERTEX
  8
0
 10
4.68335654
 20
8.33581796
  0
VERTEX
  8
0
 10
4.69082249
 20
8.48494183
  0
VERTEX
  8
0
 10
4.69515533
 20
8.50949892
  0
VERTEX
  8
0
 10
4.70784448
 20
8.53175229
  0
VERTEX
  8
0
 10
4.77797224
 20
8.53043963
  0
VERTEX
  8
0
 10
4.84827586
 20
8.52324130
  0
SEQEND
  0
POLYLINE
  8
Default_Layer
 66
   1
 39
0.000000
 70
    1
  0
VERTEX
  8
0
 10
4.17165191
 20
8.51473031
  0
VERTEX
  8
0
 10
4.17874402
 20
8.43713659
  0
VERTEX
  8
0
 10
4.19852354
 20
8.41126770
  0
VERTEX
  8
0
 10
4.23548436
 20
8.40408740
  0
VERTEX
  8
0
 10
4.21940401
 20
8.37898226
  0
VERTEX
  8
0
 10
4.19718489
 20
8.36578793
  0
VERTEX
  8
0
 10
4.15555640
 20
8.38216835
  0
VERTEX
  8
0
 10
4.12058595
 20
8.40834289
  0
VERTEX
  8
0
 10
4.12909695
 20
8.48919733
  0
VERTEX
  8
0
 10
4.17165191
 20
8.51473031
  0
SEQEND
  0
POLYLINE
  8
Default_Layer
 66
   1
 39
0.000000
 70
    1
  0
VERTEX
  8
0
 10
4.64401203
 20
8.50621932
  0
VERTEX
  8
0
 10
4.62699004
 20
8.40834289
  0
VERTEX
  8
0
 10
4.61847905
 20
8.30195548
  0
VERTEX
  8
0
 10
4.63594387
 20
8.22013500
  0
VERTEX
  8
0
 10
4.66528951
 20
8.14450211
  0
VERTEX
  8
0
 10
4.69507799
 20
8.06790317
  0
VERTEX
  8
0
 10
4.72228135
 20
8.00220628
  0
VERTEX
  8
0
 10
4.73763295
 20
7.92321629
  0
VERTEX
  8
0
 10
4.72486646
 20
7.77001841
  0
VERTEX
  8
0
 10
4.69082249
 20
7.63384252
  0
VERTEX
  8
0
 10
4.68566403
 20
7.64698100
  0
VERTEX
  8
0
 10
4.69082249
 20
7.65937550
  0
VERTEX
  8
0
 10
4.69507799
 20
7.74874093
  0
VERTEX
  8
0
 10
4.68231150
 20
7.81682888
  0
VERTEX
  8
0
 10
4.64983546
 20
8.02865744
  0
VERTEX
  8
0
 10
4.62655681
 20
8.13159480
  0
VERTEX
  8
0
 10
4.59294607
 20
8.22110105
  0
VERTEX
  8
0
 10
4.56315759
 20
8.26791151
  0
VERTEX
  8
0
 10
4.57592408
 20
8.33174396
  0
VERTEX
  8
0
 10
4.60145706
 20
8.45515336
  0
VERTEX
  8
0
 10
4.61728676
 20
8.49063574
  0
VERTEX
  8
0
 10
4.64401203
 20
8.50621932
  0
SEQEND
  0
POLYLINE
  8
Default_Layer
 66
   1
 39
0.000000
 70
    1
  0
VERTEX
  8
0
 10
4.26101734
 20
8.45515336
  0
VERTEX
  8
0
 10
4.20569588
 20
8.45940885
  0
VERTEX
  8
0
 10
4.21109255
 20
8.47805277
  0
VERTEX
  8
0
 10
4.22697337
 20
8.48919733
  0
VERTEX
  8
0
 10
4.26101734
 20
8.45515336
  0
SEQEND
  0
POLYLINE
  8
Default_Layer
 66
   1
 39
0.000000
 70
    1
  0
VERTEX
  8
0
 10
3.65673683
 20
8.22535654
  0
VERTEX
  8
0
 10
3.75886875
 20
8.24663403
  0
VERTEX
  8
0
 10
3.70453168
 20
8.21155207
  0
VERTEX
  8
0
 10
3.62665090
 20
8.19820621
  0
VERTEX
  8
0
 10
3.54891884
 20
8.20801039
  0
VERTEX
  8
0
 10
3.49502796
 20
8.24237853
  0
VERTEX
  8
0
 10
3.48891239
 20
8.25762230
  0
VERTEX
  8
0
 10
3.47375048
 20
8.26365601
  0
VERTEX
  8
0
 10
3.48952858
 20
8.31858863
  0
VERTEX
  8
0
 10
3.51627401
 20
8.36187027
  0
VERTEX
  8
0
 10
3.55580165
 20
8.39221650
  0
VERTEX
  8
0
 10
3.60992637
 20
8.40834289
  0
VERTEX
  8
0
 10
3.61418187
 20
8.40408740
  0
VERTEX
  8
0
 10
3.60623701
 20
8.35017529
  0
VERTEX
  8
0
 10
3.61451257
 20
8.30237342
  0
VERTEX
  8
0
 10
3.65673683
 20
8.22535654
  0
SEQEND
  0
POLYLINE
  8
Default_Layer
 66
   1
 39
0.000000
 70
    1
  0
VERTEX
  8
0
 10
3.67801431
 20
8.39557641
  0
VERTEX
  8
0
 10
3.67540750
 20
8.35090981
  0
VERTEX
  8
0
 10
3.68652531
 20
8.30621098
  0
VERTEX
  8
0
 10
3.71631378
 20
8.27642250
  0
VERTEX
  8
0
 10
3.68612284
 20
8.27002048
  0
VERTEX
  8
0
 10
3.65673683
 20
8.28067800
  0
VERTEX
  8
0
 10
3.62269286
 20
8.33174396
  0
VERTEX
  8
0
 10
3.64642789
 20
8.36992294
  0
VERTEX
  8
0
 10
3.67801431
 20
8.39557641
  0
SEQEND
  0
POLYLINE
  8
Default_Layer
 66
   1
 39
0.000000
 70
    1
  0
VERTEX
  8
0
 10
3.76737974
 20
8.31472197
  0
VERTEX
  8
0
 10
3.73271489
 20
8.32422130
  0
VERTEX
  8
0
 10
3.70354729
 20
8.34876594
  0
VERTEX
  8
0
 10
3.72448517
 20
8.35847828
  0
VERTEX
  8
0
 10
3.74390887
 20
8.35071113
  0
VERTEX
  8
0
 10
3.76737974
 20
8.31472197
  0
SEQEND
  0
POLYLINE
  8
Default_Layer
 66
   1
 39
0.000000
 70
    1
  0
VERTEX
  8
0
 10
4.33761628
 20
8.21684555
  0
VERTEX
  8
0
 10
4.35038277
 20
8.18280158
  0
VERTEX
  8
0
 10
4.37591575
 20
8.17003509
  0
VERTEX
  8
0
 10
4.37166025
 20
8.12748012
  0
VERTEX
  8
0
 10
4.37616464
 20
8.07260789
  0
VERTEX
  8
0
 10
4.36314926
 20
8.01683721
  0
VERTEX
  8
0
 10
4.33761628
 20
8.01258172
  0
VERTEX
  8
0
 10
4.25801700
 20
7.76498645
  0
VERTEX
  8
0
 10
4.20002161
 20
7.64319848
  0
VERTEX
  8
0
 10
4.12909695
 20
7.54873259
  0
VERTEX
  8
0
 10
4.08309168
 20
7.51681727
  0
VERTEX
  8
0
 10
4.01845404
 20
7.50617763
  0
VERTEX
  8
0
 10
3.97383776
 20
7.52861606
  0
VERTEX
  8
0
 10
3.94611060
 20
7.56149908
  0
VERTEX
  8
0
 10
3.96313258
 20
7.63384252
  0
VERTEX
  8
0
 10
3.99292106
 20
7.69767497
  0
VERTEX
  8
0
 10
3.98419623
 20
7.73827198
  0
VERTEX
  8
0
 10
3.96313258
 20
7.77852941
  0
VERTEX
  8
0
 10
3.83722159
 20
7.79204795
  0
VERTEX
  8
0
 10
3.79408507
 20
7.81923839
  0
VERTEX
  8
0
 10
3.76737974
 20
7.86363934
  0
VERTEX
  8
0
 10
3.78014623
 20
7.94023828
  0
VERTEX
  8
0
 10
3.84397868
 20
7.99130423
  0
VERTEX
  8
0
 10
3.90874212
 20
7.97801485
  0
VERTEX
  8
0
 10
3.97164357
 20
7.95726026
  0
VERTEX
  8
0
 10
4.00461287
 20
8.01251783
  0
VERTEX
  8
0
 10
4.03547602
 20
8.06364768
  0
VERTEX
  8
0
 10
4.09505297
 20
8.07641416
  0
VERTEX
  8
0
 10
4.13188866
 20
8.05978831
  0
VERTEX
  8
0
 10
4.17590741
 20
8.04662569
  0
VERTEX
  8
0
 10
4.23645828
 20
8.06284711
  0
VERTEX
  8
0
 10
4.29506131
 20
8.08492516
  0
VERTEX
  8
0
 10
4.30782780
 20
8.15301310
  0
VERTEX
  8
0
 10
4.29191097
 20
8.17445676
  0
VERTEX
  8
0
 10
4.26527284
 20
8.18705707
  0
VERTEX
  8
0
 10
4.26527284
 20
8.22110105
  0
VERTEX
  8
0
 10
4.26952833
 20
8.22110105
  0
VERTEX
  8
0
 10
4.33761628
 20
8.21684555
  0
SEQEND
  0
POLYLINE
  8
Default_Layer
 66
   1
 39
0.000000
 70
    1
  0
VERTEX
  8
0
 10
4.05249801
 20
8.03385920
  0
VERTEX
  8
0
 10
4.01354357
 20
7.95557913
  0
VERTEX
  8
0
 10
3.98289058
 20
7.92772802
  0
VERTEX
  8
0
 10
3.93334411
 20
7.92321629
  0
VERTEX
  8
0
 10
3.93334411
 20
7.94023828
  0
VERTEX
  8
0
 10
3.88313350
 20
7.95274071
  0
VERTEX
  8
0
 10
3.83121219
 20
7.94449377
  0
VERTEX
  8
0
 10
3.80993471
 20
7.88066132
  0
VERTEX
  8
0
 10
3.83369279
 20
7.84397933
  0
VERTEX
  8
0
 10
3.86679816
 20
7.82405351
  0
VERTEX
  8
0
 10
3.95036157
 20
7.82191919
  0
VERTEX
  8
0
 10
4.11207496
 20
7.88066132
  0
VERTEX
  8
0
 10
4.11633046
 20
7.89768331
  0
VERTEX
  8
0
 10
4.18735305
 20
7.94426009
  0
VERTEX
  8
0
 10
4.23548436
 20
8.01258172
  0
VERTEX
  8
0
 10
4.18488126
 20
8.00652427
  0
VERTEX
  8
0
 10
4.14186253
 20
8.01604122
  0
VERTEX
  8
0
 10
4.05249801
 20
8.03385920
  0
SEQEND
  0
POLYLINE
  8
Default_Layer
 66
   1
 39
0.000000
 70
    1
  0
VERTEX
  8
0
 10
4.05249801
 20
7.81682888
  0
VERTEX
  8
0
 10
4.00568755
 20
7.79980689
  0
VERTEX
  8
0
 10
4.01133762
 20
7.76711606
  0
VERTEX
  8
0
 10
4.02696503
 20
7.73597444
  0
VERTEX
  8
0
 10
4.04398702
 20
7.66788650
  0
VERTEX
  8
0
 10
4.14822524
 20
7.70624267
  0
VERTEX
  8
0
 10
4.18984546
 20
7.73459962
  0
VERTEX
  8
0
 10
4.22271787
 20
7.77427391
  0
VERTEX
  8
0
 10
4.26043859
 20
7.88380183
  0
VERTEX
  8
0
 10
4.29080582
 20
8.00832622
  0
VERTEX
  8
0
 10
4.28655032
 20
8.00832622
  0
VERTEX
  8
0
 10
4.17994912
 20
7.90035826
  0
VERTEX
  8
0
 10
4.12024702
 20
7.85277670
  0
VERTEX
  8
0
 10
4.05249801
 20
7.81682888
  0
SEQEND
  0
POLYLINE
  8
Default_Layer
 66
   1
 39
0.000000
 70
    1
  0
VERTEX
  8
0
 10
4.01419854
 20
7.60830955
  0
VERTEX
  8
0
 10
3.98866556
 20
7.57852107
  0
VERTEX
  8
0
 10
4.02423438
 20
7.55985109
  0
VERTEX
  8
0
 10
4.07377549
 20
7.55724359
  0
VERTEX
  8
0
 10
4.08422375
 20
7.56785270
  0
VERTEX
  8
0
 10
4.09930847
 20
7.57001008
  0
VERTEX
  8
0
 10
4.17165191
 20
7.66788650
  0
VERTEX
  8
0
 10
4.08407454
 20
7.65036406
  0
VERTEX
  8
0
 10
4.01419854
 20
7.60830955
  0
SEQEND
  0
POLYLINE
  8
Default_Layer
 66
   1
 39
0.000000
 70
    1
  0
VERTEX
  8
0
 10
3.98866556
 20
8.15726860
  0
VERTEX
  8
0
 10
3.95887709
 20
8.11045814
  0
VERTEX
  8
0
 10
3.91206662
 20
8.13599112
  0
VERTEX
  8
0
 10
3.94313467
 20
8.16069470
  0
VERTEX
  8
0
 10
3.98866556
 20
8.15726860
  0
SEQEND
  0
POLYLINE
  8
Default_Layer
 66
   1
 39
0.000000
 70
    1
  0
VERTEX
  8
0
 10
3.76737974
 20
8.12748012
  0
VERTEX
  8
0
 10
3.81844570
 20
8.11045814
  0
VERTEX
  8
0
 10
3.81844570
 20
8.06364768
  0
VERTEX
  8
0
 10
3.78784405
 20
8.06041036
  0
VERTEX
  8
0
 10
3.76312424
 20
8.07215867
  0
VERTEX
  8
0
 10
3.76737974
 20
8.12748012
  0
SEQEND
  0
POLYLINE
  8
Default_Layer
 66
   1
 39
0.000000
 70
    1
  0
VERTEX
  8
0
 10
4.23548436
 20
8.01258172
  0
VERTEX
  8
0
 10
4.18735305
 20
7.94426009
  0
VERTEX
  8
0
 10
4.11633046
 20
7.89768331
  0
VERTEX
  8
0
 10
4.11207496
 20
7.88066132
  0
VERTEX
  8
0
 10
3.95036157
 20
7.82191919
  0
VERTEX
  8
0
 10
3.86679816
 20
7.82405351
  0
VERTEX
  8
0
 10
3.83369279
 20
7.84397933
  0
VERTEX
  8
0
 10
3.80993471
 20
7.88066132
  0
VERTEX
  8
0
 10
3.83121219
 20
7.94449377
  0
VERTEX
  8
0
 10
3.88313350
 20
7.95274071
  0
VERTEX
  8
0
 10
3.93334411
 20
7.94023828
  0
VERTEX
  8
0
 10
3.93334411
 20
7.92321629
  0
VERTEX
  8
0
 10
3.98289058
 20
7.92772802
  0
VERTEX
  8
0
 10
4.01354357
 20
7.95557913
  0
VERTEX
  8
0
 10
4.05249801
 20
8.03385920
  0
VERTEX
  8
0
 10
4.14186253
 20
8.01604122
  0
VERTEX
  8
0
 10
4.18488126
 20
8.00652427
  0
VERTEX
  8
0
 10
4.23548436
 20
8.01258172
  0
SEQEND
  0
POLYLINE
  8
Default_Layer
 66
   1
 39
0.000000
 70
    1
  0
VERTEX
  8
0
 10
4.28655032
 20
8.00832622
  0
VERTEX
  8
0
 10
4.29080582
 20
8.00832622
  0
VERTEX
  8
0
 10
4.26043859
 20
7.88380183
  0
VERTEX
  8
0
 10
4.22271787
 20
7.77427391
  0
VERTEX
  8
0
 10
4.18984546
 20
7.73459962
  0
VERTEX
  8
0
 10
4.14822524
 20
7.70624267
  0
VERTEX
  8
0
 10
4.04398702
 20
7.66788650
  0
VERTEX
  8
0
 10
4.02696503
 20
7.73597444
  0
VERTEX
  8
0
 10
4.01133762
 20
7.76711606
  0
VERTEX
  8
0
 10
4.00568755
 20
7.79980689
  0
VERTEX
  8
0
 10
4.05249801
 20
7.81682888
  0
VERTEX
  8
0
 10
4.12024702
 20
7.85277670
  0
VERTEX
  8
0
 10
4.17994912
 20
7.90035826
  0
VERTEX
  8
0
 10
4.28655032
 20
8.00832622
  0
SEQEND
  0
POLYLINE
  8
Default_Layer
 66
   1
 39
0.000000
 70
    1
  0
VERTEX
  8
0
 10
3.58864889
 20
7.81257338
  0
VERTEX
  8
0
 10
3.58864889
 20
7.80831788
  0
VERTEX
  8
0
 10
3.65537130
 20
7.74594031
  0
VERTEX
  8
0
 10
3.71271422
 20
7.66490244
  0
VERTEX
  8
0
 10
3.82695669
 20
7.49766664
  0
VERTEX
  8
0
 10
3.86100066
 20
7.45511167
  0
VERTEX
  8
0
 10
3.85701945
 20
7.42188532
  0
VERTEX
  8
0
 10
3.83660880
 20
7.38861512
  0
VERTEX
  8
0
 10
3.79291272
 20
7.33595777
  0
VERTEX
  8
0
 10
3.78014623
 20
7.29765830
  0
VERTEX
  8
0
 10
3.76312424
 20
7.29765830
  0
VERTEX
  8
0
 10
3.73386914
 20
7.26691958
  0
VERTEX
  8
0
 10
3.69442957
 20
7.24875823
  0
VERTEX
  8
0
 10
3.59624622
 20
7.24136202
  0
VERTEX
  8
0
 10
3.40140704
 20
7.28063631
  0
VERTEX
  8
0
 10
3.40957296
 20
7.32544313
  0
VERTEX
  8
0
 10
3.40140704
 20
7.36574624
  0
VERTEX
  8
0
 10
3.43545101
 20
7.41681220
  0
VERTEX
  8
0
 10
3.44821750
 20
7.50617763
  0
VERTEX
  8
0
 10
3.49077247
 20
7.57001008
  0
VERTEX
  8
0
 10
3.55193076
 20
7.68022079
  0
VERTEX
  8
0
 10
3.58864889
 20
7.81257338
  0
SEQEND
  0
POLYLINE
  8
Default_Layer
 66
   1
 39
0.000000
 70
    1
  0
VERTEX
  8
0
 10
4.17165191
 20
7.66788650
  0
VERTEX
  8
0
 10
4.09930847
 20
7.57001008
  0
VERTEX
  8
0
 10
4.08422375
 20
7.56785270
  0
VERTEX
  8
0
 10
4.07377549
 20
7.55724359
  0
VERTEX
  8
0
 10
4.02423438
 20
7.55985109
  0
VERTEX
  8
0
 10
3.98866556
 20
7.57852107
  0
VERTEX
  8
0
 10
4.01419854
 20
7.60830955
  0
VERTEX
  8
0
 10
4.08407454
 20
7.65036406
  0
VERTEX
  8
0
 10
4.17165191
 20
7.66788650
  0
SEQEND
  0
POLYLINE
  8
Default_Layer
 66
   1
 39
0.000000
 70
    1
  0
VERTEX
  8
0
 10
4.40144873
 20
7.60830955
  0
VERTEX
  8
0
 10
4.38017124
 20
7.37000174
  0
VERTEX
  8
0
 10
4.31048940
 20
7.35485866
  0
VERTEX
  8
0
 10
4.25676184
 20
7.32319128
  0
VERTEX
  8
0
 10
4.24879885
 20
7.26278312
  0
VERTEX
  8
0
 10
4.25250635
 20
7.19552638
  0
VERTEX
  8
0
 10
4.19292939
 20
7.14020493
  0
VERTEX
  8
0
 10
4.12757295
 20
7.12754169
  0
VERTEX
  8
0
 10
4.09079748
 20
7.08913897
  0
VERTEX
  8
0
 10
4.07377549
 20
6.98275155
  0
VERTEX
  8
0
 10
4.03547602
 20
6.94019659
  0
VERTEX
  8
0
 10
4.00568755
 20
6.88487513
  0
VERTEX
  8
0
 10
3.93699947
 20
6.86986323
  0
VERTEX
  8
0
 10
3.88653364
 20
6.83806467
  0
VERTEX
  8
0
 10
3.85248967
 20
6.66784481
  0
VERTEX
  8
0
 10
3.76737974
 20
6.60401236
  0
VERTEX
  8
0
 10
3.71435776
 20
6.60414928
  0
VERTEX
  8
0
 10
3.68135594
 20
6.58572687
  0
VERTEX
  8
0
 10
3.63971484
 20
6.52315793
  0
VERTEX
  8
0
 10
3.52481644
 20
6.55294640
  0
VERTEX
  8
0
 10
3.54609392
 20
6.57422389
  0
VERTEX
  8
0
 10
3.57655812
 20
6.66342750
  0
VERTEX
  8
0
 10
3.57558541
 20
6.71307358
  0
VERTEX
  8
0
 10
3.55886041
 20
6.75295474
  0
VERTEX
  8
0
 10
3.51302233
 20
6.78692408
  0
VERTEX
  8
0
 10
3.44396200
 20
6.79976520
  0
VERTEX
  8
0
 10
3.43545101
 20
6.85934215
  0
VERTEX
  8
0
 10
3.51586250
 20
6.89890758
  0
VERTEX
  8
0
 10
3.54111452
 20
6.93099418
  0
VERTEX
  8
0
 10
3.55034942
 20
6.97424056
  0
VERTEX
  8
0
 10
3.54222851
 20
7.02317555
  0
VERTEX
  8
0
 10
3.51754449
 20
7.06287186
  0
VERTEX
  8
0
 10
3.44821750
 20
7.12318294
  0
VERTEX
  8
0
 10
3.45159152
 20
7.17833556
  0
VERTEX
  8
0
 10
3.44821750
 20
7.23382585
  0
VERTEX
  8
0
 10
3.53989856
 20
7.21434818
  0
VERTEX
  8
0
 10
3.63545935
 20
7.20829287
  0
VERTEX
  8
0
 10
3.72692091
 20
7.22976909
  0
VERTEX
  8
0
 10
3.79489137
 20
7.27780502
  0
VERTEX
  8
0
 10
3.84591439
 20
7.34321472
  0
VERTEX
  8
0
 10
3.88653364
 20
7.41681220
  0
VERTEX
  8
0
 10
4.02455176
 20
7.40733008
  0
VERTEX
  8
0
 10
4.15447003
 20
7.42002542
  0
VERTEX
  8
0
 10
4.26531850
 20
7.45771101
  0
VERTEX
  8
0
 10
4.34612727
 20
7.52319961
  0
VERTEX
  8
0
 10
4.37166025
 20
7.56575458
  0
VERTEX
  8
0
 10
4.39719323
 20
7.60405405
  0
VERTEX
  8
0
 10
4.40144873
 20
7.60830955
  0
SEQEND
  0
POLYLINE
  8
Default_Layer
 66
   1
 39
0.000000
 70
    1
  0
VERTEX
  8
0
 10
3.38864055
 20
7.53171061
  0
VERTEX
  8
0
 10
3.40140704
 20
7.43383419
  0
VERTEX
  8
0
 10
3.37380286
 20
7.40863181
  0
VERTEX
  8
0
 10
3.33757459
 20
7.39127922
  0
VERTEX
  8
0
 10
3.34545747
 20
7.36540644
  0
VERTEX
  8
0
 10
3.36736307
 20
7.34872426
  0
VERTEX
  8
0
 10
3.36310757
 20
7.29765830
  0
VERTEX
  8
0
 10
3.24631323
 20
7.25115604
  0
VERTEX
  8
0
 10
3.18178963
 20
7.24700988
  0
VERTEX
  8
0
 10
3.12479976
 20
7.27212532
  0
VERTEX
  8
0
 10
3.08224480
 20
7.34021326
  0
VERTEX
  8
0
 10
3.09397257
 20
7.39168365
  0
VERTEX
  8
0
 10
3.12054427
 20
7.43383419
  0
VERTEX
  8
0
 10
3.15959930
 20
7.44179159
  0
VERTEX
  8
0
 10
3.20565420
 20
7.43808968
  0
VERTEX
  8
0
 10
3.23021671
 20
7.50501838
  0
VERTEX
  8
0
 10
3.24146288
 20
7.53763234
  0
VERTEX
  8
0
 10
3.26523115
 20
7.55724359
  0
VERTEX
  8
0
 10
3.32668243
 20
7.55383174
  0
VERTEX
  8
0
 10
3.38864055
 20
7.53171061
  0
SEQEND
  0
POLYLINE
  8
Default_Layer
 66
   1
 39
0.000000
 70
    1
  0
VERTEX
  8
0
 10
4.53762461
 20
7.21680386
  0
VERTEX
  8
0
 10
4.56066877
 20
7.19017829
  0
VERTEX
  8
0
 10
4.60145706
 20
7.18275989
  0
VERTEX
  8
0
 10
4.61366797
 20
7.13610667
  0
VERTEX
  8
0
 10
4.60436750
 20
7.09229463
  0
VERTEX
  8
0
 10
4.57765370
 20
7.05860738
  0
VERTEX
  8
0
 10
4.53762461
 20
7.04232851
  0
VERTEX
  8
0
 10
4.52173674
 20
7.06859568
  0
VERTEX
  8
0
 10
4.49604820
 20
7.08383843
  0
VERTEX
  8
0
 10
4.42698170
 20
7.09339446
  0
VERTEX
  8
0
 10
4.43549270
 20
7.13169393
  0
VERTEX
  8
0
 10
4.46102568
 20
7.12318294
  0
VERTEX
  8
0
 10
4.49438505
 20
7.16066833
  0
VERTEX
  8
0
 10
4.50358064
 20
7.22105936
  0
VERTEX
  8
0
 10
4.44847228
 20
7.22889469
  0
VERTEX
  8
0
 10
4.39719323
 20
7.21254837
  0
VERTEX
  8
0
 10
4.38868224
 20
7.19127088
  0
VERTEX
  8
0
 10
4.37591575
 20
7.19127088
  0
VERTEX
  8
0
 10
4.36314926
 20
7.20829287
  0
VERTEX
  8
0
 10
4.28655032
 20
7.21680386
  0
VERTEX
  8
0
 10
4.27803933
 20
7.24233684
  0
VERTEX
  8
0
 10
4.29506131
 20
7.31893578
  0
VERTEX
  8
0
 10
4.35889376
 20
7.33595777
  0
VERTEX
  8
0
 10
4.40144873
 20
7.26786982
  0
VERTEX
  8
0
 10
4.44861952
 20
7.29907346
  0
VERTEX
  8
0
 10
4.48230316
 20
7.34021326
  0
VERTEX
  8
0
 10
4.54188011
 20
7.34872426
  0
VERTEX
  8
0
 10
4.57557290
 20
7.31991619
  0
VERTEX
  8
0
 10
4.58869057
 20
7.27212532
  0
VERTEX
  8
0
 10
4.56578589
 20
7.24247972
  0
VERTEX
  8
0
 10
4.53762461
 20
7.21680386
  0
SEQEND
  0
POLYLINE
  8
Default_Layer
 66
   1
 39
0.000000
 70
    1
  0
VERTEX
  8
0
 10
3.11628877
 20
7.21254837
  0
VERTEX
  8
0
 10
2.94181341
 20
7.01254003
  0
VERTEX
  8
0
 10
2.93174180
 20
6.96195075
  0
VERTEX
  8
0
 10
2.90594272
 20
6.92265091
  0
VERTEX
  8
0
 10
2.83542600
 20
6.86359765
  0
VERTEX
  8
0
 10
2.77584905
 20
6.81678719
  0
VERTEX
  8
0
 10
2.70776110
 20
6.77423222
  0
VERTEX
  8
0
 10
2.67371713
 20
6.72742176
  0
VERTEX
  8
0
 10
2.60223690
 20
6.60268227
  0
VERTEX
  8
0
 10
2.54692658
 20
6.44457316
  0
VERTEX
  8
0
 10
2.53267018
 20
6.27788211
  0
VERTEX
  8
0
 10
2.54871345
 20
6.19906449
  0
VERTEX
  8
0
 10
2.58435170
 20
6.12739675
  0
VERTEX
  8
0
 10
2.60137369
 20
6.09760827
  0
VERTEX
  8
0
 10
2.58009621
 20
6.03803132
  0
VERTEX
  8
0
 10
2.52051926
 20
5.85930047
  0
VERTEX
  8
0
 10
2.40003562
 20
5.87663513
  0
VERTEX
  8
0
 10
2.27370046
 20
5.88483345
  0
VERTEX
  8
0
 10
2.22263450
 20
5.86355596
  0
VERTEX
  8
0
 10
2.46094230
 20
5.82951199
  0
VERTEX
  8
0
 10
2.52477475
 20
5.80397901
  0
VERTEX
  8
0
 10
2.50899271
 20
5.79714378
  0
VERTEX
  8
0
 10
2.49073078
 20
5.79972352
  0
VERTEX
  8
0
 10
2.28646695
 20
5.80397901
  0
VERTEX
  8
0
 10
2.24776586
 20
5.80535024
  0
VERTEX
  8
0
 10
2.22688999
 20
5.78695703
  0
VERTEX
  8
0
 10
2.23907869
 20
5.77889169
  0
VERTEX
  8
0
 10
2.25667847
 20
5.77844603
  0
VERTEX
  8
0
 10
2.58000727
 20
5.74355469
  0
VERTEX
  8
0
 10
2.88649196
 20
5.67205862
  0
VERTEX
  8
0
 10
3.16309923
 20
5.59971518
  0
VERTEX
  8
0
 10
3.29927512
 20
5.55716021
  0
VERTEX
  8
0
 10
3.36426491
 20
5.53111498
  0
VERTEX
  8
0
 10
3.40566254
 20
5.49332777
  0
VERTEX
  8
0
 10
3.39660258
 20
5.47100891
  0
VERTEX
  8
0
 10
3.37587406
 20
5.45502830
  0
VERTEX
  8
0
 10
3.36628850
 20
5.37734027
  0
VERTEX
  8
0
 10
3.36310757
 20
5.29331943
  0
VERTEX
  8
0
 10
3.15663960
 20
5.28925617
  0
VERTEX
  8
0
 10
2.95457990
 20
5.29331943
  0
VERTEX
  8
0
 10
2.50511819
 20
5.35309144
  0
VERTEX
  8
0
 10
2.30409406
 20
5.40628545
  0
VERTEX
  8
0
 10
2.13326907
 20
5.49332777
  0
VERTEX
  8
0
 10
2.13326907
 20
5.51460525
  0
VERTEX
  8
0
 10
2.07940417
 20
5.55668839
  0
VERTEX
  8
0
 10
2.02688166
 20
5.60397068
  0
VERTEX
  8
0
 10
1.96730471
 20
5.73589107
  0
VERTEX
  8
0
 10
2.01312326
 20
5.85975762
  0
VERTEX
  8
0
 10
2.08259935
 20
5.96952107
  0
VERTEX
  8
0
 10
2.23540099
 20
6.17420721
  0
VERTEX
  8
0
 10
2.27370046
 20
6.25080615
  0
VERTEX
  8
0
 10
2.32476641
 20
6.31889409
  0
VERTEX
  8
0
 10
2.69499461
 20
6.83380918
  0
VERTEX
  8
0
 10
2.72052759
 20
6.86359765
  0
VERTEX
  8
0
 10
2.75031607
 20
6.92317460
  0
VERTEX
  8
0
 10
2.86095898
 20
7.09339446
  0
VERTEX
  8
0
 10
2.94957246
 20
7.19438974
  0
VERTEX
  8
0
 10
3.00366591
 20
7.23532224
  0
VERTEX
  8
0
 10
3.06522281
 20
7.26361433
  0
VERTEX
  8
0
 10
3.11628877
 20
7.21254837
  0
SEQEND
  0
POLYLINE
  8
Default_Layer
 66
   1
 39
0.000000
 70
    1
  0
VERTEX
  8
0
 10
3.40140704
 20
7.12318294
  0
VERTEX
  8
0
 10
3.37161856
 20
7.11467195
  0
VERTEX
  8
0
 10
3.36736307
 20
7.07637248
  0
VERTEX
  8
0
 10
3.48226147
 20
7.06786149
  0
VERTEX
  8
0
 10
3.50079033
 20
7.02584287
  0
VERTEX
  8
0
 10
3.51204995
 20
6.98275155
  0
VERTEX
  8
0
 10
3.48571805
 20
6.93138463
  0
VERTEX
  8
0
 10
3.44396200
 20
6.89338613
  0
VERTEX
  8
0
 10
3.41262006
 20
6.91042508
  0
VERTEX
  8
0
 10
3.38864055
 20
6.93168560
  0
VERTEX
  8
0
 10
3.29927512
 20
6.92743010
  0
VERTEX
  8
0
 10
3.21129789
 20
6.87244744
  0
VERTEX
  8
0
 10
3.15897070
 20
6.85249198
  0
VERTEX
  8
0
 10
3.10777778
 20
6.86785315
  0
VERTEX
  8
0
 10
3.08224480
 20
6.89764162
  0
VERTEX
  8
0
 10
3.09268858
 20
6.94306118
  0
VERTEX
  8
0
 10
3.12054427
 20
6.97849606
  0
VERTEX
  8
0
 10
3.17161023
 20
7.00402904
  0
VERTEX
  8
0
 10
3.17586572
 20
7.03807301
  0
VERTEX
  8
0
 10
3.14607725
 20
7.05509500
  0
VERTEX
  8
0
 10
3.12591635
 20
7.08178039
  0
VERTEX
  8
0
 10
3.11892244
 20
7.11451024
  0
VERTEX
  8
0
 10
3.12550594
 20
7.14625707
  0
VERTEX
  8
0
 10
3.14607725
 20
7.16999340
  0
VERTEX
  8
0
 10
3.20070947
 20
7.18340135
  0
VERTEX
  8
0
 10
3.25672016
 20
7.16573791
  0
VERTEX
  8
0
 10
3.27799764
 20
7.17850440
  0
VERTEX
  8
0
 10
3.25246466
 20
7.21680386
  0
VERTEX
  8
0
 10
3.33349251
 20
7.22984260
  0
VERTEX
  8
0
 10
3.37059614
 20
7.23293285
  0
VERTEX
  8
0
 10
3.39715154
 20
7.21680386
  0
VERTEX
  8
0
 10
3.40400848
 20
7.17576832
  0
VERTEX
  8
0
 10
3.40140704
 20
7.12318294
  0
SEQEND
  0
POLYLINE
  8
Default_Layer
 66
   1
 39
0.000000
 70
    1
  0
VERTEX
  8
0
 10
4.43123720
 20
7.19552638
  0
VERTEX
  8
0
 10
4.46102568
 20
7.19127088
  0
VERTEX
  8
0
 10
4.46528117
 20
7.17424890
  0
VERTEX
  8
0
 10
4.42272621
 20
7.18275989
  0
VERTEX
  8
0
 10
4.43123720
 20
7.19552638
  0
SEQEND
  0
POLYLINE
  8
Default_Layer
 66
   1
 39
0.000000
 70
    1
  0
VERTEX
  8
0
 10
8.00585429
 20
7.18275989
  0
VERTEX
  8
0
 10
7.91830748
 20
7.09154544
  0
VERTEX
  8
0
 10
7.79519817
 20
7.03426780
  0
VERTEX
  8
0
 10
7.64762428
 20
7.00123411
  0
VERTEX
  8
0
 10
7.48668372
 20
6.98275155
  0
VERTEX
  8
0
 10
7.40582928
 20
6.97424056
  0
VERTEX
  8
0
 10
7.37100357
 20
6.95274206
  0
VERTEX
  8
0
 10
7.34199683
 20
6.91891911
  0
VERTEX
  8
0
 10
7.32418045
 20
6.87926368
  0
VERTEX
  8
0
 10
7.32071935
 20
6.82955368
  0
VERTEX
  8
0
 10
7.34027426
 20
6.76606805
  0
VERTEX
  8
0
 10
7.37178531
 20
6.71891077
  0
VERTEX
  8
0
 10
7.40582928
 20
6.67635580
  0
VERTEX
  8
0
 10
7.43987325
 20
6.63380084
  0
VERTEX
  8
0
 10
7.42198495
 20
6.58467294
  0
VERTEX
  8
0
 10
7.38455180
 20
6.55294640
  0
VERTEX
  8
0
 10
7.35581656
 20
6.55833849
  0
VERTEX
  8
0
 10
7.33774134
 20
6.57847938
  0
VERTEX
  8
0
 10
7.27816439
 20
6.66358931
  0
VERTEX
  8
0
 10
7.20362660
 20
6.68526947
  0
VERTEX
  8
0
 10
7.11220002
 20
6.68486680
  0
VERTEX
  8
0
 10
7.10368903
 20
6.70188878
  0
VERTEX
  8
0
 10
7.07462544
 20
6.71470743
  0
VERTEX
  8
0
 10
7.06436957
 20
6.74666320
  0
VERTEX
  8
0
 10
7.05887919
 20
6.78389249
  0
VERTEX
  8
0
 10
7.04411208
 20
6.81253169
  0
VERTEX
  8
0
 10
7.02114082
 20
6.79829400
  0
VERTEX
  8
0
 10
7.01865734
 20
6.76787685
  0
VERTEX
  8
0
 10
7.03560108
 20
6.70614428
  0
VERTEX
  8
0
 10
6.98198342
 20
6.65098634
  0
VERTEX
  8
0
 10
6.90793619
 20
6.61677885
  0
VERTEX
  8
0
 10
6.87814771
 20
6.71891077
  0
VERTEX
  8
0
 10
6.86112572
 20
6.73167726
  0
VERTEX
  8
0
 10
6.89522443
 20
6.79340446
  0
VERTEX
  8
0
 10
6.91324598
 20
6.83160183
  0
VERTEX
  8
0
 10
6.91644718
 20
6.86785315
  0
VERTEX
  8
0
 10
6.88665870
 20
6.88913063
  0
VERTEX
  8
0
 10
7.07388156
 20
6.99537171
  0
VERTEX
  8
0
 10
7.24837591
 20
7.11467195
  0
VERTEX
  8
0
 10
7.27034624
 20
7.13728018
  0
VERTEX
  8
0
 10
7.29944187
 20
7.14446042
  0
VERTEX
  8
0
 10
7.30017147
 20
7.13580389
  0
VERTEX
  8
0
 10
7.28667538
 20
7.12743844
  0
VERTEX
  8
0
 10
7.27390889
 20
7.10190546
  0
VERTEX
  8
0
 10
7.30891700
 20
7.10581764
  0
VERTEX
  8
0
 10
7.33774134
 20
7.11892744
  0
VERTEX
  8
0
 10
7.46115074
 20
7.11467195
  0
VERTEX
  8
0
 10
7.55477166
 20
7.11041645
  0
VERTEX
  8
0
 10
7.64839258
 20
7.10616095
  0
VERTEX
  8
0
 10
7.72924702
 20
7.12743844
  0
VERTEX
  8
0
 10
7.86229326
 20
7.15912731
  0
VERTEX
  8
0
 10
8.00585429
 20
7.18275989
  0
SEQEND
  0
POLYLINE
  8
Default_Layer
 66
   1
 39
0.000000
 70
    1
  0
VERTEX
  8
0
 10
7.43561776
 20
7.17424890
  0
VERTEX
  8
0
 10
7.55477166
 20
7.15297142
  0
VERTEX
  8
0
 10
7.43136226
 20
7.16148241
  0
VERTEX
  8
0
 10
7.43561776
 20
7.17424890
  0
SEQEND
  0
POLYLINE
  8
Default_Layer
 66
   1
 39
0.000000
 70
    1
  0
VERTEX
  8
0
 10
4.36740475
 20
7.06786149
  0
VERTEX
  8
0
 10
4.37166025
 20
7.04658400
  0
VERTEX
  8
0
 10
4.42710304
 20
7.04377144
  0
VERTEX
  8
0
 10
4.48655866
 20
7.05083950
  0
VERTEX
  8
0
 10
4.49081415
 20
7.00828453
  0
VERTEX
  8
0
 10
4.51209164
 20
7.00402904
  0
VERTEX
  8
0
 10
4.48655866
 20
6.91466361
  0
VERTEX
  8
0
 10
4.44115256
 20
6.91973776
  0
VERTEX
  8
0
 10
4.39719323
 20
6.92317460
  0
VERTEX
  8
0
 10
4.39961030
 20
6.85776874
  0
VERTEX
  8
0
 10
4.38868224
 20
6.79976520
  0
VERTEX
  8
0
 10
4.34612727
 20
6.79550971
  0
VERTEX
  8
0
 10
4.31633879
 20
6.83380918
  0
VERTEX
  8
0
 10
4.23973986
 20
6.85508666
  0
VERTEX
  8
0
 10
4.25676184
 20
6.92317460
  0
VERTEX
  8
0
 10
4.30357230
 20
6.90189712
  0
VERTEX
  8
0
 10
4.34604556
 20
6.93709290
  0
VERTEX
  8
0
 10
4.36052122
 20
6.96098584
  0
VERTEX
  8
0
 10
4.36314926
 20
6.99126255
  0
VERTEX
  8
0
 10
4.33996185
 20
7.02314366
  0
VERTEX
  8
0
 10
4.29893929
 20
7.02987288
  0
VERTEX
  8
0
 10
4.25916937
 20
7.01410531
  0
VERTEX
  8
0
 10
4.23973986
 20
6.97849606
  0
VERTEX
  8
0
 10
4.11633046
 20
7.00402904
  0
VERTEX
  8
0
 10
4.10992210
 20
7.04250112
  0
VERTEX
  8
0
 10
4.12484145
 20
7.07637248
  0
VERTEX
  8
0
 10
4.15462993
 20
7.09339446
  0
VERTEX
  8
0
 10
4.19110443
 20
7.07438676
  0
VERTEX
  8
0
 10
4.23122886
 20
7.05509500
  0
VERTEX
  8
0
 10
4.23973986
 20
7.14020493
  0
VERTEX
  8
0
 10
4.28333726
 20
7.16247118
  0
VERTEX
  8
0
 10
4.33556672
 20
7.16418981
  0
VERTEX
  8
0
 10
4.37499060
 20
7.13795788
  0
VERTEX
  8
0
 10
4.38017124
 20
7.07637248
  0
VERTEX
  8
0
 10
4.36740475
 20
7.06786149
  0
SEQEND
  0
POLYLINE
  8
Default_Layer
 66
   1
 39
0.000000
 70
    1
  0
VERTEX
  8
0
 10
3.07373381
 20
7.11467195
  0
VERTEX
  8
0
 10
3.07798930
 20
7.07637248
  0
VERTEX
  8
0
 10
3.09075579
 20
7.06786149
  0
VERTEX
  8
0
 10
3.09535800
 20
7.05167517
  0
VERTEX
  8
0
 10
3.10777778
 20
7.04232851
  0
VERTEX
  8
0
 10
3.07526844
 20
6.95936143
  0
VERTEX
  8
0
 10
3.04820083
 20
6.87210864
  0
VERTEX
  8
0
 10
3.06096732
 20
6.86785315
  0
VERTEX
  8
0
 10
3.05671182
 20
6.85083116
  0
VERTEX
  8
0
 10
3.07855794
 20
6.83153770
  0
VERTEX
  8
0
 10
3.10352228
 20
6.81678719
  0
VERTEX
  8
0
 10
3.19714320
 20
6.82104269
  0
VERTEX
  8
0
 10
3.19714320
 20
6.80402070
  0
VERTEX
  8
0
 10
3.16309923
 20
6.79550971
  0
VERTEX
  8
0
 10
3.07165627
 20
6.73703700
  0
VERTEX
  8
0
 10
3.03746405
 20
6.68977403
  0
VERTEX
  8
0
 10
3.02692334
 20
6.63380084
  0
VERTEX
  8
0
 10
3.04875893
 20
6.58713320
  0
VERTEX
  8
0
 10
3.08650029
 20
6.55294640
  0
VERTEX
  8
0
 10
3.08281184
 20
6.49689354
  0
VERTEX
  8
0
 10
3.09501129
 20
6.45081449
  0
VERTEX
  8
0
 10
3.11576322
 20
6.43659506
  0
VERTEX
  8
0
 10
3.12054427
 20
6.41677051
  0
VERTEX
  8
0
 10
3.10352228
 20
6.40825952
  0
VERTEX
  8
0
 10
3.10049864
 20
6.39080996
  0
VERTEX
  8
0
 10
3.08650029
 20
6.38272654
  0
VERTEX
  8
0
 10
3.06096732
 20
6.31463860
  0
VERTEX
  8
0
 10
2.95597418
 20
6.33141984
  0
VERTEX
  8
0
 10
2.86969812
 20
6.37253888
  0
VERTEX
  8
0
 10
2.80458546
 20
6.43790149
  0
VERTEX
  8
0
 10
2.76308256
 20
6.52741342
  0
VERTEX
  8
0
 10
2.74606057
 20
6.59975687
  0
VERTEX
  8
0
 10
2.73754958
 20
6.67210031
  0
VERTEX
  8
0
 10
2.75731663
 20
6.73446987
  0
VERTEX
  8
0
 10
2.79287103
 20
6.78699871
  0
VERTEX
  8
0
 10
2.88649196
 20
6.85083116
  0
VERTEX
  8
0
 10
2.88649196
 20
6.86785315
  0
VERTEX
  8
0
 10
2.90351394
 20
6.86785315
  0
VERTEX
  8
0
 10
2.91202494
 20
6.88913063
  0
VERTEX
  8
0
 10
2.96624431
 20
6.93036712
  0
VERTEX
  8
0
 10
3.00551820
 20
6.98746526
  0
VERTEX
  8
0
 10
3.07373381
 20
7.11467195
  0
SEQEND
  0
POLYLINE
  8
Default_Layer
 66
   1
 39
0.000000
 70
    1
  0
VERTEX
  8
0
 10
6.90793619
 20
7.06786149
  0
VERTEX
  8
0
 10
6.91470572
 20
7.04886628
  0
VERTEX
  8
0
 10
6.92921367
 20
7.03381751
  0
VERTEX
  8
0
 10
6.91937906
 20
6.98226813
  0
VERTEX
  8
0
 10
6.89516970
 20
6.94019659
  0
VERTEX
  8
0
 10
6.87389221
 20
6.92317460
  0
VERTEX
  8
0
 10
6.78452679
 20
6.94019659
  0
VERTEX
  8
0
 10
6.78793294
 20
6.99595022
  0
VERTEX
  8
0
 10
6.80745583
 20
7.04006772
  0
VERTEX
  8
0
 10
6.84636655
 20
7.06616588
  0
VERTEX
  8
0
 10
6.90793619
 20
7.06786149
  0
SEQEND
  0
POLYLINE
  8
Default_Layer
 66
   1
 39
0.000000
 70
    1
  0
VERTEX
  8
0
 10
5.12913863
 20
6.79125421
  0
VERTEX
  8
0
 10
5.04828420
 20
6.72742176
  0
VERTEX
  8
0
 10
4.99880383
 20
6.67112898
  0
VERTEX
  8
0
 10
4.95962598
 20
6.60424413
  0
VERTEX
  8
0
 10
4.93179714
 20
6.52554077
  0
VERTEX
  8
0
 10
4.91636381
 20
6.43379250
  0
VERTEX
  8
0
 10
4.71148723
 20
6.50351674
  0
VERTEX
  8
0
 10
4.48655866
 20
6.55294640
  0
VERTEX
  8
0
 10
4.50248980
 20
6.57051916
  0
VERTEX
  8
0
 10
4.52485812
 20
6.57847938
  0
VERTEX
  8
0
 10
4.66609114
 20
6.62338663
  0
VERTEX
  8
0
 10
4.82274288
 20
6.65507832
  0
VERTEX
  8
0
 10
4.84674197
 20
6.65867698
  0
VERTEX
  8
0
 10
4.86104235
 20
6.67635580
  0
VERTEX
  8
0
 10
4.82666767
 20
6.69150968
  0
VERTEX
  8
0
 10
4.77593242
 20
6.69337779
  0
VERTEX
  8
0
 10
4.67927285
 20
6.67410929
  0
VERTEX
  8
0
 10
4.58445481
 20
6.63792340
  0
VERTEX
  8
0
 10
4.41421521
 20
6.55720190
  0
VERTEX
  8
0
 10
4.44707121
 20
6.72876591
  0
VERTEX
  8
0
 10
4.50358064
 20
6.88487513
  0
VERTEX
  8
0
 10
4.53791484
 20
6.95078395
  0
VERTEX
  8
0
 10
4.58017958
 20
7.00402904
  0
VERTEX
  8
0
 10
4.61422355
 20
7.02956202
  0
VERTEX
  8
0
 10
4.63975653
 20
7.05935049
  0
VERTEX
  8
0
 10
4.80417105
 20
7.03826729
  0
VERTEX
  8
0
 10
4.93772486
 20
6.98154751
  0
VERTEX
  8
0
 10
5.04464002
 20
6.89670516
  0
VERTEX
  8
0
 10
5.12913863
 20
6.79125421
  0
SEQEND
  0
POLYLINE
  8
Default_Layer
 66
   1
 39
0.000000
 70
    1
  0
VERTEX
  8
0
 10
4.31208330
 20
6.99977354
  0
VERTEX
  8
0
 10
4.32484979
 20
6.99977354
  0
VERTEX
  8
0
 10
4.31743772
 20
6.96355698
  0
VERTEX
  8
0
 10
4.29931681
 20
6.94019659
  0
VERTEX
  8
0
 10
4.26952833
 20
6.95296308
  0
VERTEX
  8
0
 10
4.26952833
 20
6.97849606
  0
VERTEX
  8
0
 10
4.31208330
 20
6.97849606
  0
VERTEX
  8
0
 10
4.31208330
 20
6.99977354
  0
SEQEND
  0
POLYLINE
  8
Default_Layer
 66
   1
 39
0.000000
 70
    1
  0
VERTEX
  8
0
 10
7.74626900
 20
6.97424056
  0
VERTEX
  8
0
 10
7.77605748
 20
6.93594109
  0
VERTEX
  8
0
 10
7.82712344
 20
6.89338613
  0
VERTEX
  8
0
 10
7.82712344
 20
6.86785315
  0
VERTEX
  8
0
 10
7.77517107
 20
6.86550207
  0
VERTEX
  8
0
 10
7.72892892
 20
6.87920346
  0
VERTEX
  8
0
 10
7.65264808
 20
6.92743010
  0
VERTEX
  8
0
 10
7.63578791
 20
6.94291197
  0
VERTEX
  8
0
 10
7.63137060
 20
6.96147407
  0
VERTEX
  8
0
 10
7.65690358
 20
6.96572957
  0
VERTEX
  8
0
 10
7.74626900
 20
6.97424056
  0
SEQEND
  0
POLYLINE
  8
Default_Layer
 66
   1
 39
0.000000
 70
    1
  0
VERTEX
  8
0
 10
4.20569588
 20
6.87210864
  0
VERTEX
  8
0
 10
4.18867390
 20
6.85508666
  0
VERTEX
  8
0
 10
4.17165191
 20
6.84657567
  0
VERTEX
  8
0
 10
4.16739642
 20
6.82104269
  0
VERTEX
  8
0
 10
4.29931681
 20
6.79550971
  0
VERTEX
  8
0
 10
4.29837794
 20
6.74687704
  0
VERTEX
  8
0
 10
4.28229482
 20
6.70614428
  0
VERTEX
  8
0
 10
4.19718489
 20
6.68912229
  0
VERTEX
  8
0
 10
4.19292939
 20
6.66358931
  0
VERTEX
  8
0
 10
4.21846237
 20
6.65082282
  0
VERTEX
  8
0
 10
4.23122886
 20
6.61252336
  0
VERTEX
  8
0
 10
4.20853430
 20
6.55584413
  0
VERTEX
  8
0
 10
4.17590741
 20
6.51039144
  0
VERTEX
  8
0
 10
4.13801717
 20
6.49514413
  0
VERTEX
  8
0
 10
4.09384271
 20
6.49551167
  0
VERTEX
  8
0
 10
4.00143205
 20
6.51464694
  0
VERTEX
  8
0
 10
4.01395290
 20
6.57990418
  0
VERTEX
  8
0
 10
3.99401562
 20
6.62898277
  0
VERTEX
  8
0
 10
3.95438133
 20
6.66451228
  0
VERTEX
  8
0
 10
3.90781113
 20
6.68912229
  0
VERTEX
  8
0
 10
3.89733215
 20
6.73590277
  0
VERTEX
  8
0
 10
3.90492941
 20
6.77759651
  0
VERTEX
  8
0
 10
3.94611060
 20
6.84657567
  0
VERTEX
  8
0
 10
3.99642908
 20
6.82088896
  0
VERTEX
  8
0
 10
4.01975928
 20
6.80992283
  0
VERTEX
  8
0
 10
4.04824251
 20
6.81678719
  0
VERTEX
  8
0
 10
4.04951124
 20
6.87453114
  0
VERTEX
  8
0
 10
4.06526450
 20
6.91891911
  0
VERTEX
  8
0
 10
4.08226404
 20
6.93339912
  0
VERTEX
  8
0
 10
4.09079748
 20
6.95296308
  0
VERTEX
  8
0
 10
4.18117465
 20
6.94614412
  0
VERTEX
  8
0
 10
4.20450238
 20
6.91991441
  0
VERTEX
  8
0
 10
4.20569588
 20
6.87210864
  0
SEQEND
  0
POLYLINE
  8
Default_Layer
 66
   1
 39
0.000000
 70
    1
  0
VERTEX
  8
0
 10
7.57604914
 20
6.94019659
  0
VERTEX
  8
0
 10
7.57293316
 20
6.89173547
  0
VERTEX
  8
0
 10
7.55051616
 20
6.85083116
  0
VERTEX
  8
0
 10
7.51543422
 20
6.81986115
  0
VERTEX
  8
0
 10
7.46540623
 20
6.81678719
  0
VERTEX
  8
0
 10
7.47818935
 20
6.85921125
  0
VERTEX
  8
0
 10
7.50021396
 20
6.89172563
  0
VERTEX
  8
0
 10
7.54626067
 20
6.95296308
  0
VERTEX
  8
0
 10
7.57604914
 20
6.94019659
  0
SEQEND
  0
POLYLINE
  8
Default_Layer
 66
   1
 39
0.000000
 70
    1
  0
VERTEX
  8
0
 10
7.48242822
 20
6.94445209
  0
VERTEX
  8
0
 10
7.45600573
 20
6.89504034
  0
VERTEX
  8
0
 10
7.43331190
 20
6.88376706
  0
VERTEX
  8
0
 10
7.40582928
 20
6.89338613
  0
VERTEX
  8
0
 10
7.43134710
 20
6.93166852
  0
VERTEX
  8
0
 10
7.48242822
 20
6.94445209
  0
SEQEND
  0
POLYLINE
  8
Default_Layer
 66
   1
 39
0.000000
 70
    1
  0
VERTEX
  8
0
 10
7.61860411
 20
6.90189712
  0
VERTEX
  8
0
 10
7.66115907
 20
6.87210864
  0
VERTEX
  8
0
 10
7.63439067
 20
6.79481143
  0
VERTEX
  8
0
 10
7.60158212
 20
6.72316627
  0
VERTEX
  8
0
 10
7.58030464
 20
6.72316627
  0
VERTEX
  8
0
 10
7.56328265
 20
6.77848772
  0
VERTEX
  8
0
 10
7.61860411
 20
6.90189712
  0
SEQEND
  0
POLYLINE
  8
Default_Layer
 66
   1
 39
0.000000
 70
    1
  0
VERTEX
  8
0
 10
3.40566254
 20
6.75721024
  0
VERTEX
  8
0
 10
3.49084343
 20
6.73957174
  0
VERTEX
  8
0
 10
3.52530888
 20
6.72260978
  0
VERTEX
  8
0
 10
3.54609392
 20
6.69337779
  0
VERTEX
  8
0
 10
3.54975675
 20
6.65524120
  0
VERTEX
  8
0
 10
3.53538959
 20
6.62190960
  0
VERTEX
  8
0
 10
3.48651697
 20
6.56996839
  0
VERTEX
  8
0
 10
3.39567241
 20
6.58236137
  0
VERTEX
  8
0
 10
3.31712821
 20
6.55764766
  0
VERTEX
  8
0
 10
3.25412656
 20
6.50824197
  0
VERTEX
  8
0
 10
3.20990969
 20
6.44655899
  0
VERTEX
  8
0
 10
3.18804107
 20
6.46608422
  0
VERTEX
  8
0
 10
3.16309923
 20
6.45932548
  0
VERTEX
  8
0
 10
3.12479976
 20
6.47634747
  0
VERTEX
  8
0
 10
3.12756612
 20
6.50792542
  0
VERTEX
  8
0
 10
3.14193319
 20
6.52839644
  0
VERTEX
  8
0
 10
3.15730841
 20
6.54837596
  0
VERTEX
  8
0
 10
3.16309923
 20
6.57847938
  0
VERTEX
  8
0
 10
3.11099078
 20
6.59507375
  0
VERTEX
  8
0
 10
3.06522281
 20
6.61677885
  0
VERTEX
  8
0
 10
3.07947771
 20
6.67950780
  0
VERTEX
  8
0
 10
3.11080684
 20
6.72471442
  0
VERTEX
  8
0
 10
3.16083504
 20
6.75106110
  0
VERTEX
  8
0
 10
3.23118718
 20
6.75721024
  0
VERTEX
  8
0
 10
3.24652989
 20
6.82277765
  0
VERTEX
  8
0
 10
3.27799764
 20
6.87210864
  0
VERTEX
  8
0
 10
3.35459658
 20
6.89338613
  0
VERTEX
  8
0
 10
3.38689388
 20
6.86485925
  0
VERTEX
  8
0
 10
3.40566254
 20
6.81678719
  0
VERTEX
  8
0
 10
3.40566254
 20
6.75721024
  0
SEQEND
  0
POLYLINE
  8
Default_Layer
 66
   1
 39
0.000000
 70
    1
  0
VERTEX
  8
0
 10
6.73771632
 20
6.78699871
  0
VERTEX
  8
0
 10
6.75202570
 20
6.84513986
  0
VERTEX
  8
0
 10
6.78027129
 20
6.88913063
  0
VERTEX
  8
0
 10
6.85229392
 20
6.86909309
  0
VERTEX
  8
0
 10
6.87116820
 20
6.84462174
  0
VERTEX
  8
0
 10
6.86963672
 20
6.80827620
  0
VERTEX
  8
0
 10
6.83133725
 20
6.76997673
  0
VERTEX
  8
0
 10
6.76750480
 20
6.75295474
  0
VERTEX
  8
0
 10
6.73771632
 20
6.78699871
  0
SEQEND
  0
POLYLINE
  8
Default_Layer
 66
   1
 39
0.000000
 70
    1
  0
VERTEX
  8
0
 10
6.71218335
 20
6.55294640
  0
VERTEX
  8
0
 10
6.47397799
 20
6.47236517
  0
VERTEX
  8
0
 10
6.24833422
 20
6.37847105
  0
VERTEX
  8
0
 10
6.21854575
 20
6.36144906
  0
VERTEX
  8
0
 10
6.19726826
 20
6.34017158
  0
VERTEX
  8
0
 10
6.14194681
 20
6.31889409
  0
VERTEX
  8
0
 10
5.99435587
 20
6.23951940
  0
VERTEX
  8
0
 10
5.83980656
 20
6.16569622
  0
VERTEX
  8
0
 10
5.78022960
 20
6.14867423
  0
VERTEX
  8
0
 10
5.68493563
 20
6.10156828
  0
VERTEX
  8
0
 10
5.63091206
 20
6.08493656
  0
VERTEX
  8
0
 10
5.56745478
 20
6.08484178
  0
VERTEX
  8
0
 10
5.51942044
 20
6.10289133
  0
VERTEX
  8
0
 10
5.48156582
 20
6.13338732
  0
VERTEX
  8
0
 10
5.42702339
 20
6.21250668
  0
VERTEX
  8
0
 10
5.40982805
 20
6.24123304
  0
VERTEX
  8
0
 10
5.37595743
 20
6.25080615
  0
VERTEX
  8
0
 10
5.38861514
 20
6.20474067
  0
VERTEX
  8
0
 10
5.40574591
 20
6.16144072
  0
VERTEX
  8
0
 10
5.34254246
 20
6.18163478
  0
VERTEX
  8
0
 10
5.29376603
 20
6.21701118
  0
VERTEX
  8
0
 10
5.22275956
 20
6.31463860
  0
VERTEX
  8
0
 10
5.23552605
 20
6.42953700
  0
VERTEX
  8
0
 10
5.27585975
 20
6.50519872
  0
VERTEX
  8
0
 10
5.32914697
 20
6.56996839
  0
VERTEX
  8
0
 10
5.37521155
 20
6.59571883
  0
VERTEX
  8
0
 10
5.43553438
 20
6.60401236
  0
VERTEX
  8
0
 10
5.53595809
 20
6.57130371
  0
VERTEX
  8
0
 10
5.62277623
 20
6.51890243
  0
VERTEX
  8
0
 10
5.65256471
 20
6.50188045
  0
VERTEX
  8
0
 10
5.67384219
 20
6.48060296
  0
VERTEX
  8
0
 10
5.63554272
 20
6.45506998
  0
VERTEX
  8
0
 10
5.55894378
 20
6.40825952
  0
VERTEX
  8
0
 10
5.54059275
 20
6.39281622
  0
VERTEX
  8
0
 10
5.53341080
 20
6.36996005
  0
VERTEX
  8
0
 10
5.59347389
 20
6.38707002
  0
VERTEX
  8
0
 10
5.64405371
 20
6.42102601
  0
VERTEX
  8
0
 10
5.76320762
 20
6.48485846
  0
VERTEX
  8
0
 10
6.12918032
 20
6.66784481
  0
VERTEX
  8
0
 10
6.39320893
 20
6.77753534
  0
VERTEX
  8
0
 10
6.53786001
 20
6.81727964
  0
VERTEX
  8
0
 10
6.69516136
 20
6.83806467
  0
VERTEX
  8
0
 10
6.69941686
 20
6.84232017
  0
VERTEX
  8
0
 10
6.70367235
 20
6.83806467
  0
VERTEX
  8
0
 10
6.71203419
 20
6.78641023
  0
VERTEX
  8
0
 10
6.72494984
 20
6.74018825
  0
VERTEX
  8
0
 10
6.69941686
 20
6.68912229
  0
VERTEX
  8
0
 10
6.68106051
 20
6.63318544
  0
VERTEX
  8
0
 10
6.69516136
 20
6.57422389
  0
VERTEX
  8
0
 10
6.70571212
 20
6.56767345
  0
VERTEX
  8
0
 10
6.71218335
 20
6.55294640
  0
SEQEND
  0
POLYLINE
  8
Default_Layer
 66
   1
 39
0.000000
 70
    1
  0
VERTEX
  8
0
 10
4.41421521
 20
6.77848772
  0
VERTEX
  8
0
 10
4.37166025
 20
6.52741342
  0
VERTEX
  8
0
 10
4.36740475
 20
6.75295474
  0
VERTEX
  8
0
 10
4.41421521
 20
6.77848772
  0
SEQEND
  0
POLYLINE
  8
Default_Layer
 66
   1
 39
0.000000
 70
    1
  0
VERTEX
  8
0
 10
5.35467995
 20
6.63380084
  0
VERTEX
  8
0
 10
5.28418124
 20
6.57411459
  0
VERTEX
  8
0
 10
5.22805201
 20
6.49951460
  0
VERTEX
  8
0
 10
5.19055404
 20
6.40588393
  0
VERTEX
  8
0
 10
5.17594910
 20
6.28910562
  0
VERTEX
  8
0
 10
5.07342285
 20
6.34451250
  0
VERTEX
  8
0
 10
4.98445175
 20
6.41677051
  0
VERTEX
  8
0
 10
4.95891877
 20
6.45081449
  0
VERTEX
  8
0
 10
4.98019625
 20
6.55294640
  0
VERTEX
  8
0
 10
5.05005523
 20
6.67697120
  0
VERTEX
  8
0
 10
5.10278017
 20
6.72110052
  0
VERTEX
  8
0
 10
5.16743810
 20
6.74018825
  0
VERTEX
  8
0
 10
5.22677415
 20
6.73314583
  0
VERTEX
  8
0
 10
5.27600811
 20
6.70855683
  0
VERTEX
  8
0
 10
5.35467995
 20
6.63380084
  0
SEQEND
  0
POLYLINE
  8
Default_Layer
 66
   1
 39
0.000000
 70
    1
  0
VERTEX
  8
0
 10
2.70776110
 20
6.70614428
  0
VERTEX
  8
0
 10
2.72261941
 20
6.52217461
  0
VERTEX
  8
0
 10
2.74949286
 20
6.44925706
  0
VERTEX
  8
0
 10
2.78903502
 20
6.38880057
  0
VERTEX
  8
0
 10
2.84102527
 20
6.34061729
  0
VERTEX
  8
0
 10
2.90524298
 20
6.30451935
  0
VERTEX
  8
0
 10
3.06947831
 20
6.26782814
  0
VERTEX
  8
0
 10
3.10114112
 20
6.21604247
  0
VERTEX
  8
0
 10
3.15884374
 20
6.19122920
  0
VERTEX
  8
0
 10
3.14521370
 20
6.11324558
  0
VERTEX
  8
0
 10
3.14182175
 20
6.02526483
  0
VERTEX
  8
0
 10
3.15884374
 20
6.02100934
  0
VERTEX
  8
0
 10
3.16016374
 20
6.00591211
  0
VERTEX
  8
0
 10
3.16735473
 20
5.99122086
  0
VERTEX
  8
0
 10
3.12905526
 20
5.98696536
  0
VERTEX
  8
0
 10
2.99713487
 20
5.98270987
  0
VERTEX
  8
0
 10
2.82852162
 20
6.01116488
  0
VERTEX
  8
0
 10
2.69073912
 20
6.06781980
  0
VERTEX
  8
0
 10
2.69073912
 20
6.08484178
  0
VERTEX
  8
0
 10
2.66946163
 20
6.08484178
  0
VERTEX
  8
0
 10
2.66946163
 20
6.10186377
  0
VERTEX
  8
0
 10
2.63264691
 20
6.13044766
  0
VERTEX
  8
0
 10
2.60858628
 20
6.17000549
  0
VERTEX
  8
0
 10
2.58435170
 20
6.27633913
  0
VERTEX
  8
0
 10
2.57158521
 20
6.34868257
  0
VERTEX
  8
0
 10
2.59286270
 20
6.44655899
  0
VERTEX
  8
0
 10
2.63568017
 20
6.58632466
  0
VERTEX
  8
0
 10
2.69073912
 20
6.70614428
  0
VERTEX
  8
0
 10
2.70776110
 20
6.70614428
  0
SEQEND
  0
POLYLINE
  8
Default_Layer
 66
   1
 39
0.000000
 70
    1
  0
VERTEX
  8
0
 10
6.71643884
 20
6.61677885
  0
VERTEX
  8
0
 10
6.75261056
 20
6.68740339
  0
VERTEX
  8
0
 10
6.78561474
 20
6.70764674
  0
VERTEX
  8
0
 10
6.82708175
 20
6.70614428
  0
VERTEX
  8
0
 10
6.86002850
 20
6.66987367
  0
VERTEX
  8
0
 10
6.86112572
 20
6.61252336
  0
VERTEX
  8
0
 10
6.81857076
 20
6.58699038
  0
VERTEX
  8
0
 10
6.75512290
 20
6.57922601
  0
VERTEX
  8
0
 10
6.71643884
 20
6.61677885
  0
SEQEND
  0
POLYLINE
  8
Default_Layer
 66
   1
 39
0.000000
 70
    1
  0
VERTEX
  8
0
 10
4.33336078
 20
6.70614428
  0
VERTEX
  8
0
 10
4.31633879
 20
6.45932548
  0
VERTEX
  8
0
 10
4.31208330
 20
6.45506998
  0
VERTEX
  8
0
 10
4.26101734
 20
6.36570456
  0
VERTEX
  8
0
 10
4.25449297
 20
6.35872182
  0
VERTEX
  8
0
 10
4.24399535
 20
6.35719356
  0
VERTEX
  8
0
 10
4.22697337
 20
6.28910562
  0
VERTEX
  8
0
 10
4.21420688
 20
6.28910562
  0
VERTEX
  8
0
 10
4.19931445
 20
6.25209732
  0
VERTEX
  8
0
 10
4.17590741
 20
6.22527317
  0
VERTEX
  8
0
 10
4.15888542
 20
6.22527317
  0
VERTEX
  8
0
 10
4.10166521
 20
6.18449335
  0
VERTEX
  8
0
 10
4.02184604
 20
6.16502858
  0
VERTEX
  8
0
 10
3.83546769
 20
6.16144072
  0
VERTEX
  8
0
 10
3.85171517
 20
6.17503485
  0
VERTEX
  8
0
 10
3.86525616
 20
6.19122920
  0
VERTEX
  8
0
 10
3.89504464
 20
6.19974019
  0
VERTEX
  8
0
 10
3.89930013
 20
6.22101767
  0
VERTEX
  8
0
 10
3.92592406
 20
6.24596015
  0
VERTEX
  8
0
 10
3.94185510
 20
6.28059463
  0
VERTEX
  8
0
 10
4.05249801
 20
6.31463860
  0
VERTEX
  8
0
 10
4.09000675
 20
6.36926997
  0
VERTEX
  8
0
 10
4.10356397
 20
6.44655899
  0
VERTEX
  8
0
 10
4.16314092
 20
6.45081449
  0
VERTEX
  8
0
 10
4.16739642
 20
6.46783647
  0
VERTEX
  8
0
 10
4.20183166
 20
6.48317925
  0
VERTEX
  8
0
 10
4.22522509
 20
6.50905216
  0
VERTEX
  8
0
 10
4.25253954
 20
6.57958278
  0
VERTEX
  8
0
 10
4.27664577
 20
6.65381720
  0
VERTEX
  8
0
 10
4.32484979
 20
6.70614428
  0
VERTEX
  8
0
 10
4.33336078
 20
6.70614428
  0
SEQEND
  0
POLYLINE
  8
Default_Layer
 66
   1
 39
0.000000
 70
    1
  0
VERTEX
  8
0
 10
3.95036609
 20
6.62528985
  0
VERTEX
  8
0
 10
3.96316577
 20
6.55345589
  0
VERTEX
  8
0
 10
3.95036609
 20
6.47634747
  0
VERTEX
  8
0
 10
4.01274571
 20
6.46526754
  0
VERTEX
  8
0
 10
4.05249801
 20
6.43379250
  0
VERTEX
  8
0
 10
4.04824251
 20
6.34442707
  0
VERTEX
  8
0
 10
3.97719030
 20
6.32835566
  0
VERTEX
  8
0
 10
3.90781113
 20
6.34442707
  0
VERTEX
  8
0
 10
3.88653364
 20
6.33166058
  0
VERTEX
  8
0
 10
3.88406179
 20
6.26053840
  0
VERTEX
  8
0
 10
3.84449631
 20
6.21843437
  0
VERTEX
  8
0
 10
3.78126678
 20
6.20315497
  0
VERTEX
  8
0
 10
3.70780279
 20
6.21250668
  0
VERTEX
  8
0
 10
3.68534999
 20
6.25993717
  0
VERTEX
  8
0
 10
3.65248133
 20
6.29761661
  0
VERTEX
  8
0
 10
3.67400625
 20
6.35448282
  0
VERTEX
  8
0
 10
3.67919952
 20
6.42797806
  0
VERTEX
  8
0
 10
3.68380019
 20
6.50225277
  0
VERTEX
  8
0
 10
3.70354729
 20
6.56145740
  0
VERTEX
  8
0
 10
3.74184676
 20
6.56571289
  0
VERTEX
  8
0
 10
3.75035775
 20
6.52315793
  0
VERTEX
  8
0
 10
3.78014623
 20
6.52315793
  0
VERTEX
  8
0
 10
3.82186568
 20
6.59965537
  0
VERTEX
  8
0
 10
3.85102245
 20
6.62991722
  0
VERTEX
  8
0
 10
3.89504464
 20
6.63805633
  0
VERTEX
  8
0
 10
3.95036609
 20
6.62528985
  0
SEQEND
  0
POLYLINE
  8
Default_Layer
 66
   1
 39
0.000000
 70
    1
  0
VERTEX
  8
0
 10
7.00581261
 20
6.60401236
  0
VERTEX
  8
0
 10
7.01585733
 20
6.56817757
  0
VERTEX
  8
0
 10
7.01006810
 20
6.52315793
  0
VERTEX
  8
0
 10
6.94623566
 20
6.51039144
  0
VERTEX
  8
0
 10
6.93346917
 20
6.56571289
  0
VERTEX
  8
0
 10
6.92070268
 20
6.56996839
  0
VERTEX
  8
0
 10
6.93479098
 20
6.58813590
  0
VERTEX
  8
0
 10
6.95900214
 20
6.59550137
  0
VERTEX
  8
0
 10
7.00581261
 20
6.60401236
  0
SEQEND
  0
POLYLINE
  8
Default_Layer
 66
   1
 39
0.000000
 70
    1
  0
VERTEX
  8
0
 10
6.85261473
 20
6.55720190
  0
VERTEX
  8
0
 10
6.88665870
 20
6.54869091
  0
VERTEX
  8
0
 10
6.90368069
 20
6.48485846
  0
VERTEX
  8
0
 10
6.89015094
 20
6.45819268
  0
VERTEX
  8
0
 10
6.86666979
 20
6.44288118
  0
VERTEX
  8
0
 10
6.79729328
 20
6.43804800
  0
VERTEX
  8
0
 10
6.79754206
 20
6.45078480
  0
VERTEX
  8
0
 10
6.78452679
 20
6.45081449
  0
VERTEX
  8
0
 10
6.78355643
 20
6.48719382
  0
VERTEX
  8
0
 10
6.78878228
 20
6.52315793
  0
VERTEX
  8
0
 10
6.85261473
 20
6.54443541
  0
VERTEX
  8
0
 10
6.85261473
 20
6.55720190
  0
SEQEND
  0
POLYLINE
  8
Default_Layer
 66
   1
 39
0.000000
 70
    1
  0
VERTEX
  8
0
 10
3.50779445
 20
6.51464694
  0
VERTEX
  8
0
 10
3.59937667
 20
6.48496809
  0
VERTEX
  8
0
 10
3.63450418
 20
6.45758186
  0
VERTEX
  8
0
 10
3.65248133
 20
6.41677051
  0
VERTEX
  8
0
 10
3.64828730
 20
6.37748560
  0
VERTEX
  8
0
 10
3.62989646
 20
6.34563473
  0
VERTEX
  8
0
 10
3.57588240
 20
6.29336112
  0
VERTEX
  8
0
 10
3.58439339
 20
6.27633913
  0
VERTEX
  8
0
 10
3.63971484
 20
6.25080615
  0
VERTEX
  8
0
 10
3.65848242
 20
6.21866962
  0
VERTEX
  8
0
 10
3.66042363
 20
6.18102356
  0
VERTEX
  8
0
 10
3.63545935
 20
6.11037476
  0
VERTEX
  8
0
 10
3.56311591
 20
6.08909728
  0
VERTEX
  8
0
 10
3.50847198
 20
6.12219164
  0
VERTEX
  8
0
 10
3.48118909
 20
6.14120622
  0
VERTEX
  8
0
 10
3.44821750
 20
6.14867423
  0
VERTEX
  8
0
 10
3.44555074
 20
6.10236416
  0
VERTEX
  8
0
 10
3.44821750
 20
6.06356430
  0
VERTEX
  8
0
 10
3.40702296
 20
6.00438178
  0
VERTEX
  8
0
 10
3.33757459
 20
5.96568788
  0
VERTEX
  8
0
 10
3.28377546
 20
5.96781876
  0
VERTEX
  8
0
 10
3.24128313
 20
5.99183647
  0
VERTEX
  8
0
 10
3.21076481
 20
6.03044061
  0
VERTEX
  8
0
 10
3.19288771
 20
6.07633079
  0
VERTEX
  8
0
 10
3.18437672
 20
6.14441874
  0
VERTEX
  8
0
 10
3.19966714
 20
6.17230782
  0
VERTEX
  8
0
 10
3.20990969
 20
6.19974019
  0
VERTEX
  8
0
 10
3.17748393
 20
6.22825367
  0
VERTEX
  8
0
 10
3.13331076
 20
6.25080615
  0
VERTEX
  8
0
 10
3.09926678
 20
6.29336112
  0
VERTEX
  8
0
 10
3.12479976
 20
6.35293807
  0
VERTEX
  8
0
 10
3.15884374
 20
6.39549303
  0
VERTEX
  8
0
 10
3.23969817
 20
6.37847105
  0
VERTEX
  8
0
 10
3.25246466
 20
6.42528151
  0
VERTEX
  8
0
 10
3.26523115
 20
6.47634747
  0
VERTEX
  8
0
 10
3.30632696
 20
6.51615732
  0
VERTEX
  8
0
 10
3.36736307
 20
6.53592442
  0
VERTEX
  8
0
 10
3.44396200
 20
6.51890243
  0
VERTEX
  8
0
 10
3.47044215
 20
6.49333259
  0
VERTEX
  8
0
 10
3.49928346
 20
6.48060296
  0
VERTEX
  8
0
 10
3.50779445
 20
6.51464694
  0
SEQEND
  0
POLYLINE
  8
Default_Layer
 66
   1
 39
0.000000
 70
    1
  0
VERTEX
  8
0
 10
4.35038277
 20
6.43379250
  0
VERTEX
  8
0
 10
4.37591575
 20
6.42528151
  0
VERTEX
  8
0
 10
4.38363599
 20
6.26832886
  0
VERTEX
  8
0
 10
4.35473992
 20
6.13255079
  0
VERTEX
  8
0
 10
4.29387679
 20
6.02079256
  0
VERTEX
  8
0
 10
4.20569588
 20
5.93589941
  0
VERTEX
  8
0
 10
4.12362774
 20
5.89061159
  0
VERTEX
  8
0
 10
4.02547162
 20
5.85883407
  0
VERTEX
  8
0
 10
3.91423184
 20
5.84431173
  0
VERTEX
  8
0
 10
3.79291272
 20
5.85078948
  0
VERTEX
  8
0
 10
3.72482478
 20
5.86781146
  0
VERTEX
  8
0
 10
3.60992637
 20
5.91462192
  0
VERTEX
  8
0
 10
3.53306412
 20
5.95099679
  0
VERTEX
  8
0
 10
3.44396200
 20
5.97419887
  0
VERTEX
  8
0
 10
3.46657369
 20
6.01891856
  0
VERTEX
  8
0
 10
3.48226147
 20
6.07207530
  0
VERTEX
  8
0
 10
3.58313993
 20
6.05614043
  0
VERTEX
  8
0
 10
3.62904682
 20
6.06738211
  0
VERTEX
  8
0
 10
3.66524782
 20
6.09335278
  0
VERTEX
  8
0
 10
3.69503630
 20
6.14867423
  0
VERTEX
  8
0
 10
3.81569888
 20
6.12529293
  0
VERTEX
  8
0
 10
3.94712133
 20
6.12456828
  0
VERTEX
  8
0
 10
4.07378292
 20
6.14334372
  0
VERTEX
  8
0
 10
4.18016291
 20
6.17846271
  0
VERTEX
  8
0
 10
4.18867390
 20
6.19974019
  0
VERTEX
  8
0
 10
4.24319473
 20
6.25081961
  0
VERTEX
  8
0
 10
4.28655032
 20
6.31889409
  0
VERTEX
  8
0
 10
4.35038277
 20
6.43379250
  0
SEQEND
  0
POLYLINE
  8
Default_Layer
 66
   1
 39
0.000000
 70
    1
  0
VERTEX
  8
0
 10
2.77159355
 20
5.98270987
  0
VERTEX
  8
0
 10
2.75031607
 20
5.76567954
  0
VERTEX
  8
0
 10
2.66621522
 20
5.77407458
  0
VERTEX
  8
0
 10
2.59711819
 20
5.79972352
  0
VERTEX
  8
0
 10
2.56307422
 20
5.82951199
  0
VERTEX
  8
0
 10
2.59826292
 20
5.94533948
  0
VERTEX
  8
0
 10
2.63541766
 20
6.05930881
  0
VERTEX
  8
0
 10
2.70461166
 20
6.02198869
  0
VERTEX
  8
0
 10
2.77159355
 20
5.98270987
  0
SEQEND
  0
POLYLINE
  8
Default_Layer
 66
   1
 39
0.000000
 70
    1
  0
VERTEX
  8
0
 10
2.81414852
 20
5.96143239
  0
VERTEX
  8
0
 10
2.91006338
 20
5.94098290
  0
VERTEX
  8
0
 10
3.02118161
 20
5.94462780
  0
VERTEX
  8
0
 10
3.13517071
 20
5.95241950
  0
VERTEX
  8
0
 10
3.23969817
 20
5.94441040
  0
VERTEX
  8
0
 10
3.27799764
 20
5.93164391
  0
VERTEX
  8
0
 10
3.43970651
 20
5.93164391
  0
VERTEX
  8
0
 10
3.52056094
 20
5.91462192
  0
VERTEX
  8
0
 10
3.52642677
 20
5.90981103
  0
VERTEX
  8
0
 10
3.52907193
 20
5.90185543
  0
VERTEX
  8
0
 10
3.72007591
 20
5.83380701
  0
VERTEX
  8
0
 10
3.81707036
 20
5.80247507
  0
VERTEX
  8
0
 10
3.92908861
 20
5.78695703
  0
VERTEX
  8
0
 10
3.90781113
 20
5.72312458
  0
VERTEX
  8
0
 10
3.84826737
 20
5.64924735
  0
VERTEX
  8
0
 10
3.76312424
 20
5.59971518
  0
VERTEX
  8
0
 10
3.75461325
 20
5.58269319
  0
VERTEX
  8
0
 10
3.63120385
 20
5.53162723
  0
VERTEX
  8
0
 10
3.61418187
 20
5.59545968
  0
VERTEX
  8
0
 10
3.58439339
 20
5.63375915
  0
VERTEX
  8
0
 10
3.54563685
 20
5.63737714
  0
VERTEX
  8
0
 10
3.50801920
 20
5.62608559
  0
VERTEX
  8
0
 10
3.43545101
 20
5.59971518
  0
VERTEX
  8
0
 10
3.41842902
 20
5.55716021
  0
VERTEX
  8
0
 10
3.10934401
 20
5.65992737
  0
VERTEX
  8
0
 10
2.78010454
 20
5.74440206
  0
VERTEX
  8
0
 10
2.80453492
 20
5.84592661
  0
VERTEX
  8
0
 10
2.81414852
 20
5.96143239
  0
SEQEND
  0
POLYLINE
  8
Default_Layer
 66
   1
 39
0.000000
 70
    1
  0
VERTEX
  8
0
 10
4.35889376
 20
5.87632245
  0
VERTEX
  8
0
 10
4.36465687
 20
5.86324877
  0
VERTEX
  8
0
 10
4.35889376
 20
5.85078948
  0
VERTEX
  8
0
 10
4.33223152
 20
5.80557517
  0
VERTEX
  8
0
 10
4.29329012
 20
5.76680619
  0
VERTEX
  8
0
 10
4.20569588
 20
5.70610259
  0
VERTEX
  8
0
 10
4.09433156
 20
5.64520654
  0
VERTEX
  8
0
 10
3.97589907
 20
5.59971518
  0
VERTEX
  8
0
 10
3.96641415
 20
5.54064123
  0
VERTEX
  8
0
 10
3.93334411
 20
5.50609426
  0
VERTEX
  8
0
 10
3.89829249
 20
5.46414775
  0
VERTEX
  8
0
 10
3.85125957
 20
5.42936409
  0
VERTEX
  8
0
 10
3.74184676
 20
5.37417386
  0
VERTEX
  8
0
 10
3.54609392
 20
5.30183042
  0
VERTEX
  8
0
 10
3.56111306
 20
5.35310304
  0
VERTEX
  8
0
 10
3.57162690
 20
5.41672883
  0
VERTEX
  8
0
 10
3.55886041
 20
5.46779479
  0
VERTEX
  8
0
 10
3.66666937
 20
5.49920865
  0
VERTEX
  8
0
 10
3.75886875
 20
5.54439372
  0
VERTEX
  8
0
 10
3.80142371
 20
5.57843770
  0
VERTEX
  8
0
 10
3.86100066
 20
5.60397068
  0
VERTEX
  8
0
 10
4.26952833
 20
5.81249001
  0
VERTEX
  8
0
 10
4.30499189
 20
5.85320474
  0
VERTEX
  8
0
 10
4.35889376
 20
5.87632245
  0
SEQEND
  0
POLYLINE
  8
Default_Layer
 66
   1
 39
0.000000
 70
    1
  0
VERTEX
  8
0
 10
4.78444341
 20
5.83802299
  0
VERTEX
  8
0
 10
4.77322518
 20
5.80408237
  0
VERTEX
  8
0
 10
4.74614394
 20
5.77844603
  0
VERTEX
  8
0
 10
4.61422355
 20
5.72738008
  0
VERTEX
  8
0
 10
4.61636114
 20
5.76411437
  0
VERTEX
  8
0
 10
4.61422355
 20
5.80397901
  0
VERTEX
  8
0
 10
4.49014652
 20
5.80328638
  0
VERTEX
  8
0
 10
4.37166025
 20
5.78695703
  0
VERTEX
  8
0
 10
4.37591575
 20
5.79972352
  0
VERTEX
  8
0
 10
4.38868224
 20
5.82100100
  0
VERTEX
  8
0
 10
4.55858139
 20
5.84067187
  0
VERTEX
  8
0
 10
4.74614394
 20
5.84227848
  0
VERTEX
  8
0
 10
4.78444341
 20
5.83802299
  0
SEQEND
  0
POLYLINE
  8
Default_Layer
 66
   1
 39
0.000000
 70
    1
  0
VERTEX
  8
0
 10
4.58443508
 20
5.76567954
  0
VERTEX
  8
0
 10
4.51977708
 20
5.70502505
  0
VERTEX
  8
0
 10
4.42803473
 20
5.66752896
  0
VERTEX
  8
0
 10
4.31874388
 20
5.65251132
  0
VERTEX
  8
0
 10
4.20144039
 20
5.65929213
  0
VERTEX
  8
0
 10
4.25281551
 20
5.70289142
  0
VERTEX
  8
0
 10
4.32315238
 20
5.73818877
  0
VERTEX
  8
0
 10
4.49081415
 20
5.77844603
  0
VERTEX
  8
0
 10
4.53994030
 20
5.77919638
  0
VERTEX
  8
0
 10
4.58443508
 20
5.76567954
  0
SEQEND
  0
POLYLINE
  8
Default_Layer
 66
   1
 39
0.000000
 70
    1
  0
VERTEX
  8
0
 10
4.76742143
 20
5.70184710
  0
VERTEX
  8
0
 10
4.74614394
 20
5.69333610
  0
VERTEX
  8
0
 10
4.74188845
 20
5.67205862
  0
VERTEX
  8
0
 10
4.58821976
 20
5.63224047
  0
VERTEX
  8
0
 10
4.41847071
 20
5.61248167
  0
VERTEX
  8
0
 10
4.38868224
 20
5.61673717
  0
VERTEX
  8
0
 10
4.39617787
 20
5.62768140
  0
VERTEX
  8
0
 10
4.40995972
 20
5.62950366
  0
VERTEX
  8
0
 10
4.47804766
 20
5.64652564
  0
VERTEX
  8
0
 10
4.56741309
 20
5.68482511
  0
VERTEX
  8
0
 10
4.72061097
 20
5.71035809
  0
VERTEX
  8
0
 10
4.74638390
 20
5.71026096
  0
VERTEX
  8
0
 10
4.76742143
 20
5.70184710
  0
SEQEND
  0
POLYLINE
  8
Default_Layer
 66
   1
 39
0.000000
 70
    1
  0
VERTEX
  8
0
 10
4.26527284
 20
5.59971518
  0
VERTEX
  8
0
 10
4.09505297
 20
5.54013823
  0
VERTEX
  8
0
 10
4.06435787
 20
5.53522313
  0
VERTEX
  8
0
 10
4.04398702
 20
5.51460525
  0
VERTEX
  8
0
 10
4.19043956
 20
5.49806392
  0
VERTEX
  8
0
 10
4.24617620
 20
5.47174778
  0
VERTEX
  8
0
 10
4.27378383
 20
5.41672883
  0
VERTEX
  8
0
 10
4.22388430
 20
5.40175464
  0
VERTEX
  8
0
 10
4.17590741
 20
5.39970684
  0
VERTEX
  8
0
 10
4.12484145
 20
5.42098432
  0
VERTEX
  8
0
 10
4.06252061
 20
5.43085331
  0
VERTEX
  8
0
 10
4.00540727
 20
5.42125221
  0
VERTEX
  8
0
 10
3.89504464
 20
5.37842936
  0
VERTEX
  8
0
 10
3.84686752
 20
5.36656780
  0
VERTEX
  8
0
 10
3.82778299
 20
5.37051944
  0
VERTEX
  8
0
 10
3.81419020
 20
5.38694035
  0
VERTEX
  8
0
 10
3.78014623
 20
5.37842936
  0
VERTEX
  8
0
 10
3.91691879
 20
5.45479100
  0
VERTEX
  8
0
 10
3.97755109
 20
5.50045356
  0
VERTEX
  8
0
 10
4.01419854
 20
5.56992670
  0
VERTEX
  8
0
 10
4.15037443
 20
5.63375915
  0
VERTEX
  8
0
 10
4.21327780
 20
5.62385799
  0
VERTEX
  8
0
 10
4.24524162
 20
5.61834242
  0
VERTEX
  8
0
 10
4.26527284
 20
5.59971518
  0
SEQEND
  0
POLYLINE
  8
Default_Layer
 66
   1
 39
0.000000
 70
    1
  0
VERTEX
  8
0
 10
3.57162690
 20
5.59545968
  0
VERTEX
  8
0
 10
3.58039567
 20
5.54909488
  0
VERTEX
  8
0
 10
3.56737140
 20
5.51034975
  0
VERTEX
  8
0
 10
3.54031270
 20
5.49479569
  0
VERTEX
  8
0
 10
3.50704580
 20
5.49312637
  0
VERTEX
  8
0
 10
3.44396200
 20
5.51460525
  0
VERTEX
  8
0
 10
3.48447454
 20
5.57785735
  0
VERTEX
  8
0
 10
3.52091569
 20
5.59393901
  0
VERTEX
  8
0
 10
3.57162690
 20
5.59545968
  0
SEQEND
  0
POLYLINE
  8
Default_Layer
 66
   1
 39
0.000000
 70
    1
  0
VERTEX
  8
0
 10
3.44821750
 20
5.42523982
  0
VERTEX
  8
0
 10
3.46949498
 20
5.44226181
  0
VERTEX
  8
0
 10
3.50952873
 20
5.42512928
  0
VERTEX
  8
0
 10
3.51630545
 20
5.37417386
  0
VERTEX
  8
0
 10
3.50779445
 20
5.36991837
  0
VERTEX
  8
0
 10
3.49928346
 20
5.31034141
  0
VERTEX
  8
0
 10
3.45248736
 20
5.30184468
  0
VERTEX
  8
0
 10
3.40566254
 20
5.31034141
  0
VERTEX
  8
0
 10
3.40991803
 20
5.32310790
  0
VERTEX
  8
0
 10
3.39123358
 20
5.34020628
  0
VERTEX
  8
0
 10
3.38012956
 20
5.36566287
  0
VERTEX
  8
0
 10
3.41842902
 20
5.44226181
  0
VERTEX
  8
0
 10
3.44821750
 20
5.42523982
  0
SEQEND
  0
POLYLINE
  8
Default_Layer
 66
   1
 39
0.000000
 70
    1
  0
VERTEX
  8
0
 10
4.06526450
 20
5.25927546
  0
VERTEX
  8
0
 10
4.10550756
 20
5.25726638
  0
VERTEX
  8
0
 10
4.13335244
 20
5.27629744
  0
VERTEX
  8
0
 10
4.20470313
 20
5.28354033
  0
VERTEX
  8
0
 10
4.27381426
 20
5.26995649
  0
VERTEX
  8
0
 10
4.32588818
 20
5.23720176
  0
VERTEX
  8
0
 10
4.34612727
 20
5.18693202
  0
VERTEX
  8
0
 10
4.33668081
 20
5.15488201
  0
VERTEX
  8
0
 10
4.31633879
 20
5.13161056
  0
VERTEX
  8
0
 10
4.25192771
 20
5.10613955
  0
VERTEX
  8
0
 10
4.17590741
 20
5.09756659
  0
VERTEX
  8
0
 10
4.17357582
 20
5.07520651
  0
VERTEX
  8
0
 10
4.18016291
 20
5.05501162
  0
VERTEX
  8
0
 10
4.24399535
 20
5.04650063
  0
VERTEX
  8
0
 10
4.23973986
 20
5.00820116
  0
VERTEX
  8
0
 10
4.21014155
 20
4.99384506
  0
VERTEX
  8
0
 10
4.18044781
 20
4.99990209
  0
VERTEX
  8
0
 10
4.12484145
 20
5.02947864
  0
VERTEX
  8
0
 10
4.12079453
 20
5.00005242
  0
VERTEX
  8
0
 10
4.12909695
 20
4.96990169
  0
VERTEX
  8
0
 10
4.14611893
 20
4.91458024
  0
VERTEX
  8
0
 10
4.12909695
 20
4.90181375
  0
VERTEX
  8
0
 10
4.13335244
 20
4.88053626
  0
VERTEX
  8
0
 10
4.14186344
 20
4.86776977
  0
VERTEX
  8
0
 10
4.12393668
 20
4.84282448
  0
VERTEX
  8
0
 10
4.08654198
 20
4.82521481
  0
VERTEX
  8
0
 10
4.00568755
 20
4.82521481
  0
VERTEX
  8
0
 10
3.89504464
 20
4.95287971
  0
VERTEX
  8
0
 10
3.91436066
 20
4.98814394
  0
VERTEX
  8
0
 10
3.92057762
 20
5.02947864
  0
VERTEX
  8
0
 10
3.90246096
 20
5.05696593
  0
VERTEX
  8
0
 10
3.86527696
 20
5.06782402
  0
VERTEX
  8
0
 10
3.77589073
 20
5.06352262
  0
VERTEX
  8
0
 10
3.80567921
 20
5.14012155
  0
VERTEX
  8
0
 10
3.81770264
 20
5.18139620
  0
VERTEX
  8
0
 10
3.83972318
 20
5.21246499
  0
VERTEX
  8
0
 10
3.93334411
 20
5.21246499
  0
VERTEX
  8
0
 10
3.95840983
 20
5.27585173
  0
VERTEX
  8
0
 10
3.99717655
 20
5.32736340
  0
VERTEX
  8
0
 10
4.04398702
 20
5.34012989
  0
VERTEX
  8
0
 10
4.06126768
 20
5.30563941
  0
VERTEX
  8
0
 10
4.06526450
 20
5.25927546
  0
SEQEND
  0
POLYLINE
  8
Default_Layer
 66
   1
 39
0.000000
 70
    1
  0
VERTEX
  8
0
 10
3.71631378
 20
5.29757493
  0
VERTEX
  8
0
 10
3.67568505
 20
5.27063693
  0
VERTEX
  8
0
 10
3.64491480
 20
5.23407680
  0
VERTEX
  8
0
 10
3.60141538
 20
5.14437705
  0
VERTEX
  8
0
 10
3.53332743
 20
5.13586606
  0
VERTEX
  8
0
 10
3.48226147
 20
5.02947864
  0
VERTEX
  8
0
 10
3.43434767
 20
5.06650481
  0
VERTEX
  8
0
 10
3.37587406
 20
5.08054460
  0
VERTEX
  8
0
 10
3.34635833
 20
5.06556521
  0
VERTEX
  8
0
 10
3.32563665
 20
5.03926554
  0
VERTEX
  8
0
 10
3.29927512
 20
4.97415719
  0
VERTEX
  8
0
 10
3.24949858
 20
4.93864858
  0
VERTEX
  8
0
 10
3.20990969
 20
4.89330275
  0
VERTEX
  8
0
 10
3.18863221
 20
4.94011322
  0
VERTEX
  8
0
 10
3.13491897
 20
4.95704672
  0
VERTEX
  8
0
 10
3.10128490
 20
4.99435287
  0
VERTEX
  8
0
 10
3.05245632
 20
5.08905559
  0
VERTEX
  8
0
 10
2.98011288
 20
5.08480010
  0
VERTEX
  8
0
 10
2.94692404
 20
5.04597762
  0
VERTEX
  8
0
 10
2.92489303
 20
4.99266094
  0
VERTEX
  8
0
 10
2.91770545
 20
4.93009239
  0
VERTEX
  8
0
 10
2.92904692
 20
4.86351428
  0
VERTEX
  8
0
 10
2.85394128
 20
4.88788093
  0
VERTEX
  8
0
 10
2.80495739
 20
4.93641296
  0
VERTEX
  8
0
 10
2.77546330
 20
5.00488097
  0
VERTEX
  8
0
 10
2.75882706
 20
5.08905559
  0
VERTEX
  8
0
 10
2.74606057
 20
5.18693202
  0
VERTEX
  8
0
 10
2.73214121
 20
5.23687830
  0
VERTEX
  8
0
 10
2.72903859
 20
5.28480844
  0
VERTEX
  8
0
 10
3.01592070
 20
5.25119384
  0
VERTEX
  8
0
 10
3.32480810
 20
5.23799797
  0
VERTEX
  8
0
 10
3.33507348
 20
5.17709828
  0
VERTEX
  8
0
 10
3.36613743
 20
5.12922855
  0
VERTEX
  8
0
 10
3.41270843
 20
5.10595505
  0
VERTEX
  8
0
 10
3.46949498
 20
5.11884407
  0
VERTEX
  8
0
 10
3.52012071
 20
5.18034302
  0
VERTEX
  8
0
 10
3.53758293
 20
5.27629744
  0
VERTEX
  8
0
 10
3.71631378
 20
5.29757493
  0
SEQEND
  0
POLYLINE
  8
Default_Layer
 66
   1
 39
0.000000
 70
    1
  0
VERTEX
  8
0
 10
3.49928346
 20
5.24225347
  0
VERTEX
  8
0
 10
3.49012744
 20
5.18731916
  0
VERTEX
  8
0
 10
3.46949498
 20
5.14437705
  0
VERTEX
  8
0
 10
3.39738059
 20
5.15607243
  0
VERTEX
  8
0
 10
3.35459658
 20
5.19544301
  0
VERTEX
  8
0
 10
3.38012956
 20
5.25501996
  0
VERTEX
  8
0
 10
3.44620210
 20
5.26310418
  0
VERTEX
  8
0
 10
3.47814627
 20
5.25888312
  0
VERTEX
  8
0
 10
3.49928346
 20
5.24225347
  0
SEQEND
  0
POLYLINE
  8
Default_Layer
 66
   1
 39
0.000000
 70
    1
  0
VERTEX
  8
0
 10
3.78440173
 20
5.23374248
  0
VERTEX
  8
0
 10
3.76214213
 20
5.12659498
  0
VERTEX
  8
0
 10
3.71205829
 20
5.04650063
  0
VERTEX
  8
0
 10
3.71631378
 20
5.01245666
  0
VERTEX
  8
0
 10
3.79819512
 20
5.02670842
  0
VERTEX
  8
0
 10
3.87802265
 20
5.02947864
  0
VERTEX
  8
0
 10
3.86541902
 20
4.99511847
  0
VERTEX
  8
0
 10
3.83194717
 20
4.98485173
  0
VERTEX
  8
0
 10
3.79385233
 20
4.97987646
  0
VERTEX
  8
0
 10
3.76737974
 20
4.96139070
  0
VERTEX
  8
0
 10
3.78014623
 20
4.92734673
  0
VERTEX
  8
0
 10
3.84666802
 20
4.92035187
  0
VERTEX
  8
0
 10
3.89271667
 20
4.89471797
  0
VERTEX
  8
0
 10
3.91758794
 20
4.84709899
  0
VERTEX
  8
0
 10
3.92057762
 20
4.77414885
  0
VERTEX
  8
0
 10
3.85289250
 20
4.76156250
  0
VERTEX
  8
0
 10
3.78947678
 20
4.76700547
  0
VERTEX
  8
0
 10
3.74054552
 20
4.79410599
  0
VERTEX
  8
0
 10
3.71631378
 20
4.84649229
  0
VERTEX
  8
0
 10
3.68652531
 20
4.84649229
  0
VERTEX
  8
0
 10
3.68880322
 20
4.74982528
  0
VERTEX
  8
0
 10
3.67801431
 20
4.65925044
  0
VERTEX
  8
0
 10
3.63120385
 20
4.67627243
  0
VERTEX
  8
0
 10
3.61418187
 20
4.76138236
  0
VERTEX
  8
0
 10
3.58864889
 20
4.76989335
  0
VERTEX
  8
0
 10
3.57162690
 20
4.73584938
  0
VERTEX
  8
0
 10
3.58268433
 20
4.66368010
  0
VERTEX
  8
0
 10
3.57438117
 20
4.62878705
  0
VERTEX
  8
0
 10
3.55034942
 20
4.60818449
  0
VERTEX
  8
0
 10
3.50346298
 20
4.61605736
  0
VERTEX
  8
0
 10
3.47095696
 20
4.63885614
  0
VERTEX
  8
0
 10
3.45155031
 20
4.67504369
  0
VERTEX
  8
0
 10
3.44396200
 20
4.72308289
  0
VERTEX
  8
0
 10
3.43716284
 20
4.72955513
  0
VERTEX
  8
0
 10
3.42694002
 20
4.73159389
  0
VERTEX
  8
0
 10
3.43970651
 20
4.82947031
  0
VERTEX
  8
0
 10
3.43206980
 20
4.88179809
  0
VERTEX
  8
0
 10
3.41076525
 20
4.92374078
  0
VERTEX
  8
0
 10
3.34183009
 20
4.98266818
  0
VERTEX
  8
0
 10
3.34971212
 20
5.01881565
  0
VERTEX
  8
0
 10
3.36736307
 20
5.04224513
  0
VERTEX
  8
0
 10
3.41095484
 20
5.03932875
  0
VERTEX
  8
0
 10
3.43999890
 20
5.02188563
  0
VERTEX
  8
0
 10
3.46926848
 20
4.95833302
  0
VERTEX
  8
0
 10
3.48482095
 20
4.88141501
  0
VERTEX
  8
0
 10
3.51630545
 20
4.82095931
  0
VERTEX
  8
0
 10
3.57485175
 20
4.82570519
  0
VERTEX
  8
0
 10
3.61423575
 20
4.85098142
  0
VERTEX
  8
0
 10
3.63337920
 20
4.89529056
  0
VERTEX
  8
0
 10
3.63120385
 20
4.95713520
  0
VERTEX
  8
0
 10
3.52481644
 20
4.97415719
  0
VERTEX
  8
0
 10
3.53328706
 20
5.04515009
  0
VERTEX
  8
0
 10
3.55460491
 20
5.10607758
  0
VERTEX
  8
0
 10
3.60141538
 20
5.08905559
  0
VERTEX
  8
0
 10
3.61769153
 20
5.07541295
  0
VERTEX
  8
0
 10
3.63971484
 20
5.07203361
  0
VERTEX
  8
0
 10
3.64397034
 20
5.12309957
  0
VERTEX
  8
0
 10
3.66663341
 20
5.19778103
  0
VERTEX
  8
0
 10
3.70780279
 20
5.25501996
  0
VERTEX
  8
0
 10
3.78440173
 20
5.23374248
  0
SEQEND
  0
POLYLINE
  8
Default_Layer
 66
   1
 39
0.000000
 70
    1
  0
VERTEX
  8
0
 10
3.08224480
 20
4.78691534
  0
VERTEX
  8
0
 10
3.11203327
 20
4.80819282
  0
VERTEX
  8
0
 10
3.12715747
 20
4.86576517
  0
VERTEX
  8
0
 10
3.13542186
 20
4.89275093
  0
VERTEX
  8
0
 10
3.15458824
 20
4.90606924
  0
VERTEX
  8
0
 10
3.16851201
 20
4.87431483
  0
VERTEX
  8
0
 10
3.16735473
 20
4.82947031
  0
VERTEX
  8
0
 10
3.17492148
 20
4.79633744
  0
VERTEX
  8
0
 10
3.19714320
 20
4.77840435
  0
VERTEX
  8
0
 10
3.23544267
 20
4.85925878
  0
VERTEX
  8
0
 10
3.25987316
 20
4.89666412
  0
VERTEX
  8
0
 10
3.29076413
 20
4.92309123
  0
VERTEX
  8
0
 10
3.34018044
 20
4.92199501
  0
VERTEX
  8
0
 10
3.38864055
 20
4.90606924
  0
VERTEX
  8
0
 10
3.40287366
 20
4.83984656
  0
VERTEX
  8
0
 10
3.38539424
 20
4.78335620
  0
VERTEX
  8
0
 10
3.34187726
 20
4.74460353
  0
VERTEX
  8
0
 10
3.27799764
 20
4.73159389
  0
VERTEX
  8
0
 10
3.26948665
 20
4.69329442
  0
VERTEX
  8
0
 10
3.37304357
 20
4.67059187
  0
VERTEX
  8
0
 10
3.40176170
 20
4.64003422
  0
VERTEX
  8
0
 10
3.39289605
 20
4.58690700
  0
VERTEX
  8
0
 10
3.35367675
 20
4.56791650
  0
VERTEX
  8
0
 10
3.30896499
 20
4.56819207
  0
VERTEX
  8
0
 10
3.21416519
 20
4.58265151
  0
VERTEX
  8
0
 10
3.20990969
 20
4.54435204
  0
VERTEX
  8
0
 10
3.23544267
 20
4.52307456
  0
VERTEX
  8
0
 10
3.28650863
 20
4.42945363
  0
VERTEX
  8
0
 10
3.27697866
 20
4.37170511
  0
VERTEX
  8
0
 10
3.23969817
 20
4.34434370
  0
VERTEX
  8
0
 10
3.18144212
 20
4.35655293
  0
VERTEX
  8
0
 10
3.13756625
 20
4.39540966
  0
VERTEX
  8
0
 10
3.12424357
 20
4.42025713
  0
VERTEX
  8
0
 10
3.10777778
 20
4.43796462
  0
VERTEX
  8
0
 10
3.09574456
 20
4.48625871
  0
VERTEX
  8
0
 10
3.06947831
 20
4.51881906
  0
VERTEX
  8
0
 10
3.05036788
 20
4.47562190
  0
VERTEX
  8
0
 10
3.04514038
 20
4.41922108
  0
VERTEX
  8
0
 10
3.04144310
 20
4.36048941
  0
VERTEX
  8
0
 10
3.02692334
 20
4.31029973
  0
VERTEX
  8
0
 10
2.98862387
 20
4.27625576
  0
VERTEX
  8
0
 10
2.93755792
 20
4.28476675
  0
VERTEX
  8
0
 10
2.91083202
 20
4.33271369
  0
VERTEX
  8
0
 10
2.91314004
 20
4.40065802
  0
VERTEX
  8
0
 10
2.94606891
 20
4.52307456
  0
VERTEX
  8
0
 10
2.92904692
 20
4.54860753
  0
VERTEX
  8
0
 10
2.86095898
 20
4.50179707
  0
VERTEX
  8
0
 10
2.79712653
 20
4.45924211
  0
VERTEX
  8
0
 10
2.76067076
 20
4.46322089
  0
VERTEX
  8
0
 10
2.73754958
 20
4.48051959
  0
VERTEX
  8
0
 10
2.73850746
 20
4.51140507
  0
VERTEX
  8
0
 10
2.75777297
 20
4.54667192
  0
VERTEX
  8
0
 10
2.80138203
 20
4.59967349
  0
VERTEX
  8
0
 10
2.89500295
 20
4.69754991
  0
VERTEX
  8
0
 10
2.78861554
 20
4.72308289
  0
VERTEX
  8
0
 10
2.75306469
 20
4.75332788
  0
VERTEX
  8
0
 10
2.72478309
 20
4.79117084
  0
VERTEX
  8
0
 10
2.73805002
 20
4.83141656
  0
VERTEX
  8
0
 10
2.76308256
 20
4.86776977
  0
VERTEX
  8
0
 10
2.81752404
 20
4.86399453
  0
VERTEX
  8
0
 10
2.86309380
 20
4.84811039
  0
VERTEX
  8
0
 10
2.94181341
 20
4.79542633
  0
VERTEX
  8
0
 10
2.96934663
 20
4.77447035
  0
VERTEX
  8
0
 10
2.99713487
 20
4.77414885
  0
VERTEX
  8
0
 10
2.99484019
 20
4.83227697
  0
VERTEX
  8
0
 10
2.97551593
 20
4.88705611
  0
VERTEX
  8
0
 10
2.95742628
 20
4.94176696
  0
VERTEX
  8
0
 10
2.95883540
 20
4.99969017
  0
VERTEX
  8
0
 10
2.99287937
 20
5.05075613
  0
VERTEX
  8
0
 10
3.03207794
 20
5.04731509
  0
VERTEX
  8
0
 10
3.05771794
 20
5.02928258
  0
VERTEX
  8
0
 10
3.07942340
 20
4.96174662
  0
VERTEX
  8
0
 10
3.08224480
 20
4.78691534
  0
SEQEND
  0
POLYLINE
  8
Default_Layer
 66
   1
 39
0.000000
 70
    1
  0
VERTEX
  8
0
 10
2.80989302
 20
4.66350594
  0
VERTEX
  8
0
 10
2.73815700
 20
4.57474979
  0
VERTEX
  8
0
 10
2.71046143
 20
4.52290883
  0
VERTEX
  8
0
 10
2.69499461
 20
4.45924211
  0
VERTEX
  8
0
 10
2.74369749
 20
4.42616669
  0
VERTEX
  8
0
 10
2.77159355
 20
4.36987668
  0
VERTEX
  8
0
 10
2.76546276
 20
4.33105511
  0
VERTEX
  8
0
 10
2.74606057
 20
4.29753324
  0
VERTEX
  8
0
 10
2.67905049
 20
4.30154553
  0
VERTEX
  8
0
 10
2.64066160
 20
4.33209840
  0
VERTEX
  8
0
 10
2.62411985
 20
4.38473203
  0
VERTEX
  8
0
 10
2.62265117
 20
4.45498661
  0
VERTEX
  8
0
 10
2.59711819
 20
4.45924211
  0
VERTEX
  8
0
 10
2.57066246
 20
4.38290733
  0
VERTEX
  8
0
 10
2.52903025
 20
4.32306622
  0
VERTEX
  8
0
 10
2.48647528
 20
4.32306622
  0
VERTEX
  8
0
 10
2.48049193
 20
4.37787092
  0
VERTEX
  8
0
 10
2.48881586
 20
4.42909154
  0
VERTEX
  8
0
 10
2.51200826
 20
4.52307456
  0
VERTEX
  8
0
 10
2.48531795
 20
4.51553132
  0
VERTEX
  8
0
 10
2.46945330
 20
4.49754158
  0
VERTEX
  8
0
 10
2.42390698
 20
4.44974368
  0
VERTEX
  8
0
 10
2.34604390
 20
4.43370913
  0
VERTEX
  8
0
 10
2.33753290
 20
4.45073111
  0
VERTEX
  8
0
 10
2.32476641
 20
4.45924211
  0
VERTEX
  8
0
 10
2.34630206
 20
4.52655437
  0
VERTEX
  8
0
 10
2.38225881
 20
4.58008704
  0
VERTEX
  8
0
 10
2.43308820
 20
4.61894383
  0
VERTEX
  8
0
 10
2.49924177
 20
4.64222846
  0
VERTEX
  8
0
 10
2.49924177
 20
4.67627243
  0
VERTEX
  8
0
 10
2.45788909
 20
4.69558568
  0
VERTEX
  8
0
 10
2.42689833
 20
4.72308289
  0
VERTEX
  8
0
 10
2.43778230
 20
4.75100427
  0
VERTEX
  8
0
 10
2.45668681
 20
4.76989335
  0
VERTEX
  8
0
 10
2.51264808
 20
4.75634864
  0
VERTEX
  8
0
 10
2.57158521
 20
4.73584938
  0
VERTEX
  8
0
 10
2.58009621
 20
4.76989335
  0
VERTEX
  8
0
 10
2.54605223
 20
4.80819282
  0
VERTEX
  8
0
 10
2.53229251
 20
4.85034150
  0
VERTEX
  8
0
 10
2.53592937
 20
4.89761942
  0
VERTEX
  8
0
 10
2.55739414
 20
4.93635577
  0
VERTEX
  8
0
 10
2.59711819
 20
4.95287971
  0
VERTEX
  8
0
 10
2.64624779
 20
4.93311537
  0
VERTEX
  8
0
 10
2.67371713
 20
4.88479176
  0
VERTEX
  8
0
 10
2.68222812
 20
4.80819282
  0
VERTEX
  8
0
 10
2.70452137
 20
4.76467339
  0
VERTEX
  8
0
 10
2.74093451
 20
4.72987754
  0
VERTEX
  8
0
 10
2.80989302
 20
4.66350594
  0
SEQEND
  0
POLYLINE
  8
Default_Layer
 66
   1
 39
0.000000
 70
    1
  0
VERTEX
  8
0
 10
3.60567087
 20
4.91458024
  0
VERTEX
  8
0
 10
3.58896067
 20
4.86946266
  0
VERTEX
  8
0
 10
3.54878159
 20
4.86208821
  0
VERTEX
  8
0
 10
3.51364192
 20
4.88627914
  0
VERTEX
  8
0
 10
3.51204995
 20
4.93585772
  0
VERTEX
  8
0
 10
3.56721416
 20
4.93370295
  0
VERTEX
  8
0
 10
3.60567087
 20
4.91458024
  0
SEQEND
  0
POLYLINE
  8
Default_Layer
 66
   1
 39
0.000000
 70
    1
  0
VERTEX
  8
0
 10
3.29076413
 20
4.52307456
  0
VERTEX
  8
0
 10
3.31629711
 20
4.52307456
  0
VERTEX
  8
0
 10
3.31204161
 20
4.50605257
  0
VERTEX
  8
0
 10
3.28650863
 20
4.51030807
  0
VERTEX
  8
0
 10
3.29076413
 20
4.52307456
  0
SEQEND
  0
POLYLINE
  8
Default_Layer
 66
   1
 39
0.000000
 70
    1
  0
VERTEX
  8
0
 10
5.23978154
 20
2.87619739
  0
VERTEX
  8
0
 10
5.22794765
 20
2.86965787
  0
VERTEX
  8
0
 10
5.21424856
 20
2.87194190
  0
VERTEX
  8
0
 10
5.06105069
 20
2.87619739
  0
VERTEX
  8
0
 10
5.05679519
 20
2.89321938
  0
VERTEX
  8
0
 10
5.03126221
 20
2.90173037
  0
VERTEX
  8
0
 10
5.01424023
 20
2.91449686
  0
VERTEX
  8
0
 10
4.99721824
 20
2.90173037
  0
VERTEX
  8
0
 10
4.93338579
 20
2.91875236
  0
VERTEX
  8
0
 10
4.90359732
 20
2.93151885
  0
VERTEX
  8
0
 10
4.87380884
 20
2.94428534
  0
VERTEX
  8
0
 10
5.05315148
 20
2.93229154
  0
VERTEX
  8
0
 10
5.21424856
 20
2.89321938
  0
VERTEX
  8
0
 10
5.23072675
 20
2.88885861
  0
VERTEX
  8
0
 10
5.23978154
 20
2.87619739
  0
SEQEND
  0
POLYLINE
  8
Default_Layer
 66
   1
 39
0.000000
 70
    1
  0
VERTEX
  8
0
 10
5.38446843
 20
2.70597753
  0
VERTEX
  8
0
 10
5.41725592
 20
2.61742676
  0
VERTEX
  8
0
 10
5.46874540
 20
2.54665073
  0
VERTEX
  8
0
 10
5.52171523
 20
2.47787529
  0
VERTEX
  8
0
 10
5.55894378
 20
2.39532629
  0
VERTEX
  8
0
 10
5.56745478
 20
2.34426033
  0
VERTEX
  8
0
 10
5.61000974
 20
2.26766139
  0
VERTEX
  8
0
 10
5.73337143
 20
1.98581922
  0
VERTEX
  8
0
 10
5.84406205
 20
1.68891386
  0
VERTEX
  8
0
 10
5.81243238
 20
1.66178427
  0
VERTEX
  8
0
 10
5.78874060
 20
1.62508141
  0
VERTEX
  8
0
 10
5.71639716
 20
1.61657042
  0
VERTEX
  8
0
 10
5.67384219
 20
1.59954843
  0
VERTEX
  8
0
 10
5.62630042
 20
1.62224566
  0
VERTEX
  8
0
 10
5.58447676
 20
1.66338088
  0
VERTEX
  8
0
 10
5.50087737
 20
1.76656231
  0
VERTEX
  8
0
 10
5.41000140
 20
1.86338922
  0
VERTEX
  8
0
 10
5.36319094
 20
1.89317769
  0
VERTEX
  8
0
 10
5.28659201
 20
1.96126564
  0
VERTEX
  8
0
 10
5.03622582
 20
2.19811966
  0
VERTEX
  8
0
 10
4.92415492
 20
2.32979498
  0
VERTEX
  8
0
 10
4.82699838
 20
2.47618072
  0
VERTEX
  8
0
 10
4.80146540
 20
2.51873569
  0
VERTEX
  8
0
 10
5.15892711
 20
2.54426866
  0
VERTEX
  8
0
 10
5.16743810
 20
2.59107913
  0
VERTEX
  8
0
 10
4.92701601
 20
2.57747335
  0
VERTEX
  8
0
 10
4.69082249
 20
2.59959012
  0
VERTEX
  8
0
 10
4.77656330
 20
2.61523556
  0
VERTEX
  8
0
 10
4.86529785
 20
2.62086760
  0
VERTEX
  8
0
 10
5.09083916
 20
2.66767806
  0
VERTEX
  8
0
 10
5.29510300
 20
2.73151051
  0
VERTEX
  8
0
 10
5.29084750
 20
2.76555448
  0
VERTEX
  8
0
 10
5.26728516
 20
2.76789001
  0
VERTEX
  8
0
 10
5.24319695
 20
2.75846063
  0
VERTEX
  8
0
 10
5.21846492
 20
2.74938654
  0
VERTEX
  8
0
 10
5.19297108
 20
2.75278800
  0
VERTEX
  8
0
 10
5.23552605
 20
2.76980998
  0
VERTEX
  8
0
 10
5.29510300
 20
2.77832097
  0
VERTEX
  8
0
 10
5.33376998
 20
2.73519088
  0
VERTEX
  8
0
 10
5.38446843
 20
2.70597753
  0
SEQEND
  0
POLYLINE
  8
Default_Layer
 66
   1
 39
0.000000
 70
    1
  0
VERTEX
  8
0
 10
4.02696503
 20
2.20808444
  0
VERTEX
  8
0
 10
4.02270953
 20
2.19531795
  0
VERTEX
  8
0
 10
3.95036609
 20
2.21659543
  0
VERTEX
  8
0
 10
3.85983790
 20
2.26561710
  0
VERTEX
  8
0
 10
3.78014623
 20
2.32723834
  0
VERTEX
  8
0
 10
3.78440173
 20
2.33149384
  0
VERTEX
  8
0
 10
3.78865722
 20
2.33149384
  0
VERTEX
  8
0
 10
3.87126737
 20
2.27306805
  0
VERTEX
  8
0
 10
3.97589907
 20
2.23361742
  0
VERTEX
  8
0
 10
4.02696503
 20
2.20808444
  0
SEQEND
  0
POLYLINE
  8
Default_Layer
 66
   1
 39
0.000000
 70
    1
  0
VERTEX
  8
0
 10
4.04824251
 20
2.07616405
  0
VERTEX
  8
0
 10
4.04824251
 20
2.03786458
  0
VERTEX
  8
0
 10
4.07555812
 20
1.99643274
  0
VERTEX
  8
0
 10
4.09505297
 20
1.93998816
  0
VERTEX
  8
0
 10
4.13307025
 20
1.73265946
  0
VERTEX
  8
0
 10
4.13091019
 20
1.62493583
  0
VERTEX
  8
0
 10
4.10356397
 20
1.53571599
  0
VERTEX
  8
0
 10
4.09079748
 20
1.46337254
  0
VERTEX
  8
0
 10
3.96313258
 20
1.42932857
  0
VERTEX
  8
0
 10
3.84397868
 20
1.43783956
  0
VERTEX
  8
0
 10
3.79698886
 20
1.55552204
  0
VERTEX
  8
0
 10
3.76433461
 20
1.68788222
  0
VERTEX
  8
0
 10
3.71631378
 20
1.96977663
  0
VERTEX
  8
0
 10
3.77163524
 20
1.96977663
  0
VERTEX
  8
0
 10
3.72706141
 20
2.04583640
  0
VERTEX
  8
0
 10
3.66099233
 20
2.10169702
  0
VERTEX
  8
0
 10
3.58864889
 20
2.15276298
  0
VERTEX
  8
0
 10
3.52481644
 20
2.20382894
  0
VERTEX
  8
0
 10
3.54183842
 20
2.20382894
  0
VERTEX
  8
0
 10
3.65021169
 20
2.15302450
  0
VERTEX
  8
0
 10
3.77359053
 20
2.11780610
  0
VERTEX
  8
0
 10
4.04824251
 20
2.07616405
  0
SEQEND
  0
POLYLINE
  8
Default_Layer
 66
   1
 39
0.000000
 70
    1
  0
VERTEX
  8
0
 10
5.94619397
 20
1.70168035
  0
VERTEX
  8
0
 10
5.88236152
 20
1.70593585
  0
VERTEX
  8
0
 10
5.87810602
 20
1.76551280
  0
VERTEX
  8
0
 10
5.91640549
 20
1.77402379
  0
VERTEX
  8
0
 10
5.93856354
 20
1.74448682
  0
VERTEX
  8
0
 10
5.94619397
 20
1.70168035
  0
SEQEND
  0
POLYLINE
  8
Default_Layer
 66
   1
 39
0.000000
 70
    1
  0
VERTEX
  8
0
 10
5.90363900
 20
1.50167201
  0
VERTEX
  8
0
 10
5.83980656
 20
1.51018301
  0
VERTEX
  8
0
 10
5.81852907
 20
1.58678194
  0
VERTEX
  8
0
 10
5.84828521
 20
1.63667424
  0
VERTEX
  8
0
 10
5.87455437
 20
1.65233340
  0
VERTEX
  8
0
 10
5.90789450
 20
1.65486989
  0
VERTEX
  8
0
 10
5.94683820
 20
1.62527185
  0
VERTEX
  8
0
 10
5.95896046
 20
1.57401545
  0
VERTEX
  8
0
 10
5.92917198
 20
1.54422698
  0
VERTEX
  8
0
 10
5.90363900
 20
1.50167201
  0
SEQEND
  0
POLYLINE
  8
Default_Layer
 66
   1
 39
0.000000
 70
    1
  0
VERTEX
  8
0
 10
5.63979822
 20
1.47188354
  0
VERTEX
  8
0
 10
5.61150166
 20
1.46621678
  0
VERTEX
  8
0
 10
5.58983661
 20
1.47806098
  0
VERTEX
  8
0
 10
5.55468829
 20
1.51443850
  0
VERTEX
  8
0
 10
5.56670549
 20
1.56085352
  0
VERTEX
  8
0
 10
5.58873226
 20
1.59529294
  0
VERTEX
  8
0
 10
5.61986598
 20
1.58335235
  0
VERTEX
  8
0
 10
5.63503759
 20
1.55515499
  0
VERTEX
  8
0
 10
5.63979822
 20
1.47188354
  0
SEQEND
  0
POLYLINE
  8
Default_Layer
 66
   1
 39
0.000000
 70
    1
  0
VERTEX
  8
0
 10
5.75895212
 20
1.59529294
  0
VERTEX
  8
0
 10
5.75044113
 20
1.56550446
  0
VERTEX
  8
0
 10
5.78874060
 20
1.56124896
  0
VERTEX
  8
0
 10
5.77597411
 20
1.49316102
  0
VERTEX
  8
0
 10
5.79299609
 20
1.48890552
  0
VERTEX
  8
0
 10
5.78190721
 20
1.46031281
  0
VERTEX
  8
0
 10
5.75604264
 20
1.44230970
  0
VERTEX
  8
0
 10
5.72205794
 20
1.43696576
  0
VERTEX
  8
0
 10
5.68660868
 20
1.44635056
  0
VERTEX
  8
0
 10
5.68537044
 20
1.47458179
  0
VERTEX
  8
0
 10
5.66958669
 20
1.48890552
  0
VERTEX
  8
0
 10
5.69736051
 20
1.55917425
  0
VERTEX
  8
0
 10
5.72229622
 20
1.58315782
  0
VERTEX
  8
0
 10
5.75895212
 20
1.59529294
  0
SEQEND
  0
POLYLINE
  8
Default_Layer
 66
   1
 39
0.000000
 70
    1
  0
VERTEX
  8
0
 10
4.21420688
 20
1.51443850
  0
VERTEX
  8
0
 10
4.21025150
 20
1.46167258
  0
VERTEX
  8
0
 10
4.18867390
 20
1.42932857
  0
VERTEX
  8
0
 10
4.15508638
 20
1.43236120
  0
VERTEX
  8
0
 10
4.13760794
 20
1.45060605
  0
VERTEX
  8
0
 10
4.16314092
 20
1.45060605
  0
VERTEX
  8
0
 10
4.16739642
 20
1.54422698
  0
VERTEX
  8
0
 10
4.18583134
 20
1.54812749
  0
VERTEX
  8
0
 10
4.19330851
 20
1.53620574
  0
VERTEX
  8
0
 10
4.19953224
 20
1.52084749
  0
VERTEX
  8
0
 10
4.21420688
 20
1.51443850
  0
SEQEND
  0
POLYLINE
  8
Default_Layer
 66
   1
 39
0.000000
 70
    1
  0
VERTEX
  8
0
 10
6.45685355
 20
0.73142714
  0
VERTEX
  8
0
 10
6.39879879
 20
0.72380757
  0
VERTEX
  8
0
 10
6.33344415
 20
0.72717164
  0
VERTEX
  8
0
 10
6.33769965
 20
0.70589416
  0
VERTEX
  8
0
 10
6.47477770
 20
0.70136376
  0
VERTEX
  8
0
 10
6.53344740
 20
0.68773710
  0
VERTEX
  8
0
 10
6.56324097
 20
0.65057271
  0
VERTEX
  8
0
 10
6.55707337
 20
0.61457706
  0
VERTEX
  8
0
 10
6.54196348
 20
0.58248476
  0
VERTEX
  8
0
 10
6.47036412
 20
0.55218233
  0
VERTEX
  8
0
 10
6.43128113
 20
0.55125454
  0
VERTEX
  8
0
 10
6.39302111
 20
0.56546277
  0
VERTEX
  8
0
 10
6.33222650
 20
0.61225345
  0
VERTEX
  8
0
 10
6.26961171
 20
0.64631721
  0
VERTEX
  8
0
 10
6.27977697
 20
0.61867265
  0
VERTEX
  8
0
 10
6.29088919
 20
0.58248476
  0
VERTEX
  8
0
 10
6.16140454
 20
0.60483973
  0
VERTEX
  8
0
 10
6.07353263
 20
0.66888235
  0
VERTEX
  8
0
 10
6.01667618
 20
0.76419737
  0
VERTEX
  8
0
 10
5.98023794
 20
0.88036952
  0
VERTEX
  8
0
 10
5.95044947
 20
0.90590250
  0
VERTEX
  8
0
 10
5.92409920
 20
0.96735941
  0
VERTEX
  8
0
 10
5.90369385
 20
1.03775922
  0
VERTEX
  8
0
 10
5.86943071
 20
1.09542437
  0
VERTEX
  8
0
 10
5.84091413
 20
1.11270722
  0
VERTEX
  8
0
 10
5.80150709
 20
1.11867732
  0
VERTEX
  8
0
 10
5.79299609
 20
1.10165534
  0
VERTEX
  8
0
 10
5.83555106
 20
1.04633388
  0
VERTEX
  8
0
 10
5.88158239
 20
0.99464710
  0
VERTEX
  8
0
 10
5.89938351
 20
0.91441349
  0
VERTEX
  8
0
 10
5.75469662
 20
0.94420197
  0
VERTEX
  8
0
 10
5.73228610
 20
1.03391351
  0
VERTEX
  8
0
 10
5.74374883
 20
1.13525174
  0
VERTEX
  8
0
 10
5.75962158
 20
1.23787763
  0
VERTEX
  8
0
 10
5.75044113
 20
1.33145215
  0
VERTEX
  8
0
 10
5.73051599
 20
1.36144452
  0
VERTEX
  8
0
 10
5.72490815
 20
1.39954010
  0
VERTEX
  8
0
 10
5.79134273
 20
1.42056869
  0
VERTEX
  8
0
 10
5.82704007
 20
1.47188354
  0
VERTEX
  8
0
 10
5.87290416
 20
1.46712596
  0
VERTEX
  8
0
 10
5.91439637
 20
1.47640681
  0
VERTEX
  8
0
 10
5.98023794
 20
1.50592751
  0
VERTEX
  8
0
 10
6.12861875
 20
1.37573682
  0
VERTEX
  8
0
 10
6.25258972
 20
1.21655374
  0
VERTEX
  8
0
 10
6.28237820
 20
1.16548779
  0
VERTEX
  8
0
 10
6.29940018
 20
1.10165534
  0
VERTEX
  8
0
 10
6.35979642
 20
0.91587813
  0
VERTEX
  8
0
 10
6.44408706
 20
0.75270462
  0
VERTEX
  8
0
 10
6.45685355
 20
0.73142714
  0
SEQEND
  0
POLYLINE
  8
Default_Layer
 66
   1
 39
0.000000
 70
    1
  0
VERTEX
  8
0
 10
3.77589073
 20
1.45486155
  0
VERTEX
  8
0
 10
3.80567921
 20
1.41656208
  0
VERTEX
  8
0
 10
3.78014623
 20
1.33570765
  0
VERTEX
  8
0
 10
3.75463527
 20
1.33938970
  0
VERTEX
  8
0
 10
3.73661979
 20
1.35572258
  0
VERTEX
  8
0
 10
3.71205829
 20
1.39528460
  0
VERTEX
  8
0
 10
3.72482478
 20
1.45911705
  0
VERTEX
  8
0
 10
3.77589073
 20
1.45486155
  0
SEQEND
  0
POLYLINE
  8
Default_Layer
 66
   1
 39
0.000000
 70
    1
  0
VERTEX
  8
0
 10
4.02270953
 20
1.37826261
  0
VERTEX
  8
0
 10
4.04824251
 20
1.41656208
  0
VERTEX
  8
0
 10
4.09367111
 20
1.39571398
  0
VERTEX
  8
0
 10
4.10971232
 20
1.37814257
  0
VERTEX
  8
0
 10
4.11207496
 20
1.35698513
  0
VERTEX
  8
0
 10
4.09474754
 20
1.33982303
  0
VERTEX
  8
0
 10
4.06526450
 20
1.33570765
  0
VERTEX
  8
0
 10
4.04354051
 20
1.35367669
  0
VERTEX
  8
0
 10
4.02270953
 20
1.37826261
  0
SEQEND
  0
POLYLINE
  8
Default_Layer
 66
   1
 39
0.000000
 70
    1
  0
VERTEX
  8
0
 10
3.97164357
 20
1.37400712
  0
VERTEX
  8
0
 10
3.97419725
 20
1.31248663
  0
VERTEX
  8
0
 10
3.95036609
 20
1.26761970
  0
VERTEX
  8
0
 10
3.91841296
 20
1.25271211
  0
VERTEX
  8
0
 10
3.88380922
 20
1.25707357
  0
VERTEX
  8
0
 10
3.83121219
 20
1.30166368
  0
VERTEX
  8
0
 10
3.85734982
 20
1.35973743
  0
VERTEX
  8
0
 10
3.89504464
 20
1.39954010
  0
VERTEX
  8
0
 10
3.97164357
 20
1.37400712
  0
SEQEND
  0
POLYLINE
  8
Default_Layer
 66
   1
 39
0.000000
 70
    1
  0
VERTEX
  8
0
 10
4.02696503
 20
1.30591917
  0
VERTEX
  8
0
 10
4.07521305
 20
1.29522750
  0
VERTEX
  8
0
 10
4.12484145
 20
1.30166368
  0
VERTEX
  8
0
 10
4.19978633
 20
1.17295560
  0
VERTEX
  8
0
 10
4.22391158
 20
1.09813605
  0
VERTEX
  8
0
 10
4.21420688
 20
1.00803441
  0
VERTEX
  8
0
 10
4.16414990
 20
0.95876385
  0
VERTEX
  8
0
 10
4.10781946
 20
0.91441349
  0
VERTEX
  8
0
 10
4.03328535
 20
0.89289153
  0
VERTEX
  8
0
 10
3.94185510
 20
0.88462501
  0
VERTEX
  8
0
 10
3.96015129
 20
0.95227533
  0
VERTEX
  8
0
 10
3.97164357
 20
1.02931190
  0
VERTEX
  8
0
 10
3.94041823
 20
1.02093378
  0
VERTEX
  8
0
 10
3.92483311
 20
0.99526792
  0
VERTEX
  8
0
 10
3.86100066
 20
0.82930356
  0
VERTEX
  8
0
 10
3.76737974
 20
0.76547111
  0
VERTEX
  8
0
 10
3.77163524
 20
0.73993813
  0
VERTEX
  8
0
 10
3.73195300
 20
0.70634163
  0
VERTEX
  8
0
 10
3.68226981
 20
0.68461668
  0
VERTEX
  8
0
 10
3.64134747
 20
0.64639535
  0
VERTEX
  8
0
 10
3.58013789
 20
0.62929522
  0
VERTEX
  8
0
 10
3.59732536
 20
0.69668500
  0
VERTEX
  8
0
 10
3.58864889
 20
0.76547111
  0
VERTEX
  8
0
 10
3.56500466
 20
0.74872595
  0
VERTEX
  8
0
 10
3.55886041
 20
0.71440515
  0
VERTEX
  8
0
 10
3.54963854
 20
0.66411550
  0
VERTEX
  8
0
 10
3.52056094
 20
0.63355072
  0
VERTEX
  8
0
 10
3.47768777
 20
0.57096907
  0
VERTEX
  8
0
 10
3.44818799
 20
0.55128083
  0
VERTEX
  8
0
 10
3.40991803
 20
0.54418529
  0
VERTEX
  8
0
 10
3.34552453
 20
0.56709395
  0
VERTEX
  8
0
 10
3.30060683
 20
0.62335593
  0
VERTEX
  8
0
 10
3.29013112
 20
0.68897081
  0
VERTEX
  8
0
 10
3.30248595
 20
0.71778544
  0
VERTEX
  8
0
 10
3.32906360
 20
0.73993813
  0
VERTEX
  8
0
 10
3.40140704
 20
0.75270462
  0
VERTEX
  8
0
 10
3.42129271
 20
0.74004590
  0
VERTEX
  8
0
 10
3.44821750
 20
0.73142714
  0
VERTEX
  8
0
 10
3.45468516
 20
0.75305506
  0
VERTEX
  8
0
 10
3.44821750
 20
0.77398210
  0
VERTEX
  8
0
 10
3.36162897
 20
0.77804229
  0
VERTEX
  8
0
 10
3.29724791
 20
0.74583966
  0
VERTEX
  8
0
 10
3.25834956
 20
0.68302553
  0
VERTEX
  8
0
 10
3.24820916
 20
0.59525125
  0
VERTEX
  8
0
 10
3.20990969
 20
0.60376224
  0
VERTEX
  8
0
 10
3.19015786
 20
0.63584289
  0
VERTEX
  8
0
 10
3.18437672
 20
0.67185019
  0
VERTEX
  8
0
 10
3.19738944
 20
0.69675862
  0
VERTEX
  8
0
 10
3.22267618
 20
0.71440515
  0
VERTEX
  8
0
 10
3.25868348
 20
0.73233372
  0
VERTEX
  8
0
 10
3.26872657
 20
0.74461536
  0
VERTEX
  8
0
 10
3.26523115
 20
0.76121562
  0
VERTEX
  8
0
 10
3.22284453
 20
0.76400460
  0
VERTEX
  8
0
 10
3.19119317
 20
0.74950928
  0
VERTEX
  8
0
 10
3.15033274
 20
0.68887217
  0
VERTEX
  8
0
 10
3.12905526
 20
0.64631721
  0
VERTEX
  8
0
 10
3.11936539
 20
0.69727098
  0
VERTEX
  8
0
 10
3.13331076
 20
0.74844913
  0
VERTEX
  8
0
 10
3.16466903
 20
0.76122716
  0
VERTEX
  8
0
 10
3.18012122
 20
0.79100409
  0
VERTEX
  8
0
 10
3.13331076
 20
0.79951508
  0
VERTEX
  8
0
 10
3.11203327
 20
0.77398210
  0
VERTEX
  8
0
 10
3.10329658
 20
0.76137833
  0
VERTEX
  8
0
 10
3.09075579
 20
0.75696012
  0
VERTEX
  8
0
 10
3.09047466
 20
0.77587362
  0
VERTEX
  8
0
 10
3.09501129
 20
0.80377058
  0
VERTEX
  8
0
 10
3.06947831
 20
0.80377058
  0
VERTEX
  8
0
 10
3.05645032
 20
0.79388676
  0
VERTEX
  8
0
 10
3.03543434
 20
0.79100409
  0
VERTEX
  8
0
 10
3.05245632
 20
0.81228157
  0
VERTEX
  8
0
 10
3.16309923
 20
0.83355906
  0
VERTEX
  8
0
 10
3.26362300
 20
0.86446153
  0
VERTEX
  8
0
 10
3.35297997
 20
0.91091180
  0
VERTEX
  8
0
 10
3.50353896
 20
1.03356739
  0
VERTEX
  8
0
 10
3.60567087
 20
1.13144381
  0
VERTEX
  8
0
 10
3.68344406
 20
1.22179407
  0
VERTEX
  8
0
 10
3.73029130
 20
1.26180635
  0
VERTEX
  8
0
 10
3.78865722
 20
1.28889719
  0
VERTEX
  8
0
 10
3.81419020
 20
1.26761970
  0
VERTEX
  8
0
 10
3.90034683
 20
1.22351382
  0
VERTEX
  8
0
 10
3.95237235
 20
1.21774386
  0
VERTEX
  8
0
 10
3.99717655
 20
1.23783123
  0
VERTEX
  8
0
 10
4.02696503
 20
1.30591917
  0
SEQEND
  0
POLYLINE
  8
Default_Layer
 66
   1
 39
0.000000
 70
    1
  0
VERTEX
  8
0
 10
6.76324930
 20
0.74844913
  0
VERTEX
  8
0
 10
6.77601579
 20
0.74844913
  0
VERTEX
  8
0
 10
6.78027129
 20
0.71014966
  0
VERTEX
  8
0
 10
6.75899381
 20
0.71014966
  0
VERTEX
  8
0
 10
6.76324930
 20
0.74844913
  0
SEQEND
  0
POLYLINE
  8
Default_Layer
 66
   1
 39
0.000000
 70
    1
  0
VERTEX
  8
0
 10
6.72494984
 20
0.71866065
  0
VERTEX
  8
0
 10
6.71791162
 20
0.68227318
  0
VERTEX
  8
0
 10
6.69516136
 20
0.65908370
  0
VERTEX
  8
0
 10
6.69090586
 20
0.64631721
  0
VERTEX
  8
0
 10
6.67813937
 20
0.64631721
  0
VERTEX
  8
0
 10
6.67627578
 20
0.67690801
  0
VERTEX
  8
0
 10
6.66537288
 20
0.70163866
  0
VERTEX
  8
0
 10
6.69117534
 20
0.71986464
  0
VERTEX
  8
0
 10
6.72494984
 20
0.71866065
  0
SEQEND
  0
POLYLINE
  8
Default_Layer
 66
   1
 39
0.000000
 70
    1
  0
VERTEX
  8
0
 10
6.57600746
 20
0.71014966
  0
VERTEX
  8
0
 10
6.62535265
 20
0.68508393
  0
VERTEX
  8
0
 10
6.63959553
 20
0.66381855
  0
VERTEX
  8
0
 10
6.63983990
 20
0.63355072
  0
VERTEX
  8
0
 10
6.59728494
 20
0.61652873
  0
VERTEX
  8
0
 10
6.58877395
 20
0.68887217
  0
VERTEX
  8
0
 10
6.57600746
 20
0.68887217
  0
VERTEX
  8
0
 10
6.57600746
 20
0.71014966
  0
SEQEND
  0
POLYLINE
  8
Default_Layer
 66
   1
 39
0.000000
 70
    1
  0
VERTEX
  8
0
 10
4.29931681
 20
8.41685389
  0
VERTEX
  8
0
 10
4.26215031
 20
8.33841497
  0
VERTEX
  8
0
 10
4.20298684
 20
8.27753308
  0
VERTEX
  8
0
 10
4.11964490
 20
8.23950114
  0
VERTEX
  8
0
 10
4.00994304
 20
8.22961204
  0
VERTEX
  8
0
 10
4.00634534
 20
8.24557201
  0
VERTEX
  8
0
 10
3.98866556
 20
8.25088952
  0
VERTEX
  8
0
 10
3.99837155
 20
8.33506862
  0
VERTEX
  8
0
 10
4.02270953
 20
8.40834289
  0
VERTEX
  8
0
 10
4.04367530
 20
8.46113047
  0
VERTEX
  8
0
 10
4.08654198
 20
8.48919733
  0
VERTEX
  8
0
 10
4.08528003
 20
8.42929395
  0
VERTEX
  8
0
 10
4.09917549
 20
8.37860751
  0
VERTEX
  8
0
 10
4.12803168
 20
8.34278875
  0
VERTEX
  8
0
 10
4.17165191
 20
8.32748846
  0
VERTEX
  8
0
 10
4.21467773
 20
8.33299469
  0
VERTEX
  8
0
 10
4.24706197
 20
8.35488056
  0
VERTEX
  8
0
 10
4.29931681
 20
8.41685389
  0
SEQEND
  0
POLYLINE
  8
Default_Layer
 66
   1
 39
0.000000
 70
    1
  0
VERTEX
  8
0
 10
4.89083083
 20
3.92304954
  0
VERTEX
  8
0
 10
4.87380884
 20
3.92304954
  0
VERTEX
  8
0
 10
4.87806434
 20
3.94858252
  0
VERTEX
  8
0
 10
4.86529785
 20
3.95709352
  0
VERTEX
  8
0
 10
4.83687618
 20
4.02736937
  0
VERTEX
  8
0
 10
4.79295441
 20
4.08475841
  0
VERTEX
  8
0
 10
4.80997639
 20
4.02092596
  0
VERTEX
  8
0
 10
4.82699838
 20
4.01241497
  0
VERTEX
  8
0
 10
4.84827586
 20
3.93156054
  0
VERTEX
  8
0
 10
4.86529785
 20
3.91879405
  0
VERTEX
  8
0
 10
4.90928686
 20
3.69840959
  0
VERTEX
  8
0
 10
4.96742976
 20
3.48047790
  0
VERTEX
  8
0
 10
5.00396177
 20
3.40027121
  0
VERTEX
  8
0
 10
5.06105069
 20
3.34430201
  0
VERTEX
  8
0
 10
5.05679519
 20
3.33153552
  0
VERTEX
  8
0
 10
5.07381718
 20
3.32728003
  0
VERTEX
  8
0
 10
5.09685047
 20
3.29184510
  0
VERTEX
  8
0
 10
5.13005697
 20
3.26637063
  0
VERTEX
  8
0
 10
5.21850406
 20
3.23791460
  0
VERTEX
  8
0
 10
5.22275956
 20
3.25919208
  0
VERTEX
  8
0
 10
5.32063598
 20
3.16982666
  0
VERTEX
  8
0
 10
5.35042445
 20
3.16557116
  0
VERTEX
  8
0
 10
5.35376082
 20
3.15311926
  0
VERTEX
  8
0
 10
5.36319094
 20
3.14429368
  0
VERTEX
  8
0
 10
5.23127055
 20
3.16982666
  0
VERTEX
  8
0
 10
5.22701505
 20
3.18259315
  0
VERTEX
  8
0
 10
4.95833279
 20
3.31925597
  0
VERTEX
  8
0
 10
4.81479763
 20
3.37919054
  0
VERTEX
  8
0
 10
4.65252302
 20
3.42090095
  0
VERTEX
  8
0
 10
4.66409893
 20
3.40362374
  0
VERTEX
  8
0
 10
4.68231150
 20
3.39536797
  0
VERTEX
  8
0
 10
4.80835180
 20
3.34480241
  0
VERTEX
  8
0
 10
4.94615228
 20
3.30174705
  0
VERTEX
  8
0
 10
4.95040778
 20
3.28898056
  0
VERTEX
  8
0
 10
4.97594076
 20
3.28046957
  0
VERTEX
  8
0
 10
4.98208952
 20
3.27628136
  0
VERTEX
  8
0
 10
4.98445175
 20
3.26770308
  0
VERTEX
  8
0
 10
5.08089769
 20
3.20446736
  0
VERTEX
  8
0
 10
5.19297108
 20
3.15706017
  0
VERTEX
  8
0
 10
5.19883212
 20
3.15180548
  0
VERTEX
  8
0
 10
5.20148207
 20
3.14429368
  0
VERTEX
  8
0
 10
5.34679122
 20
3.09657141
  0
VERTEX
  8
0
 10
5.51656319
 20
3.07434757
  0
VERTEX
  8
0
 10
5.89087251
 20
3.07195024
  0
VERTEX
  8
0
 10
5.71980988
 20
3.01925022
  0
VERTEX
  8
0
 10
5.51728917
 20
3.00006862
  0
VERTEX
  8
0
 10
5.30474343
 20
3.00618909
  0
VERTEX
  8
0
 10
5.10360565
 20
3.02939527
  0
VERTEX
  8
0
 10
5.09509466
 20
3.02939527
  0
VERTEX
  8
0
 10
4.97168526
 20
3.08471673
  0
VERTEX
  8
0
 10
4.84827586
 20
3.14429368
  0
VERTEX
  8
0
 10
4.84402037
 20
3.15706017
  0
VERTEX
  8
0
 10
4.75039944
 20
3.18259315
  0
VERTEX
  8
0
 10
4.73258391
 20
3.18421949
  0
VERTEX
  8
0
 10
4.72061097
 20
3.17408215
  0
VERTEX
  8
0
 10
4.74614394
 20
3.15706017
  0
VERTEX
  8
0
 10
4.82944960
 20
3.11057663
  0
VERTEX
  8
0
 10
4.92487480
 20
3.07195024
  0
VERTEX
  8
0
 10
4.92913030
 20
3.05492825
  0
VERTEX
  8
0
 10
5.06825083
 20
2.99719882
  0
VERTEX
  8
0
 10
5.21850406
 20
2.95279633
  0
VERTEX
  8
0
 10
4.98096187
 20
2.96910568
  0
VERTEX
  8
0
 10
4.76316593
 20
3.01662878
  0
VERTEX
  8
0
 10
4.68231150
 20
3.02939527
  0
VERTEX
  8
0
 10
4.67805600
 20
2.99109580
  0
VERTEX
  8
0
 10
4.69728026
 20
2.98189659
  0
VERTEX
  8
0
 10
4.70358898
 20
2.96556282
  0
VERTEX
  8
0
 10
4.81423189
 20
2.91449686
  0
VERTEX
  8
0
 10
4.69714829
 20
2.93688040
  0
VERTEX
  8
0
 10
4.58017958
 20
2.96981832
  0
VERTEX
  8
0
 10
4.49932515
 20
2.99109580
  0
VERTEX
  8
0
 10
4.43055701
 20
3.02918505
  0
VERTEX
  8
0
 10
4.39145260
 20
3.04616888
  0
VERTEX
  8
0
 10
4.34612727
 20
3.05067275
  0
VERTEX
  8
0
 10
4.34187177
 20
3.04216176
  0
VERTEX
  8
0
 10
4.37695594
 20
3.00294862
  0
VERTEX
  8
0
 10
4.42186096
 20
2.97429297
  0
VERTEX
  8
0
 10
4.52911362
 20
2.93577435
  0
VERTEX
  8
0
 10
4.76742143
 20
2.88045289
  0
VERTEX
  8
0
 10
4.77167692
 20
2.86768640
  0
VERTEX
  8
0
 10
4.84402037
 20
2.86343091
  0
VERTEX
  8
0
 10
4.84827586
 20
2.85066442
  0
VERTEX
  8
0
 10
5.32914697
 20
2.83789793
  0
VERTEX
  8
0
 10
5.31890096
 20
2.82675134
  0
VERTEX
  8
0
 10
5.29510300
 20
2.82513144
  0
VERTEX
  8
0
 10
5.09935016
 20
2.77406548
  0
VERTEX
  8
0
 10
5.01849572
 20
2.75704349
  0
VERTEX
  8
0
 10
4.94189679
 20
2.75704349
  0
VERTEX
  8
0
 10
4.71635547
 20
2.75704349
  0
VERTEX
  8
0
 10
4.55410392
 20
2.77233397
  0
VERTEX
  8
0
 10
4.48606675
 20
2.79072506
  0
VERTEX
  8
0
 10
4.43549270
 20
2.82513144
  0
VERTEX
  8
0
 10
4.41421521
 20
2.82513144
  0
VERTEX
  8
0
 10
4.33211173
 20
2.86942788
  0
VERTEX
  8
0
 10
4.26326360
 20
2.92714744
  0
VERTEX
  8
0
 10
4.13335244
 20
3.05067275
  0
VERTEX
  8
0
 10
4.13760794
 20
3.06769474
  0
VERTEX
  8
0
 10
4.11207496
 20
3.07620573
  0
VERTEX
  8
0
 10
4.10570342
 20
3.09170914
  0
VERTEX
  8
0
 10
4.09079748
 20
3.09748321
  0
VERTEX
  8
0
 10
4.06526450
 20
3.14429368
  0
VERTEX
  8
0
 10
4.04824251
 20
3.14429368
  0
VERTEX
  8
0
 10
4.05249801
 20
3.16131566
  0
VERTEX
  8
0
 10
4.03482009
 20
3.17867814
  0
VERTEX
  8
0
 10
4.02696503
 20
3.20387063
  0
VERTEX
  8
0
 10
4.00568755
 20
3.21238162
  0
VERTEX
  8
0
 10
3.96567822
 20
3.29198898
  0
VERTEX
  8
0
 10
3.93334411
 20
3.37834599
  0
VERTEX
  8
0
 10
3.90865935
 20
3.37372194
  0
VERTEX
  8
0
 10
3.90184476
 20
3.35492820
  0
VERTEX
  8
0
 10
3.91206662
 20
3.31025804
  0
VERTEX
  8
0
 10
3.92908861
 20
3.30174705
  0
VERTEX
  8
0
 10
3.95036609
 20
3.24217010
  0
VERTEX
  8
0
 10
3.96313258
 20
3.23791460
  0
VERTEX
  8
0
 10
3.96313258
 20
3.22089261
  0
VERTEX
  8
0
 10
3.98015457
 20
3.21663712
  0
VERTEX
  8
0
 10
4.05583530
 20
3.09637986
  0
VERTEX
  8
0
 10
4.15218317
 20
2.99154508
  0
VERTEX
  8
0
 10
4.37591575
 20
2.80810945
  0
VERTEX
  8
0
 10
4.43974819
 20
2.75704349
  0
VERTEX
  8
0
 10
4.49932515
 20
2.74427700
  0
VERTEX
  8
0
 10
4.68231150
 20
2.70597753
  0
VERTEX
  8
0
 10
4.94615228
 20
2.67618906
  0
VERTEX
  8
0
 10
4.78736987
 20
2.64295554
  0
VERTEX
  8
0
 10
4.60145706
 20
2.64214509
  0
VERTEX
  8
0
 10
4.41160319
 20
2.66668249
  0
VERTEX
  8
0
 10
4.33722807
 20
2.69719183
  0
VERTEX
  8
0
 10
4.29080582
 20
2.74853250
  0
VERTEX
  8
0
 10
4.21420688
 20
2.78257647
  0
VERTEX
  8
0
 10
4.20995138
 20
2.79959846
  0
VERTEX
  8
0
 10
4.16739642
 20
2.80385395
  0
VERTEX
  8
0
 10
4.16314092
 20
2.76129899
  0
VERTEX
  8
0
 10
4.35038277
 20
2.65491157
  0
VERTEX
  8
0
 10
4.41421521
 20
2.62086760
  0
VERTEX
  8
0
 10
4.49506965
 20
2.61235661
  0
VERTEX
  8
0
 10
4.69933348
 20
2.55703515
  0
VERTEX
  8
0
 10
4.55693827
 20
2.55188239
  0
VERTEX
  8
0
 10
4.41902520
 20
2.56476713
  0
VERTEX
  8
0
 10
4.30530400
 20
2.60463822
  0
VERTEX
  8
0
 10
4.26367463
 20
2.63749018
  0
VERTEX
  8
0
 10
4.23548436
 20
2.68044455
  0
VERTEX
  8
0
 10
4.20552609
 20
2.69584099
  0
VERTEX
  8
0
 10
4.18867390
 20
2.72299952
  0
VERTEX
  8
0
 10
4.12934222
 20
2.78930553
  0
VERTEX
  8
0
 10
4.08228648
 20
2.86768640
  0
VERTEX
  8
0
 10
4.05864135
 20
2.88286560
  0
VERTEX
  8
0
 10
4.03122053
 20
2.89321938
  0
VERTEX
  8
0
 10
4.02223786
 20
2.88613355
  0
VERTEX
  8
0
 10
4.01845404
 20
2.87194190
  0
VERTEX
  8
0
 10
4.00406296
 20
2.86659120
  0
VERTEX
  8
0
 10
4.00143205
 20
2.85066442
  0
VERTEX
  8
0
 10
4.02270953
 20
2.85066442
  0
VERTEX
  8
0
 10
4.02696503
 20
2.85917541
  0
VERTEX
  8
0
 10
4.04055730
 20
2.85140849
  0
VERTEX
  8
0
 10
4.04824251
 20
2.83789793
  0
VERTEX
  8
0
 10
4.07377549
 20
2.78683197
  0
VERTEX
  8
0
 10
4.08654198
 20
2.78257647
  0
VERTEX
  8
0
 10
4.13525300
 20
2.71295559
  0
VERTEX
  8
0
 10
4.20144039
 20
2.65916707
  0
VERTEX
  8
0
 10
4.26873048
 20
2.60519977
  0
VERTEX
  8
0
 10
4.31633879
 20
2.53150218
  0
VERTEX
  8
0
 10
4.48655866
 20
2.48043622
  0
VERTEX
  8
0
 10
4.35584237
 20
2.48745678
  0
VERTEX
  8
0
 10
4.23257317
 20
2.50740952
  0
VERTEX
  8
0
 10
4.12778156
 20
2.54791958
  0
VERTEX
  8
0
 10
4.05249801
 20
2.61661211
  0
VERTEX
  8
0
 10
4.02270953
 20
2.62086760
  0
VERTEX
  8
0
 10
4.00188388
 20
2.65057873
  0
VERTEX
  8
0
 10
3.97164357
 20
2.67193356
  0
VERTEX
  8
0
 10
3.97164357
 20
2.68470005
  0
VERTEX
  8
0
 10
3.92045165
 20
2.72109827
  0
VERTEX
  8
0
 10
3.87802265
 20
2.77406548
  0
VERTEX
  8
0
 10
3.86185512
 20
2.79792993
  0
VERTEX
  8
0
 10
3.83546769
 20
2.80385395
  0
VERTEX
  8
0
 10
3.83793869
 20
2.76585359
  0
VERTEX
  8
0
 10
3.85248967
 20
2.73151051
  0
VERTEX
  8
0
 10
3.86951166
 20
2.73151051
  0
VERTEX
  8
0
 10
3.89652379
 20
2.69972546
  0
VERTEX
  8
0
 10
3.92057762
 20
2.66767806
  0
VERTEX
  8
0
 10
3.94096655
 20
2.65637983
  0
VERTEX
  8
0
 10
3.95036609
 20
2.63788959
  0
VERTEX
  8
0
 10
3.96784820
 20
2.63323344
  0
VERTEX
  8
0
 10
3.97589907
 20
2.62086760
  0
VERTEX
  8
0
 10
3.99717655
 20
2.61235661
  0
VERTEX
  8
0
 10
4.01251470
 20
2.57804930
  0
VERTEX
  8
0
 10
4.03847078
 20
2.55482283
  0
VERTEX
  8
0
 10
4.10356397
 20
2.52299118
  0
VERTEX
  8
0
 10
4.10356397
 20
2.50596920
  0
VERTEX
  8
0
 10
4.30028089
 20
2.40623382
  0
VERTEX
  8
0
 10
4.51209164
 20
2.32298284
  0
VERTEX
  8
0
 10
4.36235135
 20
2.33796427
  0
VERTEX
  8
0
 10
4.21420688
 20
2.36979331
  0
VERTEX
  8
0
 10
4.05621173
 20
2.41698644
  0
VERTEX
  8
0
 10
3.98733860
 20
2.45305037
  0
VERTEX
  8
0
 10
3.93759960
 20
2.50171370
  0
VERTEX
  8
0
 10
3.89115646
 20
2.52439256
  0
VERTEX
  8
0
 10
3.85514845
 20
2.55730304
  0
VERTEX
  8
0
 10
3.78014623
 20
2.62086760
  0
VERTEX
  8
0
 10
3.78440173
 20
2.63788959
  0
VERTEX
  8
0
 10
3.74490798
 20
2.66540435
  0
VERTEX
  8
0
 10
3.71683146
 20
2.70431704
  0
VERTEX
  8
0
 10
3.67375882
 20
2.79534296
  0
VERTEX
  8
0
 10
3.66099233
 20
2.79959846
  0
VERTEX
  8
0
 10
3.62694836
 20
2.88470839
  0
VERTEX
  8
0
 10
3.60992637
 20
2.89321938
  0
VERTEX
  8
0
 10
3.55404792
 20
2.99601973
  0
VERTEX
  8
0
 10
3.48226147
 20
3.08046123
  0
VERTEX
  8
0
 10
3.54445875
 20
2.93989415
  0
VERTEX
  8
0
 10
3.61418187
 20
2.80810945
  0
VERTEX
  8
0
 10
3.62694836
 20
2.80385395
  0
VERTEX
  8
0
 10
3.63971484
 20
2.75704349
  0
VERTEX
  8
0
 10
3.66099233
 20
2.74853250
  0
VERTEX
  8
0
 10
3.68542643
 20
2.68572062
  0
VERTEX
  8
0
 10
3.72482478
 20
2.63788959
  0
VERTEX
  8
0
 10
3.74184676
 20
2.59533462
  0
VERTEX
  8
0
 10
3.75886875
 20
2.59533462
  0
VERTEX
  8
0
 10
3.81844570
 20
2.50171370
  0
VERTEX
  8
0
 10
3.89930013
 20
2.43788125
  0
VERTEX
  8
0
 10
3.90474169
 20
2.42414430
  0
VERTEX
  8
0
 10
3.91206662
 20
2.40809278
  0
VERTEX
  8
0
 10
3.97969721
 20
2.35770520
  0
VERTEX
  8
0
 10
4.06100900
 20
2.31872735
  0
VERTEX
  8
0
 10
4.06100900
 20
2.30596086
  0
VERTEX
  8
0
 10
4.14186344
 20
2.26766139
  0
VERTEX
  8
0
 10
4.14186344
 20
2.25063940
  0
VERTEX
  8
0
 10
4.23548436
 20
2.21659543
  0
VERTEX
  8
0
 10
4.09930847
 20
2.24638391
  0
VERTEX
  8
0
 10
4.02696503
 20
2.26340589
  0
VERTEX
  8
0
 10
3.95887709
 20
2.28042788
  0
VERTEX
  8
0
 10
3.89504464
 20
2.31447185
  0
VERTEX
  8
0
 10
3.78748999
 20
2.37324909
  0
VERTEX
  8
0
 10
3.73937854
 20
2.41047318
  0
VERTEX
  8
0
 10
3.70354729
 20
2.45490324
  0
VERTEX
  8
0
 10
3.67152771
 20
2.46782330
  0
VERTEX
  8
0
 10
3.65673683
 20
2.49745820
  0
VERTEX
  8
0
 10
3.64397034
 20
2.50596920
  0
VERTEX
  8
0
 10
3.57588240
 20
2.70597753
  0
VERTEX
  8
0
 10
3.55886041
 20
2.71448853
  0
VERTEX
  8
0
 10
3.52481644
 20
2.82087594
  0
VERTEX
  8
0
 10
3.51204995
 20
2.82087594
  0
VERTEX
  8
0
 10
3.51204995
 20
2.83789793
  0
VERTEX
  8
0
 10
3.49502796
 20
2.85066442
  0
VERTEX
  8
0
 10
3.49429123
 20
2.85695968
  0
VERTEX
  8
0
 10
3.48651697
 20
2.85917541
  0
VERTEX
  8
0
 10
3.49077247
 20
2.82513144
  0
VERTEX
  8
0
 10
3.50779445
 20
2.82087594
  0
VERTEX
  8
0
 10
3.51630545
 20
2.76129899
  0
VERTEX
  8
0
 10
3.53332743
 20
2.75278800
  0
VERTEX
  8
0
 10
3.58864889
 20
2.55277966
  0
VERTEX
  8
0
 10
3.60141538
 20
2.54426866
  0
VERTEX
  8
0
 10
3.61239727
 20
2.51631856
  0
VERTEX
  8
0
 10
3.61418187
 20
2.48469171
  0
VERTEX
  8
0
 10
3.63120385
 20
2.48043622
  0
VERTEX
  8
0
 10
3.63545935
 20
2.43788125
  0
VERTEX
  8
0
 10
3.67184140
 20
2.40830310
  0
VERTEX
  8
0
 10
3.69503630
 20
2.36553781
  0
VERTEX
  8
0
 10
3.71205829
 20
2.36128231
  0
VERTEX
  8
0
 10
3.70780279
 20
2.34851582
  0
VERTEX
  8
0
 10
3.76584143
 20
2.29345762
  0
VERTEX
  8
0
 10
3.83121219
 20
2.24638391
  0
VERTEX
  8
0
 10
3.83546769
 20
2.22936192
  0
VERTEX
  8
0
 10
3.92053352
 20
2.18775322
  0
VERTEX
  8
0
 10
4.01419854
 20
2.15276298
  0
VERTEX
  8
0
 10
4.01419854
 20
2.13999649
  0
VERTEX
  8
0
 10
4.11207496
 20
2.12297451
  0
VERTEX
  8
0
 10
3.90494894
 20
2.13009133
  0
VERTEX
  8
0
 10
3.72718780
 20
2.17117939
  0
VERTEX
  8
0
 10
3.57271425
 20
2.23710321
  0
VERTEX
  8
0
 10
3.43545101
 20
2.31872735
  0
VERTEX
  8
0
 10
3.42985764
 20
2.32082185
  0
VERTEX
  8
0
 10
3.43119551
 20
2.33149384
  0
VERTEX
  8
0
 10
3.39394300
 20
2.35935505
  0
VERTEX
  8
0
 10
3.37587406
 20
2.40383728
  0
VERTEX
  8
0
 10
3.35885207
 20
2.40809278
  0
VERTEX
  8
0
 10
3.36310757
 20
2.42085927
  0
VERTEX
  8
0
 10
3.32419310
 20
2.47120704
  0
VERTEX
  8
0
 10
3.29569620
 20
2.53124163
  0
VERTEX
  8
0
 10
3.24820916
 20
2.65916707
  0
VERTEX
  8
0
 10
3.23544267
 20
2.66767806
  0
VERTEX
  8
0
 10
3.19910307
 20
2.83230365
  0
VERTEX
  8
0
 10
3.15033274
 20
2.98258481
  0
VERTEX
  8
0
 10
3.14564006
 20
2.90148196
  0
VERTEX
  8
0
 10
3.16228250
 20
2.82334157
  0
VERTEX
  8
0
 10
3.20139870
 20
2.66767806
  0
VERTEX
  8
0
 10
3.20581686
 20
2.66106029
  0
VERTEX
  8
0
 10
3.21416519
 20
2.65916707
  0
VERTEX
  8
0
 10
3.26844166
 20
2.50289971
  0
VERTEX
  8
0
 10
3.34608558
 20
2.35702682
  0
VERTEX
  8
0
 10
3.43119551
 20
2.22085093
  0
VERTEX
  8
0
 10
3.49304490
 20
2.15058672
  0
VERTEX
  8
0
 10
3.57588240
 20
2.10595252
  0
VERTEX
  8
0
 10
3.59119804
 20
2.08746680
  0
VERTEX
  8
0
 10
3.60141538
 20
2.06765305
  0
VERTEX
  8
0
 10
3.62694836
 20
2.05488656
  0
VERTEX
  8
0
 10
3.43119551
 20
2.15701848
  0
VERTEX
  8
0
 10
3.42694002
 20
2.16978497
  0
VERTEX
  8
0
 10
3.40566254
 20
2.17829596
  0
VERTEX
  8
0
 10
3.39715154
 20
2.19531795
  0
VERTEX
  8
0
 10
3.36127444
 20
2.21580270
  0
VERTEX
  8
0
 10
3.33535508
 20
2.24635518
  0
VERTEX
  8
0
 10
3.30948160
 20
2.27692203
  0
VERTEX
  8
0
 10
3.27374214
 20
2.29744987
  0
VERTEX
  8
0
 10
3.27004991
 20
2.31886214
  0
VERTEX
  8
0
 10
3.26097565
 20
2.33574933
  0
VERTEX
  8
0
 10
3.21866350
 20
2.36944116
  0
VERTEX
  8
0
 10
3.19200714
 20
2.41930846
  0
VERTEX
  8
0
 10
3.16309923
 20
2.54426866
  0
VERTEX
  8
0
 10
3.12905526
 20
2.55703515
  0
VERTEX
  8
0
 10
3.10025342
 20
2.70559193
  0
VERTEX
  8
0
 10
3.05245632
 20
2.83789793
  0
VERTEX
  8
0
 10
3.01841235
 20
2.92300786
  0
VERTEX
  8
0
 10
2.99713487
 20
2.94428534
  0
VERTEX
  8
0
 10
2.99191603
 20
2.96477103
  0
VERTEX
  8
0
 10
2.98011288
 20
2.97832931
  0
VERTEX
  8
0
 10
2.98090536
 20
2.95639765
  0
VERTEX
  8
0
 10
2.99287937
 20
2.93151885
  0
VERTEX
  8
0
 10
3.06097601
 20
2.74342155
  0
VERTEX
  8
0
 10
3.10632389
 20
2.52942746
  0
VERTEX
  8
0
 10
3.15033274
 20
2.05488656
  0
VERTEX
  8
0
 10
3.09158850
 20
2.15588710
  0
VERTEX
  8
0
 10
3.05220029
 20
2.27642928
  0
VERTEX
  8
0
 10
3.00750227
 20
2.55198808
  0
VERTEX
  8
0
 10
2.96825928
 20
2.83326205
  0
VERTEX
  8
0
 10
2.93568987
 20
2.96094817
  0
VERTEX
  8
0
 10
2.88649196
 20
3.07195024
  0
VERTEX
  8
0
 10
2.90303052
 20
2.95670320
  0
VERTEX
  8
0
 10
2.92904692
 20
2.84640892
  0
VERTEX
  8
0
 10
2.94181341
 20
2.83789793
  0
VERTEX
  8
0
 10
2.96062696
 20
2.63117388
  0
VERTEX
  8
0
 10
2.97160189
 20
2.42085927
  0
VERTEX
  8
0
 10
2.94066150
 20
2.27539597
  0
VERTEX
  8
0
 10
2.86946997
 20
2.16552947
  0
VERTEX
  8
0
 10
2.88649196
 20
2.52724668
  0
VERTEX
  8
0
 10
2.87895223
 20
2.62627958
  0
VERTEX
  8
0
 10
2.86095898
 20
2.72299952
  0
VERTEX
  8
0
 10
2.78010454
 20
3.16131566
  0
VERTEX
  8
0
 10
2.76733805
 20
3.17408215
  0
VERTEX
  8
0
 10
2.71201660
 20
3.37409049
  0
VERTEX
  8
0
 10
2.67797263
 20
3.46771141
  0
VERTEX
  8
0
 10
2.61510336
 20
3.65287403
  0
VERTEX
  8
0
 10
2.57158521
 20
3.86347259
  0
VERTEX
  8
0
 10
2.55881872
 20
3.97411550
  0
VERTEX
  8
0
 10
2.57158521
 20
4.05922543
  0
VERTEX
  8
0
 10
2.60670019
 20
4.16634054
  0
VERTEX
  8
0
 10
2.65669514
 20
4.25923377
  0
VERTEX
  8
0
 10
2.68678810
 20
4.26229943
  0
VERTEX
  8
0
 10
2.71627210
 20
4.25497827
  0
VERTEX
  8
0
 10
2.69335109
 20
4.09646816
  0
VERTEX
  8
0
 10
2.68648362
 20
3.92730504
  0
VERTEX
  8
0
 10
2.72040078
 20
3.73238617
  0
VERTEX
  8
0
 10
2.77159355
 20
3.56133234
  0
VERTEX
  8
0
 10
2.78436004
 20
3.55707684
  0
VERTEX
  8
0
 10
2.81211870
 20
3.49854227
  0
VERTEX
  8
0
 10
2.84819249
 20
3.45068943
  0
VERTEX
  8
0
 10
2.82424101
 20
3.53925876
  0
VERTEX
  8
0
 10
2.78861554
 20
3.62090929
  0
VERTEX
  8
0
 10
2.75457156
 20
3.70176372
  0
VERTEX
  8
0
 10
2.72052759
 20
3.78261816
  0
VERTEX
  8
0
 10
2.71201660
 20
3.90602756
  0
VERTEX
  8
0
 10
2.72080702
 20
4.09624719
  0
VERTEX
  8
0
 10
2.76733805
 20
4.25497827
  0
VERTEX
  8
0
 10
2.79441025
 20
4.30786292
  0
VERTEX
  8
0
 10
2.80989302
 20
4.37838767
  0
VERTEX
  8
0
 10
2.81426443
 20
4.38393785
  0
VERTEX
  8
0
 10
2.82265951
 20
4.38689867
  0
VERTEX
  8
0
 10
2.82691501
 20
4.43796462
  0
VERTEX
  8
0
 10
2.88223646
 20
4.45073111
  0
VERTEX
  8
0
 10
2.85244799
 20
4.22518980
  0
VERTEX
  8
0
 10
2.84758954
 20
4.22017868
  0
VERTEX
  8
0
 10
2.83968150
 20
4.21667880
  0
VERTEX
  8
0
 10
2.84039403
 20
4.20240449
  0
VERTEX
  8
0
 10
2.85244799
 20
4.19540132
  0
VERTEX
  8
0
 10
2.86468183
 20
4.03164052
  0
VERTEX
  8
0
 10
2.89532743
 20
3.88517073
  0
VERTEX
  8
0
 10
2.99287937
 20
3.62516479
  0
VERTEX
  8
0
 10
3.00990136
 20
3.62090929
  0
VERTEX
  8
0
 10
3.01841235
 20
3.58260982
  0
VERTEX
  8
0
 10
3.03968983
 20
3.54856585
  0
VERTEX
  8
0
 10
3.03941131
 20
3.57734620
  0
VERTEX
  8
0
 10
3.02266785
 20
3.60388730
  0
VERTEX
  8
0
 10
2.95888283
 20
3.73795872
  0
VERTEX
  8
0
 10
2.90761209
 20
3.89673573
  0
VERTEX
  8
0
 10
2.88514463
 20
4.07186127
  0
VERTEX
  8
0
 10
2.90776944
 20
4.25497827
  0
VERTEX
  8
0
 10
2.97322642
 20
4.24466396
  0
VERTEX
  8
0
 10
3.03543434
 20
4.25923377
  0
VERTEX
  8
0
 10
3.06020712
 20
4.14282323
  0
VERTEX
  8
0
 10
3.07798930
 20
4.02092596
  0
VERTEX
  8
0
 10
3.09501129
 20
4.01667047
  0
VERTEX
  8
0
 10
3.09443791
 20
4.00196214
  0
VERTEX
  8
0
 10
3.10777778
 20
3.99964848
  0
VERTEX
  8
0
 10
3.10352228
 20
3.97411550
  0
VERTEX
  8
0
 10
3.12075624
 20
3.95570261
  0
VERTEX
  8
0
 10
3.12905526
 20
3.92730504
  0
VERTEX
  8
0
 10
3.14607725
 20
3.92304954
  0
VERTEX
  8
0
 10
3.17047369
 20
3.87940831
  0
VERTEX
  8
0
 10
3.19714320
 20
3.83793961
  0
VERTEX
  8
0
 10
3.21416519
 20
3.83368412
  0
VERTEX
  8
0
 10
3.31629711
 20
3.69750823
  0
VERTEX
  8
0
 10
3.36769473
 20
3.63113030
  0
VERTEX
  8
0
 10
3.43545101
 20
3.58260982
  0
VERTEX
  8
0
 10
3.45006316
 20
3.55250144
  0
VERTEX
  8
0
 10
3.48226147
 20
3.54005485
  0
VERTEX
  8
0
 10
3.44396200
 20
3.59963181
  0
VERTEX
  8
0
 10
3.43119551
 20
3.60388730
  0
VERTEX
  8
0
 10
3.40566254
 20
3.64644227
  0
VERTEX
  8
0
 10
3.39289605
 20
3.65069776
  0
VERTEX
  8
0
 10
3.34842185
 20
3.70286638
  0
VERTEX
  8
0
 10
3.31204161
 20
3.76134067
  0
VERTEX
  8
0
 10
3.28650863
 20
3.76559617
  0
VERTEX
  8
0
 10
3.24050586
 20
3.84942748
  0
VERTEX
  8
0
 10
3.18437672
 20
3.91879405
  0
VERTEX
  8
0
 10
3.16309923
 20
3.92730504
  0
VERTEX
  8
0
 10
3.16309923
 20
3.94432703
  0
VERTEX
  8
0
 10
3.15033274
 20
3.95709352
  0
VERTEX
  8
0
 10
3.09064440
 20
4.15410508
  0
VERTEX
  8
0
 10
3.08051808
 20
4.26567635
  0
VERTEX
  8
0
 10
3.09501129
 20
4.38264317
  0
VERTEX
  8
0
 10
3.12054427
 20
4.34859920
  0
VERTEX
  8
0
 10
3.15943247
 20
4.32496582
  0
VERTEX
  8
0
 10
3.20790153
 20
4.31426144
  0
VERTEX
  8
0
 10
3.31204161
 20
4.33157721
  0
VERTEX
  8
0
 10
3.33704531
 20
4.19763945
  0
VERTEX
  8
0
 10
3.38012956
 20
4.07199192
  0
VERTEX
  8
0
 10
3.40400305
 20
4.02028083
  0
VERTEX
  8
0
 10
3.44396200
 20
3.98688199
  0
VERTEX
  8
0
 10
3.45672849
 20
3.95283802
  0
VERTEX
  8
0
 10
3.48651697
 20
3.94432703
  0
VERTEX
  8
0
 10
3.48226147
 20
3.92730504
  0
VERTEX
  8
0
 10
3.50280839
 20
3.91367234
  0
VERTEX
  8
0
 10
3.52481644
 20
3.90177206
  0
VERTEX
  8
0
 10
3.50476651
 20
3.93307448
  0
VERTEX
  8
0
 10
3.48651697
 20
3.97411550
  0
VERTEX
  8
0
 10
3.43620921
 20
4.01078771
  0
VERTEX
  8
0
 10
3.40207770
 20
4.06388977
  0
VERTEX
  8
0
 10
3.36749158
 20
4.20447558
  0
VERTEX
  8
0
 10
3.35305481
 20
4.36605725
  0
VERTEX
  8
0
 10
3.32906360
 20
4.51881906
  0
VERTEX
  8
0
 10
3.43545101
 20
4.54435204
  0
VERTEX
  8
0
 10
3.46098399
 20
4.43796462
  0
VERTEX
  8
0
 10
3.48226147
 20
4.33157721
  0
VERTEX
  8
0
 10
3.53332743
 20
4.22944529
  0
VERTEX
  8
0
 10
3.64397034
 20
4.03794795
  0
VERTEX
  8
0
 10
3.68647775
 20
3.98411704
  0
VERTEX
  8
0
 10
3.74184676
 20
3.94432703
  0
VERTEX
  8
0
 10
3.78630314
 20
3.88089172
  0
VERTEX
  8
0
 10
3.85248967
 20
3.83793961
  0
VERTEX
  8
0
 10
3.85674517
 20
3.82091763
  0
VERTEX
  8
0
 10
3.88227815
 20
3.81666213
  0
VERTEX
  8
0
 10
3.82228155
 20
3.89265913
  0
VERTEX
  8
0
 10
3.74184676
 20
3.95709352
  0
VERTEX
  8
0
 10
3.71291279
 20
4.01786121
  0
VERTEX
  8
0
 10
3.66524782
 20
4.05922543
  0
VERTEX
  8
0
 10
3.66524782
 20
4.08050292
  0
VERTEX
  8
0
 10
3.61901159
 20
4.13334177
  0
VERTEX
  8
0
 10
3.58864889
 20
4.20391231
  0
VERTEX
  8
0
 10
3.57162690
 20
4.20816781
  0
VERTEX
  8
0
 10
3.52907193
 20
4.31881072
  0
VERTEX
  8
0
 10
3.51204995
 20
4.35285469
  0
VERTEX
  8
0
 10
3.49928346
 20
4.41243165
  0
VERTEX
  8
0
 10
3.46523949
 20
4.57839601
  0
VERTEX
  8
0
 10
3.43119551
 20
4.58265151
  0
VERTEX
  8
0
 10
3.43785186
 20
4.59824210
  0
VERTEX
  8
0
 10
3.44821750
 20
4.60818449
  0
VERTEX
  8
0
 10
3.45362485
 20
4.60229190
  0
VERTEX
  8
0
 10
3.45672849
 20
4.59116250
  0
VERTEX
  8
0
 10
3.49589135
 20
4.57334170
  0
VERTEX
  8
0
 10
3.53758293
 20
4.56137402
  0
VERTEX
  8
0
 10
3.58464957
 20
4.58003863
  0
VERTEX
  8
0
 10
3.62269286
 20
4.61243998
  0
VERTEX
  8
0
 10
3.63621310
 20
4.59038970
  0
VERTEX
  8
0
 10
3.65248133
 20
4.57414051
  0
VERTEX
  8
0
 10
3.66950332
 20
4.56562952
  0
VERTEX
  8
0
 10
3.77589073
 20
4.43370913
  0
VERTEX
  8
0
 10
3.79291272
 20
4.43370913
  0
VERTEX
  8
0
 10
3.78865722
 20
4.42094264
  0
VERTEX
  8
0
 10
3.80567921
 20
4.41668714
  0
VERTEX
  8
0
 10
3.85547900
 20
4.31733614
  0
VERTEX
  8
0
 10
3.89078914
 20
4.20391231
  0
VERTEX
  8
0
 10
3.90781113
 20
4.19965682
  0
VERTEX
  8
0
 10
3.90420273
 20
4.18777994
  0
VERTEX
  8
0
 10
3.91206662
 20
4.18263483
  0
VERTEX
  8
0
 10
3.91206662
 20
4.20816781
  0
VERTEX
  8
0
 10
3.88786444
 20
4.31043633
  0
VERTEX
  8
0
 10
3.85248967
 20
4.39966516
  0
VERTEX
  8
0
 10
3.83121219
 20
4.40817615
  0
VERTEX
  8
0
 10
3.78644325
 20
4.49295442
  0
VERTEX
  8
0
 10
3.71205829
 20
4.54860753
  0
VERTEX
  8
0
 10
3.71205829
 20
4.56562952
  0
VERTEX
  8
0
 10
3.69929180
 20
4.58265151
  0
VERTEX
  8
0
 10
3.66524782
 20
4.59967349
  0
VERTEX
  8
0
 10
3.66099233
 20
4.62946197
  0
VERTEX
  8
0
 10
3.70354729
 20
4.63371747
  0
VERTEX
  8
0
 10
3.72056928
 20
4.65925044
  0
VERTEX
  8
0
 10
3.87339070
 20
4.62195368
  0
VERTEX
  8
0
 10
4.01419854
 20
4.56137402
  0
VERTEX
  8
0
 10
4.06235581
 20
4.52607394
  0
VERTEX
  8
0
 10
4.09079748
 20
4.47626409
  0
VERTEX
  8
0
 10
4.11207496
 20
4.47200860
  0
VERTEX
  8
0
 10
4.11633046
 20
4.45924211
  0
VERTEX
  8
0
 10
4.17612300
 20
4.41950582
  0
VERTEX
  8
0
 10
4.22271787
 20
4.36136569
  0
VERTEX
  8
0
 10
4.28655032
 20
4.27200026
  0
VERTEX
  8
0
 10
4.34381451
 20
4.17557220
  0
VERTEX
  8
0
 10
4.40995972
 20
4.08901391
  0
VERTEX
  8
0
 10
4.38017124
 20
4.19540132
  0
VERTEX
  8
0
 10
4.36314926
 20
4.20391231
  0
VERTEX
  8
0
 10
4.29091640
 20
4.33111889
  0
VERTEX
  8
0
 10
4.19292939
 20
4.43370913
  0
VERTEX
  8
0
 10
4.19292939
 20
4.44647562
  0
VERTEX
  8
0
 10
4.11330049
 20
4.50652615
  0
VERTEX
  8
0
 10
4.03973152
 20
4.57414051
  0
VERTEX
  8
0
 10
4.03547602
 20
4.59116250
  0
VERTEX
  8
0
 10
3.95474260
 20
4.61763935
  0
VERTEX
  8
0
 10
3.88349112
 20
4.65322477
  0
VERTEX
  8
0
 10
3.81163316
 20
4.68756753
  0
VERTEX
  8
0
 10
3.72908027
 20
4.71031640
  0
VERTEX
  8
0
 10
3.72908027
 20
4.74861587
  0
VERTEX
  8
0
 10
3.80456422
 20
4.72534283
  0
VERTEX
  8
0
 10
3.89504464
 20
4.71882740
  0
VERTEX
  8
0
 10
3.97164357
 20
4.72308289
  0
VERTEX
  8
0
 10
4.01419854
 20
4.69754991
  0
VERTEX
  8
0
 10
4.15037443
 20
4.62946197
  0
VERTEX
  8
0
 10
4.12484145
 20
4.68052793
  0
VERTEX
  8
0
 10
4.09930847
 20
4.68478342
  0
VERTEX
  8
0
 10
4.09079748
 20
4.69754991
  0
VERTEX
  8
0
 10
4.06526450
 20
4.70606091
  0
VERTEX
  8
0
 10
4.06952000
 20
4.72308289
  0
VERTEX
  8
0
 10
3.95036609
 20
4.75712686
  0
VERTEX
  8
0
 10
3.96313258
 20
4.79542633
  0
VERTEX
  8
0
 10
3.96738808
 20
4.77840435
  0
VERTEX
  8
0
 10
4.14796906
 20
4.75042371
  0
VERTEX
  8
0
 10
4.29506131
 20
4.68903892
  0
VERTEX
  8
0
 10
4.35463826
 20
4.65925044
  0
VERTEX
  8
0
 10
4.35038277
 20
4.64648395
  0
VERTEX
  8
0
 10
4.51209164
 20
4.53584104
  0
VERTEX
  8
0
 10
4.51209164
 20
4.52307456
  0
VERTEX
  8
0
 10
4.61422355
 20
4.45073111
  0
VERTEX
  8
0
 10
4.59416384
 20
4.49166011
  0
VERTEX
  8
0
 10
4.55989666
 20
4.52232968
  0
VERTEX
  8
0
 10
4.52300445
 20
4.55124394
  0
VERTEX
  8
0
 10
4.49506965
 20
4.58690700
  0
VERTEX
  8
0
 10
4.47379217
 20
4.59541800
  0
VERTEX
  8
0
 10
4.43051749
 20
4.63837383
  0
VERTEX
  8
0
 10
4.38868224
 20
4.68052793
  0
VERTEX
  8
0
 10
4.36314926
 20
4.68478342
  0
VERTEX
  8
0
 10
4.35889376
 20
4.69754991
  0
VERTEX
  8
0
 10
4.32484979
 20
4.70606091
  0
VERTEX
  8
0
 10
4.32484979
 20
4.72308289
  0
VERTEX
  8
0
 10
4.13760794
 20
4.80393733
  0
VERTEX
  8
0
 10
4.18441840
 20
4.86351428
  0
VERTEX
  8
0
 10
4.31759099
 20
4.85253532
  0
VERTEX
  8
0
 10
4.42854709
 20
4.81884321
  0
VERTEX
  8
0
 10
4.52382626
 20
4.76918717
  0
VERTEX
  8
0
 10
4.60996806
 20
4.71031640
  0
VERTEX
  8
0
 10
4.63124554
 20
4.70606091
  0
VERTEX
  8
0
 10
4.63975653
 20
4.68478342
  0
VERTEX
  8
0
 10
4.67912521
 20
4.66286252
  0
VERTEX
  8
0
 10
4.70884638
 20
4.63131572
  0
VERTEX
  8
0
 10
4.75465494
 20
4.55286303
  0
VERTEX
  8
0
 10
4.77167692
 20
4.54860753
  0
VERTEX
  8
0
 10
4.83978045
 20
4.37830345
  0
VERTEX
  8
0
 10
4.89285527
 20
4.19150882
  0
VERTEX
  8
0
 10
4.97168526
 20
3.79112915
  0
VERTEX
  8
0
 10
4.99296274
 20
3.67623074
  0
VERTEX
  8
0
 10
5.05253970
 20
3.51452188
  0
VERTEX
  8
0
 10
5.06530619
 20
3.51026638
  0
VERTEX
  8
0
 10
5.13160687
 20
3.38908537
  0
VERTEX
  8
0
 10
5.20573757
 20
3.27621407
  0
VERTEX
  8
0
 10
5.13636607
 20
3.32455877
  0
VERTEX
  8
0
 10
5.07882212
 20
3.38618844
  0
VERTEX
  8
0
 10
4.99296274
 20
3.54431035
  0
VERTEX
  8
0
 10
4.93980308
 20
3.72935163
  0
VERTEX
  8
0
 10
4.89083083
 20
3.92304954
  0
SEQEND
  0
POLYLINE
  8
Default_Layer
 66
   1
 39
0.000000
 70
    1
  0
VERTEX
  8
0
 10
5.18446009
 20
2.75278800
  0
VERTEX
  8
0
 10
5.16923440
 20
2.73912668
  0
VERTEX
  8
0
 10
5.14190512
 20
2.73576601
  0
VERTEX
  8
0
 10
4.98870725
 20
2.71023303
  0
VERTEX
  8
0
 10
4.98870725
 20
2.71448853
  0
VERTEX
  8
0
 10
5.08274415
 20
2.74126688
  0
VERTEX
  8
0
 10
5.18446009
 20
2.75278800
  0
SEQEND
  0
POLYLINE
  8
Default_Layer
 66
   1
 39
0.000000
 70
    1
  0
VERTEX
  8
0
 10
2.75882706
 20
9.47647253
  0
VERTEX
  8
0
 10
2.86095898
 20
9.47647253
  0
VERTEX
  8
0
 10
3.11429286
 20
9.45744474
  0
VERTEX
  8
0
 10
3.34572440
 20
9.41720564
  0
VERTEX
  8
0
 10
3.55712292
 20
9.35766177
  0
VERTEX
  8
0
 10
3.75035775
 20
9.28071969
  0
VERTEX
  8
0
 10
3.90355563
 20
9.38285160
  0
VERTEX
  8
0
 10
3.99824032
 20
9.41856963
  0
VERTEX
  8
0
 10
4.05176249
 20
9.42582774
  0
VERTEX
  8
0
 10
4.10356397
 20
9.41689557
  0
VERTEX
  8
0
 10
4.13858830
 20
9.38793990
  0
VERTEX
  8
0
 10
4.17590741
 20
9.36582962
  0
VERTEX
  8
0
 10
4.22697337
 20
9.39136260
  0
VERTEX
  8
0
 10
4.30885407
 20
9.42078356
  0
VERTEX
  8
0
 10
4.41421521
 20
9.42540657
  0
VERTEX
  8
0
 10
4.52253813
 20
9.38725274
  0
VERTEX
  8
0
 10
4.59720157
 20
9.30625266
  0
VERTEX
  8
0
 10
4.64143026
 20
9.26548527
  0
VERTEX
  8
0
 10
4.67274844
 20
9.21198038
  0
VERTEX
  8
0
 10
4.70246490
 20
9.15667343
  0
VERTEX
  8
0
 10
4.74188845
 20
9.11049982
  0
VERTEX
  8
0
 10
5.06043609
 20
9.26012505
  0
VERTEX
  8
0
 10
5.23850916
 20
9.32125264
  0
VERTEX
  8
0
 10
5.42702339
 20
9.37008511
  0
VERTEX
  8
0
 10
5.62606307
 20
9.40432314
  0
VERTEX
  8
0
 10
5.83980656
 20
9.42540657
  0
VERTEX
  8
0
 10
6.05594104
 20
9.43282954
  0
VERTEX
  8
0
 10
6.26535621
 20
9.41689557
  0
VERTEX
  8
0
 10
6.28237820
 20
9.40838458
  0
VERTEX
  8
0
 10
6.27812270
 20
9.38710710
  0
VERTEX
  8
0
 10
6.25684522
 20
9.37434061
  0
VERTEX
  8
0
 10
6.20152376
 20
9.37434061
  0
VERTEX
  8
0
 10
5.83736342
 20
9.33050979
  0
VERTEX
  8
0
 10
5.50787783
 20
9.25093121
  0
VERTEX
  8
0
 10
5.19031039
 20
9.12966945
  0
VERTEX
  8
0
 10
5.04820359
 20
9.05352378
  0
VERTEX
  8
0
 10
4.91636381
 20
8.96581294
  0
VERTEX
  8
0
 10
4.90022680
 20
8.95435831
  0
VERTEX
  8
0
 10
4.89083083
 20
8.93602447
  0
VERTEX
  8
0
 10
5.05201680
 20
8.99930987
  0
VERTEX
  8
0
 10
5.23127055
 20
9.03815638
  0
VERTEX
  8
0
 10
5.61426524
 20
9.09773333
  0
VERTEX
  8
0
 10
5.91426328
 20
9.12820572
  0
VERTEX
  8
0
 10
6.23131224
 20
9.14028830
  0
VERTEX
  8
0
 10
6.38876561
 20
9.13177731
  0
VERTEX
  8
0
 10
6.40989293
 20
9.12545875
  0
VERTEX
  8
0
 10
6.41855408
 20
9.11049982
  0
VERTEX
  8
0
 10
6.39413791
 20
9.08758525
  0
VERTEX
  8
0
 10
6.34621064
 20
9.08496684
  0
VERTEX
  8
0
 10
6.07385886
 20
9.07645585
  0
VERTEX
  8
0
 10
5.82052160
 20
9.05412700
  0
VERTEX
  8
0
 10
5.58131647
 20
9.01246973
  0
VERTEX
  8
0
 10
5.36071348
 20
8.95173956
  0
VERTEX
  8
0
 10
5.16318261
 20
8.87219202
  0
VERTEX
  8
0
 10
5.41005292
 20
8.82288944
  0
VERTEX
  8
0
 10
5.64053155
 20
8.74843473
  0
VERTEX
  8
0
 10
5.85574927
 20
8.65500423
  0
VERTEX
  8
0
 10
6.05683688
 20
8.54877428
  0
VERTEX
  8
0
 10
6.10364734
 20
8.51898580
  0
VERTEX
  8
0
 10
6.09939184
 20
8.48068634
  0
VERTEX
  8
0
 10
5.96492507
 20
8.52912043
  0
VERTEX
  8
0
 10
5.83980656
 20
8.59132925
  0
VERTEX
  8
0
 10
5.70444746
 20
8.64084248
  0
VERTEX
  8
0
 10
5.55894378
 20
8.68069467
  0
VERTEX
  8
0
 10
5.25254803
 20
8.74452712
  0
VERTEX
  8
0
 10
5.09201177
 20
8.76604999
  0
VERTEX
  8
0
 10
5.00894259
 20
8.76358895
  0
VERTEX
  8
0
 10
4.92913030
 20
8.74452712
  0
VERTEX
  8
0
 10
4.94189679
 20
8.71899414
  0
VERTEX
  8
0
 10
4.94974181
 20
8.67073667
  0
VERTEX
  8
0
 10
4.93537167
 20
8.62507501
  0
VERTEX
  8
0
 10
4.89083083
 20
8.54877428
  0
VERTEX
  8
0
 10
4.91989954
 20
8.44834696
  0
VERTEX
  8
0
 10
4.93338579
 20
8.34025495
  0
VERTEX
  8
0
 10
4.94189679
 20
8.10194714
  0
VERTEX
  8
0
 10
4.91636381
 20
7.87640583
  0
VERTEX
  8
0
 10
4.90179479
 20
7.75953782
  0
VERTEX
  8
0
 10
4.89934182
 20
7.64235352
  0
VERTEX
  8
0
 10
4.94189679
 20
7.45936717
  0
VERTEX
  8
0
 10
5.01957486
 20
7.19947091
  0
VERTEX
  8
0
 10
5.05264024
 20
7.06331679
  0
VERTEX
  8
0
 10
5.07381718
 20
6.91891911
  0
VERTEX
  8
0
 10
5.20999307
 20
6.78274322
  0
VERTEX
  8
0
 10
5.36744644
 20
6.67635580
  0
VERTEX
  8
0
 10
5.49021964
 20
6.60056658
  0
VERTEX
  8
0
 10
5.63128722
 20
6.53592442
  0
VERTEX
  8
0
 10
5.68631760
 20
6.51974263
  0
VERTEX
  8
0
 10
5.74193013
 20
6.51464694
  0
VERTEX
  8
0
 10
5.79725159
 20
6.54443541
  0
VERTEX
  8
0
 10
6.01012437
 20
6.65380589
  0
VERTEX
  8
0
 10
6.23789134
 20
6.75126823
  0
VERTEX
  8
0
 10
6.47939074
 20
6.83255184
  0
VERTEX
  8
0
 10
6.73346083
 20
6.89338613
  0
VERTEX
  8
0
 10
6.74622732
 20
6.93168560
  0
VERTEX
  8
0
 10
6.74197182
 20
6.99977354
  0
VERTEX
  8
0
 10
6.75968557
 20
7.04174443
  0
VERTEX
  8
0
 10
6.79694917
 20
7.08130369
  0
VERTEX
  8
0
 10
6.84608743
 20
7.10882248
  0
VERTEX
  8
0
 10
6.89942519
 20
7.11467195
  0
VERTEX
  8
0
 10
6.93229822
 20
7.09971533
  0
VERTEX
  8
0
 10
6.95426232
 20
7.07206858
  0
VERTEX
  8
0
 10
6.97176863
 20
6.98700705
  0
VERTEX
  8
0
 10
7.06284578
 20
7.02906072
  0
VERTEX
  8
0
 10
7.14198850
 20
7.08062797
  0
VERTEX
  8
0
 10
7.26965339
 20
7.19127088
  0
VERTEX
  8
0
 10
7.28667538
 20
7.20403737
  0
VERTEX
  8
0
 10
7.35050783
 20
7.20403737
  0
VERTEX
  8
0
 10
7.54626067
 20
7.20403737
  0
VERTEX
  8
0
 10
7.56328265
 20
7.20403737
  0
VERTEX
  8
0
 10
7.61434861
 20
7.17850440
  0
VERTEX
  8
0
 10
7.72286509
 20
7.16643605
  0
VERTEX
  8
0
 10
7.82939311
 20
7.19136355
  0
VERTEX
  8
0
 10
7.93691404
 20
7.21837247
  0
VERTEX
  8
0
 10
8.04840926
 20
7.21254837
  0
VERTEX
  8
0
 10
8.04594226
 20
7.16573968
  0
VERTEX
  8
0
 10
8.02192299
 20
7.12871535
  0
VERTEX
  8
0
 10
7.95053284
 20
7.07637248
  0
VERTEX
  8
0
 10
7.79307947
 20
6.99551804
  0
VERTEX
  8
0
 10
7.81165769
 20
6.96463883
  0
VERTEX
  8
0
 10
7.83988993
 20
6.93594109
  0
VERTEX
  8
0
 10
7.87818940
 20
6.86785315
  0
VERTEX
  8
0
 10
7.84965919
 20
6.83732889
  0
VERTEX
  8
0
 10
7.80524662
 20
6.82465757
  0
VERTEX
  8
0
 10
7.69945854
 20
6.82955368
  0
VERTEX
  8
0
 10
7.67138801
 20
6.78169998
  0
VERTEX
  8
0
 10
7.64413709
 20
6.71891077
  0
VERTEX
  8
0
 10
7.62236192
 20
6.68968833
  0
VERTEX
  8
0
 10
7.59307113
 20
6.67210031
  0
VERTEX
  8
0
 10
7.54970932
 20
6.70178724
  0
VERTEX
  8
0
 10
7.53349418
 20
6.76572123
  0
VERTEX
  8
0
 10
7.45667688
 20
6.77649285
  0
VERTEX
  8
0
 10
7.43388773
 20
6.79628349
  0
VERTEX
  8
0
 10
7.42710676
 20
6.83380918
  0
VERTEX
  8
0
 10
7.39617899
 20
6.85240910
  0
VERTEX
  8
0
 10
7.37604081
 20
6.88061964
  0
VERTEX
  8
0
 10
7.37178531
 20
6.88061964
  0
VERTEX
  8
0
 10
7.36528163
 20
6.84560876
  0
VERTEX
  8
0
 10
7.37604081
 20
6.81253169
  0
VERTEX
  8
0
 10
7.40189821
 20
6.74961934
  0
VERTEX
  8
0
 10
7.43987325
 20
6.69337779
  0
VERTEX
  8
0
 10
7.46489307
 20
6.67352632
  0
VERTEX
  8
0
 10
7.48242822
 20
6.65082282
  0
VERTEX
  8
0
 10
7.48570883
 20
6.61351973
  0
VERTEX
  8
0
 10
7.47817272
 20
6.58273488
  0
VERTEX
  8
0
 10
7.45113638
 20
6.55092528
  0
VERTEX
  8
0
 10
7.41033809
 20
6.52810984
  0
VERTEX
  8
0
 10
7.36090214
 20
6.51771267
  0
VERTEX
  8
0
 10
7.30795286
 20
6.52315793
  0
VERTEX
  8
0
 10
7.28141427
 20
6.59427934
  0
VERTEX
  8
0
 10
7.22642537
 20
6.63701762
  0
VERTEX
  8
0
 10
7.14730388
 20
6.65474228
  0
VERTEX
  8
0
 10
7.04836757
 20
6.65082282
  0
VERTEX
  8
0
 10
7.05262307
 20
6.51890243
  0
VERTEX
  8
0
 10
6.94198016
 20
6.47209197
  0
VERTEX
  8
0
 10
6.89478963
 20
6.41487730
  0
VERTEX
  8
0
 10
6.86498739
 20
6.39554934
  0
VERTEX
  8
0
 10
6.82708175
 20
6.39123754
  0
VERTEX
  8
0
 10
6.79101770
 20
6.40336400
  0
VERTEX
  8
0
 10
6.76678504
 20
6.43155868
  0
VERTEX
  8
0
 10
6.74197182
 20
6.51464694
  0
VERTEX
  8
0
 10
6.51520693
 20
6.45388884
  0
VERTEX
  8
0
 10
6.30978019
 20
6.37167523
  0
VERTEX
  8
0
 10
5.92491649
 20
6.17420721
  0
VERTEX
  8
0
 10
5.73767464
 20
6.07207530
  0
VERTEX
  8
0
 10
5.67384219
 20
6.03803132
  0
VERTEX
  8
0
 10
5.57240945
 20
6.04112959
  0
VERTEX
  8
0
 10
5.48660034
 20
6.06356430
  0
VERTEX
  8
0
 10
5.43127889
 20
6.10186377
  0
VERTEX
  8
0
 10
5.36744644
 20
6.13165225
  0
VERTEX
  8
0
 10
4.95040778
 20
6.36996005
  0
VERTEX
  8
0
 10
4.82833907
 20
6.43451865
  0
VERTEX
  8
0
 10
4.69507799
 20
6.48911396
  0
VERTEX
  8
0
 10
4.62636555
 20
6.51180123
  0
VERTEX
  8
0
 10
4.54188011
 20
6.52315793
  0
VERTEX
  8
0
 10
4.45152097
 20
6.51357051
  0
VERTEX
  8
0
 10
4.41817720
 20
6.49835208
  0
VERTEX
  8
0
 10
4.40144873
 20
6.47634747
  0
VERTEX
  8
0
 10
4.40965864
 20
6.43690689
  0
VERTEX
  8
0
 10
4.42272621
 20
6.40400403
  0
VERTEX
  8
0
 10
4.43144928
 20
6.27574783
  0
VERTEX
  8
0
 10
4.41421521
 20
6.15718523
  0
VERTEX
  8
0
 10
4.34820528
 20
6.02409047
  0
VERTEX
  8
0
 10
4.24513737
 20
5.92579265
  0
VERTEX
  8
0
 10
4.11702935
 20
5.85169795
  0
VERTEX
  8
0
 10
3.97589907
 20
5.79121252
  0
VERTEX
  8
0
 10
3.94611060
 20
5.69333610
  0
VERTEX
  8
0
 10
4.05842979
 20
5.73506427
  0
VERTEX
  8
0
 10
4.15856105
 20
5.78926712
  0
VERTEX
  8
0
 10
4.33761628
 20
5.91887742
  0
VERTEX
  8
0
 10
4.38442674
 20
5.92738841
  0
VERTEX
  8
0
 10
4.41421521
 20
5.85504497
  0
VERTEX
  8
0
 10
4.62699004
 20
5.87632245
  0
VERTEX
  8
0
 10
4.73130732
 20
5.88219802
  0
VERTEX
  8
0
 10
4.82274288
 20
5.85930047
  0
VERTEX
  8
0
 10
4.81995973
 20
5.82057894
  0
VERTEX
  8
0
 10
4.80467404
 20
5.79505369
  0
VERTEX
  8
0
 10
4.76316593
 20
5.75291305
  0
VERTEX
  8
0
 10
4.75902177
 20
5.74941227
  0
VERTEX
  8
0
 10
4.76316593
 20
5.74865756
  0
VERTEX
  8
0
 10
4.79012668
 20
5.74276939
  0
VERTEX
  8
0
 10
4.80146540
 20
5.72738008
  0
VERTEX
  8
0
 10
4.79819621
 20
5.69164621
  0
VERTEX
  8
0
 10
4.77243977
 20
5.66214411
  0
VERTEX
  8
0
 10
4.70784448
 20
5.62524816
  0
VERTEX
  8
0
 10
4.63380985
 20
5.59764935
  0
VERTEX
  8
0
 10
4.55464660
 20
5.58269319
  0
VERTEX
  8
0
 10
4.36286887
 20
5.56970925
  0
VERTEX
  8
0
 10
4.27870401
 20
5.55861994
  0
VERTEX
  8
0
 10
4.20995138
 20
5.53588273
  0
VERTEX
  8
0
 10
4.27322407
 20
5.50543114
  0
VERTEX
  8
0
 10
4.30059826
 20
5.48757717
  0
VERTEX
  8
0
 10
4.31633879
 20
5.45928379
  0
VERTEX
  8
0
 10
4.30809563
 20
5.40719811
  0
VERTEX
  8
0
 10
4.27803933
 20
5.36991837
  0
VERTEX
  8
0
 10
4.23429394
 20
5.35888825
  0
VERTEX
  8
0
 10
4.17977209
 20
5.35995705
  0
VERTEX
  8
0
 10
4.06952000
 20
5.37417386
  0
VERTEX
  8
0
 10
3.96313258
 20
5.36566287
  0
VERTEX
  8
0
 10
3.87802265
 20
5.32736340
  0
VERTEX
  8
0
 10
3.79720965
 20
5.32457892
  0
VERTEX
  8
0
 10
3.73759127
 20
5.30608592
  0
VERTEX
  8
0
 10
3.80958506
 20
5.27260814
  0
VERTEX
  8
0
 10
3.90781113
 20
5.26353095
  0
VERTEX
  8
0
 10
3.96649932
 20
5.34687443
  0
VERTEX
  8
0
 10
4.01265042
 20
5.37291615
  0
VERTEX
  8
0
 10
4.07377549
 20
5.36566287
  0
VERTEX
  8
0
 10
4.07803099
 20
5.36566287
  0
VERTEX
  8
0
 10
4.10356397
 20
5.34012989
  0
VERTEX
  8
0
 10
4.14611893
 20
5.31459691
  0
VERTEX
  8
0
 10
4.25536370
 20
5.31422860
  0
VERTEX
  8
0
 10
4.30733696
 20
5.31067684
  0
VERTEX
  8
0
 10
4.35038277
 20
5.28906393
  0
VERTEX
  8
0
 10
4.38030960
 20
5.22978178
  0
VERTEX
  8
0
 10
4.38442674
 20
5.13586606
  0
VERTEX
  8
0
 10
4.34612727
 20
5.09756659
  0
VERTEX
  8
0
 10
4.29931681
 20
5.06352262
  0
VERTEX
  8
0
 10
4.28432374
 20
5.01944828
  0
VERTEX
  8
0
 10
4.26527284
 20
4.97841268
  0
VERTEX
  8
0
 10
4.20144039
 20
4.95287971
  0
VERTEX
  8
0
 10
4.18867390
 20
4.94862421
  0
VERTEX
  8
0
 10
4.18867390
 20
4.92309123
  0
VERTEX
  8
0
 10
4.21846237
 20
4.91032474
  0
VERTEX
  8
0
 10
4.40137686
 20
4.87238725
  0
VERTEX
  8
0
 10
4.56741309
 20
4.81244832
  0
VERTEX
  8
0
 10
4.62026088
 20
4.78430156
  0
VERTEX
  8
0
 10
4.65252302
 20
4.73584938
  0
VERTEX
  8
0
 10
4.68838553
 20
4.71123213
  0
VERTEX
  8
0
 10
4.71635547
 20
4.67627243
  0
VERTEX
  8
0
 10
4.79476677
 20
4.56778067
  0
VERTEX
  8
0
 10
4.85678685
 20
4.44222012
  0
VERTEX
  8
0
 10
4.91708364
 20
4.25182516
  0
VERTEX
  8
0
 10
4.96089928
 20
4.04752553
  0
VERTEX
  8
0
 10
5.00266079
 20
3.84162874
  0
VERTEX
  8
0
 10
5.05679519
 20
3.64644227
  0
VERTEX
  8
0
 10
5.12173370
 20
3.49289124
  0
VERTEX
  8
0
 10
5.20999307
 20
3.36557950
  0
VERTEX
  8
0
 10
5.23978154
 20
3.33153552
  0
VERTEX
  8
0
 10
5.26105903
 20
3.29323606
  0
VERTEX
  8
0
 10
5.30946259
 20
3.24319088
  0
VERTEX
  8
0
 10
5.36744644
 20
3.19961513
  0
VERTEX
  8
0
 10
5.49511134
 20
3.12301619
  0
VERTEX
  8
0
 10
5.56745478
 20
3.11450520
  0
VERTEX
  8
0
 10
5.80932262
 20
3.12304683
  0
VERTEX
  8
0
 10
6.03981489
 20
3.14429368
  0
VERTEX
  8
0
 10
6.03132810
 20
3.10813361
  0
VERTEX
  8
0
 10
6.00577092
 20
3.08471673
  0
VERTEX
  8
0
 10
5.89801355
 20
3.03513272
  0
VERTEX
  8
0
 10
5.77288222
 20
2.99872261
  0
VERTEX
  8
0
 10
5.49511134
 20
2.95705183
  0
VERTEX
  8
0
 10
5.48809461
 20
2.93292774
  0
VERTEX
  8
0
 10
5.47383385
 20
2.91449686
  0
VERTEX
  8
0
 10
5.32489147
 20
2.90598587
  0
VERTEX
  8
0
 10
5.28233651
 20
2.89747488
  0
VERTEX
  8
0
 10
5.30598350
 20
2.87146480
  0
VERTEX
  8
0
 10
5.34191346
 20
2.86343091
  0
VERTEX
  8
0
 10
5.41495286
 20
2.86744927
  0
VERTEX
  8
0
 10
5.48924035
 20
2.88479908
  0
VERTEX
  8
0
 10
5.63554272
 20
2.92300786
  0
VERTEX
  8
0
 10
5.68403708
 20
2.92588330
  0
VERTEX
  8
0
 10
5.70584403
 20
2.91662130
  0
VERTEX
  8
0
 10
5.71639716
 20
2.89321938
  0
VERTEX
  8
0
 10
5.34616896
 20
2.79534296
  0
VERTEX
  8
0
 10
5.51142874
 20
2.58975467
  0
VERTEX
  8
0
 10
5.65166988
 20
2.35461874
  0
VERTEX
  8
0
 10
5.76895320
 20
2.09515387
  0
VERTEX
  8
0
 10
5.86533953
 20
1.81657876
  0
VERTEX
  8
0
 10
5.93655311
 20
1.78952935
  0
VERTEX
  8
0
 10
5.97622150
 20
1.73113004
  0
VERTEX
  8
0
 10
5.99342900
 20
1.65055876
  0
VERTEX
  8
0
 10
5.99725993
 20
1.55699347
  0
VERTEX
  8
0
 10
6.10369053
 20
1.46489463
  0
VERTEX
  8
0
 10
6.15466368
 20
1.41714703
  0
VERTEX
  8
0
 10
6.19301277
 20
1.35698513
  0
VERTEX
  8
0
 10
6.21429025
 20
1.35272963
  0
VERTEX
  8
0
 10
6.26961171
 20
1.25485321
  0
VERTEX
  8
0
 10
6.31216667
 20
1.20378726
  0
VERTEX
  8
0
 10
6.35156044
 20
1.12104785
  0
VERTEX
  8
0
 10
6.38025462
 20
1.02931190
  0
VERTEX
  8
0
 10
6.41855408
 20
0.88462501
  0
VERTEX
  8
0
 10
6.43132057
 20
0.83781455
  0
VERTEX
  8
0
 10
6.47387554
 20
0.79525959
  0
VERTEX
  8
0
 10
6.56388158
 20
0.75113583
  0
VERTEX
  8
0
 10
6.61708174
 20
0.74291666
  0
VERTEX
  8
0
 10
6.66962838
 20
0.75270462
  0
VERTEX
  8
0
 10
6.71643884
 20
0.78674859
  0
VERTEX
  8
0
 10
6.81005977
 20
0.77398210
  0
VERTEX
  8
0
 10
6.81428651
 20
0.73772795
  0
VERTEX
  8
0
 10
6.80351662
 20
0.70626801
  0
VERTEX
  8
0
 10
6.75899381
 20
0.65908370
  0
VERTEX
  8
0
 10
6.65260639
 20
0.59099575
  0
VERTEX
  8
0
 10
6.52162051
 20
0.53945361
  0
VERTEX
  8
0
 10
6.44735392
 20
0.52494078
  0
VERTEX
  8
0
 10
6.37599912
 20
0.52716331
  0
VERTEX
  8
0
 10
6.32918866
 20
0.54418529
  0
VERTEX
  8
0
 10
6.23982323
 20
0.54418529
  0
VERTEX
  8
0
 10
6.12195901
 20
0.57981549
  0
VERTEX
  8
0
 10
6.03588111
 20
0.64997608
  0
VERTEX
  8
0
 10
5.97517534
 20
0.74703185
  0
VERTEX
  8
0
 10
5.93342748
 20
0.86334753
  0
VERTEX
  8
0
 10
5.79806487
 20
0.89959830
  0
VERTEX
  8
0
 10
5.73905163
 20
0.93068291
  0
VERTEX
  8
0
 10
5.70363067
 20
0.97824594
  0
VERTEX
  8
0
 10
5.70118934
 20
1.06355715
  0
VERTEX
  8
0
 10
5.71214166
 20
1.15272130
  0
VERTEX
  8
0
 10
5.71189447
 20
1.24681400
  0
VERTEX
  8
0
 10
5.69937517
 20
1.33145215
  0
VERTEX
  8
0
 10
5.66958669
 20
1.39102910
  0
VERTEX
  8
0
 10
5.64405371
 20
1.44209506
  0
VERTEX
  8
0
 10
5.58804762
 20
1.44770648
  0
VERTEX
  8
0
 10
5.54708026
 20
1.47030028
  0
VERTEX
  8
0
 10
5.52587502
 20
1.50857995
  0
VERTEX
  8
0
 10
5.52915531
 20
1.56124896
  0
VERTEX
  8
0
 10
5.54617729
 20
1.59954843
  0
VERTEX
  8
0
 10
5.56745478
 20
1.63359241
  0
VERTEX
  8
0
 10
5.52019990
 20
1.69909127
  0
VERTEX
  8
0
 10
5.46170808
 20
1.75304903
  0
VERTEX
  8
0
 10
5.40289590
 20
1.80685543
  0
VERTEX
  8
0
 10
5.35467995
 20
1.87190021
  0
VERTEX
  8
0
 10
5.27022239
 20
1.92362306
  0
VERTEX
  8
0
 10
5.19722658
 20
1.99105411
  0
VERTEX
  8
0
 10
5.10786115
 20
2.09318603
  0
VERTEX
  8
0
 10
4.82274288
 20
2.44213675
  0
VERTEX
  8
0
 10
4.78332560
 20
2.48316420
  0
VERTEX
  8
0
 10
4.73763295
 20
2.51448019
  0
VERTEX
  8
0
 10
4.69082249
 20
2.51022469
  0
VERTEX
  8
0
 10
4.58869057
 20
2.50171370
  0
VERTEX
  8
0
 10
4.54188011
 20
2.49320271
  0
VERTEX
  8
0
 10
4.65677852
 20
2.46341423
  0
VERTEX
  8
0
 10
4.65252302
 20
2.43362575
  0
VERTEX
  8
0
 10
4.44409428
 20
2.43703132
  0
VERTEX
  8
0
 10
4.25676184
 20
2.46766973
  0
VERTEX
  8
0
 10
4.30782780
 20
2.42937026
  0
VERTEX
  8
0
 10
4.50727723
 20
2.35256652
  0
VERTEX
  8
0
 10
4.74188845
 20
2.31021636
  0
VERTEX
  8
0
 10
4.77505366
 20
2.30771668
  0
VERTEX
  8
0
 10
4.80146540
 20
2.29744987
  0
VERTEX
  8
0
 10
4.80997639
 20
2.28468338
  0
VERTEX
  8
0
 10
4.77599387
 20
2.25681172
  0
VERTEX
  8
0
 10
4.72624572
 20
2.24561653
  0
VERTEX
  8
0
 10
4.61422355
 20
2.25063940
  0
VERTEX
  8
0
 10
4.31870102
 20
2.30960277
  0
VERTEX
  8
0
 10
4.03973152
 20
2.38255980
  0
VERTEX
  8
0
 10
4.19510374
 20
2.27887776
  0
VERTEX
  8
0
 10
4.28110327
 20
2.23089396
  0
VERTEX
  8
0
 10
4.37591575
 20
2.19531795
  0
VERTEX
  8
0
 10
4.43549270
 20
2.17829596
  0
VERTEX
  8
0
 10
4.43031966
 20
2.15842657
  0
VERTEX
  8
0
 10
4.41847071
 20
2.14425199
  0
VERTEX
  8
0
 10
4.11207496
 20
2.19531795
  0
VERTEX
  8
0
 10
4.09079748
 20
2.19957345
  0
VERTEX
  8
0
 10
4.07377549
 20
2.19531795
  0
VERTEX
  8
0
 10
4.07758117
 20
2.18143136
  0
VERTEX
  8
0
 10
4.09278596
 20
2.17477188
  0
VERTEX
  8
0
 10
4.12909695
 20
2.16978497
  0
VERTEX
  8
0
 10
4.22914324
 20
2.15774888
  0
VERTEX
  8
0
 10
4.31633879
 20
2.13148550
  0
VERTEX
  8
0
 10
4.28399641
 20
2.09139243
  0
VERTEX
  8
0
 10
4.22915963
 20
2.07472292
  0
VERTEX
  8
0
 10
4.09930847
 20
2.06339756
  0
VERTEX
  8
0
 10
4.14478654
 20
1.83834147
  0
VERTEX
  8
0
 10
4.17590741
 20
1.59529294
  0
VERTEX
  8
0
 10
4.18867390
 20
1.59954843
  0
VERTEX
  8
0
 10
4.24138854
 20
1.53574742
  0
VERTEX
  8
0
 10
4.25682361
 20
1.49155249
  0
VERTEX
  8
0
 10
4.25676184
 20
1.44635056
  0
VERTEX
  8
0
 10
4.22726540
 20
1.40681918
  0
VERTEX
  8
0
 10
4.17165191
 20
1.38677361
  0
VERTEX
  8
0
 10
4.17228715
 20
1.30961310
  0
VERTEX
  8
0
 10
4.19292939
 20
1.24634222
  0
VERTEX
  8
0
 10
4.23973986
 20
1.18676527
  0
VERTEX
  8
0
 10
4.26377586
 20
1.12956576
  0
VERTEX
  8
0
 10
4.26952833
 20
1.05484488
  0
VERTEX
  8
0
 10
4.25423026
 20
1.00773283
  0
VERTEX
  8
0
 10
4.22639111
 20
0.96738171
  0
VERTEX
  8
0
 10
4.15037443
 20
0.90590250
  0
VERTEX
  8
0
 10
4.05439841
 20
0.86256489
  0
VERTEX
  8
0
 10
3.93759960
 20
0.84207005
  0
VERTEX
  8
0
 10
3.79432507
 20
0.71152189
  0
VERTEX
  8
0
 10
3.71810469
 20
0.65013783
  0
VERTEX
  8
0
 10
3.62694836
 20
0.60376224
  0
VERTEX
  8
0
 10
3.60141538
 20
0.59525125
  0
VERTEX
  8
0
 10
3.56737140
 20
0.58674026
  0
VERTEX
  8
0
 10
3.53332743
 20
0.56546277
  0
VERTEX
  8
0
 10
3.47462254
 20
0.53879421
  0
VERTEX
  8
0
 10
3.41031400
 20
0.52651797
  0
VERTEX
  8
0
 10
3.27559493
 20
0.53767630
  0
VERTEX
  8
0
 10
3.15058821
 20
0.58400534
  0
VERTEX
  8
0
 10
3.05671182
 20
0.65057271
  0
VERTEX
  8
0
 10
3.00977023
 20
0.71857448
  0
VERTEX
  8
0
 10
2.99287937
 20
0.81228157
  0
VERTEX
  8
0
 10
3.08346190
 20
0.85622529
  0
VERTEX
  8
0
 10
3.18065672
 20
0.88522786
  0
VERTEX
  8
0
 10
3.27651991
 20
0.91286513
  0
VERTEX
  8
0
 10
3.36310757
 20
0.95271296
  0
VERTEX
  8
0
 10
3.40991803
 20
0.99101243
  0
VERTEX
  8
0
 10
3.44821750
 20
1.03356739
  0
VERTEX
  8
0
 10
3.52481644
 20
1.09739984
  0
VERTEX
  8
0
 10
3.61711380
 20
1.20905168
  0
VERTEX
  8
0
 10
3.72482478
 20
1.31017467
  0
VERTEX
  8
0
 10
3.68649658
 20
1.35745861
  0
VERTEX
  8
0
 10
3.67435254
 20
1.38790673
  0
VERTEX
  8
0
 10
3.67375882
 20
1.42932857
  0
VERTEX
  8
0
 10
3.69405599
 20
1.46892916
  0
VERTEX
  8
0
 10
3.72908027
 20
1.49741652
  0
VERTEX
  8
0
 10
3.75886875
 20
1.51443850
  0
VERTEX
  8
0
 10
3.73759127
 20
1.69316936
  0
VERTEX
  8
0
 10
3.72908027
 20
1.74849081
  0
VERTEX
  8
0
 10
3.70354729
 20
1.80381227
  0
VERTEX
  8
0
 10
3.68267233
 20
1.88985761
  0
VERTEX
  8
0
 10
3.65248133
 20
1.96977663
  0
VERTEX
  8
0
 10
3.58013789
 20
2.03360908
  0
VERTEX
  8
0
 10
3.51204995
 20
2.06339756
  0
VERTEX
  8
0
 10
3.42289667
 20
2.11908052
  0
VERTEX
  8
0
 10
3.34457616
 20
2.18905333
  0
VERTEX
  8
0
 10
3.19714320
 20
2.34426033
  0
VERTEX
  8
0
 10
3.17586572
 20
2.35702682
  0
VERTEX
  8
0
 10
3.16780461
 20
2.25766557
  0
VERTEX
  8
0
 10
3.18604897
 20
2.16702363
  0
VERTEX
  8
0
 10
3.21303207
 20
2.07882624
  0
VERTEX
  8
0
 10
3.23118718
 20
1.98679862
  0
VERTEX
  8
0
 10
3.23191508
 20
1.95950088
  0
VERTEX
  8
0
 10
3.22267618
 20
1.93998816
  0
VERTEX
  8
0
 10
3.19768948
 20
1.93639012
  0
VERTEX
  8
0
 10
3.17292028
 20
1.95111383
  0
VERTEX
  8
0
 10
3.13756625
 20
1.99105411
  0
VERTEX
  8
0
 10
3.07008743
 20
2.10714667
  0
VERTEX
  8
0
 10
3.01415685
 20
2.23361742
  0
VERTEX
  8
0
 10
2.98862387
 20
2.28042788
  0
VERTEX
  8
0
 10
2.91202494
 20
2.13574100
  0
VERTEX
  8
0
 10
2.86447689
 20
2.07517842
  0
VERTEX
  8
0
 10
2.79287103
 20
2.03786458
  0
VERTEX
  8
0
 10
2.79577695
 20
2.08743898
  0
VERTEX
  8
0
 10
2.81414852
 20
2.13148550
  0
VERTEX
  8
0
 10
2.84943092
 20
2.30672612
  0
VERTEX
  8
0
 10
2.85183695
 20
2.49911508
  0
VERTEX
  8
0
 10
2.83220713
 20
2.69280335
  0
VERTEX
  8
0
 10
2.80138203
 20
2.87194190
  0
VERTEX
  8
0
 10
2.75882706
 20
3.07195024
  0
VERTEX
  8
0
 10
2.64392865
 20
3.43366744
  0
VERTEX
  8
0
 10
2.59286270
 20
3.56558783
  0
VERTEX
  8
0
 10
2.58009621
 20
3.61239830
  0
VERTEX
  8
0
 10
2.58009621
 20
3.62090929
  0
VERTEX
  8
0
 10
2.56732972
 20
3.62516479
  0
VERTEX
  8
0
 10
2.55881872
 20
3.65069776
  0
VERTEX
  8
0
 10
2.53120617
 20
3.77124266
  0
VERTEX
  8
0
 10
2.51829539
 20
3.90147556
  0
VERTEX
  8
0
 10
2.52351852
 20
4.03185671
  0
VERTEX
  8
0
 10
2.55030773
 20
4.15284636
  0
VERTEX
  8
0
 10
2.58009621
 20
4.22093430
  0
VERTEX
  8
0
 10
2.60988468
 20
4.28476675
  0
VERTEX
  8
0
 10
2.59286270
 20
4.33157721
  0
VERTEX
  8
0
 10
2.56732972
 20
4.31881072
  0
VERTEX
  8
0
 10
2.53551515
 20
4.29492739
  0
VERTEX
  8
0
 10
2.49073078
 20
4.28476675
  0
VERTEX
  8
0
 10
2.46326692
 20
4.29799359
  0
VERTEX
  8
0
 10
2.44777229
 20
4.32539706
  0
VERTEX
  8
0
 10
2.43540932
 20
4.39966516
  0
VERTEX
  8
0
 10
2.32476641
 20
4.38689867
  0
VERTEX
  8
0
 10
2.29648566
 20
4.45435041
  0
VERTEX
  8
0
 10
2.30348893
 20
4.52733005
  0
VERTEX
  8
0
 10
2.34217203
 20
4.58509544
  0
VERTEX
  8
0
 10
2.39285436
 20
4.63371747
  0
VERTEX
  8
0
 10
2.41838734
 20
4.66776144
  0
VERTEX
  8
0
 10
2.40139408
 20
4.71676965
  0
VERTEX
  8
0
 10
2.39299587
 20
4.74168157
  0
VERTEX
  8
0
 10
2.39710986
 20
4.77414885
  0
VERTEX
  8
0
 10
2.43966482
 20
4.79968183
  0
VERTEX
  8
0
 10
2.49924177
 20
4.81244832
  0
VERTEX
  8
0
 10
2.48918666
 20
4.88994986
  0
VERTEX
  8
0
 10
2.51315129
 20
4.95256161
  0
VERTEX
  8
0
 10
2.56739675
 20
4.99192717
  0
VERTEX
  8
0
 10
2.64818415
 20
4.99969017
  0
VERTEX
  8
0
 10
2.67371713
 20
4.98266818
  0
VERTEX
  8
0
 10
2.69729748
 20
4.93018791
  0
VERTEX
  8
0
 10
2.71552722
 20
4.90536034
  0
VERTEX
  8
0
 10
2.73754958
 20
4.89755825
  0
VERTEX
  8
0
 10
2.75264862
 20
4.91210340
  0
VERTEX
  8
0
 10
2.75527420
 20
4.93810691
  0
VERTEX
  8
0
 10
2.74606057
 20
4.99117917
  0
VERTEX
  8
0
 10
2.68648362
 20
5.28480844
  0
VERTEX
  8
0
 10
2.45922244
 20
5.33595163
  0
VERTEX
  8
0
 10
2.24391198
 20
5.39970684
  0
VERTEX
  8
0
 10
2.14962098
 20
5.44285112
  0
VERTEX
  8
0
 10
2.06552438
 20
5.49779981
  0
VERTEX
  8
0
 10
1.99721427
 20
5.56859834
  0
VERTEX
  8
0
 10
1.95028272
 20
5.65929213
  0
VERTEX
  8
0
 10
1.95028272
 20
5.80397901
  0
VERTEX
  8
0
 10
2.02262616
 20
5.96994338
  0
VERTEX
  8
0
 10
2.10348059
 20
6.07633079
  0
VERTEX
  8
0
 10
2.48647528
 20
6.62103435
  0
VERTEX
  8
0
 10
2.60137369
 20
6.78274322
  0
VERTEX
  8
0
 10
2.63967316
 20
6.83806467
  0
VERTEX
  8
0
 10
2.69499461
 20
6.88487513
  0
VERTEX
  8
0
 10
2.77246032
 20
6.99520201
  0
VERTEX
  8
0
 10
2.84224687
 20
7.11765510
  0
VERTEX
  8
0
 10
2.92564497
 20
7.22797787
  0
VERTEX
  8
0
 10
2.97910169
 20
7.27101022
  0
VERTEX
  8
0
 10
3.04394533
 20
7.30191379
  0
VERTEX
  8
0
 10
3.04454344
 20
7.35834427
  0
VERTEX
  8
0
 10
3.05830316
 20
7.40609154
  0
VERTEX
  8
0
 10
3.10777778
 20
7.48064465
  0
VERTEX
  8
0
 10
3.16309923
 20
7.48915564
  0
VERTEX
  8
0
 10
3.20281924
 20
7.55554697
  0
VERTEX
  8
0
 10
3.23356457
 20
7.57879657
  0
VERTEX
  8
0
 10
3.27374214
 20
7.59128756
  0
VERTEX
  8
0
 10
3.35183274
 20
7.57909801
  0
VERTEX
  8
0
 10
3.41842902
 20
7.54447710
  0
VERTEX
  8
0
 10
3.50166021
 20
7.61984327
  0
VERTEX
  8
0
 10
3.52649846
 20
7.67269600
  0
VERTEX
  8
0
 10
3.53758293
 20
7.73597444
  0
VERTEX
  8
0
 10
3.53399755
 20
7.84627151
  0
VERTEX
  8
0
 10
3.51157732
 20
7.95272348
  0
VERTEX
  8
0
 10
3.45247300
 20
8.14875761
  0
VERTEX
  8
0
 10
3.43970651
 20
8.20833456
  0
VERTEX
  8
0
 10
3.43970651
 20
8.22110105
  0
VERTEX
  8
0
 10
3.45029929
 20
8.22846726
  0
VERTEX
  8
0
 10
3.44821750
 20
8.24237853
  0
VERTEX
  8
0
 10
3.42762648
 20
8.25769789
  0
VERTEX
  8
0
 10
3.40140704
 20
8.25940052
  0
VERTEX
  8
0
 10
3.31467252
 20
8.27039768
  0
VERTEX
  8
0
 10
3.23969817
 20
8.29344449
  0
VERTEX
  8
0
 10
3.20700729
 20
8.32044492
  0
VERTEX
  8
0
 10
3.19714320
 20
8.36578793
  0
VERTEX
  8
0
 10
3.22639799
 20
8.36259264
  0
VERTEX
  8
0
 10
3.25246466
 20
8.34025495
  0
VERTEX
  8
0
 10
3.32898450
 20
8.29999662
  0
VERTEX
  8
0
 10
3.37543641
 20
8.29142702
  0
VERTEX
  8
0
 10
3.42268452
 20
8.30195548
  0
VERTEX
  8
0
 10
3.41262080
 20
8.31895954
  0
VERTEX
  8
0
 10
3.39289605
 20
8.33174396
  0
VERTEX
  8
0
 10
3.31204161
 20
8.39557641
  0
VERTEX
  8
0
 10
3.29788230
 20
8.41693921
  0
VERTEX
  8
0
 10
3.31204161
 20
8.43387587
  0
VERTEX
  8
0
 10
3.33914439
 20
8.42333331
  0
VERTEX
  8
0
 10
3.36310757
 20
8.39557641
  0
VERTEX
  8
0
 10
3.39206947
 20
8.37484629
  0
VERTEX
  8
0
 10
3.42694002
 20
8.36578793
  0
VERTEX
  8
0
 10
3.42173294
 20
8.46602833
  0
VERTEX
  8
0
 10
3.40566254
 20
8.55728527
  0
VERTEX
  8
0
 10
3.22267618
 20
8.59558474
  0
VERTEX
  8
0
 10
3.21371235
 20
8.60711038
  0
VERTEX
  8
0
 10
3.19714320
 20
8.61260673
  0
VERTEX
  8
0
 10
3.19986582
 20
8.71132941
  0
VERTEX
  8
0
 10
3.23544267
 20
8.78282659
  0
VERTEX
  8
0
 10
3.25101795
 20
8.79746842
  0
VERTEX
  8
0
 10
3.26097565
 20
8.81687056
  0
VERTEX
  8
0
 10
3.25246466
 20
8.88070301
  0
VERTEX
  8
0
 10
3.00564586
 20
8.77431560
  0
VERTEX
  8
0
 10
2.88581448
 20
8.72237540
  0
VERTEX
  8
0
 10
2.77584905
 20
8.65516169
  0
VERTEX
  8
0
 10
2.73754958
 20
8.61260673
  0
VERTEX
  8
0
 10
2.68648362
 20
8.58281825
  0
VERTEX
  8
0
 10
2.53328574
 20
8.48494183
  0
VERTEX
  8
0
 10
2.40139950
 20
8.35672346
  0
VERTEX
  8
0
 10
2.25667847
 20
8.23812303
  0
VERTEX
  8
0
 10
2.20515776
 20
8.20158289
  0
VERTEX
  8
0
 10
2.14603556
 20
8.18280158
  0
VERTEX
  8
0
 10
2.14700315
 20
8.20528677
  0
VERTEX
  8
0
 10
2.16305755
 20
8.22535654
  0
VERTEX
  8
0
 10
2.38464891
 20
8.46275054
  0
VERTEX
  8
0
 10
2.63967316
 20
8.67218368
  0
VERTEX
  8
0
 10
2.72052759
 20
8.72750514
  0
VERTEX
  8
0
 10
2.80989302
 20
8.80835957
  0
VERTEX
  8
0
 10
2.91628043
 20
8.86793652
  0
VERTEX
  8
0
 10
2.94669968
 20
8.89248015
  0
VERTEX
  8
0
 10
2.98436838
 20
8.91049149
  0
VERTEX
  8
0
 10
3.11628877
 20
8.98709042
  0
VERTEX
  8
0
 10
2.92718786
 20
8.99784061
  0
VERTEX
  8
0
 10
2.73329408
 20
8.98709042
  0
VERTEX
  8
0
 10
2.54522199
 20
8.96389541
  0
VERTEX
  8
0
 10
2.38859886
 20
8.91900248
  0
VERTEX
  8
0
 10
2.32902191
 20
8.88495851
  0
VERTEX
  8
0
 10
2.29030652
 20
8.87617176
  0
VERTEX
  8
0
 10
2.27098547
 20
8.87869224
  0
VERTEX
  8
0
 10
2.26093397
 20
8.89346950
  0
VERTEX
  8
0
 10
2.27426835
 20
8.91661951
  0
VERTEX
  8
0
 10
2.30774443
 20
8.93602447
  0
VERTEX
  8
0
 10
2.52470390
 20
9.02914494
  0
VERTEX
  8
0
 10
2.76733805
 20
9.09773333
  0
VERTEX
  8
0
 10
3.05631292
 20
9.13987759
  0
VERTEX
  8
0
 10
3.37587406
 20
9.14879929
  0
VERTEX
  8
0
 10
3.39444159
 20
9.14519425
  0
VERTEX
  8
0
 10
3.40991803
 20
9.15305479
  0
VERTEX
  8
0
 10
3.38864055
 20
9.17007678
  0
VERTEX
  8
0
 10
3.18863221
 20
9.25093121
  0
VERTEX
  8
0
 10
2.85724446
 20
9.34885274
  0
VERTEX
  8
0
 10
2.67303363
 20
9.38271920
  0
VERTEX
  8
0
 10
2.47370879
 20
9.40412908
  0
VERTEX
  8
0
 10
2.43540932
 20
9.40838458
  0
VERTEX
  8
0
 10
2.41788859
 20
9.40821473
  0
VERTEX
  8
0
 10
2.40987635
 20
9.41689557
  0
VERTEX
  8
0
 10
2.40859315
 20
9.43505601
  0
VERTEX
  8
0
 10
2.42264283
 20
9.45093955
  0
VERTEX
  8
0
 10
2.46945330
 20
9.45519504
  0
VERTEX
  8
0
 10
2.75882706
 20
9.47647253
  0
SEQEND
  0
POLYLINE
  8
Default_Layer
 66
   1
 39
0.000000
 70
    1
  0
VERTEX
  8
0
 10
3.55460491
 20
9.33604114
  0
VERTEX
  8
0
 10
3.27970138
 20
9.39848635
  0
VERTEX
  8
0
 10
2.98011288
 20
9.42540657
  0
VERTEX
  8
0
 10
2.84819249
 20
9.43391756
  0
VERTEX
  8
0
 10
2.78945919
 20
9.42846877
  0
VERTEX
  8
0
 10
2.73754958
 20
9.41689557
  0
VERTEX
  8
0
 10
2.94336614
 20
9.37981527
  0
VERTEX
  8
0
 10
3.12271782
 20
9.31629026
  0
VERTEX
  8
0
 10
3.29247172
 20
9.24349096
  0
VERTEX
  8
0
 10
3.46949498
 20
9.17858777
  0
VERTEX
  8
0
 10
3.48861865
 20
9.15436202
  0
VERTEX
  8
0
 10
3.51630545
 20
9.14879929
  0
VERTEX
  8
0
 10
3.57422919
 20
9.17388826
  0
VERTEX
  8
0
 10
3.63971484
 20
9.19560975
  0
VERTEX
  8
0
 10
3.69929180
 20
9.18284326
  0
VERTEX
  8
0
 10
3.71388579
 20
9.21209014
  0
VERTEX
  8
0
 10
3.71196510
 20
9.23851477
  0
VERTEX
  8
0
 10
3.67293485
 20
9.28277200
  0
VERTEX
  8
0
 10
3.55460491
 20
9.33604114
  0
SEQEND
  0
POLYLINE
  8
Default_Layer
 66
   1
 39
0.000000
 70
    1
  0
VERTEX
  8
0
 10
3.80567921
 20
9.26795320
  0
VERTEX
  8
0
 10
3.76312424
 20
9.20837624
  0
VERTEX
  8
0
 10
3.72482478
 20
9.14028830
  0
VERTEX
  8
0
 10
3.72675204
 20
9.12726765
  0
VERTEX
  8
0
 10
3.73759127
 20
9.11901082
  0
VERTEX
  8
0
 10
3.74388030
 20
9.12619910
  0
VERTEX
  8
0
 10
3.74610226
 20
9.14028830
  0
VERTEX
  8
0
 10
3.79478264
 20
9.16306361
  0
VERTEX
  8
0
 10
3.84823418
 20
9.18284326
  0
VERTEX
  8
0
 10
3.85825034
 20
9.22570909
  0
VERTEX
  8
0
 10
3.87802265
 20
9.25518671
  0
VERTEX
  8
0
 10
3.91903272
 20
9.26707084
  0
VERTEX
  8
0
 10
3.96297976
 20
9.25411283
  0
VERTEX
  8
0
 10
4.03973152
 20
9.21263174
  0
VERTEX
  8
0
 10
4.05595470
 20
9.23139151
  0
VERTEX
  8
0
 10
4.07803099
 20
9.24242022
  0
VERTEX
  8
0
 10
4.11171835
 20
9.28428334
  0
VERTEX
  8
0
 10
4.12484145
 20
9.34880763
  0
VERTEX
  8
0
 10
4.10356397
 20
9.34880763
  0
VERTEX
  8
0
 10
4.09930847
 20
9.37008511
  0
VERTEX
  8
0
 10
4.01577370
 20
9.37937898
  0
VERTEX
  8
0
 10
3.93582049
 20
9.35840585
  0
VERTEX
  8
0
 10
3.86420395
 20
9.31773937
  0
VERTEX
  8
0
 10
3.80567921
 20
9.26795320
  0
SEQEND
  0
POLYLINE
  8
Default_Layer
 66
   1
 39
0.000000
 70
    1
  0
VERTEX
  8
0
 10
4.55464660
 20
9.29774167
  0
VERTEX
  8
0
 10
4.45604967
 20
9.35157509
  0
VERTEX
  8
0
 10
4.33336078
 20
9.37434061
  0
VERTEX
  8
0
 10
4.26264958
 20
9.36208857
  0
VERTEX
  8
0
 10
4.20479643
 20
9.33263472
  0
VERTEX
  8
0
 10
4.15909562
 20
9.28892597
  0
VERTEX
  8
0
 10
4.12484145
 20
9.23390922
  0
VERTEX
  8
0
 10
4.15462993
 20
9.21263174
  0
VERTEX
  8
0
 10
4.18441840
 20
9.18709876
  0
VERTEX
  8
0
 10
4.22271787
 20
9.21263174
  0
VERTEX
  8
0
 10
4.27943103
 20
9.25888143
  0
VERTEX
  8
0
 10
4.31283155
 20
9.27704439
  0
VERTEX
  8
0
 10
4.34612727
 20
9.28071969
  0
VERTEX
  8
0
 10
4.37964569
 20
9.25577721
  0
VERTEX
  8
0
 10
4.39719323
 20
9.20837624
  0
VERTEX
  8
0
 10
4.47133857
 20
9.20805672
  0
VERTEX
  8
0
 10
4.52308523
 20
9.18438253
  0
VERTEX
  8
0
 10
4.55444085
 20
9.13972510
  0
VERTEX
  8
0
 10
4.56741309
 20
9.07645585
  0
VERTEX
  8
0
 10
4.63102718
 20
9.07656820
  0
VERTEX
  8
0
 10
4.67805600
 20
9.06368936
  0
VERTEX
  8
0
 10
4.69082249
 20
9.05943387
  0
VERTEX
  8
0
 10
4.67818674
 20
9.14024660
  0
VERTEX
  8
0
 10
4.64836535
 20
9.20392574
  0
VERTEX
  8
0
 10
4.55464660
 20
9.29774167
  0
SEQEND
  0
POLYLINE
  8
Default_Layer
 66
   1
 39
0.000000
 70
    1
  0
VERTEX
  8
0
 10
5.78022960
 20
9.36582962
  0
VERTEX
  8
0
 10
5.35169584
 20
9.29617719
  0
VERTEX
  8
0
 10
5.14671779
 20
9.24524775
  0
VERTEX
  8
0
 10
4.95891877
 20
9.18284326
  0
VERTEX
  8
0
 10
4.84213252
 20
9.13291315
  0
VERTEX
  8
0
 10
4.79263600
 20
9.09754155
  0
VERTEX
  8
0
 10
4.75465494
 20
9.05092287
  0
VERTEX
  8
0
 10
4.80146540
 20
8.94879096
  0
VERTEX
  8
0
 10
5.04828420
 20
9.08922234
  0
VERTEX
  8
0
 10
5.12913863
 20
9.13603280
  0
VERTEX
  8
0
 10
5.29084750
 20
9.20412075
  0
VERTEX
  8
0
 10
5.54534253
 20
9.29422855
  0
VERTEX
  8
0
 10
5.81427358
 20
9.37008511
  0
VERTEX
  8
0
 10
5.78022960
 20
9.36582962
  0
SEQEND
  0
POLYLINE
  8
Default_Layer
 66
   1
 39
0.000000
 70
    1
  0
VERTEX
  8
0
 10
3.97164357
 20
9.22114273
  0
VERTEX
  8
0
 10
3.91632212
 20
9.22965373
  0
VERTEX
  8
0
 10
3.89504464
 20
9.19560975
  0
VERTEX
  8
0
 10
3.90034598
 20
9.15710900
  0
VERTEX
  8
0
 10
3.88653364
 20
9.12752181
  0
VERTEX
  8
0
 10
3.82695669
 20
9.14028830
  0
VERTEX
  8
0
 10
3.79624722
 20
9.12008187
  0
VERTEX
  8
0
 10
3.77589073
 20
9.09347784
  0
VERTEX
  8
0
 10
3.78865722
 20
9.05517837
  0
VERTEX
  8
0
 10
3.82270120
 20
9.02538989
  0
VERTEX
  8
0
 10
3.78009506
 20
8.96927426
  0
VERTEX
  8
0
 10
3.75461325
 20
8.89346950
  0
VERTEX
  8
0
 10
3.81697569
 20
8.83821087
  0
VERTEX
  8
0
 10
3.85760106
 20
8.82046239
  0
VERTEX
  8
0
 10
3.91206662
 20
8.81687056
  0
VERTEX
  8
0
 10
3.93584118
 20
8.86006885
  0
VERTEX
  8
0
 10
3.94487137
 20
8.88194567
  0
VERTEX
  8
0
 10
3.96313258
 20
8.89346950
  0
VERTEX
  8
0
 10
4.01116134
 20
8.86941094
  0
VERTEX
  8
0
 10
4.06100900
 20
8.84665904
  0
VERTEX
  8
0
 10
4.08675763
 20
8.86430281
  0
VERTEX
  8
0
 10
4.10356397
 20
8.89772500
  0
VERTEX
  8
0
 10
4.12484145
 20
8.90623599
  0
VERTEX
  8
0
 10
4.10883855
 20
8.96679947
  0
VERTEX
  8
0
 10
4.06526450
 20
8.99985691
  0
VERTEX
  8
0
 10
4.07803099
 20
9.03815638
  0
VERTEX
  8
0
 10
4.11207496
 20
9.04666738
  0
VERTEX
  8
0
 10
4.14049745
 20
9.07203637
  0
VERTEX
  8
0
 10
4.15714301
 20
9.10784556
  0
VERTEX
  8
0
 10
4.15657392
 20
9.14604576
  0
VERTEX
  8
0
 10
4.13335244
 20
9.17858777
  0
VERTEX
  8
0
 10
4.10188339
 20
9.18927943
  0
VERTEX
  8
0
 10
4.07033758
 20
9.18382719
  0
VERTEX
  8
0
 10
4.02270953
 20
9.14454380
  0
VERTEX
  8
0
 10
3.98015457
 20
9.14454380
  0
VERTEX
  8
0
 10
3.98213039
 20
9.18975839
  0
VERTEX
  8
0
 10
3.97164357
 20
9.22114273
  0
SEQEND
  0
POLYLINE
  8
Default_Layer
 66
   1
 39
0.000000
 70
    1
  0
VERTEX
  8
0
 10
4.13335244
 20
8.99985691
  0
VERTEX
  8
0
 10
4.15037443
 20
8.99560142
  0
VERTEX
  8
0
 10
4.16711970
 20
8.92203245
  0
VERTEX
  8
0
 10
4.16350827
 20
8.88515359
  0
VERTEX
  8
0
 10
4.14611893
 20
8.85517003
  0
VERTEX
  8
0
 10
4.16739642
 20
8.82112606
  0
VERTEX
  8
0
 10
4.22697337
 20
8.81687056
  0
VERTEX
  8
0
 10
4.28229482
 20
8.88070301
  0
VERTEX
  8
0
 10
4.31633879
 20
8.87644751
  0
VERTEX
  8
0
 10
4.32787975
 20
8.82833056
  0
VERTEX
  8
0
 10
4.35889376
 20
8.79559308
  0
VERTEX
  8
0
 10
4.40570422
 20
8.80410407
  0
VERTEX
  8
0
 10
4.42581376
 20
8.83609440
  0
VERTEX
  8
0
 10
4.43469570
 20
8.87817727
  0
VERTEX
  8
0
 10
4.43549270
 20
8.97857943
  0
VERTEX
  8
0
 10
4.50783614
 20
8.99560142
  0
VERTEX
  8
0
 10
4.52573073
 20
9.04365292
  0
VERTEX
  8
0
 10
4.52510957
 20
9.09879992
  0
VERTEX
  8
0
 10
4.50734070
 20
9.14596651
  0
VERTEX
  8
0
 10
4.47379217
 20
9.17007678
  0
VERTEX
  8
0
 10
4.43864158
 20
9.17071214
  0
VERTEX
  8
0
 10
4.41434809
 20
9.15858529
  0
VERTEX
  8
0
 10
4.39211592
 20
9.14475706
  0
VERTEX
  8
0
 10
4.36314926
 20
9.14028830
  0
VERTEX
  8
0
 10
4.33761628
 20
9.22965373
  0
VERTEX
  8
0
 10
4.28906369
 20
9.22393954
  0
VERTEX
  8
0
 10
4.25458923
 20
9.20411397
  0
VERTEX
  8
0
 10
4.21287251
 20
9.13720264
  0
VERTEX
  8
0
 10
4.18246172
 20
9.05906765
  0
VERTEX
  8
0
 10
4.13335244
 20
8.99985691
  0
SEQEND
  0
POLYLINE
  8
Default_Layer
 66
   1
 39
0.000000
 70
    1
  0
VERTEX
  8
0
 10
3.72482478
 20
8.97432393
  0
VERTEX
  8
0
 10
3.75461325
 20
9.01687890
  0
VERTEX
  8
0
 10
3.73444108
 20
9.04368885
  0
VERTEX
  8
0
 10
3.70354729
 20
9.06794486
  0
VERTEX
  8
0
 10
3.66917187
 20
9.13757553
  0
VERTEX
  8
0
 10
3.63481800
 20
9.15532055
  0
VERTEX
  8
0
 10
3.58439339
 20
9.15731029
  0
VERTEX
  8
0
 10
3.56311591
 20
9.07220035
  0
VERTEX
  8
0
 10
3.49275547
 20
9.04682472
  0
VERTEX
  8
0
 10
3.46098399
 20
8.98283493
  0
VERTEX
  8
0
 10
3.49235120
 20
8.93279603
  0
VERTEX
  8
0
 10
3.54609392
 20
8.90623599
  0
VERTEX
  8
0
 10
3.51630545
 20
8.77431560
  0
VERTEX
  8
0
 10
3.55886041
 20
8.73176063
  0
VERTEX
  8
0
 10
3.63545935
 20
8.75729361
  0
VERTEX
  8
0
 10
3.69503630
 20
8.80410407
  0
VERTEX
  8
0
 10
3.69929180
 20
8.83389255
  0
VERTEX
  8
0
 10
3.71631378
 20
8.84665904
  0
VERTEX
  8
0
 10
3.71083451
 20
8.91475422
  0
VERTEX
  8
0
 10
3.72482478
 20
8.97432393
  0
SEQEND
  0
POLYLINE
  8
Default_Layer
 66
   1
 39
0.000000
 70
    1
  0
VERTEX
  8
0
 10
2.67371713
 20
9.01262340
  0
VERTEX
  8
0
 10
3.05201705
 20
9.02247153
  0
VERTEX
  8
0
 10
3.42268452
 20
9.00411241
  0
VERTEX
  8
0
 10
3.44821750
 20
9.06794486
  0
VERTEX
  8
0
 10
3.46070366
 20
9.07495169
  0
VERTEX
  8
0
 10
3.46523949
 20
9.08922234
  0
VERTEX
  8
0
 10
3.25320491
 20
9.10503691
  0
VERTEX
  8
0
 10
3.04143304
 20
9.09671084
  0
VERTEX
  8
0
 10
2.84368381
 20
9.06549079
  0
VERTEX
  8
0
 10
2.67371713
 20
9.01262340
  0
SEQEND
  0
POLYLINE
  8
Default_Layer
 66
   1
 39
0.000000
 70
    1
  0
VERTEX
  8
0
 10
5.55468829
 20
9.05092287
  0
VERTEX
  8
0
 10
5.28664956
 20
9.01361988
  0
VERTEX
  8
0
 10
5.03977321
 20
8.95304645
  0
VERTEX
  8
0
 10
4.96519590
 20
8.92725298
  0
VERTEX
  8
0
 10
4.90359732
 20
8.88495851
  0
VERTEX
  8
0
 10
4.94189679
 20
8.85942553
  0
VERTEX
  8
0
 10
4.94189679
 20
8.82112606
  0
VERTEX
  8
0
 10
5.25680353
 20
8.94879096
  0
VERTEX
  8
0
 10
5.36319094
 20
8.98709042
  0
VERTEX
  8
0
 10
5.49797763
 20
9.01545389
  0
VERTEX
  8
0
 10
5.63128722
 20
9.05092287
  0
VERTEX
  8
0
 10
5.55468829
 20
9.05092287
  0
SEQEND
  0
POLYLINE
  8
Default_Layer
 66
   1
 39
0.000000
 70
    1
  0
VERTEX
  8
0
 10
4.60996806
 20
9.03390089
  0
VERTEX
  8
0
 10
4.55464660
 20
8.98709042
  0
VERTEX
  8
0
 10
4.49932515
 20
8.94453546
  0
VERTEX
  8
0
 10
4.43974819
 20
8.72324964
  0
VERTEX
  8
0
 10
4.49081415
 20
8.67643918
  0
VERTEX
  8
0
 10
4.51633447
 20
8.64785751
  0
VERTEX
  8
0
 10
4.55039110
 20
8.63388421
  0
VERTEX
  8
0
 10
4.58719626
 20
8.64797347
  0
VERTEX
  8
0
 10
4.61422355
 20
8.68495017
  0
VERTEX
  8
0
 10
4.63975653
 20
8.73176063
  0
VERTEX
  8
0
 10
4.68661465
 20
8.76142958
  0
VERTEX
  8
0
 10
4.72912196
 20
8.79133758
  0
VERTEX
  8
0
 10
4.73997369
 20
8.84375493
  0
VERTEX
  8
0
 10
4.73337746
 20
8.89772500
  0
VERTEX
  8
0
 10
4.68684658
 20
8.90398680
  0
VERTEX
  8
0
 10
4.65252302
 20
8.92325798
  0
VERTEX
  8
0
 10
4.67331091
 20
8.95774580
  0
VERTEX
  8
0
 10
4.68231150
 20
9.00836791
  0
VERTEX
  8
0
 10
4.64874462
 20
9.02991583
  0
VERTEX
  8
0
 10
4.60996806
 20
9.03390089
  0
SEQEND
  0
POLYLINE
  8
Default_Layer
 66
   1
 39
0.000000
 70
    1
  0
VERTEX
  8
0
 10
2.84819249
 20
8.79133758
  0
VERTEX
  8
0
 10
2.58435170
 20
8.58281825
  0
VERTEX
  8
0
 10
2.51200826
 20
8.51473031
  0
VERTEX
  8
0
 10
2.50775277
 20
8.50621932
  0
VERTEX
  8
0
 10
2.55456323
 20
8.54026329
  0
VERTEX
  8
0
 10
2.71904796
 20
8.65825249
  0
VERTEX
  8
0
 10
2.90125225
 20
8.76002878
  0
VERTEX
  8
0
 10
3.28225314
 20
8.94453546
  0
VERTEX
  8
0
 10
3.30996227
 20
8.95693183
  0
VERTEX
  8
0
 10
3.32906360
 20
8.97857943
  0
VERTEX
  8
0
 10
3.19007509
 20
8.96040903
  0
VERTEX
  8
0
 10
3.06486418
 20
8.91676430
  0
VERTEX
  8
0
 10
2.84819249
 20
8.79133758
  0
SEQEND
  0
POLYLINE
  8
Default_Layer
 66
   1
 39
0.000000
 70
    1
  0
VERTEX
  8
0
 10
3.41417353
 20
8.93176897
  0
VERTEX
  8
0
 10
3.36195041
 20
8.92842023
  0
VERTEX
  8
0
 10
3.32415924
 20
8.91094166
  0
VERTEX
  8
0
 10
3.30265062
 20
8.87727990
  0
VERTEX
  8
0
 10
3.29927512
 20
8.82538156
  0
VERTEX
  8
0
 10
3.32480810
 20
8.80835957
  0
VERTEX
  8
0
 10
3.29896330
 20
8.77911292
  0
VERTEX
  8
0
 10
3.26097565
 20
8.75303811
  0
VERTEX
  8
0
 10
3.23651096
 20
8.70720525
  0
VERTEX
  8
0
 10
3.22693168
 20
8.65941719
  0
VERTEX
  8
0
 10
3.27591218
 20
8.62564733
  0
VERTEX
  8
0
 10
3.35034108
 20
8.62537322
  0
VERTEX
  8
0
 10
3.37448243
 20
8.61216564
  0
VERTEX
  8
0
 10
3.40173508
 20
8.61343171
  0
VERTEX
  8
0
 10
3.46098399
 20
8.62111772
  0
VERTEX
  8
0
 10
3.49165309
 20
8.66195208
  0
VERTEX
  8
0
 10
3.49928346
 20
8.71899414
  0
VERTEX
  8
0
 10
3.47800598
 20
8.75729361
  0
VERTEX
  8
0
 10
3.47672544
 20
8.82019059
  0
VERTEX
  8
0
 10
3.48651697
 20
8.88495851
  0
VERTEX
  8
0
 10
3.41417353
 20
8.93176897
  0
SEQEND
  0
POLYLINE
  8
Default_Layer
 66
   1
 39
0.000000
 70
    1
  0
VERTEX
  8
0
 10
4.78869891
 20
8.86793652
  0
VERTEX
  8
0
 10
4.76742143
 20
8.77006010
  0
VERTEX
  8
0
 10
4.72133775
 20
8.72663090
  0
VERTEX
  8
0
 10
4.66528951
 20
8.69346116
  0
VERTEX
  8
0
 10
4.62853910
 20
8.63475590
  0
VERTEX
  8
0
 10
4.57592408
 20
8.59132925
  0
VERTEX
  8
0
 10
4.61096826
 20
8.56132060
  0
VERTEX
  8
0
 10
4.66528951
 20
8.54877428
  0
VERTEX
  8
0
 10
4.72061097
 20
8.60409574
  0
VERTEX
  8
0
 10
4.75045253
 20
8.57780884
  0
VERTEX
  8
0
 10
4.78869891
 20
8.56154077
  0
VERTEX
  8
0
 10
4.82274288
 20
8.58281825
  0
VERTEX
  8
0
 10
4.85678685
 20
8.58281825
  0
VERTEX
  8
0
 10
4.88750978
 20
8.60161840
  0
VERTEX
  8
0
 10
4.89934182
 20
8.63813971
  0
VERTEX
  8
0
 10
4.88524809
 20
8.69396182
  0
VERTEX
  8
0
 10
4.84827586
 20
8.74027162
  0
VERTEX
  8
0
 10
4.86561770
 20
8.76735637
  0
VERTEX
  8
0
 10
4.89934182
 20
8.77857109
  0
VERTEX
  8
0
 10
4.89971668
 20
8.82523549
  0
VERTEX
  8
0
 10
4.87805088
 20
8.85686383
  0
VERTEX
  8
0
 10
4.83936982
 20
8.87168716
  0
VERTEX
  8
0
 10
4.78869891
 20
8.86793652
  0
SEQEND
  0
POLYLINE
  8
Default_Layer
 66
   1
 39
0.000000
 70
    1
  0
VERTEX
  8
0
 10
5.19722658
 20
8.82963705
  0
VERTEX
  8
0
 10
5.10301627
 20
8.82749851
  0
VERTEX
  8
0
 10
5.03126221
 20
8.80410407
  0
VERTEX
  8
0
 10
5.01840141
 20
8.79533599
  0
VERTEX
  8
0
 10
5.01849572
 20
8.78708209
  0
VERTEX
  8
0
 10
5.31953705
 20
8.76073503
  0
VERTEX
  8
0
 10
5.59298776
 20
8.70622765
  0
VERTEX
  8
0
 10
5.64523169
 20
8.69136491
  0
VERTEX
  8
0
 10
5.69086418
 20
8.69346116
  0
VERTEX
  8
0
 10
5.46056777
 20
8.77806974
  0
VERTEX
  8
0
 10
5.33212131
 20
8.81229179
  0
VERTEX
  8
0
 10
5.19722658
 20
8.82963705
  0
SEQEND
  0
POLYLINE
  8
Default_Layer
 66
   1
 39
0.000000
 70
    1
  0
VERTEX
  8
0
 10
3.91632212
 20
8.77431560
  0
VERTEX
  8
0
 10
3.87222698
 20
8.77402436
  0
VERTEX
  8
0
 10
3.82695669
 20
8.78708209
  0
VERTEX
  8
0
 10
3.78896000
 20
8.80327026
  0
VERTEX
  8
0
 10
3.75461325
 20
8.80835957
  0
VERTEX
  8
0
 10
3.72914139
 20
8.78848199
  0
VERTEX
  8
0
 10
3.70354729
 20
8.75729361
  0
VERTEX
  8
0
 10
3.63575319
 20
8.71227939
  0
VERTEX
  8
0
 10
3.54609392
 20
8.68920567
  0
VERTEX
  8
0
 10
3.49928346
 20
8.62111772
  0
VERTEX
  8
0
 10
3.46918598
 20
8.58432789
  0
VERTEX
  8
0
 10
3.44821750
 20
8.54451878
  0
VERTEX
  8
0
 10
3.46098399
 20
8.47643084
  0
VERTEX
  8
0
 10
3.46523949
 20
8.39983190
  0
VERTEX
  8
0
 10
3.56522748
 20
8.42581868
  0
VERTEX
  8
0
 10
3.66099233
 20
8.44664236
  0
VERTEX
  8
0
 10
3.70465968
 20
8.43302047
  0
VERTEX
  8
0
 10
3.74184676
 20
8.40408740
  0
VERTEX
  8
0
 10
3.80748343
 20
8.34118499
  0
VERTEX
  8
0
 10
3.82847609
 20
8.30092275
  0
VERTEX
  8
0
 10
3.83121219
 20
8.25088952
  0
VERTEX
  8
0
 10
3.76168307
 20
8.19292083
  0
VERTEX
  8
0
 10
3.72145303
 20
8.16913512
  0
VERTEX
  8
0
 10
3.66950332
 20
8.15726860
  0
VERTEX
  8
0
 10
3.57175637
 20
8.17197421
  0
VERTEX
  8
0
 10
3.47800598
 20
8.19982356
  0
VERTEX
  8
0
 10
3.53335907
 20
8.00583383
  0
VERTEX
  8
0
 10
3.61205944
 20
7.83556519
  0
VERTEX
  8
0
 10
3.71097075
 20
7.68571687
  0
VERTEX
  8
0
 10
3.82695669
 20
7.55298809
  0
VERTEX
  8
0
 10
3.82695669
 20
7.53596610
  0
VERTEX
  8
0
 10
3.85847747
 20
7.51801424
  0
VERTEX
  8
0
 10
3.87802265
 20
7.48915564
  0
VERTEX
  8
0
 10
3.90781113
 20
7.47213366
  0
VERTEX
  8
0
 10
4.02696503
 20
7.43808968
  0
VERTEX
  8
0
 10
4.11612513
 20
7.44183674
  0
VERTEX
  8
0
 10
4.19043684
 20
7.46506661
  0
VERTEX
  8
0
 10
4.30357230
 20
7.54447710
  0
VERTEX
  8
0
 10
4.37198558
 20
7.62543670
  0
VERTEX
  8
0
 10
4.42272621
 20
7.71895246
  0
VERTEX
  8
0
 10
4.43123720
 20
7.74874093
  0
VERTEX
  8
0
 10
4.47804766
 20
7.80406239
  0
VERTEX
  8
0
 10
4.52060263
 20
7.87215033
  0
VERTEX
  8
0
 10
4.56303179
 20
7.96302529
  0
VERTEX
  8
0
 10
4.57592408
 20
8.06790317
  0
VERTEX
  8
0
 10
4.58055694
 20
8.07632161
  0
VERTEX
  8
0
 10
4.58017958
 20
8.08492516
  0
VERTEX
  8
0
 10
4.53336912
 20
8.26365601
  0
VERTEX
  8
0
 10
4.52480153
 20
8.36665499
  0
VERTEX
  8
0
 10
4.54613561
 20
8.45940885
  0
VERTEX
  8
0
 10
4.58869057
 20
8.50621932
  0
VERTEX
  8
0
 10
4.56315759
 20
8.56154077
  0
VERTEX
  8
0
 10
4.48230316
 20
8.63388421
  0
VERTEX
  8
0
 10
4.42765381
 20
8.68621442
  0
VERTEX
  8
0
 10
4.39293773
 20
8.75303811
  0
VERTEX
  8
0
 10
4.35415976
 20
8.75791086
  0
VERTEX
  8
0
 10
4.32669720
 20
8.77476939
  0
VERTEX
  8
0
 10
4.27803933
 20
8.81687056
  0
VERTEX
  8
0
 10
4.25718212
 20
8.78044271
  0
VERTEX
  8
0
 10
4.21961354
 20
8.77292107
  0
VERTEX
  8
0
 10
4.14186344
 20
8.79984858
  0
VERTEX
  8
0
 10
4.11633046
 20
8.81687056
  0
VERTEX
  8
0
 10
4.03973152
 20
8.81687056
  0
VERTEX
  8
0
 10
3.96313258
 20
8.81687056
  0
VERTEX
  8
0
 10
3.94337905
 20
8.79215618
  0
VERTEX
  8
0
 10
3.91632212
 20
8.77431560
  0
SEQEND
  0
POLYLINE
  8
Default_Layer
 66
   1
 39
0.000000
 70
    1
  0
VERTEX
  8
0
 10
4.70784448
 20
8.53175229
  0
VERTEX
  8
0
 10
4.69515533
 20
8.50949892
  0
VERTEX
  8
0
 10
4.69082249
 20
8.48494183
  0
VERTEX
  8
0
 10
4.68335654
 20
8.33581796
  0
VERTEX
  8
0
 10
4.69507799
 20
8.18280158
  0
VERTEX
  8
0
 10
4.70784448
 20
8.17429059
  0
VERTEX
  8
0
 10
4.74635411
 20
8.04262276
  0
VERTEX
  8
0
 10
4.77167692
 20
7.89342781
  0
VERTEX
  8
0
 10
4.76272836
 20
7.74962586
  0
VERTEX
  8
0
 10
4.72912196
 20
7.62107604
  0
VERTEX
  8
0
 10
4.71635547
 20
7.61682054
  0
VERTEX
  8
0
 10
4.63975653
 20
7.46787816
  0
VERTEX
  8
0
 10
4.62038312
 20
7.44813446
  0
VERTEX
  8
0
 10
4.59294607
 20
7.44234518
  0
VERTEX
  8
0
 10
4.61847905
 20
7.57001008
  0
VERTEX
  8
0
 10
4.65252302
 20
7.69341948
  0
VERTEX
  8
0
 10
4.65200630
 20
7.77628655
  0
VERTEX
  8
0
 10
4.63975653
 20
7.85512834
  0
VERTEX
  8
0
 10
4.62699004
 20
7.93172728
  0
VERTEX
  8
0
 10
4.61828947
 20
7.97024506
  0
VERTEX
  8
0
 10
4.59720157
 20
7.99555973
  0
VERTEX
  8
0
 10
4.51470813
 20
7.78110563
  0
VERTEX
  8
0
 10
4.43974819
 20
7.55724359
  0
VERTEX
  8
0
 10
4.42698170
 20
7.48490015
  0
VERTEX
  8
0
 10
4.43123720
 20
7.45085617
  0
VERTEX
  8
0
 10
4.42698170
 20
7.37425724
  0
VERTEX
  8
0
 10
4.43123720
 20
7.35297975
  0
VERTEX
  8
0
 10
4.47379217
 20
7.37425724
  0
VERTEX
  8
0
 10
4.56741309
 20
7.39127922
  0
VERTEX
  8
0
 10
4.58869057
 20
7.36149075
  0
VERTEX
  8
0
 10
4.63185200
 20
7.28929189
  0
VERTEX
  8
0
 10
4.63625654
 20
7.24980650
  0
VERTEX
  8
0
 10
4.61422355
 20
7.21680386
  0
VERTEX
  8
0
 10
4.63488223
 20
7.20381606
  0
VERTEX
  8
0
 10
4.64467599
 20
7.17900218
  0
VERTEX
  8
0
 10
4.65677852
 20
7.11892744
  0
VERTEX
  8
0
 10
4.85743380
 20
7.06084912
  0
VERTEX
  8
0
 10
5.03126221
 20
6.97424056
  0
VERTEX
  8
0
 10
5.01181148
 20
7.13545039
  0
VERTEX
  8
0
 10
4.96661026
 20
7.27105974
  0
VERTEX
  8
0
 10
4.91756330
 20
7.40294638
  0
VERTEX
  8
0
 10
4.88657533
 20
7.55298809
  0
VERTEX
  8
0
 10
4.87905379
 20
7.55662266
  0
VERTEX
  8
0
 10
4.87380884
 20
7.56149908
  0
VERTEX
  8
0
 10
4.87743847
 20
7.80369454
  0
VERTEX
  8
0
 10
4.89631552
 20
8.04627259
  0
VERTEX
  8
0
 10
4.90074761
 20
8.28051620
  0
VERTEX
  8
0
 10
4.88826792
 20
8.39178851
  0
VERTEX
  8
0
 10
4.86104235
 20
8.49770832
  0
VERTEX
  8
0
 10
4.84626689
 20
8.50525252
  0
VERTEX
  8
0
 10
4.84827586
 20
8.52324130
  0
VERTEX
  8
0
 10
4.77797224
 20
8.53043963
  0
VERTEX
  8
0
 10
4.70784448
 20
8.53175229
  0
SEQEND
  0
POLYLINE
  8
Default_Layer
 66
   1
 39
0.000000
 70
    1
  0
VERTEX
  8
0
 10
4.60145706
 20
8.45515336
  0
VERTEX
  8
0
 10
4.57592408
 20
8.33174396
  0
VERTEX
  8
0
 10
4.56315759
 20
8.26791151
  0
VERTEX
  8
0
 10
4.59294607
 20
8.22110105
  0
VERTEX
  8
0
 10
4.62655681
 20
8.13159480
  0
VERTEX
  8
0
 10
4.64983546
 20
8.02865744
  0
VERTEX
  8
0
 10
4.68231150
 20
7.81682888
  0
VERTEX
  8
0
 10
4.69507799
 20
7.74874093
  0
VERTEX
  8
0
 10
4.69082249
 20
7.65937550
  0
VERTEX
  8
0
 10
4.68566403
 20
7.64698100
  0
VERTEX
  8
0
 10
4.69082249
 20
7.63384252
  0
VERTEX
  8
0
 10
4.72486646
 20
7.77001841
  0
VERTEX
  8
0
 10
4.73763295
 20
7.92321629
  0
VERTEX
  8
0
 10
4.72228135
 20
8.00220628
  0
VERTEX
  8
0
 10
4.69507799
 20
8.06790317
  0
VERTEX
  8
0
 10
4.66528951
 20
8.14450211
  0
VERTEX
  8
0
 10
4.63594387
 20
8.22013500
  0
VERTEX
  8
0
 10
4.61847905
 20
8.30195548
  0
VERTEX
  8
0
 10
4.62699004
 20
8.40834289
  0
VERTEX
  8
0
 10
4.64401203
 20
8.50621932
  0
VERTEX
  8
0
 10
4.61728676
 20
8.49063574
  0
VERTEX
  8
0
 10
4.60145706
 20
8.45515336
  0
SEQEND
  0
POLYLINE
  8
Default_Layer
 66
   1
 39
0.000000
 70
    1
  0
VERTEX
  8
0
 10
3.61418187
 20
8.40408740
  0
VERTEX
  8
0
 10
3.60992637
 20
8.40834289
  0
VERTEX
  8
0
 10
3.55580165
 20
8.39221650
  0
VERTEX
  8
0
 10
3.51627401
 20
8.36187027
  0
VERTEX
  8
0
 10
3.48952858
 20
8.31858863
  0
VERTEX
  8
0
 10
3.47375048
 20
8.26365601
  0
VERTEX
  8
0
 10
3.48891239
 20
8.25762230
  0
VERTEX
  8
0
 10
3.49502796
 20
8.24237853
  0
VERTEX
  8
0
 10
3.54891884
 20
8.20801039
  0
VERTEX
  8
0
 10
3.62665090
 20
8.19820621
  0
VERTEX
  8
0
 10
3.70453168
 20
8.21155207
  0
VERTEX
  8
0
 10
3.75886875
 20
8.24663403
  0
VERTEX
  8
0
 10
3.65673683
 20
8.22535654
  0
VERTEX
  8
0
 10
3.61451257
 20
8.30237342
  0
VERTEX
  8
0
 10
3.60623701
 20
8.35017529
  0
VERTEX
  8
0
 10
3.61418187
 20
8.40408740
  0
SEQEND
  0
POLYLINE
  8
Default_Layer
 66
   1
 39
0.000000
 70
    1
  0
VERTEX
  8
0
 10
3.62269286
 20
8.33174396
  0
VERTEX
  8
0
 10
3.65673683
 20
8.28067800
  0
VERTEX
  8
0
 10
3.68612284
 20
8.27002048
  0
VERTEX
  8
0
 10
3.71631378
 20
8.27642250
  0
VERTEX
  8
0
 10
3.68652531
 20
8.30621098
  0
VERTEX
  8
0
 10
3.67540750
 20
8.35090981
  0
VERTEX
  8
0
 10
3.67801431
 20
8.39557641
  0
VERTEX
  8
0
 10
3.64642789
 20
8.36992294
  0
VERTEX
  8
0
 10
3.62269286
 20
8.33174396
  0
SEQEND
  0
POLYLINE
  8
Default_Layer
 66
   1
 39
0.000000
 70
    1
  0
VERTEX
  8
0
 10
3.70354729
 20
8.34876594
  0
VERTEX
  8
0
 10
3.73271489
 20
8.32422130
  0
VERTEX
  8
0
 10
3.76737974
 20
8.31472197
  0
VERTEX
  8
0
 10
3.74390887
 20
8.35071113
  0
VERTEX
  8
0
 10
3.72448517
 20
8.35847828
  0
VERTEX
  8
0
 10
3.70354729
 20
8.34876594
  0
SEQEND
  0
POLYLINE
  8
Default_Layer
 66
   1
 39
0.000000
 70
    1
  0
VERTEX
  8
0
 10
3.49077247
 20
7.57001008
  0
VERTEX
  8
0
 10
3.44821750
 20
7.50617763
  0
VERTEX
  8
0
 10
3.43545101
 20
7.41681220
  0
VERTEX
  8
0
 10
3.40140704
 20
7.36574624
  0
VERTEX
  8
0
 10
3.40957296
 20
7.32544313
  0
VERTEX
  8
0
 10
3.40140704
 20
7.28063631
  0
VERTEX
  8
0
 10
3.59624622
 20
7.24136202
  0
VERTEX
  8
0
 10
3.69442957
 20
7.24875823
  0
VERTEX
  8
0
 10
3.73386914
 20
7.26691958
  0
VERTEX
  8
0
 10
3.76312424
 20
7.29765830
  0
VERTEX
  8
0
 10
3.78014623
 20
7.29765830
  0
VERTEX
  8
0
 10
3.79291272
 20
7.33595777
  0
VERTEX
  8
0
 10
3.83660880
 20
7.38861512
  0
VERTEX
  8
0
 10
3.85701945
 20
7.42188532
  0
VERTEX
  8
0
 10
3.86100066
 20
7.45511167
  0
VERTEX
  8
0
 10
3.82695669
 20
7.49766664
  0
VERTEX
  8
0
 10
3.71271422
 20
7.66490244
  0
VERTEX
  8
0
 10
3.65537130
 20
7.74594031
  0
VERTEX
  8
0
 10
3.58864889
 20
7.80831788
  0
VERTEX
  8
0
 10
3.58864889
 20
7.81257338
  0
VERTEX
  8
0
 10
3.55193076
 20
7.68022079
  0
VERTEX
  8
0
 10
3.49077247
 20
7.57001008
  0
SEQEND
  0
POLYLINE
  8
Default_Layer
 66
   1
 39
0.000000
 70
    1
  0
VERTEX
  8
0
 10
4.39719323
 20
7.60405405
  0
VERTEX
  8
0
 10
4.37166025
 20
7.56575458
  0
VERTEX
  8
0
 10
4.34612727
 20
7.52319961
  0
VERTEX
  8
0
 10
4.26531850
 20
7.45771101
  0
VERTEX
  8
0
 10
4.15447003
 20
7.42002542
  0
VERTEX
  8
0
 10
4.02455176
 20
7.40733008
  0
VERTEX
  8
0
 10
3.88653364
 20
7.41681220
  0
VERTEX
  8
0
 10
3.84591439
 20
7.34321472
  0
VERTEX
  8
0
 10
3.79489137
 20
7.27780502
  0
VERTEX
  8
0
 10
3.72692091
 20
7.22976909
  0
VERTEX
  8
0
 10
3.63545935
 20
7.20829287
  0
VERTEX
  8
0
 10
3.53989856
 20
7.21434818
  0
VERTEX
  8
0
 10
3.44821750
 20
7.23382585
  0
VERTEX
  8
0
 10
3.45159152
 20
7.17833556
  0
VERTEX
  8
0
 10
3.44821750
 20
7.12318294
  0
VERTEX
  8
0
 10
3.51754449
 20
7.06287186
  0
VERTEX
  8
0
 10
3.54222851
 20
7.02317555
  0
VERTEX
  8
0
 10
3.55034942
 20
6.97424056
  0
VERTEX
  8
0
 10
3.54111452
 20
6.93099418
  0
VERTEX
  8
0
 10
3.51586250
 20
6.89890758
  0
VERTEX
  8
0
 10
3.43545101
 20
6.85934215
  0
VERTEX
  8
0
 10
3.44396200
 20
6.79976520
  0
VERTEX
  8
0
 10
3.51302233
 20
6.78692408
  0
VERTEX
  8
0
 10
3.55886041
 20
6.75295474
  0
VERTEX
  8
0
 10
3.57558541
 20
6.71307358
  0
VERTEX
  8
0
 10
3.57655812
 20
6.66342750
  0
VERTEX
  8
0
 10
3.54609392
 20
6.57422389
  0
VERTEX
  8
0
 10
3.52481644
 20
6.55294640
  0
VERTEX
  8
0
 10
3.63971484
 20
6.52315793
  0
VERTEX
  8
0
 10
3.68135594
 20
6.58572687
  0
VERTEX
  8
0
 10
3.71435776
 20
6.60414928
  0
VERTEX
  8
0
 10
3.76737974
 20
6.60401236
  0
VERTEX
  8
0
 10
3.85248967
 20
6.66784481
  0
VERTEX
  8
0
 10
3.88653364
 20
6.83806467
  0
VERTEX
  8
0
 10
3.93699947
 20
6.86986323
  0
VERTEX
  8
0
 10
4.00568755
 20
6.88487513
  0
VERTEX
  8
0
 10
4.03547602
 20
6.94019659
  0
VERTEX
  8
0
 10
4.07377549
 20
6.98275155
  0
VERTEX
  8
0
 10
4.09079748
 20
7.08913897
  0
VERTEX
  8
0
 10
4.12757295
 20
7.12754169
  0
VERTEX
  8
0
 10
4.19292939
 20
7.14020493
  0
VERTEX
  8
0
 10
4.25250635
 20
7.19552638
  0
VERTEX
  8
0
 10
4.24879885
 20
7.26278312
  0
VERTEX
  8
0
 10
4.25676184
 20
7.32319128
  0
VERTEX
  8
0
 10
4.31048940
 20
7.35485866
  0
VERTEX
  8
0
 10
4.38017124
 20
7.37000174
  0
VERTEX
  8
0
 10
4.40144873
 20
7.60830955
  0
VERTEX
  8
0
 10
4.39719323
 20
7.60405405
  0
SEQEND
  0
POLYLINE
  8
Default_Layer
 66
   1
 39
0.000000
 70
    1
  0
VERTEX
  8
0
 10
3.26523115
 20
7.55724359
  0
VERTEX
  8
0
 10
3.24146288
 20
7.53763234
  0
VERTEX
  8
0
 10
3.23021671
 20
7.50501838
  0
VERTEX
  8
0
 10
3.20565420
 20
7.43808968
  0
VERTEX
  8
0
 10
3.15959930
 20
7.44179159
  0
VERTEX
  8
0
 10
3.12054427
 20
7.43383419
  0
VERTEX
  8
0
 10
3.09397257
 20
7.39168365
  0
VERTEX
  8
0
 10
3.08224480
 20
7.34021326
  0
VERTEX
  8
0
 10
3.12479976
 20
7.27212532
  0
VERTEX
  8
0
 10
3.18178963
 20
7.24700988
  0
VERTEX
  8
0
 10
3.24631323
 20
7.25115604
  0
VERTEX
  8
0
 10
3.36310757
 20
7.29765830
  0
VERTEX
  8
0
 10
3.36736307
 20
7.34872426
  0
VERTEX
  8
0
 10
3.34545747
 20
7.36540644
  0
VERTEX
  8
0
 10
3.33757459
 20
7.39127922
  0
VERTEX
  8
0
 10
3.37380286
 20
7.40863181
  0
VERTEX
  8
0
 10
3.40140704
 20
7.43383419
  0
VERTEX
  8
0
 10
3.38864055
 20
7.53171061
  0
VERTEX
  8
0
 10
3.32668243
 20
7.55383174
  0
VERTEX
  8
0
 10
3.26523115
 20
7.55724359
  0
SEQEND
  0
POLYLINE
  8
Default_Layer
 66
   1
 39
0.000000
 70
    1
  0
VERTEX
  8
0
 10
4.58869057
 20
7.27212532
  0
VERTEX
  8
0
 10
4.57557290
 20
7.31991619
  0
VERTEX
  8
0
 10
4.54188011
 20
7.34872426
  0
VERTEX
  8
0
 10
4.48230316
 20
7.34021326
  0
VERTEX
  8
0
 10
4.44861952
 20
7.29907346
  0
VERTEX
  8
0
 10
4.40144873
 20
7.26786982
  0
VERTEX
  8
0
 10
4.35889376
 20
7.33595777
  0
VERTEX
  8
0
 10
4.29506131
 20
7.31893578
  0
VERTEX
  8
0
 10
4.27803933
 20
7.24233684
  0
VERTEX
  8
0
 10
4.28655032
 20
7.21680386
  0
VERTEX
  8
0
 10
4.36314926
 20
7.20829287
  0
VERTEX
  8
0
 10
4.37591575
 20
7.19127088
  0
VERTEX
  8
0
 10
4.38868224
 20
7.19127088
  0
VERTEX
  8
0
 10
4.39719323
 20
7.21254837
  0
VERTEX
  8
0
 10
4.44847228
 20
7.22889469
  0
VERTEX
  8
0
 10
4.50358064
 20
7.22105936
  0
VERTEX
  8
0
 10
4.49438505
 20
7.16066833
  0
VERTEX
  8
0
 10
4.46102568
 20
7.12318294
  0
VERTEX
  8
0
 10
4.43549270
 20
7.13169393
  0
VERTEX
  8
0
 10
4.42698170
 20
7.09339446
  0
VERTEX
  8
0
 10
4.49604820
 20
7.08383843
  0
VERTEX
  8
0
 10
4.52173674
 20
7.06859568
  0
VERTEX
  8
0
 10
4.53762461
 20
7.04232851
  0
VERTEX
  8
0
 10
4.57765370
 20
7.05860738
  0
VERTEX
  8
0
 10
4.60436750
 20
7.09229463
  0
VERTEX
  8
0
 10
4.61366797
 20
7.13610667
  0
VERTEX
  8
0
 10
4.60145706
 20
7.18275989
  0
VERTEX
  8
0
 10
4.56066877
 20
7.19017829
  0
VERTEX
  8
0
 10
4.53762461
 20
7.21680386
  0
VERTEX
  8
0
 10
4.56578589
 20
7.24247972
  0
VERTEX
  8
0
 10
4.58869057
 20
7.27212532
  0
SEQEND
  0
POLYLINE
  8
Default_Layer
 66
   1
 39
0.000000
 70
    1
  0
VERTEX
  8
0
 10
3.06522281
 20
7.26361433
  0
VERTEX
  8
0
 10
3.00366591
 20
7.23532224
  0
VERTEX
  8
0
 10
2.94957246
 20
7.19438974
  0
VERTEX
  8
0
 10
2.86095898
 20
7.09339446
  0
VERTEX
  8
0
 10
2.75031607
 20
6.92317460
  0
VERTEX
  8
0
 10
2.72052759
 20
6.86359765
  0
VERTEX
  8
0
 10
2.69499461
 20
6.83380918
  0
VERTEX
  8
0
 10
2.32476641
 20
6.31889409
  0
VERTEX
  8
0
 10
2.27370046
 20
6.25080615
  0
VERTEX
  8
0
 10
2.23540099
 20
6.17420721
  0
VERTEX
  8
0
 10
2.08259935
 20
5.96952107
  0
VERTEX
  8
0
 10
2.01312326
 20
5.85975762
  0
VERTEX
  8
0
 10
1.96730471
 20
5.73589107
  0
VERTEX
  8
0
 10
2.02688166
 20
5.60397068
  0
VERTEX
  8
0
 10
2.07940417
 20
5.55668839
  0
VERTEX
  8
0
 10
2.13326907
 20
5.51460525
  0
VERTEX
  8
0
 10
2.13326907
 20
5.49332777
  0
VERTEX
  8
0
 10
2.30409406
 20
5.40628545
  0
VERTEX
  8
0
 10
2.50511819
 20
5.35309144
  0
VERTEX
  8
0
 10
2.95457990
 20
5.29331943
  0
VERTEX
  8
0
 10
3.15663960
 20
5.28925617
  0
VERTEX
  8
0
 10
3.36310757
 20
5.29331943
  0
VERTEX
  8
0
 10
3.36628850
 20
5.37734027
  0
VERTEX
  8
0
 10
3.37587406
 20
5.45502830
  0
VERTEX
  8
0
 10
3.39660258
 20
5.47100891
  0
VERTEX
  8
0
 10
3.40566254
 20
5.49332777
  0
VERTEX
  8
0
 10
3.36426491
 20
5.53111498
  0
VERTEX
  8
0
 10
3.29927512
 20
5.55716021
  0
VERTEX
  8
0
 10
3.16309923
 20
5.59971518
  0
VERTEX
  8
0
 10
2.88649196
 20
5.67205862
  0
VERTEX
  8
0
 10
2.58000727
 20
5.74355469
  0
VERTEX
  8
0
 10
2.25667847
 20
5.77844603
  0
VERTEX
  8
0
 10
2.23907869
 20
5.77889169
  0
VERTEX
  8
0
 10
2.22688999
 20
5.78695703
  0
VERTEX
  8
0
 10
2.24776586
 20
5.80535024
  0
VERTEX
  8
0
 10
2.28646695
 20
5.80397901
  0
VERTEX
  8
0
 10
2.49073078
 20
5.79972352
  0
VERTEX
  8
0
 10
2.50899271
 20
5.79714378
  0
VERTEX
  8
0
 10
2.52477475
 20
5.80397901
  0
VERTEX
  8
0
 10
2.46094230
 20
5.82951199
  0
VERTEX
  8
0
 10
2.22263450
 20
5.86355596
  0
VERTEX
  8
0
 10
2.27370046
 20
5.88483345
  0
VERTEX
  8
0
 10
2.40003562
 20
5.87663513
  0
VERTEX
  8
0
 10
2.52051926
 20
5.85930047
  0
VERTEX
  8
0
 10
2.58009621
 20
6.03803132
  0
VERTEX
  8
0
 10
2.60137369
 20
6.09760827
  0
VERTEX
  8
0
 10
2.58435170
 20
6.12739675
  0
VERTEX
  8
0
 10
2.54871345
 20
6.19906449
  0
VERTEX
  8
0
 10
2.53267018
 20
6.27788211
  0
VERTEX
  8
0
 10
2.54692658
 20
6.44457316
  0
VERTEX
  8
0
 10
2.60223690
 20
6.60268227
  0
VERTEX
  8
0
 10
2.67371713
 20
6.72742176
  0
VERTEX
  8
0
 10
2.70776110
 20
6.77423222
  0
VERTEX
  8
0
 10
2.77584905
 20
6.81678719
  0
VERTEX
  8
0
 10
2.83542600
 20
6.86359765
  0
VERTEX
  8
0
 10
2.90594272
 20
6.92265091
  0
VERTEX
  8
0
 10
2.93174180
 20
6.96195075
  0
VERTEX
  8
0
 10
2.94181341
 20
7.01254003
  0
VERTEX
  8
0
 10
3.11628877
 20
7.21254837
  0
VERTEX
  8
0
 10
3.06522281
 20
7.26361433
  0
SEQEND
  0
POLYLINE
  8
Default_Layer
 66
   1
 39
0.000000
 70
    1
  0
VERTEX
  8
0
 10
3.39715154
 20
7.21680386
  0
VERTEX
  8
0
 10
3.37059614
 20
7.23293285
  0
VERTEX
  8
0
 10
3.33349251
 20
7.22984260
  0
VERTEX
  8
0
 10
3.25246466
 20
7.21680386
  0
VERTEX
  8
0
 10
3.27799764
 20
7.17850440
  0
VERTEX
  8
0
 10
3.25672016
 20
7.16573791
  0
VERTEX
  8
0
 10
3.20070947
 20
7.18340135
  0
VERTEX
  8
0
 10
3.14607725
 20
7.16999340
  0
VERTEX
  8
0
 10
3.12550594
 20
7.14625707
  0
VERTEX
  8
0
 10
3.11892244
 20
7.11451024
  0
VERTEX
  8
0
 10
3.12591635
 20
7.08178039
  0
VERTEX
  8
0
 10
3.14607725
 20
7.05509500
  0
VERTEX
  8
0
 10
3.17586572
 20
7.03807301
  0
VERTEX
  8
0
 10
3.17161023
 20
7.00402904
  0
VERTEX
  8
0
 10
3.12054427
 20
6.97849606
  0
VERTEX
  8
0
 10
3.09268858
 20
6.94306118
  0
VERTEX
  8
0
 10
3.08224480
 20
6.89764162
  0
VERTEX
  8
0
 10
3.10777778
 20
6.86785315
  0
VERTEX
  8
0
 10
3.15897070
 20
6.85249198
  0
VERTEX
  8
0
 10
3.21129789
 20
6.87244744
  0
VERTEX
  8
0
 10
3.29927512
 20
6.92743010
  0
VERTEX
  8
0
 10
3.38864055
 20
6.93168560
  0
VERTEX
  8
0
 10
3.41262006
 20
6.91042508
  0
VERTEX
  8
0
 10
3.44396200
 20
6.89338613
  0
VERTEX
  8
0
 10
3.48571805
 20
6.93138463
  0
VERTEX
  8
0
 10
3.51204995
 20
6.98275155
  0
VERTEX
  8
0
 10
3.50079033
 20
7.02584287
  0
VERTEX
  8
0
 10
3.48226147
 20
7.06786149
  0
VERTEX
  8
0
 10
3.36736307
 20
7.07637248
  0
VERTEX
  8
0
 10
3.37161856
 20
7.11467195
  0
VERTEX
  8
0
 10
3.40140704
 20
7.12318294
  0
VERTEX
  8
0
 10
3.40400848
 20
7.17576832
  0
VERTEX
  8
0
 10
3.39715154
 20
7.21680386
  0
SEQEND
  0
POLYLINE
  8
Default_Layer
 66
   1
 39
0.000000
 70
    1
  0
VERTEX
  8
0
 10
4.42272621
 20
7.18275989
  0
VERTEX
  8
0
 10
4.46528117
 20
7.17424890
  0
VERTEX
  8
0
 10
4.46102568
 20
7.19127088
  0
VERTEX
  8
0
 10
4.43123720
 20
7.19552638
  0
VERTEX
  8
0
 10
4.42272621
 20
7.18275989
  0
SEQEND
  0
POLYLINE
  8
Default_Layer
 66
   1
 39
0.000000
 70
    1
  0
VERTEX
  8
0
 10
7.72924702
 20
7.12743844
  0
VERTEX
  8
0
 10
7.64839258
 20
7.10616095
  0
VERTEX
  8
0
 10
7.55477166
 20
7.11041645
  0
VERTEX
  8
0
 10
7.46115074
 20
7.11467195
  0
VERTEX
  8
0
 10
7.33774134
 20
7.11892744
  0
VERTEX
  8
0
 10
7.30891700
 20
7.10581764
  0
VERTEX
  8
0
 10
7.27390889
 20
7.10190546
  0
VERTEX
  8
0
 10
7.28667538
 20
7.12743844
  0
VERTEX
  8
0
 10
7.30017147
 20
7.13580389
  0
VERTEX
  8
0
 10
7.29944187
 20
7.14446042
  0
VERTEX
  8
0
 10
7.27034624
 20
7.13728018
  0
VERTEX
  8
0
 10
7.24837591
 20
7.11467195
  0
VERTEX
  8
0
 10
7.07388156
 20
6.99537171
  0
VERTEX
  8
0
 10
6.88665870
 20
6.88913063
  0
VERTEX
  8
0
 10
6.91644718
 20
6.86785315
  0
VERTEX
  8
0
 10
6.91324598
 20
6.83160183
  0
VERTEX
  8
0
 10
6.89522443
 20
6.79340446
  0
VERTEX
  8
0
 10
6.86112572
 20
6.73167726
  0
VERTEX
  8
0
 10
6.87814771
 20
6.71891077
  0
VERTEX
  8
0
 10
6.90793619
 20
6.61677885
  0
VERTEX
  8
0
 10
6.98198342
 20
6.65098634
  0
VERTEX
  8
0
 10
7.03560108
 20
6.70614428
  0
VERTEX
  8
0
 10
7.01865734
 20
6.76787685
  0
VERTEX
  8
0
 10
7.02114082
 20
6.79829400
  0
VERTEX
  8
0
 10
7.04411208
 20
6.81253169
  0
VERTEX
  8
0
 10
7.05887919
 20
6.78389249
  0
VERTEX
  8
0
 10
7.06436957
 20
6.74666320
  0
VERTEX
  8
0
 10
7.07462544
 20
6.71470743
  0
VERTEX
  8
0
 10
7.10368903
 20
6.70188878
  0
VERTEX
  8
0
 10
7.11220002
 20
6.68486680
  0
VERTEX
  8
0
 10
7.20362660
 20
6.68526947
  0
VERTEX
  8
0
 10
7.27816439
 20
6.66358931
  0
VERTEX
  8
0
 10
7.33774134
 20
6.57847938
  0
VERTEX
  8
0
 10
7.35581656
 20
6.55833849
  0
VERTEX
  8
0
 10
7.38455180
 20
6.55294640
  0
VERTEX
  8
0
 10
7.42198495
 20
6.58467294
  0
VERTEX
  8
0
 10
7.43987325
 20
6.63380084
  0
VERTEX
  8
0
 10
7.40582928
 20
6.67635580
  0
VERTEX
  8
0
 10
7.37178531
 20
6.71891077
  0
VERTEX
  8
0
 10
7.34027426
 20
6.76606805
  0
VERTEX
  8
0
 10
7.32071935
 20
6.82955368
  0
VERTEX
  8
0
 10
7.32418045
 20
6.87926368
  0
VERTEX
  8
0
 10
7.34199683
 20
6.91891911
  0
VERTEX
  8
0
 10
7.37100357
 20
6.95274206
  0
VERTEX
  8
0
 10
7.40582928
 20
6.97424056
  0
VERTEX
  8
0
 10
7.48668372
 20
6.98275155
  0
VERTEX
  8
0
 10
7.64762428
 20
7.00123411
  0
VERTEX
  8
0
 10
7.79519817
 20
7.03426780
  0
VERTEX
  8
0
 10
7.91830748
 20
7.09154544
  0
VERTEX
  8
0
 10
8.00585429
 20
7.18275989
  0
VERTEX
  8
0
 10
7.86229326
 20
7.15912731
  0
VERTEX
  8
0
 10
7.72924702
 20
7.12743844
  0
SEQEND
  0
POLYLINE
  8
Default_Layer
 66
   1
 39
0.000000
 70
    1
  0
VERTEX
  8
0
 10
7.43136226
 20
7.16148241
  0
VERTEX
  8
0
 10
7.55477166
 20
7.15297142
  0
VERTEX
  8
0
 10
7.43561776
 20
7.17424890
  0
VERTEX
  8
0
 10
7.43136226
 20
7.16148241
  0
SEQEND
  0
POLYLINE
  8
Default_Layer
 66
   1
 39
0.000000
 70
    1
  0
VERTEX
  8
0
 10
4.38017124
 20
7.07637248
  0
VERTEX
  8
0
 10
4.37499060
 20
7.13795788
  0
VERTEX
  8
0
 10
4.33556672
 20
7.16418981
  0
VERTEX
  8
0
 10
4.28333726
 20
7.16247118
  0
VERTEX
  8
0
 10
4.23973986
 20
7.14020493
  0
VERTEX
  8
0
 10
4.23122886
 20
7.05509500
  0
VERTEX
  8
0
 10
4.19110443
 20
7.07438676
  0
VERTEX
  8
0
 10
4.15462993
 20
7.09339446
  0
VERTEX
  8
0
 10
4.12484145
 20
7.07637248
  0
VERTEX
  8
0
 10
4.10992210
 20
7.04250112
  0
VERTEX
  8
0
 10
4.11633046
 20
7.00402904
  0
VERTEX
  8
0
 10
4.23973986
 20
6.97849606
  0
VERTEX
  8
0
 10
4.25916937
 20
7.01410531
  0
VERTEX
  8
0
 10
4.29893929
 20
7.02987288
  0
VERTEX
  8
0
 10
4.33996185
 20
7.02314366
  0
VERTEX
  8
0
 10
4.36314926
 20
6.99126255
  0
VERTEX
  8
0
 10
4.36052122
 20
6.96098584
  0
VERTEX
  8
0
 10
4.34604556
 20
6.93709290
  0
VERTEX
  8
0
 10
4.30357230
 20
6.90189712
  0
VERTEX
  8
0
 10
4.25676184
 20
6.92317460
  0
VERTEX
  8
0
 10
4.23973986
 20
6.85508666
  0
VERTEX
  8
0
 10
4.31633879
 20
6.83380918
  0
VERTEX
  8
0
 10
4.34612727
 20
6.79550971
  0
VERTEX
  8
0
 10
4.38868224
 20
6.79976520
  0
VERTEX
  8
0
 10
4.39961030
 20
6.85776874
  0
VERTEX
  8
0
 10
4.39719323
 20
6.92317460
  0
VERTEX
  8
0
 10
4.44115256
 20
6.91973776
  0
VERTEX
  8
0
 10
4.48655866
 20
6.91466361
  0
VERTEX
  8
0
 10
4.51209164
 20
7.00402904
  0
VERTEX
  8
0
 10
4.49081415
 20
7.00828453
  0
VERTEX
  8
0
 10
4.48655866
 20
7.05083950
  0
VERTEX
  8
0
 10
4.42710304
 20
7.04377144
  0
VERTEX
  8
0
 10
4.37166025
 20
7.04658400
  0
VERTEX
  8
0
 10
4.36740475
 20
7.06786149
  0
VERTEX
  8
0
 10
4.38017124
 20
7.07637248
  0
SEQEND
  0
POLYLINE
  8
Default_Layer
 66
   1
 39
0.000000
 70
    1
  0
VERTEX
  8
0
 10
2.91202494
 20
6.88913063
  0
VERTEX
  8
0
 10
2.90351394
 20
6.86785315
  0
VERTEX
  8
0
 10
2.88649196
 20
6.86785315
  0
VERTEX
  8
0
 10
2.88649196
 20
6.85083116
  0
VERTEX
  8
0
 10
2.79287103
 20
6.78699871
  0
VERTEX
  8
0
 10
2.75731663
 20
6.73446987
  0
VERTEX
  8
0
 10
2.73754958
 20
6.67210031
  0
VERTEX
  8
0
 10
2.74606057
 20
6.59975687
  0
VERTEX
  8
0
 10
2.76308256
 20
6.52741342
  0
VERTEX
  8
0
 10
2.80458546
 20
6.43790149
  0
VERTEX
  8
0
 10
2.86969812
 20
6.37253888
  0
VERTEX
  8
0
 10
2.95597418
 20
6.33141984
  0
VERTEX
  8
0
 10
3.06096732
 20
6.31463860
  0
VERTEX
  8
0
 10
3.08650029
 20
6.38272654
  0
VERTEX
  8
0
 10
3.10049864
 20
6.39080996
  0
VERTEX
  8
0
 10
3.10352228
 20
6.40825952
  0
VERTEX
  8
0
 10
3.12054427
 20
6.41677051
  0
VERTEX
  8
0
 10
3.11576322
 20
6.43659506
  0
VERTEX
  8
0
 10
3.09501129
 20
6.45081449
  0
VERTEX
  8
0
 10
3.08281184
 20
6.49689354
  0
VERTEX
  8
0
 10
3.08650029
 20
6.55294640
  0
VERTEX
  8
0
 10
3.04875893
 20
6.58713320
  0
VERTEX
  8
0
 10
3.02692334
 20
6.63380084
  0
VERTEX
  8
0
 10
3.03746405
 20
6.68977403
  0
VERTEX
  8
0
 10
3.07165627
 20
6.73703700
  0
VERTEX
  8
0
 10
3.16309923
 20
6.79550971
  0
VERTEX
  8
0
 10
3.19714320
 20
6.80402070
  0
VERTEX
  8
0
 10
3.19714320
 20
6.82104269
  0
VERTEX
  8
0
 10
3.10352228
 20
6.81678719
  0
VERTEX
  8
0
 10
3.07855794
 20
6.83153770
  0
VERTEX
  8
0
 10
3.05671182
 20
6.85083116
  0
VERTEX
  8
0
 10
3.06096732
 20
6.86785315
  0
VERTEX
  8
0
 10
3.04820083
 20
6.87210864
  0
VERTEX
  8
0
 10
3.07526844
 20
6.95936143
  0
VERTEX
  8
0
 10
3.10777778
 20
7.04232851
  0
VERTEX
  8
0
 10
3.09535800
 20
7.05167517
  0
VERTEX
  8
0
 10
3.09075579
 20
7.06786149
  0
VERTEX
  8
0
 10
3.07798930
 20
7.07637248
  0
VERTEX
  8
0
 10
3.07373381
 20
7.11467195
  0
VERTEX
  8
0
 10
3.00551820
 20
6.98746526
  0
VERTEX
  8
0
 10
2.96624431
 20
6.93036712
  0
VERTEX
  8
0
 10
2.91202494
 20
6.88913063
  0
SEQEND
  0
POLYLINE
  8
Default_Layer
 66
   1
 39
0.000000
 70
    1
  0
VERTEX
  8
0
 10
6.78452679
 20
6.94019659
  0
VERTEX
  8
0
 10
6.87389221
 20
6.92317460
  0
VERTEX
  8
0
 10
6.89516970
 20
6.94019659
  0
VERTEX
  8
0
 10
6.91937906
 20
6.98226813
  0
VERTEX
  8
0
 10
6.92921367
 20
7.03381751
  0
VERTEX
  8
0
 10
6.91470572
 20
7.04886628
  0
VERTEX
  8
0
 10
6.90793619
 20
7.06786149
  0
VERTEX
  8
0
 10
6.84636655
 20
7.06616588
  0
VERTEX
  8
0
 10
6.80745583
 20
7.04006772
  0
VERTEX
  8
0
 10
6.78793294
 20
6.99595022
  0
VERTEX
  8
0
 10
6.78452679
 20
6.94019659
  0
SEQEND
  0
POLYLINE
  8
Default_Layer
 66
   1
 39
0.000000
 70
    1
  0
VERTEX
  8
0
 10
4.63975653
 20
7.05935049
  0
VERTEX
  8
0
 10
4.61422355
 20
7.02956202
  0
VERTEX
  8
0
 10
4.58017958
 20
7.00402904
  0
VERTEX
  8
0
 10
4.53791484
 20
6.95078395
  0
VERTEX
  8
0
 10
4.50358064
 20
6.88487513
  0
VERTEX
  8
0
 10
4.44707121
 20
6.72876591
  0
VERTEX
  8
0
 10
4.41421521
 20
6.55720190
  0
VERTEX
  8
0
 10
4.58445481
 20
6.63792340
  0
VERTEX
  8
0
 10
4.67927285
 20
6.67410929
  0
VERTEX
  8
0
 10
4.77593242
 20
6.69337779
  0
VERTEX
  8
0
 10
4.82666767
 20
6.69150968
  0
VERTEX
  8
0
 10
4.86104235
 20
6.67635580
  0
VERTEX
  8
0
 10
4.84674197
 20
6.65867698
  0
VERTEX
  8
0
 10
4.82274288
 20
6.65507832
  0
VERTEX
  8
0
 10
4.66609114
 20
6.62338663
  0
VERTEX
  8
0
 10
4.52485812
 20
6.57847938
  0
VERTEX
  8
0
 10
4.50248980
 20
6.57051916
  0
VERTEX
  8
0
 10
4.48655866
 20
6.55294640
  0
VERTEX
  8
0
 10
4.71148723
 20
6.50351674
  0
VERTEX
  8
0
 10
4.91636381
 20
6.43379250
  0
VERTEX
  8
0
 10
4.93179714
 20
6.52554077
  0
VERTEX
  8
0
 10
4.95962598
 20
6.60424413
  0
VERTEX
  8
0
 10
4.99880383
 20
6.67112898
  0
VERTEX
  8
0
 10
5.04828420
 20
6.72742176
  0
VERTEX
  8
0
 10
5.12913863
 20
6.79125421
  0
VERTEX
  8
0
 10
5.04464002
 20
6.89670516
  0
VERTEX
  8
0
 10
4.93772486
 20
6.98154751
  0
VERTEX
  8
0
 10
4.80417105
 20
7.03826729
  0
VERTEX
  8
0
 10
4.63975653
 20
7.05935049
  0
SEQEND
  0
POLYLINE
  8
Default_Layer
 66
   1
 39
0.000000
 70
    1
  0
VERTEX
  8
0
 10
4.31208330
 20
6.97849606
  0
VERTEX
  8
0
 10
4.26952833
 20
6.97849606
  0
VERTEX
  8
0
 10
4.26952833
 20
6.95296308
  0
VERTEX
  8
0
 10
4.29931681
 20
6.94019659
  0
VERTEX
  8
0
 10
4.31743772
 20
6.96355698
  0
VERTEX
  8
0
 10
4.32484979
 20
6.99977354
  0
VERTEX
  8
0
 10
4.31208330
 20
6.99977354
  0
VERTEX
  8
0
 10
4.31208330
 20
6.97849606
  0
SEQEND
  0
POLYLINE
  8
Default_Layer
 66
   1
 39
0.000000
 70
    1
  0
VERTEX
  8
0
 10
7.65690358
 20
6.96572957
  0
VERTEX
  8
0
 10
7.63137060
 20
6.96147407
  0
VERTEX
  8
0
 10
7.63578791
 20
6.94291197
  0
VERTEX
  8
0
 10
7.65264808
 20
6.92743010
  0
VERTEX
  8
0
 10
7.72892892
 20
6.87920346
  0
VERTEX
  8
0
 10
7.77517107
 20
6.86550207
  0
VERTEX
  8
0
 10
7.82712344
 20
6.86785315
  0
VERTEX
  8
0
 10
7.82712344
 20
6.89338613
  0
VERTEX
  8
0
 10
7.77605748
 20
6.93594109
  0
VERTEX
  8
0
 10
7.74626900
 20
6.97424056
  0
VERTEX
  8
0
 10
7.65690358
 20
6.96572957
  0
SEQEND
  0
POLYLINE
  8
Default_Layer
 66
   1
 39
0.000000
 70
    1
  0
VERTEX
  8
0
 10
4.09079748
 20
6.95296308
  0
VERTEX
  8
0
 10
4.08226404
 20
6.93339912
  0
VERTEX
  8
0
 10
4.06526450
 20
6.91891911
  0
VERTEX
  8
0
 10
4.04951124
 20
6.87453114
  0
VERTEX
  8
0
 10
4.04824251
 20
6.81678719
  0
VERTEX
  8
0
 10
4.01975928
 20
6.80992283
  0
VERTEX
  8
0
 10
3.99642908
 20
6.82088896
  0
VERTEX
  8
0
 10
3.94611060
 20
6.84657567
  0
VERTEX
  8
0
 10
3.90492941
 20
6.77759651
  0
VERTEX
  8
0
 10
3.89733215
 20
6.73590277
  0
VERTEX
  8
0
 10
3.90781113
 20
6.68912229
  0
VERTEX
  8
0
 10
3.95438133
 20
6.66451228
  0
VERTEX
  8
0
 10
3.99401562
 20
6.62898277
  0
VERTEX
  8
0
 10
4.01395290
 20
6.57990418
  0
VERTEX
  8
0
 10
4.00143205
 20
6.51464694
  0
VERTEX
  8
0
 10
4.09384271
 20
6.49551167
  0
VERTEX
  8
0
 10
4.13801717
 20
6.49514413
  0
VERTEX
  8
0
 10
4.17590741
 20
6.51039144
  0
VERTEX
  8
0
 10
4.20853430
 20
6.55584413
  0
VERTEX
  8
0
 10
4.23122886
 20
6.61252336
  0
VERTEX
  8
0
 10
4.21846237
 20
6.65082282
  0
VERTEX
  8
0
 10
4.19292939
 20
6.66358931
  0
VERTEX
  8
0
 10
4.19718489
 20
6.68912229
  0
VERTEX
  8
0
 10
4.28229482
 20
6.70614428
  0
VERTEX
  8
0
 10
4.29837794
 20
6.74687704
  0
VERTEX
  8
0
 10
4.29931681
 20
6.79550971
  0
VERTEX
  8
0
 10
4.16739642
 20
6.82104269
  0
VERTEX
  8
0
 10
4.17165191
 20
6.84657567
  0
VERTEX
  8
0
 10
4.18867390
 20
6.85508666
  0
VERTEX
  8
0
 10
4.20569588
 20
6.87210864
  0
VERTEX
  8
0
 10
4.20450238
 20
6.91991441
  0
VERTEX
  8
0
 10
4.18117465
 20
6.94614412
  0
VERTEX
  8
0
 10
4.09079748
 20
6.95296308
  0
SEQEND
  0
POLYLINE
  8
Default_Layer
 66
   1
 39
0.000000
 70
    1
  0
VERTEX
  8
0
 10
7.54626067
 20
6.95296308
  0
VERTEX
  8
0
 10
7.50021396
 20
6.89172563
  0
VERTEX
  8
0
 10
7.47818935
 20
6.85921125
  0
VERTEX
  8
0
 10
7.46540623
 20
6.81678719
  0
VERTEX
  8
0
 10
7.51543422
 20
6.81986115
  0
VERTEX
  8
0
 10
7.55051616
 20
6.85083116
  0
VERTEX
  8
0
 10
7.57293316
 20
6.89173547
  0
VERTEX
  8
0
 10
7.57604914
 20
6.94019659
  0
VERTEX
  8
0
 10
7.54626067
 20
6.95296308
  0
SEQEND
  0
POLYLINE
  8
Default_Layer
 66
   1
 39
0.000000
 70
    1
  0
VERTEX
  8
0
 10
7.40582928
 20
6.89338613
  0
VERTEX
  8
0
 10
7.43331190
 20
6.88376706
  0
VERTEX
  8
0
 10
7.45600573
 20
6.89504034
  0
VERTEX
  8
0
 10
7.48242822
 20
6.94445209
  0
VERTEX
  8
0
 10
7.43134710
 20
6.93166852
  0
VERTEX
  8
0
 10
7.40582928
 20
6.89338613
  0
SEQEND
  0
POLYLINE
  8
Default_Layer
 66
   1
 39
0.000000
 70
    1
  0
VERTEX
  8
0
 10
7.56328265
 20
6.77848772
  0
VERTEX
  8
0
 10
7.58030464
 20
6.72316627
  0
VERTEX
  8
0
 10
7.60158212
 20
6.72316627
  0
VERTEX
  8
0
 10
7.63439067
 20
6.79481143
  0
VERTEX
  8
0
 10
7.66115907
 20
6.87210864
  0
VERTEX
  8
0
 10
7.61860411
 20
6.90189712
  0
VERTEX
  8
0
 10
7.56328265
 20
6.77848772
  0
SEQEND
  0
POLYLINE
  8
Default_Layer
 66
   1
 39
0.000000
 70
    1
  0
VERTEX
  8
0
 10
3.40566254
 20
6.81678719
  0
VERTEX
  8
0
 10
3.38689388
 20
6.86485925
  0
VERTEX
  8
0
 10
3.35459658
 20
6.89338613
  0
VERTEX
  8
0
 10
3.27799764
 20
6.87210864
  0
VERTEX
  8
0
 10
3.24652989
 20
6.82277765
  0
VERTEX
  8
0
 10
3.23118718
 20
6.75721024
  0
VERTEX
  8
0
 10
3.16083504
 20
6.75106110
  0
VERTEX
  8
0
 10
3.11080684
 20
6.72471442
  0
VERTEX
  8
0
 10
3.07947771
 20
6.67950780
  0
VERTEX
  8
0
 10
3.06522281
 20
6.61677885
  0
VERTEX
  8
0
 10
3.11099078
 20
6.59507375
  0
VERTEX
  8
0
 10
3.16309923
 20
6.57847938
  0
VERTEX
  8
0
 10
3.15730841
 20
6.54837596
  0
VERTEX
  8
0
 10
3.14193319
 20
6.52839644
  0
VERTEX
  8
0
 10
3.12756612
 20
6.50792542
  0
VERTEX
  8
0
 10
3.12479976
 20
6.47634747
  0
VERTEX
  8
0
 10
3.16309923
 20
6.45932548
  0
VERTEX
  8
0
 10
3.18804107
 20
6.46608422
  0
VERTEX
  8
0
 10
3.20990969
 20
6.44655899
  0
VERTEX
  8
0
 10
3.25412656
 20
6.50824197
  0
VERTEX
  8
0
 10
3.31712821
 20
6.55764766
  0
VERTEX
  8
0
 10
3.39567241
 20
6.58236137
  0
VERTEX
  8
0
 10
3.48651697
 20
6.56996839
  0
VERTEX
  8
0
 10
3.53538959
 20
6.62190960
  0
VERTEX
  8
0
 10
3.54975675
 20
6.65524120
  0
VERTEX
  8
0
 10
3.54609392
 20
6.69337779
  0
VERTEX
  8
0
 10
3.52530888
 20
6.72260978
  0
VERTEX
  8
0
 10
3.49084343
 20
6.73957174
  0
VERTEX
  8
0
 10
3.40566254
 20
6.75721024
  0
VERTEX
  8
0
 10
3.40566254
 20
6.81678719
  0
SEQEND
  0
POLYLINE
  8
Default_Layer
 66
   1
 39
0.000000
 70
    1
  0
VERTEX
  8
0
 10
6.76750480
 20
6.75295474
  0
VERTEX
  8
0
 10
6.83133725
 20
6.76997673
  0
VERTEX
  8
0
 10
6.86963672
 20
6.80827620
  0
VERTEX
  8
0
 10
6.87116820
 20
6.84462174
  0
VERTEX
  8
0
 10
6.85229392
 20
6.86909309
  0
VERTEX
  8
0
 10
6.78027129
 20
6.88913063
  0
VERTEX
  8
0
 10
6.75202570
 20
6.84513986
  0
VERTEX
  8
0
 10
6.73771632
 20
6.78699871
  0
VERTEX
  8
0
 10
6.76750480
 20
6.75295474
  0
SEQEND
  0
POLYLINE
  8
Default_Layer
 66
   1
 39
0.000000
 70
    1
  0
VERTEX
  8
0
 10
6.69516136
 20
6.57422389
  0
VERTEX
  8
0
 10
6.68106051
 20
6.63318544
  0
VERTEX
  8
0
 10
6.69941686
 20
6.68912229
  0
VERTEX
  8
0
 10
6.72494984
 20
6.74018825
  0
VERTEX
  8
0
 10
6.71203419
 20
6.78641023
  0
VERTEX
  8
0
 10
6.70367235
 20
6.83806467
  0
VERTEX
  8
0
 10
6.69941686
 20
6.84232017
  0
VERTEX
  8
0
 10
6.69516136
 20
6.83806467
  0
VERTEX
  8
0
 10
6.53786001
 20
6.81727964
  0
VERTEX
  8
0
 10
6.39320893
 20
6.77753534
  0
VERTEX
  8
0
 10
6.12918032
 20
6.66784481
  0
VERTEX
  8
0
 10
5.76320762
 20
6.48485846
  0
VERTEX
  8
0
 10
5.64405371
 20
6.42102601
  0
VERTEX
  8
0
 10
5.59347389
 20
6.38707002
  0
VERTEX
  8
0
 10
5.53341080
 20
6.36996005
  0
VERTEX
  8
0
 10
5.54059275
 20
6.39281622
  0
VERTEX
  8
0
 10
5.55894378
 20
6.40825952
  0
VERTEX
  8
0
 10
5.63554272
 20
6.45506998
  0
VERTEX
  8
0
 10
5.67384219
 20
6.48060296
  0
VERTEX
  8
0
 10
5.65256471
 20
6.50188045
  0
VERTEX
  8
0
 10
5.62277623
 20
6.51890243
  0
VERTEX
  8
0
 10
5.53595809
 20
6.57130371
  0
VERTEX
  8
0
 10
5.43553438
 20
6.60401236
  0
VERTEX
  8
0
 10
5.37521155
 20
6.59571883
  0
VERTEX
  8
0
 10
5.32914697
 20
6.56996839
  0
VERTEX
  8
0
 10
5.27585975
 20
6.50519872
  0
VERTEX
  8
0
 10
5.23552605
 20
6.42953700
  0
VERTEX
  8
0
 10
5.22275956
 20
6.31463860
  0
VERTEX
  8
0
 10
5.29376603
 20
6.21701118
  0
VERTEX
  8
0
 10
5.34254246
 20
6.18163478
  0
VERTEX
  8
0
 10
5.40574591
 20
6.16144072
  0
VERTEX
  8
0
 10
5.38861514
 20
6.20474067
  0
VERTEX
  8
0
 10
5.37595743
 20
6.25080615
  0
VERTEX
  8
0
 10
5.40982805
 20
6.24123304
  0
VERTEX
  8
0
 10
5.42702339
 20
6.21250668
  0
VERTEX
  8
0
 10
5.48156582
 20
6.13338732
  0
VERTEX
  8
0
 10
5.51942044
 20
6.10289133
  0
VERTEX
  8
0
 10
5.56745478
 20
6.08484178
  0
VERTEX
  8
0
 10
5.63091206
 20
6.08493656
  0
VERTEX
  8
0
 10
5.68493563
 20
6.10156828
  0
VERTEX
  8
0
 10
5.78022960
 20
6.14867423
  0
VERTEX
  8
0
 10
5.83980656
 20
6.16569622
  0
VERTEX
  8
0
 10
5.99435587
 20
6.23951940
  0
VERTEX
  8
0
 10
6.14194681
 20
6.31889409
  0
VERTEX
  8
0
 10
6.19726826
 20
6.34017158
  0
VERTEX
  8
0
 10
6.21854575
 20
6.36144906
  0
VERTEX
  8
0
 10
6.24833422
 20
6.37847105
  0
VERTEX
  8
0
 10
6.47397799
 20
6.47236517
  0
VERTEX
  8
0
 10
6.71218335
 20
6.55294640
  0
VERTEX
  8
0
 10
6.70571212
 20
6.56767345
  0
VERTEX
  8
0
 10
6.69516136
 20
6.57422389
  0
SEQEND
  0
POLYLINE
  8
Default_Layer
 66
   1
 39
0.000000
 70
    1
  0
VERTEX
  8
0
 10
4.36740475
 20
6.75295474
  0
VERTEX
  8
0
 10
4.37166025
 20
6.52741342
  0
VERTEX
  8
0
 10
4.41421521
 20
6.77848772
  0
VERTEX
  8
0
 10
4.36740475
 20
6.75295474
  0
SEQEND
  0
POLYLINE
  8
Default_Layer
 66
   1
 39
0.000000
 70
    1
  0
VERTEX
  8
0
 10
5.16743810
 20
6.74018825
  0
VERTEX
  8
0
 10
5.10278017
 20
6.72110052
  0
VERTEX
  8
0
 10
5.05005523
 20
6.67697120
  0
VERTEX
  8
0
 10
4.98019625
 20
6.55294640
  0
VERTEX
  8
0
 10
4.95891877
 20
6.45081449
  0
VERTEX
  8
0
 10
4.98445175
 20
6.41677051
  0
VERTEX
  8
0
 10
5.07342285
 20
6.34451250
  0
VERTEX
  8
0
 10
5.17594910
 20
6.28910562
  0
VERTEX
  8
0
 10
5.19055404
 20
6.40588393
  0
VERTEX
  8
0
 10
5.22805201
 20
6.49951460
  0
VERTEX
  8
0
 10
5.28418124
 20
6.57411459
  0
VERTEX
  8
0
 10
5.35467995
 20
6.63380084
  0
VERTEX
  8
0
 10
5.27600811
 20
6.70855683
  0
VERTEX
  8
0
 10
5.22677415
 20
6.73314583
  0
VERTEX
  8
0
 10
5.16743810
 20
6.74018825
  0
SEQEND
  0
POLYLINE
  8
Default_Layer
 66
   1
 39
0.000000
 70
    1
  0
VERTEX
  8
0
 10
2.69073912
 20
6.70614428
  0
VERTEX
  8
0
 10
2.63568017
 20
6.58632466
  0
VERTEX
  8
0
 10
2.59286270
 20
6.44655899
  0
VERTEX
  8
0
 10
2.57158521
 20
6.34868257
  0
VERTEX
  8
0
 10
2.58435170
 20
6.27633913
  0
VERTEX
  8
0
 10
2.60858628
 20
6.17000549
  0
VERTEX
  8
0
 10
2.63264691
 20
6.13044766
  0
VERTEX
  8
0
 10
2.66946163
 20
6.10186377
  0
VERTEX
  8
0
 10
2.66946163
 20
6.08484178
  0
VERTEX
  8
0
 10
2.69073912
 20
6.08484178
  0
VERTEX
  8
0
 10
2.69073912
 20
6.06781980
  0
VERTEX
  8
0
 10
2.82852162
 20
6.01116488
  0
VERTEX
  8
0
 10
2.99713487
 20
5.98270987
  0
VERTEX
  8
0
 10
3.12905526
 20
5.98696536
  0
VERTEX
  8
0
 10
3.16735473
 20
5.99122086
  0
VERTEX
  8
0
 10
3.16016374
 20
6.00591211
  0
VERTEX
  8
0
 10
3.15884374
 20
6.02100934
  0
VERTEX
  8
0
 10
3.14182175
 20
6.02526483
  0
VERTEX
  8
0
 10
3.14521370
 20
6.11324558
  0
VERTEX
  8
0
 10
3.15884374
 20
6.19122920
  0
VERTEX
  8
0
 10
3.10114112
 20
6.21604247
  0
VERTEX
  8
0
 10
3.06947831
 20
6.26782814
  0
VERTEX
  8
0
 10
2.90524298
 20
6.30451935
  0
VERTEX
  8
0
 10
2.84102527
 20
6.34061729
  0
VERTEX
  8
0
 10
2.78903502
 20
6.38880057
  0
VERTEX
  8
0
 10
2.74949286
 20
6.44925706
  0
VERTEX
  8
0
 10
2.72261941
 20
6.52217461
  0
VERTEX
  8
0
 10
2.70776110
 20
6.70614428
  0
VERTEX
  8
0
 10
2.69073912
 20
6.70614428
  0
SEQEND
  0
POLYLINE
  8
Default_Layer
 66
   1
 39
0.000000
 70
    1
  0
VERTEX
  8
0
 10
6.81857076
 20
6.58699038
  0
VERTEX
  8
0
 10
6.86112572
 20
6.61252336
  0
VERTEX
  8
0
 10
6.86002850
 20
6.66987367
  0
VERTEX
  8
0
 10
6.82708175
 20
6.70614428
  0
VERTEX
  8
0
 10
6.78561474
 20
6.70764674
  0
VERTEX
  8
0
 10
6.75261056
 20
6.68740339
  0
VERTEX
  8
0
 10
6.71643884
 20
6.61677885
  0
VERTEX
  8
0
 10
6.75512290
 20
6.57922601
  0
VERTEX
  8
0
 10
6.81857076
 20
6.58699038
  0
SEQEND
  0
POLYLINE
  8
Default_Layer
 66
   1
 39
0.000000
 70
    1
  0
VERTEX
  8
0
 10
4.32484979
 20
6.70614428
  0
VERTEX
  8
0
 10
4.27664577
 20
6.65381720
  0
VERTEX
  8
0
 10
4.25253954
 20
6.57958278
  0
VERTEX
  8
0
 10
4.22522509
 20
6.50905216
  0
VERTEX
  8
0
 10
4.20183166
 20
6.48317925
  0
VERTEX
  8
0
 10
4.16739642
 20
6.46783647
  0
VERTEX
  8
0
 10
4.16314092
 20
6.45081449
  0
VERTEX
  8
0
 10
4.10356397
 20
6.44655899
  0
VERTEX
  8
0
 10
4.09000675
 20
6.36926997
  0
VERTEX
  8
0
 10
4.05249801
 20
6.31463860
  0
VERTEX
  8
0
 10
3.94185510
 20
6.28059463
  0
VERTEX
  8
0
 10
3.92592406
 20
6.24596015
  0
VERTEX
  8
0
 10
3.89930013
 20
6.22101767
  0
VERTEX
  8
0
 10
3.89504464
 20
6.19974019
  0
VERTEX
  8
0
 10
3.86525616
 20
6.19122920
  0
VERTEX
  8
0
 10
3.85171517
 20
6.17503485
  0
VERTEX
  8
0
 10
3.83546769
 20
6.16144072
  0
VERTEX
  8
0
 10
4.02184604
 20
6.16502858
  0
VERTEX
  8
0
 10
4.10166521
 20
6.18449335
  0
VERTEX
  8
0
 10
4.15888542
 20
6.22527317
  0
VERTEX
  8
0
 10
4.17590741
 20
6.22527317
  0
VERTEX
  8
0
 10
4.19931445
 20
6.25209732
  0
VERTEX
  8
0
 10
4.21420688
 20
6.28910562
  0
VERTEX
  8
0
 10
4.22697337
 20
6.28910562
  0
VERTEX
  8
0
 10
4.24399535
 20
6.35719356
  0
VERTEX
  8
0
 10
4.25449297
 20
6.35872182
  0
VERTEX
  8
0
 10
4.26101734
 20
6.36570456
  0
VERTEX
  8
0
 10
4.31208330
 20
6.45506998
  0
VERTEX
  8
0
 10
4.31633879
 20
6.45932548
  0
VERTEX
  8
0
 10
4.33336078
 20
6.70614428
  0
VERTEX
  8
0
 10
4.32484979
 20
6.70614428
  0
SEQEND
  0
POLYLINE
  8
Default_Layer
 66
   1
 39
0.000000
 70
    1
  0
VERTEX
  8
0
 10
3.89504464
 20
6.63805633
  0
VERTEX
  8
0
 10
3.85102245
 20
6.62991722
  0
VERTEX
  8
0
 10
3.82186568
 20
6.59965537
  0
VERTEX
  8
0
 10
3.78014623
 20
6.52315793
  0
VERTEX
  8
0
 10
3.75035775
 20
6.52315793
  0
VERTEX
  8
0
 10
3.74184676
 20
6.56571289
  0
VERTEX
  8
0
 10
3.70354729
 20
6.56145740
  0
VERTEX
  8
0
 10
3.68380019
 20
6.50225277
  0
VERTEX
  8
0
 10
3.67919952
 20
6.42797806
  0
VERTEX
  8
0
 10
3.67400625
 20
6.35448282
  0
VERTEX
  8
0
 10
3.65248133
 20
6.29761661
  0
VERTEX
  8
0
 10
3.68534999
 20
6.25993717
  0
VERTEX
  8
0
 10
3.70780279
 20
6.21250668
  0
VERTEX
  8
0
 10
3.78126678
 20
6.20315497
  0
VERTEX
  8
0
 10
3.84449631
 20
6.21843437
  0
VERTEX
  8
0
 10
3.88406179
 20
6.26053840
  0
VERTEX
  8
0
 10
3.88653364
 20
6.33166058
  0
VERTEX
  8
0
 10
3.90781113
 20
6.34442707
  0
VERTEX
  8
0
 10
3.97719030
 20
6.32835566
  0
VERTEX
  8
0
 10
4.04824251
 20
6.34442707
  0
VERTEX
  8
0
 10
4.05249801
 20
6.43379250
  0
VERTEX
  8
0
 10
4.01274571
 20
6.46526754
  0
VERTEX
  8
0
 10
3.95036609
 20
6.47634747
  0
VERTEX
  8
0
 10
3.96316577
 20
6.55345589
  0
VERTEX
  8
0
 10
3.95036609
 20
6.62528985
  0
VERTEX
  8
0
 10
3.89504464
 20
6.63805633
  0
SEQEND
  0
POLYLINE
  8
Default_Layer
 66
   1
 39
0.000000
 70
    1
  0
VERTEX
  8
0
 10
6.95900214
 20
6.59550137
  0
VERTEX
  8
0
 10
6.93479098
 20
6.58813590
  0
VERTEX
  8
0
 10
6.92070268
 20
6.56996839
  0
VERTEX
  8
0
 10
6.93346917
 20
6.56571289
  0
VERTEX
  8
0
 10
6.94623566
 20
6.51039144
  0
VERTEX
  8
0
 10
7.01006810
 20
6.52315793
  0
VERTEX
  8
0
 10
7.01585733
 20
6.56817757
  0
VERTEX
  8
0
 10
7.00581261
 20
6.60401236
  0
VERTEX
  8
0
 10
6.95900214
 20
6.59550137
  0
SEQEND
  0
POLYLINE
  8
Default_Layer
 66
   1
 39
0.000000
 70
    1
  0
VERTEX
  8
0
 10
6.85261473
 20
6.54443541
  0
VERTEX
  8
0
 10
6.78878228
 20
6.52315793
  0
VERTEX
  8
0
 10
6.78355643
 20
6.48719382
  0
VERTEX
  8
0
 10
6.78452679
 20
6.45081449
  0
VERTEX
  8
0
 10
6.79754206
 20
6.45078480
  0
VERTEX
  8
0
 10
6.79729328
 20
6.43804800
  0
VERTEX
  8
0
 10
6.86666979
 20
6.44288118
  0
VERTEX
  8
0
 10
6.89015094
 20
6.45819268
  0
VERTEX
  8
0
 10
6.90368069
 20
6.48485846
  0
VERTEX
  8
0
 10
6.88665870
 20
6.54869091
  0
VERTEX
  8
0
 10
6.85261473
 20
6.55720190
  0
VERTEX
  8
0
 10
6.85261473
 20
6.54443541
  0
SEQEND
  0
POLYLINE
  8
Default_Layer
 66
   1
 39
0.000000
 70
    1
  0
VERTEX
  8
0
 10
3.49928346
 20
6.48060296
  0
VERTEX
  8
0
 10
3.47044215
 20
6.49333259
  0
VERTEX
  8
0
 10
3.44396200
 20
6.51890243
  0
VERTEX
  8
0
 10
3.36736307
 20
6.53592442
  0
VERTEX
  8
0
 10
3.30632696
 20
6.51615732
  0
VERTEX
  8
0
 10
3.26523115
 20
6.47634747
  0
VERTEX
  8
0
 10
3.25246466
 20
6.42528151
  0
VERTEX
  8
0
 10
3.23969817
 20
6.37847105
  0
VERTEX
  8
0
 10
3.15884374
 20
6.39549303
  0
VERTEX
  8
0
 10
3.12479976
 20
6.35293807
  0
VERTEX
  8
0
 10
3.09926678
 20
6.29336112
  0
VERTEX
  8
0
 10
3.13331076
 20
6.25080615
  0
VERTEX
  8
0
 10
3.17748393
 20
6.22825367
  0
VERTEX
  8
0
 10
3.20990969
 20
6.19974019
  0
VERTEX
  8
0
 10
3.19966714
 20
6.17230782
  0
VERTEX
  8
0
 10
3.18437672
 20
6.14441874
  0
VERTEX
  8
0
 10
3.19288771
 20
6.07633079
  0
VERTEX
  8
0
 10
3.21076481
 20
6.03044061
  0
VERTEX
  8
0
 10
3.24128313
 20
5.99183647
  0
VERTEX
  8
0
 10
3.28377546
 20
5.96781876
  0
VERTEX
  8
0
 10
3.33757459
 20
5.96568788
  0
VERTEX
  8
0
 10
3.40702296
 20
6.00438178
  0
VERTEX
  8
0
 10
3.44821750
 20
6.06356430
  0
VERTEX
  8
0
 10
3.44555074
 20
6.10236416
  0
VERTEX
  8
0
 10
3.44821750
 20
6.14867423
  0
VERTEX
  8
0
 10
3.48118909
 20
6.14120622
  0
VERTEX
  8
0
 10
3.50847198
 20
6.12219164
  0
VERTEX
  8
0
 10
3.56311591
 20
6.08909728
  0
VERTEX
  8
0
 10
3.63545935
 20
6.11037476
  0
VERTEX
  8
0
 10
3.66042363
 20
6.18102356
  0
VERTEX
  8
0
 10
3.65848242
 20
6.21866962
  0
VERTEX
  8
0
 10
3.63971484
 20
6.25080615
  0
VERTEX
  8
0
 10
3.58439339
 20
6.27633913
  0
VERTEX
  8
0
 10
3.57588240
 20
6.29336112
  0
VERTEX
  8
0
 10
3.62989646
 20
6.34563473
  0
VERTEX
  8
0
 10
3.64828730
 20
6.37748560
  0
VERTEX
  8
0
 10
3.65248133
 20
6.41677051
  0
VERTEX
  8
0
 10
3.63450418
 20
6.45758186
  0
VERTEX
  8
0
 10
3.59937667
 20
6.48496809
  0
VERTEX
  8
0
 10
3.50779445
 20
6.51464694
  0
VERTEX
  8
0
 10
3.49928346
 20
6.48060296
  0
SEQEND
  0
POLYLINE
  8
Default_Layer
 66
   1
 39
0.000000
 70
    1
  0
VERTEX
  8
0
 10
4.28655032
 20
6.31889409
  0
VERTEX
  8
0
 10
4.24319473
 20
6.25081961
  0
VERTEX
  8
0
 10
4.18867390
 20
6.19974019
  0
VERTEX
  8
0
 10
4.18016291
 20
6.17846271
  0
VERTEX
  8
0
 10
4.07378292
 20
6.14334372
  0
VERTEX
  8
0
 10
3.94712133
 20
6.12456828
  0
VERTEX
  8
0
 10
3.81569888
 20
6.12529293
  0
VERTEX
  8
0
 10
3.69503630
 20
6.14867423
  0
VERTEX
  8
0
 10
3.66524782
 20
6.09335278
  0
VERTEX
  8
0
 10
3.62904682
 20
6.06738211
  0
VERTEX
  8
0
 10
3.58313993
 20
6.05614043
  0
VERTEX
  8
0
 10
3.48226147
 20
6.07207530
  0
VERTEX
  8
0
 10
3.46657369
 20
6.01891856
  0
VERTEX
  8
0
 10
3.44396200
 20
5.97419887
  0
VERTEX
  8
0
 10
3.53306412
 20
5.95099679
  0
VERTEX
  8
0
 10
3.60992637
 20
5.91462192
  0
VERTEX
  8
0
 10
3.72482478
 20
5.86781146
  0
VERTEX
  8
0
 10
3.79291272
 20
5.85078948
  0
VERTEX
  8
0
 10
3.91423184
 20
5.84431173
  0
VERTEX
  8
0
 10
4.02547162
 20
5.85883407
  0
VERTEX
  8
0
 10
4.12362774
 20
5.89061159
  0
VERTEX
  8
0
 10
4.20569588
 20
5.93589941
  0
VERTEX
  8
0
 10
4.29387679
 20
6.02079256
  0
VERTEX
  8
0
 10
4.35473992
 20
6.13255079
  0
VERTEX
  8
0
 10
4.38363599
 20
6.26832886
  0
VERTEX
  8
0
 10
4.37591575
 20
6.42528151
  0
VERTEX
  8
0
 10
4.35038277
 20
6.43379250
  0
VERTEX
  8
0
 10
4.28655032
 20
6.31889409
  0
SEQEND
  0
POLYLINE
  8
Default_Layer
 66
   1
 39
0.000000
 70
    1
  0
VERTEX
  8
0
 10
2.63541766
 20
6.05930881
  0
VERTEX
  8
0
 10
2.59826292
 20
5.94533948
  0
VERTEX
  8
0
 10
2.56307422
 20
5.82951199
  0
VERTEX
  8
0
 10
2.59711819
 20
5.79972352
  0
VERTEX
  8
0
 10
2.66621522
 20
5.77407458
  0
VERTEX
  8
0
 10
2.75031607
 20
5.76567954
  0
VERTEX
  8
0
 10
2.77159355
 20
5.98270987
  0
VERTEX
  8
0
 10
2.70461166
 20
6.02198869
  0
VERTEX
  8
0
 10
2.63541766
 20
6.05930881
  0
SEQEND
  0
POLYLINE
  8
Default_Layer
 66
   1
 39
0.000000
 70
    1
  0
VERTEX
  8
0
 10
2.78010454
 20
5.74440206
  0
VERTEX
  8
0
 10
3.10934401
 20
5.65992737
  0
VERTEX
  8
0
 10
3.41842902
 20
5.55716021
  0
VERTEX
  8
0
 10
3.43545101
 20
5.59971518
  0
VERTEX
  8
0
 10
3.50801920
 20
5.62608559
  0
VERTEX
  8
0
 10
3.54563685
 20
5.63737714
  0
VERTEX
  8
0
 10
3.58439339
 20
5.63375915
  0
VERTEX
  8
0
 10
3.61418187
 20
5.59545968
  0
VERTEX
  8
0
 10
3.63120385
 20
5.53162723
  0
VERTEX
  8
0
 10
3.75461325
 20
5.58269319
  0
VERTEX
  8
0
 10
3.76312424
 20
5.59971518
  0
VERTEX
  8
0
 10
3.84826737
 20
5.64924735
  0
VERTEX
  8
0
 10
3.90781113
 20
5.72312458
  0
VERTEX
  8
0
 10
3.92908861
 20
5.78695703
  0
VERTEX
  8
0
 10
3.81707036
 20
5.80247507
  0
VERTEX
  8
0
 10
3.72007591
 20
5.83380701
  0
VERTEX
  8
0
 10
3.52907193
 20
5.90185543
  0
VERTEX
  8
0
 10
3.52642677
 20
5.90981103
  0
VERTEX
  8
0
 10
3.52056094
 20
5.91462192
  0
VERTEX
  8
0
 10
3.43970651
 20
5.93164391
  0
VERTEX
  8
0
 10
3.27799764
 20
5.93164391
  0
VERTEX
  8
0
 10
3.23969817
 20
5.94441040
  0
VERTEX
  8
0
 10
3.13517071
 20
5.95241950
  0
VERTEX
  8
0
 10
3.02118161
 20
5.94462780
  0
VERTEX
  8
0
 10
2.91006338
 20
5.94098290
  0
VERTEX
  8
0
 10
2.81414852
 20
5.96143239
  0
VERTEX
  8
0
 10
2.80453492
 20
5.84592661
  0
VERTEX
  8
0
 10
2.78010454
 20
5.74440206
  0
SEQEND
  0
POLYLINE
  8
Default_Layer
 66
   1
 39
0.000000
 70
    1
  0
VERTEX
  8
0
 10
4.26952833
 20
5.81249001
  0
VERTEX
  8
0
 10
3.86100066
 20
5.60397068
  0
VERTEX
  8
0
 10
3.80142371
 20
5.57843770
  0
VERTEX
  8
0
 10
3.75886875
 20
5.54439372
  0
VERTEX
  8
0
 10
3.66666937
 20
5.49920865
  0
VERTEX
  8
0
 10
3.55886041
 20
5.46779479
  0
VERTEX
  8
0
 10
3.57162690
 20
5.41672883
  0
VERTEX
  8
0
 10
3.56111306
 20
5.35310304
  0
VERTEX
  8
0
 10
3.54609392
 20
5.30183042
  0
VERTEX
  8
0
 10
3.74184676
 20
5.37417386
  0
VERTEX
  8
0
 10
3.85125957
 20
5.42936409
  0
VERTEX
  8
0
 10
3.89829249
 20
5.46414775
  0
VERTEX
  8
0
 10
3.93334411
 20
5.50609426
  0
VERTEX
  8
0
 10
3.96641415
 20
5.54064123
  0
VERTEX
  8
0
 10
3.97589907
 20
5.59971518
  0
VERTEX
  8
0
 10
4.09433156
 20
5.64520654
  0
VERTEX
  8
0
 10
4.20569588
 20
5.70610259
  0
VERTEX
  8
0
 10
4.29329012
 20
5.76680619
  0
VERTEX
  8
0
 10
4.33223152
 20
5.80557517
  0
VERTEX
  8
0
 10
4.35889376
 20
5.85078948
  0
VERTEX
  8
0
 10
4.36465687
 20
5.86324877
  0
VERTEX
  8
0
 10
4.35889376
 20
5.87632245
  0
VERTEX
  8
0
 10
4.30499189
 20
5.85320474
  0
VERTEX
  8
0
 10
4.26952833
 20
5.81249001
  0
SEQEND
  0
POLYLINE
  8
Default_Layer
 66
   1
 39
0.000000
 70
    1
  0
VERTEX
  8
0
 10
4.74614394
 20
5.84227848
  0
VERTEX
  8
0
 10
4.55858139
 20
5.84067187
  0
VERTEX
  8
0
 10
4.38868224
 20
5.82100100
  0
VERTEX
  8
0
 10
4.37591575
 20
5.79972352
  0
VERTEX
  8
0
 10
4.37166025
 20
5.78695703
  0
VERTEX
  8
0
 10
4.49014652
 20
5.80328638
  0
VERTEX
  8
0
 10
4.61422355
 20
5.80397901
  0
VERTEX
  8
0
 10
4.61636114
 20
5.76411437
  0
VERTEX
  8
0
 10
4.61422355
 20
5.72738008
  0
VERTEX
  8
0
 10
4.74614394
 20
5.77844603
  0
VERTEX
  8
0
 10
4.77322518
 20
5.80408237
  0
VERTEX
  8
0
 10
4.78444341
 20
5.83802299
  0
VERTEX
  8
0
 10
4.74614394
 20
5.84227848
  0
SEQEND
  0
POLYLINE
  8
Default_Layer
 66
   1
 39
0.000000
 70
    1
  0
VERTEX
  8
0
 10
4.49081415
 20
5.77844603
  0
VERTEX
  8
0
 10
4.32315238
 20
5.73818877
  0
VERTEX
  8
0
 10
4.25281551
 20
5.70289142
  0
VERTEX
  8
0
 10
4.20144039
 20
5.65929213
  0
VERTEX
  8
0
 10
4.31874388
 20
5.65251132
  0
VERTEX
  8
0
 10
4.42803473
 20
5.66752896
  0
VERTEX
  8
0
 10
4.51977708
 20
5.70502505
  0
VERTEX
  8
0
 10
4.58443508
 20
5.76567954
  0
VERTEX
  8
0
 10
4.53994030
 20
5.77919638
  0
VERTEX
  8
0
 10
4.49081415
 20
5.77844603
  0
SEQEND
  0
POLYLINE
  8
Default_Layer
 66
   1
 39
0.000000
 70
    1
  0
VERTEX
  8
0
 10
4.72061097
 20
5.71035809
  0
VERTEX
  8
0
 10
4.56741309
 20
5.68482511
  0
VERTEX
  8
0
 10
4.47804766
 20
5.64652564
  0
VERTEX
  8
0
 10
4.40995972
 20
5.62950366
  0
VERTEX
  8
0
 10
4.39617787
 20
5.62768140
  0
VERTEX
  8
0
 10
4.38868224
 20
5.61673717
  0
VERTEX
  8
0
 10
4.41847071
 20
5.61248167
  0
VERTEX
  8
0
 10
4.58821976
 20
5.63224047
  0
VERTEX
  8
0
 10
4.74188845
 20
5.67205862
  0
VERTEX
  8
0
 10
4.74614394
 20
5.69333610
  0
VERTEX
  8
0
 10
4.76742143
 20
5.70184710
  0
VERTEX
  8
0
 10
4.74638390
 20
5.71026096
  0
VERTEX
  8
0
 10
4.72061097
 20
5.71035809
  0
SEQEND
  0
POLYLINE
  8
Default_Layer
 66
   1
 39
0.000000
 70
    1
  0
VERTEX
  8
0
 10
4.15037443
 20
5.63375915
  0
VERTEX
  8
0
 10
4.01419854
 20
5.56992670
  0
VERTEX
  8
0
 10
3.97755109
 20
5.50045356
  0
VERTEX
  8
0
 10
3.91691879
 20
5.45479100
  0
VERTEX
  8
0
 10
3.78014623
 20
5.37842936
  0
VERTEX
  8
0
 10
3.81419020
 20
5.38694035
  0
VERTEX
  8
0
 10
3.82778299
 20
5.37051944
  0
VERTEX
  8
0
 10
3.84686752
 20
5.36656780
  0
VERTEX
  8
0
 10
3.89504464
 20
5.37842936
  0
VERTEX
  8
0
 10
4.00540727
 20
5.42125221
  0
VERTEX
  8
0
 10
4.06252061
 20
5.43085331
  0
VERTEX
  8
0
 10
4.12484145
 20
5.42098432
  0
VERTEX
  8
0
 10
4.17590741
 20
5.39970684
  0
VERTEX
  8
0
 10
4.22388430
 20
5.40175464
  0
VERTEX
  8
0
 10
4.27378383
 20
5.41672883
  0
VERTEX
  8
0
 10
4.24617620
 20
5.47174778
  0
VERTEX
  8
0
 10
4.19043956
 20
5.49806392
  0
VERTEX
  8
0
 10
4.04398702
 20
5.51460525
  0
VERTEX
  8
0
 10
4.06435787
 20
5.53522313
  0
VERTEX
  8
0
 10
4.09505297
 20
5.54013823
  0
VERTEX
  8
0
 10
4.26527284
 20
5.59971518
  0
VERTEX
  8
0
 10
4.24524162
 20
5.61834242
  0
VERTEX
  8
0
 10
4.21327780
 20
5.62385799
  0
VERTEX
  8
0
 10
4.15037443
 20
5.63375915
  0
SEQEND
  0
POLYLINE
  8
Default_Layer
 66
   1
 39
0.000000
 70
    1
  0
VERTEX
  8
0
 10
3.44396200
 20
5.51460525
  0
VERTEX
  8
0
 10
3.50704580
 20
5.49312637
  0
VERTEX
  8
0
 10
3.54031270
 20
5.49479569
  0
VERTEX
  8
0
 10
3.56737140
 20
5.51034975
  0
VERTEX
  8
0
 10
3.58039567
 20
5.54909488
  0
VERTEX
  8
0
 10
3.57162690
 20
5.59545968
  0
VERTEX
  8
0
 10
3.52091569
 20
5.59393901
  0
VERTEX
  8
0
 10
3.48447454
 20
5.57785735
  0
VERTEX
  8
0
 10
3.44396200
 20
5.51460525
  0
SEQEND
  0
POLYLINE
  8
Default_Layer
 66
   1
 39
0.000000
 70
    1
  0
VERTEX
  8
0
 10
3.41842902
 20
5.44226181
  0
VERTEX
  8
0
 10
3.38012956
 20
5.36566287
  0
VERTEX
  8
0
 10
3.39123358
 20
5.34020628
  0
VERTEX
  8
0
 10
3.40991803
 20
5.32310790
  0
VERTEX
  8
0
 10
3.40566254
 20
5.31034141
  0
VERTEX
  8
0
 10
3.45248736
 20
5.30184468
  0
VERTEX
  8
0
 10
3.49928346
 20
5.31034141
  0
VERTEX
  8
0
 10
3.50779445
 20
5.36991837
  0
VERTEX
  8
0
 10
3.51630545
 20
5.37417386
  0
VERTEX
  8
0
 10
3.50952873
 20
5.42512928
  0
VERTEX
  8
0
 10
3.46949498
 20
5.44226181
  0
VERTEX
  8
0
 10
3.44821750
 20
5.42523982
  0
VERTEX
  8
0
 10
3.41842902
 20
5.44226181
  0
SEQEND
  0
POLYLINE
  8
Default_Layer
 66
   1
 39
0.000000
 70
    1
  0
VERTEX
  8
0
 10
4.04398702
 20
5.34012989
  0
VERTEX
  8
0
 10
3.99717655
 20
5.32736340
  0
VERTEX
  8
0
 10
3.95840983
 20
5.27585173
  0
VERTEX
  8
0
 10
3.93334411
 20
5.21246499
  0
VERTEX
  8
0
 10
3.83972318
 20
5.21246499
  0
VERTEX
  8
0
 10
3.81770264
 20
5.18139620
  0
VERTEX
  8
0
 10
3.80567921
 20
5.14012155
  0
VERTEX
  8
0
 10
3.77589073
 20
5.06352262
  0
VERTEX
  8
0
 10
3.86527696
 20
5.06782402
  0
VERTEX
  8
0
 10
3.90246096
 20
5.05696593
  0
VERTEX
  8
0
 10
3.92057762
 20
5.02947864
  0
VERTEX
  8
0
 10
3.91436066
 20
4.98814394
  0
VERTEX
  8
0
 10
3.89504464
 20
4.95287971
  0
VERTEX
  8
0
 10
4.00568755
 20
4.82521481
  0
VERTEX
  8
0
 10
4.08654198
 20
4.82521481
  0
VERTEX
  8
0
 10
4.12393668
 20
4.84282448
  0
VERTEX
  8
0
 10
4.14186344
 20
4.86776977
  0
VERTEX
  8
0
 10
4.13335244
 20
4.88053626
  0
VERTEX
  8
0
 10
4.12909695
 20
4.90181375
  0
VERTEX
  8
0
 10
4.14611893
 20
4.91458024
  0
VERTEX
  8
0
 10
4.12909695
 20
4.96990169
  0
VERTEX
  8
0
 10
4.12079453
 20
5.00005242
  0
VERTEX
  8
0
 10
4.12484145
 20
5.02947864
  0
VERTEX
  8
0
 10
4.18044781
 20
4.99990209
  0
VERTEX
  8
0
 10
4.21014155
 20
4.99384506
  0
VERTEX
  8
0
 10
4.23973986
 20
5.00820116
  0
VERTEX
  8
0
 10
4.24399535
 20
5.04650063
  0
VERTEX
  8
0
 10
4.18016291
 20
5.05501162
  0
VERTEX
  8
0
 10
4.17357582
 20
5.07520651
  0
VERTEX
  8
0
 10
4.17590741
 20
5.09756659
  0
VERTEX
  8
0
 10
4.25192771
 20
5.10613955
  0
VERTEX
  8
0
 10
4.31633879
 20
5.13161056
  0
VERTEX
  8
0
 10
4.33668081
 20
5.15488201
  0
VERTEX
  8
0
 10
4.34612727
 20
5.18693202
  0
VERTEX
  8
0
 10
4.32588818
 20
5.23720176
  0
VERTEX
  8
0
 10
4.27381426
 20
5.26995649
  0
VERTEX
  8
0
 10
4.20470313
 20
5.28354033
  0
VERTEX
  8
0
 10
4.13335244
 20
5.27629744
  0
VERTEX
  8
0
 10
4.10550756
 20
5.25726638
  0
VERTEX
  8
0
 10
4.06526450
 20
5.25927546
  0
VERTEX
  8
0
 10
4.06126768
 20
5.30563941
  0
VERTEX
  8
0
 10
4.04398702
 20
5.34012989
  0
SEQEND
  0
POLYLINE
  8
Default_Layer
 66
   1
 39
0.000000
 70
    1
  0
VERTEX
  8
0
 10
3.53758293
 20
5.27629744
  0
VERTEX
  8
0
 10
3.52012071
 20
5.18034302
  0
VERTEX
  8
0
 10
3.46949498
 20
5.11884407
  0
VERTEX
  8
0
 10
3.41270843
 20
5.10595505
  0
VERTEX
  8
0
 10
3.36613743
 20
5.12922855
  0
VERTEX
  8
0
 10
3.33507348
 20
5.17709828
  0
VERTEX
  8
0
 10
3.32480810
 20
5.23799797
  0
VERTEX
  8
0
 10
3.01592070
 20
5.25119384
  0
VERTEX
  8
0
 10
2.72903859
 20
5.28480844
  0
VERTEX
  8
0
 10
2.73214121
 20
5.23687830
  0
VERTEX
  8
0
 10
2.74606057
 20
5.18693202
  0
VERTEX
  8
0
 10
2.75882706
 20
5.08905559
  0
VERTEX
  8
0
 10
2.77546330
 20
5.00488097
  0
VERTEX
  8
0
 10
2.80495739
 20
4.93641296
  0
VERTEX
  8
0
 10
2.85394128
 20
4.88788093
  0
VERTEX
  8
0
 10
2.92904692
 20
4.86351428
  0
VERTEX
  8
0
 10
2.91770545
 20
4.93009239
  0
VERTEX
  8
0
 10
2.92489303
 20
4.99266094
  0
VERTEX
  8
0
 10
2.94692404
 20
5.04597762
  0
VERTEX
  8
0
 10
2.98011288
 20
5.08480010
  0
VERTEX
  8
0
 10
3.05245632
 20
5.08905559
  0
VERTEX
  8
0
 10
3.10128490
 20
4.99435287
  0
VERTEX
  8
0
 10
3.13491897
 20
4.95704672
  0
VERTEX
  8
0
 10
3.18863221
 20
4.94011322
  0
VERTEX
  8
0
 10
3.20990969
 20
4.89330275
  0
VERTEX
  8
0
 10
3.24949858
 20
4.93864858
  0
VERTEX
  8
0
 10
3.29927512
 20
4.97415719
  0
VERTEX
  8
0
 10
3.32563665
 20
5.03926554
  0
VERTEX
  8
0
 10
3.34635833
 20
5.06556521
  0
VERTEX
  8
0
 10
3.37587406
 20
5.08054460
  0
VERTEX
  8
0
 10
3.43434767
 20
5.06650481
  0
VERTEX
  8
0
 10
3.48226147
 20
5.02947864
  0
VERTEX
  8
0
 10
3.53332743
 20
5.13586606
  0
VERTEX
  8
0
 10
3.60141538
 20
5.14437705
  0
VERTEX
  8
0
 10
3.64491480
 20
5.23407680
  0
VERTEX
  8
0
 10
3.67568505
 20
5.27063693
  0
VERTEX
  8
0
 10
3.71631378
 20
5.29757493
  0
VERTEX
  8
0
 10
3.53758293
 20
5.27629744
  0
SEQEND
  0
POLYLINE
  8
Default_Layer
 66
   1
 39
0.000000
 70
    1
  0
VERTEX
  8
0
 10
3.38012956
 20
5.25501996
  0
VERTEX
  8
0
 10
3.35459658
 20
5.19544301
  0
VERTEX
  8
0
 10
3.39738059
 20
5.15607243
  0
VERTEX
  8
0
 10
3.46949498
 20
5.14437705
  0
VERTEX
  8
0
 10
3.49012744
 20
5.18731916
  0
VERTEX
  8
0
 10
3.49928346
 20
5.24225347
  0
VERTEX
  8
0
 10
3.47814627
 20
5.25888312
  0
VERTEX
  8
0
 10
3.44620210
 20
5.26310418
  0
VERTEX
  8
0
 10
3.38012956
 20
5.25501996
  0
SEQEND
  0
POLYLINE
  8
Default_Layer
 66
   1
 39
0.000000
 70
    1
  0
VERTEX
  8
0
 10
3.70780279
 20
5.25501996
  0
VERTEX
  8
0
 10
3.66663341
 20
5.19778103
  0
VERTEX
  8
0
 10
3.64397034
 20
5.12309957
  0
VERTEX
  8
0
 10
3.63971484
 20
5.07203361
  0
VERTEX
  8
0
 10
3.61769153
 20
5.07541295
  0
VERTEX
  8
0
 10
3.60141538
 20
5.08905559
  0
VERTEX
  8
0
 10
3.55460491
 20
5.10607758
  0
VERTEX
  8
0
 10
3.53328706
 20
5.04515009
  0
VERTEX
  8
0
 10
3.52481644
 20
4.97415719
  0
VERTEX
  8
0
 10
3.63120385
 20
4.95713520
  0
VERTEX
  8
0
 10
3.63337920
 20
4.89529056
  0
VERTEX
  8
0
 10
3.61423575
 20
4.85098142
  0
VERTEX
  8
0
 10
3.57485175
 20
4.82570519
  0
VERTEX
  8
0
 10
3.51630545
 20
4.82095931
  0
VERTEX
  8
0
 10
3.48482095
 20
4.88141501
  0
VERTEX
  8
0
 10
3.46926848
 20
4.95833302
  0
VERTEX
  8
0
 10
3.43999890
 20
5.02188563
  0
VERTEX
  8
0
 10
3.41095484
 20
5.03932875
  0
VERTEX
  8
0
 10
3.36736307
 20
5.04224513
  0
VERTEX
  8
0
 10
3.34971212
 20
5.01881565
  0
VERTEX
  8
0
 10
3.34183009
 20
4.98266818
  0
VERTEX
  8
0
 10
3.41076525
 20
4.92374078
  0
VERTEX
  8
0
 10
3.43206980
 20
4.88179809
  0
VERTEX
  8
0
 10
3.43970651
 20
4.82947031
  0
VERTEX
  8
0
 10
3.42694002
 20
4.73159389
  0
VERTEX
  8
0
 10
3.43716284
 20
4.72955513
  0
VERTEX
  8
0
 10
3.44396200
 20
4.72308289
  0
VERTEX
  8
0
 10
3.45155031
 20
4.67504369
  0
VERTEX
  8
0
 10
3.47095696
 20
4.63885614
  0
VERTEX
  8
0
 10
3.50346298
 20
4.61605736
  0
VERTEX
  8
0
 10
3.55034942
 20
4.60818449
  0
VERTEX
  8
0
 10
3.57438117
 20
4.62878705
  0
VERTEX
  8
0
 10
3.58268433
 20
4.66368010
  0
VERTEX
  8
0
 10
3.57162690
 20
4.73584938
  0
VERTEX
  8
0
 10
3.58864889
 20
4.76989335
  0
VERTEX
  8
0
 10
3.61418187
 20
4.76138236
  0
VERTEX
  8
0
 10
3.63120385
 20
4.67627243
  0
VERTEX
  8
0
 10
3.67801431
 20
4.65925044
  0
VERTEX
  8
0
 10
3.68880322
 20
4.74982528
  0
VERTEX
  8
0
 10
3.68652531
 20
4.84649229
  0
VERTEX
  8
0
 10
3.71631378
 20
4.84649229
  0
VERTEX
  8
0
 10
3.74054552
 20
4.79410599
  0
VERTEX
  8
0
 10
3.78947678
 20
4.76700547
  0
VERTEX
  8
0
 10
3.85289250
 20
4.76156250
  0
VERTEX
  8
0
 10
3.92057762
 20
4.77414885
  0
VERTEX
  8
0
 10
3.91758794
 20
4.84709899
  0
VERTEX
  8
0
 10
3.89271667
 20
4.89471797
  0
VERTEX
  8
0
 10
3.84666802
 20
4.92035187
  0
VERTEX
  8
0
 10
3.78014623
 20
4.92734673
  0
VERTEX
  8
0
 10
3.76737974
 20
4.96139070
  0
VERTEX
  8
0
 10
3.79385233
 20
4.97987646
  0
VERTEX
  8
0
 10
3.83194717
 20
4.98485173
  0
VERTEX
  8
0
 10
3.86541902
 20
4.99511847
  0
VERTEX
  8
0
 10
3.87802265
 20
5.02947864
  0
VERTEX
  8
0
 10
3.79819512
 20
5.02670842
  0
VERTEX
  8
0
 10
3.71631378
 20
5.01245666
  0
VERTEX
  8
0
 10
3.71205829
 20
5.04650063
  0
VERTEX
  8
0
 10
3.76214213
 20
5.12659498
  0
VERTEX
  8
0
 10
3.78440173
 20
5.23374248
  0
VERTEX
  8
0
 10
3.70780279
 20
5.25501996
  0
SEQEND
  0
POLYLINE
  8
Default_Layer
 66
   1
 39
0.000000
 70
    1
  0
VERTEX
  8
0
 10
2.99287937
 20
5.05075613
  0
VERTEX
  8
0
 10
2.95883540
 20
4.99969017
  0
VERTEX
  8
0
 10
2.95742628
 20
4.94176696
  0
VERTEX
  8
0
 10
2.97551593
 20
4.88705611
  0
VERTEX
  8
0
 10
2.99484019
 20
4.83227697
  0
VERTEX
  8
0
 10
2.99713487
 20
4.77414885
  0
VERTEX
  8
0
 10
2.96934663
 20
4.77447035
  0
VERTEX
  8
0
 10
2.94181341
 20
4.79542633
  0
VERTEX
  8
0
 10
2.86309380
 20
4.84811039
  0
VERTEX
  8
0
 10
2.81752404
 20
4.86399453
  0
VERTEX
  8
0
 10
2.76308256
 20
4.86776977
  0
VERTEX
  8
0
 10
2.73805002
 20
4.83141656
  0
VERTEX
  8
0
 10
2.72478309
 20
4.79117084
  0
VERTEX
  8
0
 10
2.75306469
 20
4.75332788
  0
VERTEX
  8
0
 10
2.78861554
 20
4.72308289
  0
VERTEX
  8
0
 10
2.89500295
 20
4.69754991
  0
VERTEX
  8
0
 10
2.80138203
 20
4.59967349
  0
VERTEX
  8
0
 10
2.75777297
 20
4.54667192
  0
VERTEX
  8
0
 10
2.73850746
 20
4.51140507
  0
VERTEX
  8
0
 10
2.73754958
 20
4.48051959
  0
VERTEX
  8
0
 10
2.76067076
 20
4.46322089
  0
VERTEX
  8
0
 10
2.79712653
 20
4.45924211
  0
VERTEX
  8
0
 10
2.86095898
 20
4.50179707
  0
VERTEX
  8
0
 10
2.92904692
 20
4.54860753
  0
VERTEX
  8
0
 10
2.94606891
 20
4.52307456
  0
VERTEX
  8
0
 10
2.91314004
 20
4.40065802
  0
VERTEX
  8
0
 10
2.91083202
 20
4.33271369
  0
VERTEX
  8
0
 10
2.93755792
 20
4.28476675
  0
VERTEX
  8
0
 10
2.98862387
 20
4.27625576
  0
VERTEX
  8
0
 10
3.02692334
 20
4.31029973
  0
VERTEX
  8
0
 10
3.04144310
 20
4.36048941
  0
VERTEX
  8
0
 10
3.04514038
 20
4.41922108
  0
VERTEX
  8
0
 10
3.05036788
 20
4.47562190
  0
VERTEX
  8
0
 10
3.06947831
 20
4.51881906
  0
VERTEX
  8
0
 10
3.09574456
 20
4.48625871
  0
VERTEX
  8
0
 10
3.10777778
 20
4.43796462
  0
VERTEX
  8
0
 10
3.12424357
 20
4.42025713
  0
VERTEX
  8
0
 10
3.13756625
 20
4.39540966
  0
VERTEX
  8
0
 10
3.18144212
 20
4.35655293
  0
VERTEX
  8
0
 10
3.23969817
 20
4.34434370
  0
VERTEX
  8
0
 10
3.27697866
 20
4.37170511
  0
VERTEX
  8
0
 10
3.28650863
 20
4.42945363
  0
VERTEX
  8
0
 10
3.23544267
 20
4.52307456
  0
VERTEX
  8
0
 10
3.20990969
 20
4.54435204
  0
VERTEX
  8
0
 10
3.21416519
 20
4.58265151
  0
VERTEX
  8
0
 10
3.30896499
 20
4.56819207
  0
VERTEX
  8
0
 10
3.35367675
 20
4.56791650
  0
VERTEX
  8
0
 10
3.39289605
 20
4.58690700
  0
VERTEX
  8
0
 10
3.40176170
 20
4.64003422
  0
VERTEX
  8
0
 10
3.37304357
 20
4.67059187
  0
VERTEX
  8
0
 10
3.26948665
 20
4.69329442
  0
VERTEX
  8
0
 10
3.27799764
 20
4.73159389
  0
VERTEX
  8
0
 10
3.34187726
 20
4.74460353
  0
VERTEX
  8
0
 10
3.38539424
 20
4.78335620
  0
VERTEX
  8
0
 10
3.40287366
 20
4.83984656
  0
VERTEX
  8
0
 10
3.38864055
 20
4.90606924
  0
VERTEX
  8
0
 10
3.34018044
 20
4.92199501
  0
VERTEX
  8
0
 10
3.29076413
 20
4.92309123
  0
VERTEX
  8
0
 10
3.25987316
 20
4.89666412
  0
VERTEX
  8
0
 10
3.23544267
 20
4.85925878
  0
VERTEX
  8
0
 10
3.19714320
 20
4.77840435
  0
VERTEX
  8
0
 10
3.17492148
 20
4.79633744
  0
VERTEX
  8
0
 10
3.16735473
 20
4.82947031
  0
VERTEX
  8
0
 10
3.16851201
 20
4.87431483
  0
VERTEX
  8
0
 10
3.15458824
 20
4.90606924
  0
VERTEX
  8
0
 10
3.13542186
 20
4.89275093
  0
VERTEX
  8
0
 10
3.12715747
 20
4.86576517
  0
VERTEX
  8
0
 10
3.11203327
 20
4.80819282
  0
VERTEX
  8
0
 10
3.08224480
 20
4.78691534
  0
VERTEX
  8
0
 10
3.07942340
 20
4.96174662
  0
VERTEX
  8
0
 10
3.05771794
 20
5.02928258
  0
VERTEX
  8
0
 10
3.03207794
 20
5.04731509
  0
VERTEX
  8
0
 10
2.99287937
 20
5.05075613
  0
SEQEND
  0
POLYLINE
  8
Default_Layer
 66
   1
 39
0.000000
 70
    1
  0
VERTEX
  8
0
 10
2.68222812
 20
4.80819282
  0
VERTEX
  8
0
 10
2.67371713
 20
4.88479176
  0
VERTEX
  8
0
 10
2.64624779
 20
4.93311537
  0
VERTEX
  8
0
 10
2.59711819
 20
4.95287971
  0
VERTEX
  8
0
 10
2.55739414
 20
4.93635577
  0
VERTEX
  8
0
 10
2.53592937
 20
4.89761942
  0
VERTEX
  8
0
 10
2.53229251
 20
4.85034150
  0
VERTEX
  8
0
 10
2.54605223
 20
4.80819282
  0
VERTEX
  8
0
 10
2.58009621
 20
4.76989335
  0
VERTEX
  8
0
 10
2.57158521
 20
4.73584938
  0
VERTEX
  8
0
 10
2.51264808
 20
4.75634864
  0
VERTEX
  8
0
 10
2.45668681
 20
4.76989335
  0
VERTEX
  8
0
 10
2.43778230
 20
4.75100427
  0
VERTEX
  8
0
 10
2.42689833
 20
4.72308289
  0
VERTEX
  8
0
 10
2.45788909
 20
4.69558568
  0
VERTEX
  8
0
 10
2.49924177
 20
4.67627243
  0
VERTEX
  8
0
 10
2.49924177
 20
4.64222846
  0
VERTEX
  8
0
 10
2.43308820
 20
4.61894383
  0
VERTEX
  8
0
 10
2.38225881
 20
4.58008704
  0
VERTEX
  8
0
 10
2.34630206
 20
4.52655437
  0
VERTEX
  8
0
 10
2.32476641
 20
4.45924211
  0
VERTEX
  8
0
 10
2.33753290
 20
4.45073111
  0
VERTEX
  8
0
 10
2.34604390
 20
4.43370913
  0
VERTEX
  8
0
 10
2.42390698
 20
4.44974368
  0
VERTEX
  8
0
 10
2.46945330
 20
4.49754158
  0
VERTEX
  8
0
 10
2.48531795
 20
4.51553132
  0
VERTEX
  8
0
 10
2.51200826
 20
4.52307456
  0
VERTEX
  8
0
 10
2.48881586
 20
4.42909154
  0
VERTEX
  8
0
 10
2.48049193
 20
4.37787092
  0
VERTEX
  8
0
 10
2.48647528
 20
4.32306622
  0
VERTEX
  8
0
 10
2.52903025
 20
4.32306622
  0
VERTEX
  8
0
 10
2.57066246
 20
4.38290733
  0
VERTEX
  8
0
 10
2.59711819
 20
4.45924211
  0
VERTEX
  8
0
 10
2.62265117
 20
4.45498661
  0
VERTEX
  8
0
 10
2.62411985
 20
4.38473203
  0
VERTEX
  8
0
 10
2.64066160
 20
4.33209840
  0
VERTEX
  8
0
 10
2.67905049
 20
4.30154553
  0
VERTEX
  8
0
 10
2.74606057
 20
4.29753324
  0
VERTEX
  8
0
 10
2.76546276
 20
4.33105511
  0
VERTEX
  8
0
 10
2.77159355
 20
4.36987668
  0
VERTEX
  8
0
 10
2.74369749
 20
4.42616669
  0
VERTEX
  8
0
 10
2.69499461
 20
4.45924211
  0
VERTEX
  8
0
 10
2.71046143
 20
4.52290883
  0
VERTEX
  8
0
 10
2.73815700
 20
4.57474979
  0
VERTEX
  8
0
 10
2.80989302
 20
4.66350594
  0
VERTEX
  8
0
 10
2.74093451
 20
4.72987754
  0
VERTEX
  8
0
 10
2.70452137
 20
4.76467339
  0
VERTEX
  8
0
 10
2.68222812
 20
4.80819282
  0
SEQEND
  0
POLYLINE
  8
Default_Layer
 66
   1
 39
0.000000
 70
    1
  0
VERTEX
  8
0
 10
3.51204995
 20
4.93585772
  0
VERTEX
  8
0
 10
3.51364192
 20
4.88627914
  0
VERTEX
  8
0
 10
3.54878159
 20
4.86208821
  0
VERTEX
  8
0
 10
3.58896067
 20
4.86946266
  0
VERTEX
  8
0
 10
3.60567087
 20
4.91458024
  0
VERTEX
  8
0
 10
3.56721416
 20
4.93370295
  0
VERTEX
  8
0
 10
3.51204995
 20
4.93585772
  0
SEQEND
  0
POLYLINE
  8
Default_Layer
 66
   1
 39
0.000000
 70
    1
  0
VERTEX
  8
0
 10
4.99296274
 20
3.54431035
  0
VERTEX
  8
0
 10
5.07882212
 20
3.38618844
  0
VERTEX
  8
0
 10
5.13636607
 20
3.32455877
  0
VERTEX
  8
0
 10
5.20573757
 20
3.27621407
  0
VERTEX
  8
0
 10
5.13160687
 20
3.38908537
  0
VERTEX
  8
0
 10
5.06530619
 20
3.51026638
  0
VERTEX
  8
0
 10
5.05253970
 20
3.51452188
  0
VERTEX
  8
0
 10
4.99296274
 20
3.67623074
  0
VERTEX
  8
0
 10
4.97168526
 20
3.79112915
  0
VERTEX
  8
0
 10
4.89285527
 20
4.19150882
  0
VERTEX
  8
0
 10
4.83978045
 20
4.37830345
  0
VERTEX
  8
0
 10
4.77167692
 20
4.54860753
  0
VERTEX
  8
0
 10
4.75465494
 20
4.55286303
  0
VERTEX
  8
0
 10
4.70884638
 20
4.63131572
  0
VERTEX
  8
0
 10
4.67912521
 20
4.66286252
  0
VERTEX
  8
0
 10
4.63975653
 20
4.68478342
  0
VERTEX
  8
0
 10
4.63124554
 20
4.70606091
  0
VERTEX
  8
0
 10
4.60996806
 20
4.71031640
  0
VERTEX
  8
0
 10
4.52382626
 20
4.76918717
  0
VERTEX
  8
0
 10
4.42854709
 20
4.81884321
  0
VERTEX
  8
0
 10
4.31759099
 20
4.85253532
  0
VERTEX
  8
0
 10
4.18441840
 20
4.86351428
  0
VERTEX
  8
0
 10
4.13760794
 20
4.80393733
  0
VERTEX
  8
0
 10
4.32484979
 20
4.72308289
  0
VERTEX
  8
0
 10
4.32484979
 20
4.70606091
  0
VERTEX
  8
0
 10
4.35889376
 20
4.69754991
  0
VERTEX
  8
0
 10
4.36314926
 20
4.68478342
  0
VERTEX
  8
0
 10
4.38868224
 20
4.68052793
  0
VERTEX
  8
0
 10
4.43051749
 20
4.63837383
  0
VERTEX
  8
0
 10
4.47379217
 20
4.59541800
  0
VERTEX
  8
0
 10
4.49506965
 20
4.58690700
  0
VERTEX
  8
0
 10
4.52300445
 20
4.55124394
  0
VERTEX
  8
0
 10
4.55989666
 20
4.52232968
  0
VERTEX
  8
0
 10
4.59416384
 20
4.49166011
  0
VERTEX
  8
0
 10
4.61422355
 20
4.45073111
  0
VERTEX
  8
0
 10
4.51209164
 20
4.52307456
  0
VERTEX
  8
0
 10
4.51209164
 20
4.53584104
  0
VERTEX
  8
0
 10
4.35038277
 20
4.64648395
  0
VERTEX
  8
0
 10
4.35463826
 20
4.65925044
  0
VERTEX
  8
0
 10
4.29506131
 20
4.68903892
  0
VERTEX
  8
0
 10
4.14796906
 20
4.75042371
  0
VERTEX
  8
0
 10
3.96738808
 20
4.77840435
  0
VERTEX
  8
0
 10
3.96313258
 20
4.79542633
  0
VERTEX
  8
0
 10
3.95036609
 20
4.75712686
  0
VERTEX
  8
0
 10
4.06952000
 20
4.72308289
  0
VERTEX
  8
0
 10
4.06526450
 20
4.70606091
  0
VERTEX
  8
0
 10
4.09079748
 20
4.69754991
  0
VERTEX
  8
0
 10
4.09930847
 20
4.68478342
  0
VERTEX
  8
0
 10
4.12484145
 20
4.68052793
  0
VERTEX
  8
0
 10
4.15037443
 20
4.62946197
  0
VERTEX
  8
0
 10
4.01419854
 20
4.69754991
  0
VERTEX
  8
0
 10
3.97164357
 20
4.72308289
  0
VERTEX
  8
0
 10
3.89504464
 20
4.71882740
  0
VERTEX
  8
0
 10
3.80456422
 20
4.72534283
  0
VERTEX
  8
0
 10
3.72908027
 20
4.74861587
  0
VERTEX
  8
0
 10
3.72908027
 20
4.71031640
  0
VERTEX
  8
0
 10
3.81163316
 20
4.68756753
  0
VERTEX
  8
0
 10
3.88349112
 20
4.65322477
  0
VERTEX
  8
0
 10
3.95474260
 20
4.61763935
  0
VERTEX
  8
0
 10
4.03547602
 20
4.59116250
  0
VERTEX
  8
0
 10
4.03973152
 20
4.57414051
  0
VERTEX
  8
0
 10
4.11330049
 20
4.50652615
  0
VERTEX
  8
0
 10
4.19292939
 20
4.44647562
  0
VERTEX
  8
0
 10
4.19292939
 20
4.43370913
  0
VERTEX
  8
0
 10
4.29091640
 20
4.33111889
  0
VERTEX
  8
0
 10
4.36314926
 20
4.20391231
  0
VERTEX
  8
0
 10
4.38017124
 20
4.19540132
  0
VERTEX
  8
0
 10
4.40995972
 20
4.08901391
  0
VERTEX
  8
0
 10
4.34381451
 20
4.17557220
  0
VERTEX
  8
0
 10
4.28655032
 20
4.27200026
  0
VERTEX
  8
0
 10
4.22271787
 20
4.36136569
  0
VERTEX
  8
0
 10
4.17612300
 20
4.41950582
  0
VERTEX
  8
0
 10
4.11633046
 20
4.45924211
  0
VERTEX
  8
0
 10
4.11207496
 20
4.47200860
  0
VERTEX
  8
0
 10
4.09079748
 20
4.47626409
  0
VERTEX
  8
0
 10
4.06235581
 20
4.52607394
  0
VERTEX
  8
0
 10
4.01419854
 20
4.56137402
  0
VERTEX
  8
0
 10
3.87339070
 20
4.62195368
  0
VERTEX
  8
0
 10
3.72056928
 20
4.65925044
  0
VERTEX
  8
0
 10
3.70354729
 20
4.63371747
  0
VERTEX
  8
0
 10
3.66099233
 20
4.62946197
  0
VERTEX
  8
0
 10
3.66524782
 20
4.59967349
  0
VERTEX
  8
0
 10
3.69929180
 20
4.58265151
  0
VERTEX
  8
0
 10
3.71205829
 20
4.56562952
  0
VERTEX
  8
0
 10
3.71205829
 20
4.54860753
  0
VERTEX
  8
0
 10
3.78644325
 20
4.49295442
  0
VERTEX
  8
0
 10
3.83121219
 20
4.40817615
  0
VERTEX
  8
0
 10
3.85248967
 20
4.39966516
  0
VERTEX
  8
0
 10
3.88786444
 20
4.31043633
  0
VERTEX
  8
0
 10
3.91206662
 20
4.20816781
  0
VERTEX
  8
0
 10
3.91206662
 20
4.18263483
  0
VERTEX
  8
0
 10
3.90420273
 20
4.18777994
  0
VERTEX
  8
0
 10
3.90781113
 20
4.19965682
  0
VERTEX
  8
0
 10
3.89078914
 20
4.20391231
  0
VERTEX
  8
0
 10
3.85547900
 20
4.31733614
  0
VERTEX
  8
0
 10
3.80567921
 20
4.41668714
  0
VERTEX
  8
0
 10
3.78865722
 20
4.42094264
  0
VERTEX
  8
0
 10
3.79291272
 20
4.43370913
  0
VERTEX
  8
0
 10
3.77589073
 20
4.43370913
  0
VERTEX
  8
0
 10
3.66950332
 20
4.56562952
  0
VERTEX
  8
0
 10
3.65248133
 20
4.57414051
  0
VERTEX
  8
0
 10
3.63621310
 20
4.59038970
  0
VERTEX
  8
0
 10
3.62269286
 20
4.61243998
  0
VERTEX
  8
0
 10
3.58464957
 20
4.58003863
  0
VERTEX
  8
0
 10
3.53758293
 20
4.56137402
  0
VERTEX
  8
0
 10
3.49589135
 20
4.57334170
  0
VERTEX
  8
0
 10
3.45672849
 20
4.59116250
  0
VERTEX
  8
0
 10
3.45362485
 20
4.60229190
  0
VERTEX
  8
0
 10
3.44821750
 20
4.60818449
  0
VERTEX
  8
0
 10
3.43785186
 20
4.59824210
  0
VERTEX
  8
0
 10
3.43119551
 20
4.58265151
  0
VERTEX
  8
0
 10
3.46523949
 20
4.57839601
  0
VERTEX
  8
0
 10
3.49928346
 20
4.41243165
  0
VERTEX
  8
0
 10
3.51204995
 20
4.35285469
  0
VERTEX
  8
0
 10
3.52907193
 20
4.31881072
  0
VERTEX
  8
0
 10
3.57162690
 20
4.20816781
  0
VERTEX
  8
0
 10
3.58864889
 20
4.20391231
  0
VERTEX
  8
0
 10
3.61901159
 20
4.13334177
  0
VERTEX
  8
0
 10
3.66524782
 20
4.08050292
  0
VERTEX
  8
0
 10
3.66524782
 20
4.05922543
  0
VERTEX
  8
0
 10
3.71291279
 20
4.01786121
  0
VERTEX
  8
0
 10
3.74184676
 20
3.95709352
  0
VERTEX
  8
0
 10
3.82228155
 20
3.89265913
  0
VERTEX
  8
0
 10
3.88227815
 20
3.81666213
  0
VERTEX
  8
0
 10
3.85674517
 20
3.82091763
  0
VERTEX
  8
0
 10
3.85248967
 20
3.83793961
  0
VERTEX
  8
0
 10
3.78630314
 20
3.88089172
  0
VERTEX
  8
0
 10
3.74184676
 20
3.94432703
  0
VERTEX
  8
0
 10
3.68647775
 20
3.98411704
  0
VERTEX
  8
0
 10
3.64397034
 20
4.03794795
  0
VERTEX
  8
0
 10
3.53332743
 20
4.22944529
  0
VERTEX
  8
0
 10
3.48226147
 20
4.33157721
  0
VERTEX
  8
0
 10
3.46098399
 20
4.43796462
  0
VERTEX
  8
0
 10
3.43545101
 20
4.54435204
  0
VERTEX
  8
0
 10
3.32906360
 20
4.51881906
  0
VERTEX
  8
0
 10
3.35305481
 20
4.36605725
  0
VERTEX
  8
0
 10
3.36749158
 20
4.20447558
  0
VERTEX
  8
0
 10
3.40207770
 20
4.06388977
  0
VERTEX
  8
0
 10
3.43620921
 20
4.01078771
  0
VERTEX
  8
0
 10
3.48651697
 20
3.97411550
  0
VERTEX
  8
0
 10
3.50476651
 20
3.93307448
  0
VERTEX
  8
0
 10
3.52481644
 20
3.90177206
  0
VERTEX
  8
0
 10
3.50280839
 20
3.91367234
  0
VERTEX
  8
0
 10
3.48226147
 20
3.92730504
  0
VERTEX
  8
0
 10
3.48651697
 20
3.94432703
  0
VERTEX
  8
0
 10
3.45672849
 20
3.95283802
  0
VERTEX
  8
0
 10
3.44396200
 20
3.98688199
  0
VERTEX
  8
0
 10
3.40400305
 20
4.02028083
  0
VERTEX
  8
0
 10
3.38012956
 20
4.07199192
  0
VERTEX
  8
0
 10
3.33704531
 20
4.19763945
  0
VERTEX
  8
0
 10
3.31204161
 20
4.33157721
  0
VERTEX
  8
0
 10
3.20790153
 20
4.31426144
  0
VERTEX
  8
0
 10
3.15943247
 20
4.32496582
  0
VERTEX
  8
0
 10
3.12054427
 20
4.34859920
  0
VERTEX
  8
0
 10
3.09501129
 20
4.38264317
  0
VERTEX
  8
0
 10
3.08051808
 20
4.26567635
  0
VERTEX
  8
0
 10
3.09064440
 20
4.15410508
  0
VERTEX
  8
0
 10
3.15033274
 20
3.95709352
  0
VERTEX
  8
0
 10
3.16309923
 20
3.94432703
  0
VERTEX
  8
0
 10
3.16309923
 20
3.92730504
  0
VERTEX
  8
0
 10
3.18437672
 20
3.91879405
  0
VERTEX
  8
0
 10
3.24050586
 20
3.84942748
  0
VERTEX
  8
0
 10
3.28650863
 20
3.76559617
  0
VERTEX
  8
0
 10
3.31204161
 20
3.76134067
  0
VERTEX
  8
0
 10
3.34842185
 20
3.70286638
  0
VERTEX
  8
0
 10
3.39289605
 20
3.65069776
  0
VERTEX
  8
0
 10
3.40566254
 20
3.64644227
  0
VERTEX
  8
0
 10
3.43119551
 20
3.60388730
  0
VERTEX
  8
0
 10
3.44396200
 20
3.59963181
  0
VERTEX
  8
0
 10
3.48226147
 20
3.54005485
  0
VERTEX
  8
0
 10
3.45006316
 20
3.55250144
  0
VERTEX
  8
0
 10
3.43545101
 20
3.58260982
  0
VERTEX
  8
0
 10
3.36769473
 20
3.63113030
  0
VERTEX
  8
0
 10
3.31629711
 20
3.69750823
  0
VERTEX
  8
0
 10
3.21416519
 20
3.83368412
  0
VERTEX
  8
0
 10
3.19714320
 20
3.83793961
  0
VERTEX
  8
0
 10
3.17047369
 20
3.87940831
  0
VERTEX
  8
0
 10
3.14607725
 20
3.92304954
  0
VERTEX
  8
0
 10
3.12905526
 20
3.92730504
  0
VERTEX
  8
0
 10
3.12075624
 20
3.95570261
  0
VERTEX
  8
0
 10
3.10352228
 20
3.97411550
  0
VERTEX
  8
0
 10
3.10777778
 20
3.99964848
  0
VERTEX
  8
0
 10
3.09443791
 20
4.00196214
  0
VERTEX
  8
0
 10
3.09501129
 20
4.01667047
  0
VERTEX
  8
0
 10
3.07798930
 20
4.02092596
  0
VERTEX
  8
0
 10
3.06020712
 20
4.14282323
  0
VERTEX
  8
0
 10
3.03543434
 20
4.25923377
  0
VERTEX
  8
0
 10
2.97322642
 20
4.24466396
  0
VERTEX
  8
0
 10
2.90776944
 20
4.25497827
  0
VERTEX
  8
0
 10
2.88514463
 20
4.07186127
  0
VERTEX
  8
0
 10
2.90761209
 20
3.89673573
  0
VERTEX
  8
0
 10
2.95888283
 20
3.73795872
  0
VERTEX
  8
0
 10
3.02266785
 20
3.60388730
  0
VERTEX
  8
0
 10
3.03941131
 20
3.57734620
  0
VERTEX
  8
0
 10
3.03968983
 20
3.54856585
  0
VERTEX
  8
0
 10
3.01841235
 20
3.58260982
  0
VERTEX
  8
0
 10
3.00990136
 20
3.62090929
  0
VERTEX
  8
0
 10
2.99287937
 20
3.62516479
  0
VERTEX
  8
0
 10
2.89532743
 20
3.88517073
  0
VERTEX
  8
0
 10
2.86468183
 20
4.03164052
  0
VERTEX
  8
0
 10
2.85244799
 20
4.19540132
  0
VERTEX
  8
0
 10
2.84039403
 20
4.20240449
  0
VERTEX
  8
0
 10
2.83968150
 20
4.21667880
  0
VERTEX
  8
0
 10
2.84758954
 20
4.22017868
  0
VERTEX
  8
0
 10
2.85244799
 20
4.22518980
  0
VERTEX
  8
0
 10
2.88223646
 20
4.45073111
  0
VERTEX
  8
0
 10
2.82691501
 20
4.43796462
  0
VERTEX
  8
0
 10
2.82265951
 20
4.38689867
  0
VERTEX
  8
0
 10
2.81426443
 20
4.38393785
  0
VERTEX
  8
0
 10
2.80989302
 20
4.37838767
  0
VERTEX
  8
0
 10
2.79441025
 20
4.30786292
  0
VERTEX
  8
0
 10
2.76733805
 20
4.25497827
  0
VERTEX
  8
0
 10
2.72080702
 20
4.09624719
  0
VERTEX
  8
0
 10
2.71201660
 20
3.90602756
  0
VERTEX
  8
0
 10
2.72052759
 20
3.78261816
  0
VERTEX
  8
0
 10
2.75457156
 20
3.70176372
  0
VERTEX
  8
0
 10
2.78861554
 20
3.62090929
  0
VERTEX
  8
0
 10
2.82424101
 20
3.53925876
  0
VERTEX
  8
0
 10
2.84819249
 20
3.45068943
  0
VERTEX
  8
0
 10
2.81211870
 20
3.49854227
  0
VERTEX
  8
0
 10
2.78436004
 20
3.55707684
  0
VERTEX
  8
0
 10
2.77159355
 20
3.56133234
  0
VERTEX
  8
0
 10
2.72040078
 20
3.73238617
  0
VERTEX
  8
0
 10
2.68648362
 20
3.92730504
  0
VERTEX
  8
0
 10
2.69335109
 20
4.09646816
  0
VERTEX
  8
0
 10
2.71627210
 20
4.25497827
  0
VERTEX
  8
0
 10
2.68678810
 20
4.26229943
  0
VERTEX
  8
0
 10
2.65669514
 20
4.25923377
  0
VERTEX
  8
0
 10
2.60670019
 20
4.16634054
  0
VERTEX
  8
0
 10
2.57158521
 20
4.05922543
  0
VERTEX
  8
0
 10
2.55881872
 20
3.97411550
  0
VERTEX
  8
0
 10
2.57158521
 20
3.86347259
  0
VERTEX
  8
0
 10
2.61510336
 20
3.65287403
  0
VERTEX
  8
0
 10
2.67797263
 20
3.46771141
  0
VERTEX
  8
0
 10
2.71201660
 20
3.37409049
  0
VERTEX
  8
0
 10
2.76733805
 20
3.17408215
  0
VERTEX
  8
0
 10
2.78010454
 20
3.16131566
  0
VERTEX
  8
0
 10
2.86095898
 20
2.72299952
  0
VERTEX
  8
0
 10
2.87895223
 20
2.62627958
  0
VERTEX
  8
0
 10
2.88649196
 20
2.52724668
  0
VERTEX
  8
0
 10
2.86946997
 20
2.16552947
  0
VERTEX
  8
0
 10
2.94066150
 20
2.27539597
  0
VERTEX
  8
0
 10
2.97160189
 20
2.42085927
  0
VERTEX
  8
0
 10
2.96062696
 20
2.63117388
  0
VERTEX
  8
0
 10
2.94181341
 20
2.83789793
  0
VERTEX
  8
0
 10
2.92904692
 20
2.84640892
  0
VERTEX
  8
0
 10
2.90303052
 20
2.95670320
  0
VERTEX
  8
0
 10
2.88649196
 20
3.07195024
  0
VERTEX
  8
0
 10
2.93568987
 20
2.96094817
  0
VERTEX
  8
0
 10
2.96825928
 20
2.83326205
  0
VERTEX
  8
0
 10
3.00750227
 20
2.55198808
  0
VERTEX
  8
0
 10
3.05220029
 20
2.27642928
  0
VERTEX
  8
0
 10
3.09158850
 20
2.15588710
  0
VERTEX
  8
0
 10
3.15033274
 20
2.05488656
  0
VERTEX
  8
0
 10
3.10632389
 20
2.52942746
  0
VERTEX
  8
0
 10
3.06097601
 20
2.74342155
  0
VERTEX
  8
0
 10
2.99287937
 20
2.93151885
  0
VERTEX
  8
0
 10
2.98090536
 20
2.95639765
  0
VERTEX
  8
0
 10
2.98011288
 20
2.97832931
  0
VERTEX
  8
0
 10
2.99191603
 20
2.96477103
  0
VERTEX
  8
0
 10
2.99713487
 20
2.94428534
  0
VERTEX
  8
0
 10
3.01841235
 20
2.92300786
  0
VERTEX
  8
0
 10
3.05245632
 20
2.83789793
  0
VERTEX
  8
0
 10
3.10025342
 20
2.70559193
  0
VERTEX
  8
0
 10
3.12905526
 20
2.55703515
  0
VERTEX
  8
0
 10
3.16309923
 20
2.54426866
  0
VERTEX
  8
0
 10
3.19200714
 20
2.41930846
  0
VERTEX
  8
0
 10
3.21866350
 20
2.36944116
  0
VERTEX
  8
0
 10
3.26097565
 20
2.33574933
  0
VERTEX
  8
0
 10
3.27004991
 20
2.31886214
  0
VERTEX
  8
0
 10
3.27374214
 20
2.29744987
  0
VERTEX
  8
0
 10
3.30948160
 20
2.27692203
  0
VERTEX
  8
0
 10
3.33535508
 20
2.24635518
  0
VERTEX
  8
0
 10
3.36127444
 20
2.21580270
  0
VERTEX
  8
0
 10
3.39715154
 20
2.19531795
  0
VERTEX
  8
0
 10
3.40566254
 20
2.17829596
  0
VERTEX
  8
0
 10
3.42694002
 20
2.16978497
  0
VERTEX
  8
0
 10
3.43119551
 20
2.15701848
  0
VERTEX
  8
0
 10
3.62694836
 20
2.05488656
  0
VERTEX
  8
0
 10
3.60141538
 20
2.06765305
  0
VERTEX
  8
0
 10
3.59119804
 20
2.08746680
  0
VERTEX
  8
0
 10
3.57588240
 20
2.10595252
  0
VERTEX
  8
0
 10
3.49304490
 20
2.15058672
  0
VERTEX
  8
0
 10
3.43119551
 20
2.22085093
  0
VERTEX
  8
0
 10
3.34608558
 20
2.35702682
  0
VERTEX
  8
0
 10
3.26844166
 20
2.50289971
  0
VERTEX
  8
0
 10
3.21416519
 20
2.65916707
  0
VERTEX
  8
0
 10
3.20581686
 20
2.66106029
  0
VERTEX
  8
0
 10
3.20139870
 20
2.66767806
  0
VERTEX
  8
0
 10
3.16228250
 20
2.82334157
  0
VERTEX
  8
0
 10
3.14564006
 20
2.90148196
  0
VERTEX
  8
0
 10
3.15033274
 20
2.98258481
  0
VERTEX
  8
0
 10
3.19910307
 20
2.83230365
  0
VERTEX
  8
0
 10
3.23544267
 20
2.66767806
  0
VERTEX
  8
0
 10
3.24820916
 20
2.65916707
  0
VERTEX
  8
0
 10
3.29569620
 20
2.53124163
  0
VERTEX
  8
0
 10
3.32419310
 20
2.47120704
  0
VERTEX
  8
0
 10
3.36310757
 20
2.42085927
  0
VERTEX
  8
0
 10
3.35885207
 20
2.40809278
  0
VERTEX
  8
0
 10
3.37587406
 20
2.40383728
  0
VERTEX
  8
0
 10
3.39394300
 20
2.35935505
  0
VERTEX
  8
0
 10
3.43119551
 20
2.33149384
  0
VERTEX
  8
0
 10
3.42985764
 20
2.32082185
  0
VERTEX
  8
0
 10
3.43545101
 20
2.31872735
  0
VERTEX
  8
0
 10
3.57271425
 20
2.23710321
  0
VERTEX
  8
0
 10
3.72718780
 20
2.17117939
  0
VERTEX
  8
0
 10
3.90494894
 20
2.13009133
  0
VERTEX
  8
0
 10
4.11207496
 20
2.12297451
  0
VERTEX
  8
0
 10
4.01419854
 20
2.13999649
  0
VERTEX
  8
0
 10
4.01419854
 20
2.15276298
  0
VERTEX
  8
0
 10
3.92053352
 20
2.18775322
  0
VERTEX
  8
0
 10
3.83546769
 20
2.22936192
  0
VERTEX
  8
0
 10
3.83121219
 20
2.24638391
  0
VERTEX
  8
0
 10
3.76584143
 20
2.29345762
  0
VERTEX
  8
0
 10
3.70780279
 20
2.34851582
  0
VERTEX
  8
0
 10
3.71205829
 20
2.36128231
  0
VERTEX
  8
0
 10
3.69503630
 20
2.36553781
  0
VERTEX
  8
0
 10
3.67184140
 20
2.40830310
  0
VERTEX
  8
0
 10
3.63545935
 20
2.43788125
  0
VERTEX
  8
0
 10
3.63120385
 20
2.48043622
  0
VERTEX
  8
0
 10
3.61418187
 20
2.48469171
  0
VERTEX
  8
0
 10
3.61239727
 20
2.51631856
  0
VERTEX
  8
0
 10
3.60141538
 20
2.54426866
  0
VERTEX
  8
0
 10
3.58864889
 20
2.55277966
  0
VERTEX
  8
0
 10
3.53332743
 20
2.75278800
  0
VERTEX
  8
0
 10
3.51630545
 20
2.76129899
  0
VERTEX
  8
0
 10
3.50779445
 20
2.82087594
  0
VERTEX
  8
0
 10
3.49077247
 20
2.82513144
  0
VERTEX
  8
0
 10
3.48651697
 20
2.85917541
  0
VERTEX
  8
0
 10
3.49429123
 20
2.85695968
  0
VERTEX
  8
0
 10
3.49502796
 20
2.85066442
  0
VERTEX
  8
0
 10
3.51204995
 20
2.83789793
  0
VERTEX
  8
0
 10
3.51204995
 20
2.82087594
  0
VERTEX
  8
0
 10
3.52481644
 20
2.82087594
  0
VERTEX
  8
0
 10
3.55886041
 20
2.71448853
  0
VERTEX
  8
0
 10
3.57588240
 20
2.70597753
  0
VERTEX
  8
0
 10
3.64397034
 20
2.50596920
  0
VERTEX
  8
0
 10
3.65673683
 20
2.49745820
  0
VERTEX
  8
0
 10
3.67152771
 20
2.46782330
  0
VERTEX
  8
0
 10
3.70354729
 20
2.45490324
  0
VERTEX
  8
0
 10
3.73937854
 20
2.41047318
  0
VERTEX
  8
0
 10
3.78748999
 20
2.37324909
  0
VERTEX
  8
0
 10
3.89504464
 20
2.31447185
  0
VERTEX
  8
0
 10
3.95887709
 20
2.28042788
  0
VERTEX
  8
0
 10
4.02696503
 20
2.26340589
  0
VERTEX
  8
0
 10
4.09930847
 20
2.24638391
  0
VERTEX
  8
0
 10
4.23548436
 20
2.21659543
  0
VERTEX
  8
0
 10
4.14186344
 20
2.25063940
  0
VERTEX
  8
0
 10
4.14186344
 20
2.26766139
  0
VERTEX
  8
0
 10
4.06100900
 20
2.30596086
  0
VERTEX
  8
0
 10
4.06100900
 20
2.31872735
  0
VERTEX
  8
0
 10
3.97969721
 20
2.35770520
  0
VERTEX
  8
0
 10
3.91206662
 20
2.40809278
  0
VERTEX
  8
0
 10
3.90474169
 20
2.42414430
  0
VERTEX
  8
0
 10
3.89930013
 20
2.43788125
  0
VERTEX
  8
0
 10
3.81844570
 20
2.50171370
  0
VERTEX
  8
0
 10
3.75886875
 20
2.59533462
  0
VERTEX
  8
0
 10
3.74184676
 20
2.59533462
  0
VERTEX
  8
0
 10
3.72482478
 20
2.63788959
  0
VERTEX
  8
0
 10
3.68542643
 20
2.68572062
  0
VERTEX
  8
0
 10
3.66099233
 20
2.74853250
  0
VERTEX
  8
0
 10
3.63971484
 20
2.75704349
  0
VERTEX
  8
0
 10
3.62694836
 20
2.80385395
  0
VERTEX
  8
0
 10
3.61418187
 20
2.80810945
  0
VERTEX
  8
0
 10
3.54445875
 20
2.93989415
  0
VERTEX
  8
0
 10
3.48226147
 20
3.08046123
  0
VERTEX
  8
0
 10
3.55404792
 20
2.99601973
  0
VERTEX
  8
0
 10
3.60992637
 20
2.89321938
  0
VERTEX
  8
0
 10
3.62694836
 20
2.88470839
  0
VERTEX
  8
0
 10
3.66099233
 20
2.79959846
  0
VERTEX
  8
0
 10
3.67375882
 20
2.79534296
  0
VERTEX
  8
0
 10
3.71683146
 20
2.70431704
  0
VERTEX
  8
0
 10
3.74490798
 20
2.66540435
  0
VERTEX
  8
0
 10
3.78440173
 20
2.63788959
  0
VERTEX
  8
0
 10
3.78014623
 20
2.62086760
  0
VERTEX
  8
0
 10
3.85514845
 20
2.55730304
  0
VERTEX
  8
0
 10
3.89115646
 20
2.52439256
  0
VERTEX
  8
0
 10
3.93759960
 20
2.50171370
  0
VERTEX
  8
0
 10
3.98733860
 20
2.45305037
  0
VERTEX
  8
0
 10
4.05621173
 20
2.41698644
  0
VERTEX
  8
0
 10
4.21420688
 20
2.36979331
  0
VERTEX
  8
0
 10
4.36235135
 20
2.33796427
  0
VERTEX
  8
0
 10
4.51209164
 20
2.32298284
  0
VERTEX
  8
0
 10
4.30028089
 20
2.40623382
  0
VERTEX
  8
0
 10
4.10356397
 20
2.50596920
  0
VERTEX
  8
0
 10
4.10356397
 20
2.52299118
  0
VERTEX
  8
0
 10
4.03847078
 20
2.55482283
  0
VERTEX
  8
0
 10
4.01251470
 20
2.57804930
  0
VERTEX
  8
0
 10
3.99717655
 20
2.61235661
  0
VERTEX
  8
0
 10
3.97589907
 20
2.62086760
  0
VERTEX
  8
0
 10
3.96784820
 20
2.63323344
  0
VERTEX
  8
0
 10
3.95036609
 20
2.63788959
  0
VERTEX
  8
0
 10
3.94096655
 20
2.65637983
  0
VERTEX
  8
0
 10
3.92057762
 20
2.66767806
  0
VERTEX
  8
0
 10
3.89652379
 20
2.69972546
  0
VERTEX
  8
0
 10
3.86951166
 20
2.73151051
  0
VERTEX
  8
0
 10
3.85248967
 20
2.73151051
  0
VERTEX
  8
0
 10
3.83793869
 20
2.76585359
  0
VERTEX
  8
0
 10
3.83546769
 20
2.80385395
  0
VERTEX
  8
0
 10
3.86185512
 20
2.79792993
  0
VERTEX
  8
0
 10
3.87802265
 20
2.77406548
  0
VERTEX
  8
0
 10
3.92045165
 20
2.72109827
  0
VERTEX
  8
0
 10
3.97164357
 20
2.68470005
  0
VERTEX
  8
0
 10
3.97164357
 20
2.67193356
  0
VERTEX
  8
0
 10
4.00188388
 20
2.65057873
  0
VERTEX
  8
0
 10
4.02270953
 20
2.62086760
  0
VERTEX
  8
0
 10
4.05249801
 20
2.61661211
  0
VERTEX
  8
0
 10
4.12778156
 20
2.54791958
  0
VERTEX
  8
0
 10
4.23257317
 20
2.50740952
  0
VERTEX
  8
0
 10
4.35584237
 20
2.48745678
  0
VERTEX
  8
0
 10
4.48655866
 20
2.48043622
  0
VERTEX
  8
0
 10
4.31633879
 20
2.53150218
  0
VERTEX
  8
0
 10
4.26873048
 20
2.60519977
  0
VERTEX
  8
0
 10
4.20144039
 20
2.65916707
  0
VERTEX
  8
0
 10
4.13525300
 20
2.71295559
  0
VERTEX
  8
0
 10
4.08654198
 20
2.78257647
  0
VERTEX
  8
0
 10
4.07377549
 20
2.78683197
  0
VERTEX
  8
0
 10
4.04824251
 20
2.83789793
  0
VERTEX
  8
0
 10
4.04055730
 20
2.85140849
  0
VERTEX
  8
0
 10
4.02696503
 20
2.85917541
  0
VERTEX
  8
0
 10
4.02270953
 20
2.85066442
  0
VERTEX
  8
0
 10
4.00143205
 20
2.85066442
  0
VERTEX
  8
0
 10
4.00406296
 20
2.86659120
  0
VERTEX
  8
0
 10
4.01845404
 20
2.87194190
  0
VERTEX
  8
0
 10
4.02223786
 20
2.88613355
  0
VERTEX
  8
0
 10
4.03122053
 20
2.89321938
  0
VERTEX
  8
0
 10
4.05864135
 20
2.88286560
  0
VERTEX
  8
0
 10
4.08228648
 20
2.86768640
  0
VERTEX
  8
0
 10
4.12934222
 20
2.78930553
  0
VERTEX
  8
0
 10
4.18867390
 20
2.72299952
  0
VERTEX
  8
0
 10
4.20552609
 20
2.69584099
  0
VERTEX
  8
0
 10
4.23548436
 20
2.68044455
  0
VERTEX
  8
0
 10
4.26367463
 20
2.63749018
  0
VERTEX
  8
0
 10
4.30530400
 20
2.60463822
  0
VERTEX
  8
0
 10
4.41902520
 20
2.56476713
  0
VERTEX
  8
0
 10
4.55693827
 20
2.55188239
  0
VERTEX
  8
0
 10
4.69933348
 20
2.55703515
  0
VERTEX
  8
0
 10
4.49506965
 20
2.61235661
  0
VERTEX
  8
0
 10
4.41421521
 20
2.62086760
  0
VERTEX
  8
0
 10
4.35038277
 20
2.65491157
  0
VERTEX
  8
0
 10
4.16314092
 20
2.76129899
  0
VERTEX
  8
0
 10
4.16739642
 20
2.80385395
  0
VERTEX
  8
0
 10
4.20995138
 20
2.79959846
  0
VERTEX
  8
0
 10
4.21420688
 20
2.78257647
  0
VERTEX
  8
0
 10
4.29080582
 20
2.74853250
  0
VERTEX
  8
0
 10
4.33722807
 20
2.69719183
  0
VERTEX
  8
0
 10
4.41160319
 20
2.66668249
  0
VERTEX
  8
0
 10
4.60145706
 20
2.64214509
  0
VERTEX
  8
0
 10
4.78736987
 20
2.64295554
  0
VERTEX
  8
0
 10
4.94615228
 20
2.67618906
  0
VERTEX
  8
0
 10
4.68231150
 20
2.70597753
  0
VERTEX
  8
0
 10
4.49932515
 20
2.74427700
  0
VERTEX
  8
0
 10
4.43974819
 20
2.75704349
  0
VERTEX
  8
0
 10
4.37591575
 20
2.80810945
  0
VERTEX
  8
0
 10
4.15218317
 20
2.99154508
  0
VERTEX
  8
0
 10
4.05583530
 20
3.09637986
  0
VERTEX
  8
0
 10
3.98015457
 20
3.21663712
  0
VERTEX
  8
0
 10
3.96313258
 20
3.22089261
  0
VERTEX
  8
0
 10
3.96313258
 20
3.23791460
  0
VERTEX
  8
0
 10
3.95036609
 20
3.24217010
  0
VERTEX
  8
0
 10
3.92908861
 20
3.30174705
  0
VERTEX
  8
0
 10
3.91206662
 20
3.31025804
  0
VERTEX
  8
0
 10
3.90184476
 20
3.35492820
  0
VERTEX
  8
0
 10
3.90865935
 20
3.37372194
  0
VERTEX
  8
0
 10
3.93334411
 20
3.37834599
  0
VERTEX
  8
0
 10
3.96567822
 20
3.29198898
  0
VERTEX
  8
0
 10
4.00568755
 20
3.21238162
  0
VERTEX
  8
0
 10
4.02696503
 20
3.20387063
  0
VERTEX
  8
0
 10
4.03482009
 20
3.17867814
  0
VERTEX
  8
0
 10
4.05249801
 20
3.16131566
  0
VERTEX
  8
0
 10
4.04824251
 20
3.14429368
  0
VERTEX
  8
0
 10
4.06526450
 20
3.14429368
  0
VERTEX
  8
0
 10
4.09079748
 20
3.09748321
  0
VERTEX
  8
0
 10
4.10570342
 20
3.09170914
  0
VERTEX
  8
0
 10
4.11207496
 20
3.07620573
  0
VERTEX
  8
0
 10
4.13760794
 20
3.06769474
  0
VERTEX
  8
0
 10
4.13335244
 20
3.05067275
  0
VERTEX
  8
0
 10
4.26326360
 20
2.92714744
  0
VERTEX
  8
0
 10
4.33211173
 20
2.86942788
  0
VERTEX
  8
0
 10
4.41421521
 20
2.82513144
  0
VERTEX
  8
0
 10
4.43549270
 20
2.82513144
  0
VERTEX
  8
0
 10
4.48606675
 20
2.79072506
  0
VERTEX
  8
0
 10
4.55410392
 20
2.77233397
  0
VERTEX
  8
0
 10
4.71635547
 20
2.75704349
  0
VERTEX
  8
0
 10
4.94189679
 20
2.75704349
  0
VERTEX
  8
0
 10
5.01849572
 20
2.75704349
  0
VERTEX
  8
0
 10
5.09935016
 20
2.77406548
  0
VERTEX
  8
0
 10
5.29510300
 20
2.82513144
  0
VERTEX
  8
0
 10
5.31890096
 20
2.82675134
  0
VERTEX
  8
0
 10
5.32914697
 20
2.83789793
  0
VERTEX
  8
0
 10
4.84827586
 20
2.85066442
  0
VERTEX
  8
0
 10
4.84402037
 20
2.86343091
  0
VERTEX
  8
0
 10
4.77167692
 20
2.86768640
  0
VERTEX
  8
0
 10
4.76742143
 20
2.88045289
  0
VERTEX
  8
0
 10
4.52911362
 20
2.93577435
  0
VERTEX
  8
0
 10
4.42186096
 20
2.97429297
  0
VERTEX
  8
0
 10
4.37695594
 20
3.00294862
  0
VERTEX
  8
0
 10
4.34187177
 20
3.04216176
  0
VERTEX
  8
0
 10
4.34612727
 20
3.05067275
  0
VERTEX
  8
0
 10
4.39145260
 20
3.04616888
  0
VERTEX
  8
0
 10
4.43055701
 20
3.02918505
  0
VERTEX
  8
0
 10
4.49932515
 20
2.99109580
  0
VERTEX
  8
0
 10
4.58017958
 20
2.96981832
  0
VERTEX
  8
0
 10
4.69714829
 20
2.93688040
  0
VERTEX
  8
0
 10
4.81423189
 20
2.91449686
  0
VERTEX
  8
0
 10
4.70358898
 20
2.96556282
  0
VERTEX
  8
0
 10
4.69728026
 20
2.98189659
  0
VERTEX
  8
0
 10
4.67805600
 20
2.99109580
  0
VERTEX
  8
0
 10
4.68231150
 20
3.02939527
  0
VERTEX
  8
0
 10
4.76316593
 20
3.01662878
  0
VERTEX
  8
0
 10
4.98096187
 20
2.96910568
  0
VERTEX
  8
0
 10
5.21850406
 20
2.95279633
  0
VERTEX
  8
0
 10
5.06825083
 20
2.99719882
  0
VERTEX
  8
0
 10
4.92913030
 20
3.05492825
  0
VERTEX
  8
0
 10
4.92487480
 20
3.07195024
  0
VERTEX
  8
0
 10
4.82944960
 20
3.11057663
  0
VERTEX
  8
0
 10
4.74614394
 20
3.15706017
  0
VERTEX
  8
0
 10
4.72061097
 20
3.17408215
  0
VERTEX
  8
0
 10
4.73258391
 20
3.18421949
  0
VERTEX
  8
0
 10
4.75039944
 20
3.18259315
  0
VERTEX
  8
0
 10
4.84402037
 20
3.15706017
  0
VERTEX
  8
0
 10
4.84827586
 20
3.14429368
  0
VERTEX
  8
0
 10
4.97168526
 20
3.08471673
  0
VERTEX
  8
0
 10
5.09509466
 20
3.02939527
  0
VERTEX
  8
0
 10
5.10360565
 20
3.02939527
  0
VERTEX
  8
0
 10
5.30474343
 20
3.00618909
  0
VERTEX
  8
0
 10
5.51728917
 20
3.00006862
  0
VERTEX
  8
0
 10
5.71980988
 20
3.01925022
  0
VERTEX
  8
0
 10
5.89087251
 20
3.07195024
  0
VERTEX
  8
0
 10
5.51656319
 20
3.07434757
  0
VERTEX
  8
0
 10
5.34679122
 20
3.09657141
  0
VERTEX
  8
0
 10
5.20148207
 20
3.14429368
  0
VERTEX
  8
0
 10
5.19883212
 20
3.15180548
  0
VERTEX
  8
0
 10
5.19297108
 20
3.15706017
  0
VERTEX
  8
0
 10
5.08089769
 20
3.20446736
  0
VERTEX
  8
0
 10
4.98445175
 20
3.26770308
  0
VERTEX
  8
0
 10
4.98208952
 20
3.27628136
  0
VERTEX
  8
0
 10
4.97594076
 20
3.28046957
  0
VERTEX
  8
0
 10
4.95040778
 20
3.28898056
  0
VERTEX
  8
0
 10
4.94615228
 20
3.30174705
  0
VERTEX
  8
0
 10
4.80835180
 20
3.34480241
  0
VERTEX
  8
0
 10
4.68231150
 20
3.39536797
  0
VERTEX
  8
0
 10
4.66409893
 20
3.40362374
  0
VERTEX
  8
0
 10
4.65252302
 20
3.42090095
  0
VERTEX
  8
0
 10
4.81479763
 20
3.37919054
  0
VERTEX
  8
0
 10
4.95833279
 20
3.31925597
  0
VERTEX
  8
0
 10
5.22701505
 20
3.18259315
  0
VERTEX
  8
0
 10
5.23127055
 20
3.16982666
  0
VERTEX
  8
0
 10
5.36319094
 20
3.14429368
  0
VERTEX
  8
0
 10
5.35376082
 20
3.15311926
  0
VERTEX
  8
0
 10
5.35042445
 20
3.16557116
  0
VERTEX
  8
0
 10
5.32063598
 20
3.16982666
  0
VERTEX
  8
0
 10
5.22275956
 20
3.25919208
  0
VERTEX
  8
0
 10
5.21850406
 20
3.23791460
  0
VERTEX
  8
0
 10
5.13005697
 20
3.26637063
  0
VERTEX
  8
0
 10
5.09685047
 20
3.29184510
  0
VERTEX
  8
0
 10
5.07381718
 20
3.32728003
  0
VERTEX
  8
0
 10
5.05679519
 20
3.33153552
  0
VERTEX
  8
0
 10
5.06105069
 20
3.34430201
  0
VERTEX
  8
0
 10
5.00396177
 20
3.40027121
  0
VERTEX
  8
0
 10
4.96742976
 20
3.48047790
  0
VERTEX
  8
0
 10
4.90928686
 20
3.69840959
  0
VERTEX
  8
0
 10
4.86529785
 20
3.91879405
  0
VERTEX
  8
0
 10
4.84827586
 20
3.93156054
  0
VERTEX
  8
0
 10
4.82699838
 20
4.01241497
  0
VERTEX
  8
0
 10
4.80997639
 20
4.02092596
  0
VERTEX
  8
0
 10
4.79295441
 20
4.08475841
  0
VERTEX
  8
0
 10
4.83687618
 20
4.02736937
  0
VERTEX
  8
0
 10
4.86529785
 20
3.95709352
  0
VERTEX
  8
0
 10
4.87806434
 20
3.94858252
  0
VERTEX
  8
0
 10
4.87380884
 20
3.92304954
  0
VERTEX
  8
0
 10
4.89083083
 20
3.92304954
  0
VERTEX
  8
0
 10
4.93980308
 20
3.72935163
  0
VERTEX
  8
0
 10
4.99296274
 20
3.54431035
  0
SEQEND
  0
POLYLINE
  8
Default_Layer
 66
   1
 39
0.000000
 70
    1
  0
VERTEX
  8
0
 10
3.28650863
 20
4.51030807
  0
VERTEX
  8
0
 10
3.31204161
 20
4.50605257
  0
VERTEX
  8
0
 10
3.31629711
 20
4.52307456
  0
VERTEX
  8
0
 10
3.29076413
 20
4.52307456
  0
VERTEX
  8
0
 10
3.28650863
 20
4.51030807
  0
SEQEND
  0
POLYLINE
  8
Default_Layer
 66
   1
 39
0.000000
 70
    1
  0
VERTEX
  8
0
 10
5.21424856
 20
2.89321938
  0
VERTEX
  8
0
 10
5.05315148
 20
2.93229154
  0
VERTEX
  8
0
 10
4.87380884
 20
2.94428534
  0
VERTEX
  8
0
 10
4.90359732
 20
2.93151885
  0
VERTEX
  8
0
 10
4.93338579
 20
2.91875236
  0
VERTEX
  8
0
 10
4.99721824
 20
2.90173037
  0
VERTEX
  8
0
 10
5.01424023
 20
2.91449686
  0
VERTEX
  8
0
 10
5.03126221
 20
2.90173037
  0
VERTEX
  8
0
 10
5.05679519
 20
2.89321938
  0
VERTEX
  8
0
 10
5.06105069
 20
2.87619739
  0
VERTEX
  8
0
 10
5.21424856
 20
2.87194190
  0
VERTEX
  8
0
 10
5.22794765
 20
2.86965787
  0
VERTEX
  8
0
 10
5.23978154
 20
2.87619739
  0
VERTEX
  8
0
 10
5.23072675
 20
2.88885861
  0
VERTEX
  8
0
 10
5.21424856
 20
2.89321938
  0
SEQEND
  0
POLYLINE
  8
Default_Layer
 66
   1
 39
0.000000
 70
    1
  0
VERTEX
  8
0
 10
5.29510300
 20
2.77832097
  0
VERTEX
  8
0
 10
5.23552605
 20
2.76980998
  0
VERTEX
  8
0
 10
5.19297108
 20
2.75278800
  0
VERTEX
  8
0
 10
5.21846492
 20
2.74938654
  0
VERTEX
  8
0
 10
5.24319695
 20
2.75846063
  0
VERTEX
  8
0
 10
5.26728516
 20
2.76789001
  0
VERTEX
  8
0
 10
5.29084750
 20
2.76555448
  0
VERTEX
  8
0
 10
5.29510300
 20
2.73151051
  0
VERTEX
  8
0
 10
5.09083916
 20
2.66767806
  0
VERTEX
  8
0
 10
4.86529785
 20
2.62086760
  0
VERTEX
  8
0
 10
4.77656330
 20
2.61523556
  0
VERTEX
  8
0
 10
4.69082249
 20
2.59959012
  0
VERTEX
  8
0
 10
4.92701601
 20
2.57747335
  0
VERTEX
  8
0
 10
5.16743810
 20
2.59107913
  0
VERTEX
  8
0
 10
5.15892711
 20
2.54426866
  0
VERTEX
  8
0
 10
4.80146540
 20
2.51873569
  0
VERTEX
  8
0
 10
4.82699838
 20
2.47618072
  0
VERTEX
  8
0
 10
4.92415492
 20
2.32979498
  0
VERTEX
  8
0
 10
5.03622582
 20
2.19811966
  0
VERTEX
  8
0
 10
5.28659201
 20
1.96126564
  0
VERTEX
  8
0
 10
5.36319094
 20
1.89317769
  0
VERTEX
  8
0
 10
5.41000140
 20
1.86338922
  0
VERTEX
  8
0
 10
5.50087737
 20
1.76656231
  0
VERTEX
  8
0
 10
5.58447676
 20
1.66338088
  0
VERTEX
  8
0
 10
5.62630042
 20
1.62224566
  0
VERTEX
  8
0
 10
5.67384219
 20
1.59954843
  0
VERTEX
  8
0
 10
5.71639716
 20
1.61657042
  0
VERTEX
  8
0
 10
5.78874060
 20
1.62508141
  0
VERTEX
  8
0
 10
5.81243238
 20
1.66178427
  0
VERTEX
  8
0
 10
5.84406205
 20
1.68891386
  0
VERTEX
  8
0
 10
5.73337143
 20
1.98581922
  0
VERTEX
  8
0
 10
5.61000974
 20
2.26766139
  0
VERTEX
  8
0
 10
5.56745478
 20
2.34426033
  0
VERTEX
  8
0
 10
5.55894378
 20
2.39532629
  0
VERTEX
  8
0
 10
5.52171523
 20
2.47787529
  0
VERTEX
  8
0
 10
5.46874540
 20
2.54665073
  0
VERTEX
  8
0
 10
5.41725592
 20
2.61742676
  0
VERTEX
  8
0
 10
5.38446843
 20
2.70597753
  0
VERTEX
  8
0
 10
5.33376998
 20
2.73519088
  0
VERTEX
  8
0
 10
5.29510300
 20
2.77832097
  0
SEQEND
  0
POLYLINE
  8
Default_Layer
 66
   1
 39
0.000000
 70
    1
  0
VERTEX
  8
0
 10
4.98870725
 20
2.71448853
  0
VERTEX
  8
0
 10
4.98870725
 20
2.71023303
  0
VERTEX
  8
0
 10
5.14190512
 20
2.73576601
  0
VERTEX
  8
0
 10
5.16923440
 20
2.73912668
  0
VERTEX
  8
0
 10
5.18446009
 20
2.75278800
  0
VERTEX
  8
0
 10
5.08274415
 20
2.74126688
  0
VERTEX
  8
0
 10
4.98870725
 20
2.71448853
  0
SEQEND
  0
POLYLINE
  8
Default_Layer
 66
   1
 39
0.000000
 70
    1
  0
VERTEX
  8
0
 10
3.97589907
 20
2.23361742
  0
VERTEX
  8
0
 10
3.87126737
 20
2.27306805
  0
VERTEX
  8
0
 10
3.78865722
 20
2.33149384
  0
VERTEX
  8
0
 10
3.78440173
 20
2.33149384
  0
VERTEX
  8
0
 10
3.78014623
 20
2.32723834
  0
VERTEX
  8
0
 10
3.85983790
 20
2.26561710
  0
VERTEX
  8
0
 10
3.95036609
 20
2.21659543
  0
VERTEX
  8
0
 10
4.02270953
 20
2.19531795
  0
VERTEX
  8
0
 10
4.02696503
 20
2.20808444
  0
VERTEX
  8
0
 10
3.97589907
 20
2.23361742
  0
SEQEND
  0
POLYLINE
  8
Default_Layer
 66
   1
 39
0.000000
 70
    1
  0
VERTEX
  8
0
 10
3.54183842
 20
2.20382894
  0
VERTEX
  8
0
 10
3.52481644
 20
2.20382894
  0
VERTEX
  8
0
 10
3.58864889
 20
2.15276298
  0
VERTEX
  8
0
 10
3.66099233
 20
2.10169702
  0
VERTEX
  8
0
 10
3.72706141
 20
2.04583640
  0
VERTEX
  8
0
 10
3.77163524
 20
1.96977663
  0
VERTEX
  8
0
 10
3.71631378
 20
1.96977663
  0
VERTEX
  8
0
 10
3.76433461
 20
1.68788222
  0
VERTEX
  8
0
 10
3.79698886
 20
1.55552204
  0
VERTEX
  8
0
 10
3.84397868
 20
1.43783956
  0
VERTEX
  8
0
 10
3.96313258
 20
1.42932857
  0
VERTEX
  8
0
 10
4.09079748
 20
1.46337254
  0
VERTEX
  8
0
 10
4.10356397
 20
1.53571599
  0
VERTEX
  8
0
 10
4.13091019
 20
1.62493583
  0
VERTEX
  8
0
 10
4.13307025
 20
1.73265946
  0
VERTEX
  8
0
 10
4.09505297
 20
1.93998816
  0
VERTEX
  8
0
 10
4.07555812
 20
1.99643274
  0
VERTEX
  8
0
 10
4.04824251
 20
2.03786458
  0
VERTEX
  8
0
 10
4.04824251
 20
2.07616405
  0
VERTEX
  8
0
 10
3.77359053
 20
2.11780610
  0
VERTEX
  8
0
 10
3.65021169
 20
2.15302450
  0
VERTEX
  8
0
 10
3.54183842
 20
2.20382894
  0
SEQEND
  0
POLYLINE
  8
Default_Layer
 66
   1
 39
0.000000
 70
    1
  0
VERTEX
  8
0
 10
5.91640549
 20
1.77402379
  0
VERTEX
  8
0
 10
5.87810602
 20
1.76551280
  0
VERTEX
  8
0
 10
5.88236152
 20
1.70593585
  0
VERTEX
  8
0
 10
5.94619397
 20
1.70168035
  0
VERTEX
  8
0
 10
5.93856354
 20
1.74448682
  0
VERTEX
  8
0
 10
5.91640549
 20
1.77402379
  0
SEQEND
  0
POLYLINE
  8
Default_Layer
 66
   1
 39
0.000000
 70
    1
  0
VERTEX
  8
0
 10
5.92917198
 20
1.54422698
  0
VERTEX
  8
0
 10
5.95896046
 20
1.57401545
  0
VERTEX
  8
0
 10
5.94683820
 20
1.62527185
  0
VERTEX
  8
0
 10
5.90789450
 20
1.65486989
  0
VERTEX
  8
0
 10
5.87455437
 20
1.65233340
  0
VERTEX
  8
0
 10
5.84828521
 20
1.63667424
  0
VERTEX
  8
0
 10
5.81852907
 20
1.58678194
  0
VERTEX
  8
0
 10
5.83980656
 20
1.51018301
  0
VERTEX
  8
0
 10
5.90363900
 20
1.50167201
  0
VERTEX
  8
0
 10
5.92917198
 20
1.54422698
  0
SEQEND
  0
POLYLINE
  8
Default_Layer
 66
   1
 39
0.000000
 70
    1
  0
VERTEX
  8
0
 10
5.58873226
 20
1.59529294
  0
VERTEX
  8
0
 10
5.56670549
 20
1.56085352
  0
VERTEX
  8
0
 10
5.55468829
 20
1.51443850
  0
VERTEX
  8
0
 10
5.58983661
 20
1.47806098
  0
VERTEX
  8
0
 10
5.61150166
 20
1.46621678
  0
VERTEX
  8
0
 10
5.63979822
 20
1.47188354
  0
VERTEX
  8
0
 10
5.63503759
 20
1.55515499
  0
VERTEX
  8
0
 10
5.61986598
 20
1.58335235
  0
VERTEX
  8
0
 10
5.58873226
 20
1.59529294
  0
SEQEND
  0
POLYLINE
  8
Default_Layer
 66
   1
 39
0.000000
 70
    1
  0
VERTEX
  8
0
 10
5.66958669
 20
1.48890552
  0
VERTEX
  8
0
 10
5.68537044
 20
1.47458179
  0
VERTEX
  8
0
 10
5.68660868
 20
1.44635056
  0
VERTEX
  8
0
 10
5.72205794
 20
1.43696576
  0
VERTEX
  8
0
 10
5.75604264
 20
1.44230970
  0
VERTEX
  8
0
 10
5.78190721
 20
1.46031281
  0
VERTEX
  8
0
 10
5.79299609
 20
1.48890552
  0
VERTEX
  8
0
 10
5.77597411
 20
1.49316102
  0
VERTEX
  8
0
 10
5.78874060
 20
1.56124896
  0
VERTEX
  8
0
 10
5.75044113
 20
1.56550446
  0
VERTEX
  8
0
 10
5.75895212
 20
1.59529294
  0
VERTEX
  8
0
 10
5.72229622
 20
1.58315782
  0
VERTEX
  8
0
 10
5.69736051
 20
1.55917425
  0
VERTEX
  8
0
 10
5.66958669
 20
1.48890552
  0
SEQEND
  0
POLYLINE
  8
Default_Layer
 66
   1
 39
0.000000
 70
    1
  0
VERTEX
  8
0
 10
4.16739642
 20
1.54422698
  0
VERTEX
  8
0
 10
4.16314092
 20
1.45060605
  0
VERTEX
  8
0
 10
4.13760794
 20
1.45060605
  0
VERTEX
  8
0
 10
4.15508638
 20
1.43236120
  0
VERTEX
  8
0
 10
4.18867390
 20
1.42932857
  0
VERTEX
  8
0
 10
4.21025150
 20
1.46167258
  0
VERTEX
  8
0
 10
4.21420688
 20
1.51443850
  0
VERTEX
  8
0
 10
4.19953224
 20
1.52084749
  0
VERTEX
  8
0
 10
4.19330851
 20
1.53620574
  0
VERTEX
  8
0
 10
4.18583134
 20
1.54812749
  0
VERTEX
  8
0
 10
4.16739642
 20
1.54422698
  0
SEQEND
  0
POLYLINE
  8
Default_Layer
 66
   1
 39
0.000000
 70
    1
  0
VERTEX
  8
0
 10
6.44408706
 20
0.75270462
  0
VERTEX
  8
0
 10
6.35979642
 20
0.91587813
  0
VERTEX
  8
0
 10
6.29940018
 20
1.10165534
  0
VERTEX
  8
0
 10
6.28237820
 20
1.16548779
  0
VERTEX
  8
0
 10
6.25258972
 20
1.21655374
  0
VERTEX
  8
0
 10
6.12861875
 20
1.37573682
  0
VERTEX
  8
0
 10
5.98023794
 20
1.50592751
  0
VERTEX
  8
0
 10
5.91439637
 20
1.47640681
  0
VERTEX
  8
0
 10
5.87290416
 20
1.46712596
  0
VERTEX
  8
0
 10
5.82704007
 20
1.47188354
  0
VERTEX
  8
0
 10
5.79134273
 20
1.42056869
  0
VERTEX
  8
0
 10
5.72490815
 20
1.39954010
  0
VERTEX
  8
0
 10
5.73051599
 20
1.36144452
  0
VERTEX
  8
0
 10
5.75044113
 20
1.33145215
  0
VERTEX
  8
0
 10
5.75962158
 20
1.23787763
  0
VERTEX
  8
0
 10
5.74374883
 20
1.13525174
  0
VERTEX
  8
0
 10
5.73228610
 20
1.03391351
  0
VERTEX
  8
0
 10
5.75469662
 20
0.94420197
  0
VERTEX
  8
0
 10
5.89938351
 20
0.91441349
  0
VERTEX
  8
0
 10
5.88158239
 20
0.99464710
  0
VERTEX
  8
0
 10
5.83555106
 20
1.04633388
  0
VERTEX
  8
0
 10
5.79299609
 20
1.10165534
  0
VERTEX
  8
0
 10
5.80150709
 20
1.11867732
  0
VERTEX
  8
0
 10
5.84091413
 20
1.11270722
  0
VERTEX
  8
0
 10
5.86943071
 20
1.09542437
  0
VERTEX
  8
0
 10
5.90369385
 20
1.03775922
  0
VERTEX
  8
0
 10
5.92409920
 20
0.96735941
  0
VERTEX
  8
0
 10
5.95044947
 20
0.90590250
  0
VERTEX
  8
0
 10
5.98023794
 20
0.88036952
  0
VERTEX
  8
0
 10
6.01667618
 20
0.76419737
  0
VERTEX
  8
0
 10
6.07353263
 20
0.66888235
  0
VERTEX
  8
0
 10
6.16140454
 20
0.60483973
  0
VERTEX
  8
0
 10
6.29088919
 20
0.58248476
  0
VERTEX
  8
0
 10
6.27977697
 20
0.61867265
  0
VERTEX
  8
0
 10
6.26961171
 20
0.64631721
  0
VERTEX
  8
0
 10
6.33222650
 20
0.61225345
  0
VERTEX
  8
0
 10
6.39302111
 20
0.56546277
  0
VERTEX
  8
0
 10
6.43128113
 20
0.55125454
  0
VERTEX
  8
0
 10
6.47036412
 20
0.55218233
  0
VERTEX
  8
0
 10
6.54196348
 20
0.58248476
  0
VERTEX
  8
0
 10
6.55707337
 20
0.61457706
  0
VERTEX
  8
0
 10
6.56324097
 20
0.65057271
  0
VERTEX
  8
0
 10
6.53344740
 20
0.68773710
  0
VERTEX
  8
0
 10
6.47477770
 20
0.70136376
  0
VERTEX
  8
0
 10
6.33769965
 20
0.70589416
  0
VERTEX
  8
0
 10
6.33344415
 20
0.72717164
  0
VERTEX
  8
0
 10
6.39879879
 20
0.72380757
  0
VERTEX
  8
0
 10
6.45685355
 20
0.73142714
  0
VERTEX
  8
0
 10
6.44408706
 20
0.75270462
  0
SEQEND
  0
POLYLINE
  8
Default_Layer
 66
   1
 39
0.000000
 70
    1
  0
VERTEX
  8
0
 10
3.72482478
 20
1.45911705
  0
VERTEX
  8
0
 10
3.71205829
 20
1.39528460
  0
VERTEX
  8
0
 10
3.73661979
 20
1.35572258
  0
VERTEX
  8
0
 10
3.75463527
 20
1.33938970
  0
VERTEX
  8
0
 10
3.78014623
 20
1.33570765
  0
VERTEX
  8
0
 10
3.80567921
 20
1.41656208
  0
VERTEX
  8
0
 10
3.77589073
 20
1.45486155
  0
VERTEX
  8
0
 10
3.72482478
 20
1.45911705
  0
SEQEND
  0
POLYLINE
  8
Default_Layer
 66
   1
 39
0.000000
 70
    1
  0
VERTEX
  8
0
 10
4.06526450
 20
1.33570765
  0
VERTEX
  8
0
 10
4.09474754
 20
1.33982303
  0
VERTEX
  8
0
 10
4.11207496
 20
1.35698513
  0
VERTEX
  8
0
 10
4.10971232
 20
1.37814257
  0
VERTEX
  8
0
 10
4.09367111
 20
1.39571398
  0
VERTEX
  8
0
 10
4.04824251
 20
1.41656208
  0
VERTEX
  8
0
 10
4.02270953
 20
1.37826261
  0
VERTEX
  8
0
 10
4.04354051
 20
1.35367669
  0
VERTEX
  8
0
 10
4.06526450
 20
1.33570765
  0
SEQEND
  0
POLYLINE
  8
Default_Layer
 66
   1
 39
0.000000
 70
    1
  0
VERTEX
  8
0
 10
3.89504464
 20
1.39954010
  0
VERTEX
  8
0
 10
3.85734982
 20
1.35973743
  0
VERTEX
  8
0
 10
3.83121219
 20
1.30166368
  0
VERTEX
  8
0
 10
3.88380922
 20
1.25707357
  0
VERTEX
  8
0
 10
3.91841296
 20
1.25271211
  0
VERTEX
  8
0
 10
3.95036609
 20
1.26761970
  0
VERTEX
  8
0
 10
3.97419725
 20
1.31248663
  0
VERTEX
  8
0
 10
3.97164357
 20
1.37400712
  0
VERTEX
  8
0
 10
3.89504464
 20
1.39954010
  0
SEQEND
  0
POLYLINE
  8
Default_Layer
 66
   1
 39
0.000000
 70
    1
  0
VERTEX
  8
0
 10
3.99717655
 20
1.23783123
  0
VERTEX
  8
0
 10
3.95237235
 20
1.21774386
  0
VERTEX
  8
0
 10
3.90034683
 20
1.22351382
  0
VERTEX
  8
0
 10
3.81419020
 20
1.26761970
  0
VERTEX
  8
0
 10
3.78865722
 20
1.28889719
  0
VERTEX
  8
0
 10
3.73029130
 20
1.26180635
  0
VERTEX
  8
0
 10
3.68344406
 20
1.22179407
  0
VERTEX
  8
0
 10
3.60567087
 20
1.13144381
  0
VERTEX
  8
0
 10
3.50353896
 20
1.03356739
  0
VERTEX
  8
0
 10
3.35297997
 20
0.91091180
  0
VERTEX
  8
0
 10
3.26362300
 20
0.86446153
  0
VERTEX
  8
0
 10
3.16309923
 20
0.83355906
  0
VERTEX
  8
0
 10
3.05245632
 20
0.81228157
  0
VERTEX
  8
0
 10
3.03543434
 20
0.79100409
  0
VERTEX
  8
0
 10
3.05645032
 20
0.79388676
  0
VERTEX
  8
0
 10
3.06947831
 20
0.80377058
  0
VERTEX
  8
0
 10
3.09501129
 20
0.80377058
  0
VERTEX
  8
0
 10
3.09047466
 20
0.77587362
  0
VERTEX
  8
0
 10
3.09075579
 20
0.75696012
  0
VERTEX
  8
0
 10
3.10329658
 20
0.76137833
  0
VERTEX
  8
0
 10
3.11203327
 20
0.77398210
  0
VERTEX
  8
0
 10
3.13331076
 20
0.79951508
  0
VERTEX
  8
0
 10
3.18012122
 20
0.79100409
  0
VERTEX
  8
0
 10
3.16466903
 20
0.76122716
  0
VERTEX
  8
0
 10
3.13331076
 20
0.74844913
  0
VERTEX
  8
0
 10
3.11936539
 20
0.69727098
  0
VERTEX
  8
0
 10
3.12905526
 20
0.64631721
  0
VERTEX
  8
0
 10
3.15033274
 20
0.68887217
  0
VERTEX
  8
0
 10
3.19119317
 20
0.74950928
  0
VERTEX
  8
0
 10
3.22284453
 20
0.76400460
  0
VERTEX
  8
0
 10
3.26523115
 20
0.76121562
  0
VERTEX
  8
0
 10
3.26872657
 20
0.74461536
  0
VERTEX
  8
0
 10
3.25868348
 20
0.73233372
  0
VERTEX
  8
0
 10
3.22267618
 20
0.71440515
  0
VERTEX
  8
0
 10
3.19738944
 20
0.69675862
  0
VERTEX
  8
0
 10
3.18437672
 20
0.67185019
  0
VERTEX
  8
0
 10
3.19015786
 20
0.63584289
  0
VERTEX
  8
0
 10
3.20990969
 20
0.60376224
  0
VERTEX
  8
0
 10
3.24820916
 20
0.59525125
  0
VERTEX
  8
0
 10
3.25834956
 20
0.68302553
  0
VERTEX
  8
0
 10
3.29724791
 20
0.74583966
  0
VERTEX
  8
0
 10
3.36162897
 20
0.77804229
  0
VERTEX
  8
0
 10
3.44821750
 20
0.77398210
  0
VERTEX
  8
0
 10
3.45468516
 20
0.75305506
  0
VERTEX
  8
0
 10
3.44821750
 20
0.73142714
  0
VERTEX
  8
0
 10
3.42129271
 20
0.74004590
  0
VERTEX
  8
0
 10
3.40140704
 20
0.75270462
  0
VERTEX
  8
0
 10
3.32906360
 20
0.73993813
  0
VERTEX
  8
0
 10
3.30248595
 20
0.71778544
  0
VERTEX
  8
0
 10
3.29013112
 20
0.68897081
  0
VERTEX
  8
0
 10
3.30060683
 20
0.62335593
  0
VERTEX
  8
0
 10
3.34552453
 20
0.56709395
  0
VERTEX
  8
0
 10
3.40991803
 20
0.54418529
  0
VERTEX
  8
0
 10
3.44818799
 20
0.55128083
  0
VERTEX
  8
0
 10
3.47768777
 20
0.57096907
  0
VERTEX
  8
0
 10
3.52056094
 20
0.63355072
  0
VERTEX
  8
0
 10
3.54963854
 20
0.66411550
  0
VERTEX
  8
0
 10
3.55886041
 20
0.71440515
  0
VERTEX
  8
0
 10
3.56500466
 20
0.74872595
  0
VERTEX
  8
0
 10
3.58864889
 20
0.76547111
  0
VERTEX
  8
0
 10
3.59732536
 20
0.69668500
  0
VERTEX
  8
0
 10
3.58013789
 20
0.62929522
  0
VERTEX
  8
0
 10
3.64134747
 20
0.64639535
  0
VERTEX
  8
0
 10
3.68226981
 20
0.68461668
  0
VERTEX
  8
0
 10
3.73195300
 20
0.70634163
  0
VERTEX
  8
0
 10
3.77163524
 20
0.73993813
  0
VERTEX
  8
0
 10
3.76737974
 20
0.76547111
  0
VERTEX
  8
0
 10
3.86100066
 20
0.82930356
  0
VERTEX
  8
0
 10
3.92483311
 20
0.99526792
  0
VERTEX
  8
0
 10
3.94041823
 20
1.02093378
  0
VERTEX
  8
0
 10
3.97164357
 20
1.02931190
  0
VERTEX
  8
0
 10
3.96015129
 20
0.95227533
  0
VERTEX
  8
0
 10
3.94185510
 20
0.88462501
  0
VERTEX
  8
0
 10
4.03328535
 20
0.89289153
  0
VERTEX
  8
0
 10
4.10781946
 20
0.91441349
  0
VERTEX
  8
0
 10
4.16414990
 20
0.95876385
  0
VERTEX
  8
0
 10
4.21420688
 20
1.00803441
  0
VERTEX
  8
0
 10
4.22391158
 20
1.09813605
  0
VERTEX
  8
0
 10
4.19978633
 20
1.17295560
  0
VERTEX
  8
0
 10
4.12484145
 20
1.30166368
  0
VERTEX
  8
0
 10
4.07521305
 20
1.29522750
  0
VERTEX
  8
0
 10
4.02696503
 20
1.30591917
  0
VERTEX
  8
0
 10
3.99717655
 20
1.23783123
  0
SEQEND
  0
POLYLINE
  8
Default_Layer
 66
   1
 39
0.000000
 70
    1
  0
VERTEX
  8
0
 10
6.75899381
 20
0.71014966
  0
VERTEX
  8
0
 10
6.78027129
 20
0.71014966
  0
VERTEX
  8
0
 10
6.77601579
 20
0.74844913
  0
VERTEX
  8
0
 10
6.76324930
 20
0.74844913
  0
VERTEX
  8
0
 10
6.75899381
 20
0.71014966
  0
SEQEND
  0
POLYLINE
  8
Default_Layer
 66
   1
 39
0.000000
 70
    1
  0
VERTEX
  8
0
 10
6.66537288
 20
0.70163866
  0
VERTEX
  8
0
 10
6.67627578
 20
0.67690801
  0
VERTEX
  8
0
 10
6.67813937
 20
0.64631721
  0
VERTEX
  8
0
 10
6.69090586
 20
0.64631721
  0
VERTEX
  8
0
 10
6.69516136
 20
0.65908370
  0
VERTEX
  8
0
 10
6.71791162
 20
0.68227318
  0
VERTEX
  8
0
 10
6.72494984
 20
0.71866065
  0
VERTEX
  8
0
 10
6.69117534
 20
0.71986464
  0
VERTEX
  8
0
 10
6.66537288
 20
0.70163866
  0
SEQEND
  0
POLYLINE
  8
Default_Layer
 66
   1
 39
0.000000
 70
    1
  0
VERTEX
  8
0
 10
6.57600746
 20
0.68887217
  0
VERTEX
  8
0
 10
6.58877395
 20
0.68887217
  0
VERTEX
  8
0
 10
6.59728494
 20
0.61652873
  0
VERTEX
  8
0
 10
6.63983990
 20
0.63355072
  0
VERTEX
  8
0
 10
6.63959553
 20
0.66381855
  0
VERTEX
  8
0
 10
6.62535265
 20
0.68508393
  0
VERTEX
  8
0
 10
6.57600746
 20
0.71014966
  0
VERTEX
  8
0
 10
6.57600746
 20
0.68887217
  0
SEQEND
  0
ENDSEC
  0
EOF
