  0
SECTION
  2
HEADER
  9
$ACADVER
  1
AC1015
  9
$ACADMAINTVER
 70
     6
  9
$DWGCODEPAGE
  3
ANSI_1252
  9
$INSBASE
 10
0.0
 20
0.0
 30
0.0
  9
$EXTMIN
 10
1.000000E+20
 20
1.000000E+20
 30
1.000000E+20
  9
$EXTMAX
 10
-1.000000E+20
 20
-1.000000E+20
 30
-1.000000E+20
  9
$LIMMIN
 10
0.0
 20
0.0
  9
$LIMMAX
 10
420.0
 20
297.0
  9
$ORTHOMODE
 70
     0
  9
$REGENMODE
 70
     1
  9
$FILLMODE
 70
     1
  9
$QTEXTMODE
 70
     0
  9
$MIRRTEXT
 70
     1
  9
$LTSCALE
 40
1.0
  9
$ATTMODE
 70
     1
  9
$TEXTSIZE
 40
2.5
  9
$TRACEWID
 40
1.0
  9
$TEXTSTYLE
  7
Standard
  9
$CLAYER
  8
0
  9
$CELTYPE
  6
ByLayer
  9
$CECOLOR
 62
   256
  9
$CELTSCALE
 40
1.0
  9
$DISPSILH
 70
     0
  9
$DIMSCALE
 40
1.0
  9
$DIMASZ
 40
2.5
  9
$DIMEXO
 40
0.625
  9
$DIMDLI
 40
3.75
  9
$DIMRND
 40
0.0
  9
$DIMDLE
 40
0.0
  9
$DIMEXE
 40
1.25
  9
$DIMTP
 40
0.0
  9
$DIMTM
 40
0.0
  9
$DIMTXT
 40
2.5
  9
$DIMCEN
 40
2.5
  9
$DIMTSZ
 40
0.0
  9
$DIMTOL
 70
     0
  9
$DIMLIM
 70
     0
  9
$DIMTIH
 70
     0
  9
$DIMTOH
 70
     0
  9
$DIMSE1
 70
     0
  9
$DIMSE2
 70
     0
  9
$DIMTAD
 70
     1
  9
$DIMZIN
 70
     8
  9
$DIMBLK
  1

  9
$DIMASO
 70
     1
  9
$DIMSHO
 70
     1
  9
$DIMPOST
  1

  9
$DIMAPOST
  1

  9
$DIMALT
 70
     0
  9
$DIMALTD
 70
     3
  9
$DIMALTF
 40
0.03937
  9
$DIMLFAC
 40
1.0
  9
$DIMTOFL
 70
     1
  9
$DIMTVP
 40
0.0
  9
$DIMTIX
 70
     0
  9
$DIMSOXD
 70
     0
  9
$DIMSAH
 70
     0
  9
$DIMBLK1
  1

  9
$DIMBLK2
  1

  9
$DIMSTYLE
  2
ISO-25
  9
$DIMCLRD
 70
     0
  9
$DIMCLRE
 70
     0
  9
$DIMCLRT
 70
     0
  9
$DIMTFAC
 40
1.0
  9
$DIMGAP
 40
0.625
  9
$DIMJUST
 70
     0
  9
$DIMSD1
 70
     0
  9
$DIMSD2
 70
     0
  9
$DIMTOLJ
 70
     0
  9
$DIMTZIN
 70
     8
  9
$DIMALTZ
 70
     0
  9
$DIMALTTZ
 70
     0
  9
$DIMUPT
 70
     0
  9
$DIMDEC
 70
     2
  9
$DIMTDEC
 70
     2
  9
$DIMALTU
 70
     2
  9
$DIMALTTD
 70
     3
  9
$DIMTXSTY
  7
Standard
  9
$DIMAUNIT
 70
     0
  9
$DIMADEC
 70
     0
  9
$DIMALTRND
 40
0.0
  9
$DIMAZIN
 70
     0
  9
$DIMDSEP
 70
    44
  9
$DIMATFIT
 70
     3
  9
$DIMFRAC
 70
     0
  9
$DIMLDRBLK
  1

  9
$DIMLUNIT
 70
     2
  9
$DIMLWD
 70
    -2
  9
$DIMLWE
 70
    -2
  9
$DIMTMOVE
 70
     0
  9
$LUNITS
 70
     2
  9
$LUPREC
 70
     4
  9
$SKETCHINC
 40
1.0
  9
$FILLETRAD
 40
10.0
  9
$AUNITS
 70
     0
  9
$AUPREC
 70
     0
  9
$MENU
  1
.
  9
$ELEVATION
 40
0.0
  9
$PELEVATION
 40
0.0
  9
$THICKNESS
 40
0.0
  9
$LIMCHECK
 70
     0
  9
$CHAMFERA
 40
10.0
  9
$CHAMFERB
 40
10.0
  9
$CHAMFERC
 40
20.0
  9
$CHAMFERD
 40
0.0
  9
$SKPOLY
 70
     0
  9
$TDCREATE
 40
2455182.653419861
  9
$TDUCREATE
 40
2455182.903419861
  9
$TDUPDATE
 40
2455182.653419873
  9
$TDUUPDATE
 40
2455182.903419873
  9
$TDINDWG
 40
0.0000000116
  9
$TDUSRTIMER
 40
0.0000000116
  9
$USRTIMER
 70
     1
  9
$ANGBASE
 50
0.0
  9
$ANGDIR
 70
     0
  9
$PDMODE
 70
     3
  9
$PDSIZE
 40
-0.7
  9
$PLINEWID
 40
0.0
  9
$SPLFRAME
 70
     0
  9
$SPLINETYPE
 70
     6
  9
$SPLINESEGS
 70
     8
  9
$HANDSEED
  5
5B
  9
$SURFTAB1
 70
     6
  9
$SURFTAB2
 70
     6
  9
$SURFTYPE
 70
     6
  9
$SURFU
 70
     6
  9
$SURFV
 70
     6
  9
$UCSBASE
  2

  9
$UCSNAME
  2

  9
$UCSORG
 10
0.0
 20
0.0
 30
0.0
  9
$UCSXDIR
 10
1.0
 20
0.0
 30
0.0
  9
$UCSYDIR
 10
0.0
 20
1.0
 30
0.0
  9
$UCSORTHOREF
  2

  9
$UCSORTHOVIEW
 70
     0
  9
$UCSORGTOP
 10
0.0
 20
0.0
 30
0.0
  9
$UCSORGBOTTOM
 10
0.0
 20
0.0
 30
0.0
  9
$UCSORGLEFT
 10
0.0
 20
0.0
 30
0.0
  9
$UCSORGRIGHT
 10
0.0
 20
0.0
 30
0.0
  9
$UCSORGFRONT
 10
0.0
 20
0.0
 30
0.0
  9
$UCSORGBACK
 10
0.0
 20
0.0
 30
0.0
  9
$PUCSBASE
  2

  9
$PUCSNAME
  2

  9
$PUCSORG
 10
0.0
 20
0.0
 30
0.0
  9
$PUCSXDIR
 10
1.0
 20
0.0
 30
0.0
  9
$PUCSYDIR
 10
0.0
 20
1.0
 30
0.0
  9
$PUCSORTHOREF
  2

  9
$PUCSORTHOVIEW
 70
     0
  9
$PUCSORGTOP
 10
0.0
 20
0.0
 30
0.0
  9
$PUCSORGBOTTOM
 10
0.0
 20
0.0
 30
0.0
  9
$PUCSORGLEFT
 10
0.0
 20
0.0
 30
0.0
  9
$PUCSORGRIGHT
 10
0.0
 20
0.0
 30
0.0
  9
$PUCSORGFRONT
 10
0.0
 20
0.0
 30
0.0
  9
$PUCSORGBACK
 10
0.0
 20
0.0
 30
0.0
  9
$USERI1
 70
     0
  9
$USERI2
 70
     0
  9
$USERI3
 70
     0
  9
$USERI4
 70
     0
  9
$USERI5
 70
     0
  9
$USERR1
 40
0.0
  9
$USERR2
 40
0.0
  9
$USERR3
 40
0.0
  9
$USERR4
 40
0.0
  9
$USERR5
 40
0.0
  9
$WORLDVIEW
 70
     1
  9
$SHADEDGE
 70
     3
  9
$SHADEDIF
 70
    70
  9
$TILEMODE
 70
     1
  9
$MAXACTVP
 70
    64
  9
$PINSBASE
 10
0.0
 20
0.0
 30
0.0
  9
$PLIMCHECK
 70
     0
  9
$PEXTMIN
 10
1.000000E+20
 20
1.000000E+20
 30
1.000000E+20
  9
$PEXTMAX
 10
-1.000000E+20
 20
-1.000000E+20
 30
-1.000000E+20
  9
$PLIMMIN
 10
0.0
 20
0.0
  9
$PLIMMAX
 10
420.0
 20
297.0
  9
$UNITMODE
 70
     0
  9
$VISRETAIN
 70
     1
  9
$PLINEGEN
 70
     0
  9
$PSLTSCALE
 70
     1
  9
$TREEDEPTH
 70
  3020
  9
$CMLSTYLE
  2
Standard
  9
$CMLJUST
 70
     1
  9
$CMLSCALE
 40
1.0
  9
$PROXYGRAPHICS
 70
     1
  9
$MEASUREMENT
 70
     1
  9
$CELWEIGHT
370
    -1
  9
$ENDCAPS
280
     0
  9
$JOINSTYLE
280
     0
  9
$LWDISPLAY
290
     0
  9
$INSUNITS
 70
     4
  9
$HYPERLINKBASE
  1

  9
$STYLESHEET
  1

  9
$XEDIT
290
     1
  9
$CEPSNTYPE
380
     0
  9
$PSTYLEMODE
290
     1
  9
$FINGERPRINTGUID
  2
{FAEB1C30-E019-11D5-929B-00C0DF256EC4}
  9
$VERSIONGUID
  2
{FAEB1C32-E019-11D5-929B-00C0DF256EC4}
  9
$EXTNAMES
290
     1
  9
$PSVPSCALE
 40
0.0
  9
$OLESTARTUP
290
     0
  0
ENDSEC
  0
SECTION
  2
CLASSES
  0
CLASS
  1
ACDBDICTIONARYWDFLT
  2
AcDbDictionaryWithDefault
  3
ObjectDBX Classes
 90
        0
280
     0
281
     0
  0
CLASS
  1
ACDBPLACEHOLDER
  2
AcDbPlaceHolder
  3
ObjectDBX Classes
 90
        0
280
     0
281
     0
  0
CLASS
  1
LAYOUT
  2
AcDbLayout
  3
ObjectDBX Classes
 90
        0
280
     0
281
     0
  0
ENDSEC
  0
SECTION
  2
TABLES
  0
TABLE
  2
VPORT
  5
8
330
0
100
AcDbSymbolTable
 70
     2
  0
VPORT
  5
29
330
8
100
AcDbSymbolTableRecord
100
AcDbViewportTableRecord
  2
*Active
 70
     0
 10
0.0
 20
0.0
 11
1.0
 21
1.0
 12
50.0
 22
50.0
 13
0.0
 23
0.0
 14
10.0
 24
10.0
 15
10.0
 25
10.0
 16
0.0
 26
0.0
 36
1.0
 17
0.0
 27
0.0
 37
0.0
 40
103.921569
 41
1.0
 42
50.0
 43
0.0
 44
0.0
 50
0.0
 51
0.0
 71
     0
 72
   100
 73
     1
 74
     3
 75
     0
 76
     0
 77
     0
 78
     0
281
     0
 65
     1
110
0.0
120
0.0
130
0.0
111
1.0
121
0.0
131
0.0
112
0.0
122
1.0
132
0.0
 79
     0
146
0.0
  0
ENDTAB
  0
TABLE
  2
LTYPE
  5
5
330
0
100
AcDbSymbolTable
 70
     1
  0
LTYPE
  5
14
330
5
100
AcDbSymbolTableRecord
100
AcDbLinetypeTableRecord
  2
ByBlock
 70
     0
  3

 72
    65
 73
     0
 40
0.0
  0
LTYPE
  5
15
330
5
100
AcDbSymbolTableRecord
100
AcDbLinetypeTableRecord
  2
ByLayer
 70
     0
  3

 72
    65
 73
     0
 40
0.0
  0
LTYPE
  5
16
330
5
100
AcDbSymbolTableRecord
100
AcDbLinetypeTableRecord
  2
Continuous
 70
     0
  3

 72
    65
 73
     0
 40
0.0
  0
ENDTAB
  0
TABLE
  2
LAYER
  5
2
330
0
100
AcDbSymbolTable
 70
     1
  0
LAYER
  5
10
330
2
100
AcDbSymbolTableRecord
100
AcDbLayerTableRecord
  2
0
 70
     0
 62
     7
  6
Continuous
370
    -3
390
F
  0
ENDTAB
  0
TABLE
  2
STYLE
  5
3
330
0
100
AcDbSymbolTable
 70
     1
  0
STYLE
  5
11
330
3
100
AcDbSymbolTableRecord
100
AcDbTextStyleTableRecord
  2
Standard
 70
     0
 40
1.0
 41
1.0
 50
0.0
 71
     0
 42
2.5
  3
RomanS
  4

  0
ENDTAB
  0
TABLE
  2
VIEW
  5
6
330
0
100
AcDbSymbolTable
 70
     0
  0
ENDTAB
  0
TABLE
  2
UCS
  5
7
330
0
100
AcDbSymbolTable
 70
     0
  0
ENDTAB
  0
TABLE
  2
APPID
  5
9
330
0
100
AcDbSymbolTable
 70
     1
  0
APPID
  5
12
330
9
100
AcDbSymbolTableRecord
100
AcDbRegAppTableRecord
  2
ACAD
 70
     0
  0
ENDTAB
  0
TABLE
  2
DIMSTYLE
  5
A
330
0
100
AcDbSymbolTable
 70
     1
100
AcDbDimStyleTable
  0
DIMSTYLE
105
27
330
A
100
AcDbSymbolTableRecord
100
AcDbDimStyleTableRecord
  2
ISO-25
 70
     0
 41
2.5
 42
0.625
 44
1.25
 73
     0
 74
     0
 77
     1
 78
     8
 79
     2
140
2.5
141
2.5
146
0.0
147
0.625
271
     2
272
     0
273
     0
274
     0
278
    44
283
     0
289
     0
340
11
  0
ENDTAB
  0
TABLE
  2
BLOCK_RECORD
  5
1
330
0
100
AcDbSymbolTable
 70
     1
  0
BLOCK_RECORD
  5
1F
330
1
100
AcDbSymbolTableRecord
100
AcDbBlockTableRecord
  2
*Model_Space
340
22
  0
BLOCK_RECORD
  5
1B
330
1
100
AcDbSymbolTableRecord
100
AcDbBlockTableRecord
  2
*Paper_Space
340
1E
  0
BLOCK_RECORD
  5
23
330
1
100
AcDbSymbolTableRecord
100
AcDbBlockTableRecord
  2
*Paper_Space0
340
26
  0
ENDTAB
  0
ENDSEC
  0
SECTION
  2
BLOCKS
  0
BLOCK
  5
20
330
1F
100
AcDbEntity
  8
0
100
AcDbBlockBegin
  2
*Model_Space
 70
     0
 71
     0
 10
0.0
 20
0.0
 30
0.0
  3
*Model_Space
  1

  0
ENDBLK
  5
21
330
1F
100
AcDbEntity
  8
0
100
AcDbBlockEnd
  0
BLOCK
  5
1C
330
1B
100
AcDbEntity
 67
     1
  8
0
100
AcDbBlockBegin
  2
*Paper_Space
 70
     0
 71
     0
 10
0.0
 20
0.0
 30
0.0
  3
*Paper_Space
  1

  0
ENDBLK
  5
1D
330
1B
100
AcDbEntity
 67
     1
  8
0
100
AcDbBlockEnd
  0
BLOCK
  5
24
330
23
100
AcDbEntity
  8
0
100
AcDbBlockBegin
  2
*Paper_Space0
 70
     0
 71
     0
 10
0.0
 20
0.0
 30
0.0
  3
*Paper_Space0
  1

  0
ENDBLK
  5
25
330
23
100
AcDbEntity
  8
0
100
AcDbBlockEnd
  0
ENDSEC
  0
SECTION
  2
ENTITIES
  0
LWPOLYLINE
  5
2A
330
1F
100
AcDbEntity
  8
0
100
AcDbPolyline
 90
        5
 70
   128
 43
0.0
 10
1.125
 20
1.0
 42
-0.414214
 10
1.0
 20
0.875
 42
-0.414214
 10
0.875
 20
1.0
 42
-0.414214
 10
1.0
 20
1.125
 42
-0.414214
 10
1.125
 20
1.0
  0
LWPOLYLINE
  5
2B
330
1F
100
AcDbEntity
  8
0
100
AcDbPolyline
 90
        5
 70
   128
 43
0.0
 10
5.125
 20
1.0
 42
-0.414214
 10
5.0
 20
0.875
 42
-0.414214
 10
4.875
 20
1.0
 42
-0.414214
 10
5.0
 20
1.125
 42
-0.414214
 10
5.125
 20
1.0
  0
LWPOLYLINE
  5
2C
330
1F
100
AcDbEntity
  8
0
100
AcDbPolyline
 90
        5
 70
   128
 43
0.0
 10
1.125
 20
5.0
 42
-0.414214
 10
1.0
 20
4.875
 42
-0.414214
 10
0.875
 20
5.0
 42
-0.414214
 10
1.0
 20
5.125
 42
-0.414214
 10
1.125
 20
5.0
  0
LWPOLYLINE
  5
2D
330
1F
100
AcDbEntity
  8
0
100
AcDbPolyline
 90
        5
 70
   128
 43
0.0
 10
5.125
 20
5.0
 42
-0.414214
 10
5.0
 20
4.875
 42
-0.414214
 10
4.875
 20
5.0
 42
-0.414214
 10
5.0
 20
5.125
 42
-0.414214
 10
5.125
 20
5.0
  0
LWPOLYLINE
  5
2E
330
1F
100
AcDbEntity
  8
0
100
AcDbPolyline
 90
        9
 70
   128
 43
0.0
 10
0.5
 20
0.75
 42
0.414214
 10
0.75
 20
0.5
 10
5.25
 20
0.5
 42
0.414214
 10
5.5
 20
0.75
 10
5.5
 20
5.25
 42
0.414214
 10
5.25
 20
5.5
 10
0.75
 20
5.5
 42
0.414214
 10
0.5
 20
5.25
 10
0.5
 20
0.75
  0
LWPOLYLINE
  5
2F
330
1F
100
AcDbEntity
  8
0
100
AcDbPolyline
 90
       59
 70
   128
 43
0.0
 10
2.804193
 20
1.812226
 10
2.792622
 20
1.826057
 10
2.782064
 20
1.838069
 10
2.772367
 20
1.848269
 10
2.763379
 20
1.856664
 10
2.754945
 20
1.863261
 10
2.75089
 20
1.865888
 10
2.746915
 20
1.868068
 10
2.743004
 20
1.869802
 10
2.739136
 20
1.871092
 10
2.735293
 20
1.871937
 10
2.731456
 20
1.872339
 10
2.727604
 20
1.872299
 10
2.723721
 20
1.871817
 10
2.719785
 20
1.870895
 10
2.715779
 20
1.869534
 10
2.711684
 20
1.867734
 10
2.707479
 20
1.865496
 10
2.698667
 20
1.85971
 10
2.689192
 20
1.852184
 10
2.6789
 20
1.842926
 10
2.667639
 20
1.831941
 10
2.655257
 20
1.819237
 10
2.638079
 20
1.800975
 10
2.62439
 20
1.785778
 10
2.615576
 20
1.775232
 10
2.61343
 20
1.772199
 10
2.613023
 20
1.770923
 10
2.652649
 20
1.741735
 10
2.663347
 20
1.734205
 10
2.673425
 20
1.728114
 10
2.683323
 20
1.723334
 10
2.688343
 20
1.721395
 10
2.693483
 20
1.719734
 10
2.704346
 20
1.717187
 10
2.716352
 20
1.715562
 10
2.729943
 20
1.714732
 10
2.745561
 20
1.714567
 10
2.757355
 20
1.714967
 10
2.769488
 20
1.715952
 10
2.781614
 20
1.717459
 10
2.793385
 20
1.719421
 10
2.804455
 20
1.721772
 10
2.814479
 20
1.724448
 10
2.82311
 20
1.727382
 10
2.830002
 20
1.73051
 10
2.839347
 20
1.735766
 10
2.842919
 20
1.738147
 10
2.845706
 20
1.740523
 10
2.847671
 20
1.743014
 10
2.848775
 20
1.74574
 10
2.848982
 20
1.748819
 10
2.848252
 20
1.752373
 10
2.846549
 20
1.75652
 10
2.843835
 20
1.76138
 10
2.840072
 20
1.767074
 10
2.835221
 20
1.77372
 10
2.822108
 20
1.790349
 10
2.804193
 20
1.812226
  0
LWPOLYLINE
  5
30
330
1F
100
AcDbEntity
  8
0
100
AcDbPolyline
 90
      100
 70
   128
 43
0.0
 10
2.218889
 20
1.759457
 10
2.224798
 20
1.761147
 10
2.2314
 20
1.763732
 10
2.23847
 20
1.767084
 10
2.245788
 20
1.771074
 10
2.253131
 20
1.775573
 10
2.260277
 20
1.780452
 10
2.267004
 20
1.785584
 10
2.273088
 20
1.790838
 10
2.280637
 20
1.798308
 10
2.28675
 20
1.805545
 10
2.289308
 20
1.809186
 10
2.291557
 20
1.8129
 10
2.293513
 20
1.816731
 10
2.295193
 20
1.820723
 10
2.296613
 20
1.82492
 10
2.29779
 20
1.829366
 10
2.29948
 20
1.839178
 10
2.300397
 20
1.850511
 10
2.300673
 20
1.863715
 10
2.300403
 20
1.874872
 10
2.299589
 20
1.885403
 10
2.298224
 20
1.895317
 10
2.296302
 20
1.904624
 10
2.293815
 20
1.913335
 10
2.290759
 20
1.921457
 10
2.287125
 20
1.929003
 10
2.282907
 20
1.93598
 10
2.2781
 20
1.942399
 10
2.272695
 20
1.94827
 10
2.266688
 20
1.953602
 10
2.26007
 20
1.958405
 10
2.252837
 20
1.962688
 10
2.24498
 20
1.966463
 10
2.236494
 20
1.969737
 10
2.227371
 20
1.972521
 10
2.215345
 20
1.97554
 10
2.205264
 20
1.977442
 10
2.196604
 20
1.978137
 10
2.192643
 20
1.978004
 10
2.188841
 20
1.977535
 10
2.185131
 20
1.97672
 10
2.181449
 20
1.975548
 10
2.173905
 20
1.972085
 10
2.165684
 20
1.967056
 10
2.15626
 20
1.960373
 10
2.147889
 20
1.954795
 10
2.138722
 20
1.94987
 10
2.128692
 20
1.94558
 10
2.117733
 20
1.941904
 10
2.105777
 20
1.938823
 10
2.092758
 20
1.936316
 10
2.078608
 20
1.934365
 10
2.06326
 20
1.932949
 10
2.044465
 20
1.931454
 10
2.029872
 20
1.929862
 10
2.01896
 20
1.927936
 10
2.01472
 20
1.926775
 10
2.011204
 20
1.925442
 10
2.008347
 20
1.923908
 10
2.006082
 20
1.922144
 10
2.004346
 20
1.920121
 10
2.003071
 20
1.917808
 10
2.002194
 20
1.915177
 10
2.001648
 20
1.912198
 10
2.00129
 20
1.905078
 10
2.001617
 20
1.897495
 10
2.002577
 20
1.88984
 10
2.004142
 20
1.882138
 10
2.006283
 20
1.874413
 10
2.008971
 20
1.866691
 10
2.012176
 20
1.858996
 10
2.01587
 20
1.851353
 10
2.020023
 20
1.843788
 10
2.024607
 20
1.836325
 10
2.029592
 20
1.828989
 10
2.034949
 20
1.821805
 10
2.040649
 20
1.814798
 10
2.046664
 20
1.807993
 10
2.052963
 20
1.801415
 10
2.059518
 20
1.795088
 10
2.066301
 20
1.789038
 10
2.073281
 20
1.78329
 10
2.08043
 20
1.777868
 10
2.087718
 20
1.772797
 10
2.095117
 20
1.768103
 10
2.102598
 20
1.76381
 10
2.110131
 20
1.759943
 10
2.117688
 20
1.756528
 10
2.125238
 20
1.753588
 10
2.132754
 20
1.751149
 10
2.140207
 20
1.749236
 10
2.147566
 20
1.747874
 10
2.154804
 20
1.747088
 10
2.16189
 20
1.746902
 10
2.168796
 20
1.747342
 10
2.175493
 20
1.748432
 10
2.181952
 20
1.750198
 10
2.197061
 20
1.754338
 10
2.218889
 20
1.759457
  0
LWPOLYLINE
  5
31
330
1F
100
AcDbEntity
  8
0
100
AcDbPolyline
 90
      109
 70
   128
 43
0.0
 10
3.126094
 20
1.870412
 10
3.130335
 20
1.878648
 10
3.134291
 20
1.887674
 10
3.137876
 20
1.897198
 10
3.141004
 20
1.906925
 10
3.143587
 20
1.916562
 10
3.145539
 20
1.925816
 10
3.146774
 20
1.934393
 10
3.147205
 20
1.941999
 10
3.146948
 20
1.9503
 10
3.146191
 20
1.958593
 10
3.144949
 20
1.966859
 10
3.143241
 20
1.97508
 10
3.141085
 20
1.983238
 10
3.138497
 20
1.991316
 10
3.135496
 20
1.999296
 10
3.132099
 20
2.007159
 10
3.128324
 20
2.014888
 10
3.124188
 20
2.022466
 10
3.119709
 20
2.029873
 10
3.114903
 20
2.037094
 10
3.10979
 20
2.044108
 10
3.104386
 20
2.050899
 10
3.098709
 20
2.05745
 10
3.092777
 20
2.063741
 10
3.086607
 20
2.069755
 10
3.080216
 20
2.075474
 10
3.073622
 20
2.080881
 10
3.066844
 20
2.085958
 10
3.059897
 20
2.090686
 10
3.052801
 20
2.095048
 10
3.045572
 20
2.099026
 10
3.038228
 20
2.102602
 10
3.030786
 20
2.105759
 10
3.023265
 20
2.108478
 10
3.015681
 20
2.110741
 10
3.008053
 20
2.112532
 10
3.000397
 20
2.113831
 10
2.992732
 20
2.114621
 10
2.985075
 20
2.114884
 10
2.977443
 20
2.114603
 10
2.964305
 20
2.113439
 10
2.95883
 20
2.11267
 10
2.953968
 20
2.111661
 10
2.949635
 20
2.110327
 10
2.945743
 20
2.108582
 10
2.942206
 20
2.106341
 10
2.938938
 20
2.103517
 10
2.935853
 20
2.100025
 10
2.932865
 20
2.095779
 10
2.929886
 20
2.090694
 10
2.926832
 20
2.084683
 10
2.920149
 20
2.069541
 10
2.912127
 20
2.049669
 10
2.90629
 20
2.036204
 10
2.899265
 20
2.022064
 10
2.891302
 20
2.007643
 10
2.882649
 20
1.993335
 10
2.873555
 20
1.979534
 10
2.864269
 20
1.966633
 10
2.855038
 20
1.955027
 10
2.846113
 20
1.94511
 10
2.832693
 20
1.931175
 10
2.822761
 20
1.920234
 10
2.819014
 20
1.915632
 10
2.816032
 20
1.911473
 10
2.813781
 20
1.907657
 10
2.812223
 20
1.904081
 10
2.811324
 20
1.900645
 10
2.811049
 20
1.897246
 10
2.811361
 20
1.893783
 10
2.812225
 20
1.890154
 10
2.815466
 20
1.881994
 10
2.820489
 20
1.871953
 10
2.824397
 20
1.865258
 10
2.829465
 20
1.857926
 10
2.835482
 20
1.850197
 10
2.842232
 20
1.842308
 10
2.849506
 20
1.834497
 10
2.857089
 20
1.827003
 10
2.864769
 20
1.820064
 10
2.872333
 20
1.813916
 10
2.882971
 20
1.806224
 10
2.892931
 20
1.800066
 10
2.897824
 20
1.797514
 10
2.902749
 20
1.79529
 10
2.907771
 20
1.793373
 10
2.912959
 20
1.791746
 10
2.918378
 20
1.790388
 10
2.924097
 20
1.789283
 10
2.936699
 20
1.78775
 10
2.951299
 20
1.786998
 10
2.968435
 20
1.786875
 10
2.981935
 20
1.787307
 10
2.994975
 20
1.78839
 10
3.007549
 20
1.790124
 10
3.019651
 20
1.792503
 10
3.031276
 20
1.795526
 10
3.042419
 20
1.79919
 10
3.053074
 20
1.803491
 10
3.063235
 20
1.808427
 10
3.072897
 20
1.813994
 10
3.082054
 20
1.820191
 10
3.090702
 20
1.827013
 10
3.098833
 20
1.834459
 10
3.106444
 20
1.842524
 10
3.113528
 20
1.851207
 10
3.12008
 20
1.860504
 10
3.126094
 20
1.870412
  0
LWPOLYLINE
  5
32
330
1F
100
AcDbEntity
  8
0
100
AcDbPolyline
 90
       82
 70
   128
 43
0.0
 10
2.611489
 20
1.844202
 10
2.620346
 20
1.852632
 10
2.623669
 20
1.856277
 10
2.62622
 20
1.859615
 10
2.627973
 20
1.862701
 10
2.628902
 20
1.86559
 10
2.628981
 20
1.868339
 10
2.628185
 20
1.871001
 10
2.626486
 20
1.873632
 10
2.623859
 20
1.876288
 10
2.620278
 20
1.879023
 10
2.615717
 20
1.881894
 10
2.603551
 20
1.88826
 10
2.587152
 20
1.895828
 10
2.577562
 20
1.90047
 10
2.567113
 20
1.906148
 10
2.556142
 20
1.912641
 10
2.544986
 20
1.91973
 10
2.533979
 20
1.927193
 10
2.523458
 20
1.93481
 10
2.513759
 20
1.942361
 10
2.505219
 20
1.949623
 10
2.49258
 20
1.960857
 10
2.482532
 20
1.969118
 10
2.478178
 20
1.972204
 10
2.47411
 20
1.97463
 10
2.470207
 20
1.976424
 10
2.466349
 20
1.977615
 10
2.462415
 20
1.97823
 10
2.458284
 20
1.978297
 10
2.453837
 20
1.977844
 10
2.448953
 20
1.9769
 10
2.43739
 20
1.973647
 10
2.42263
 20
1.968762
 10
2.41322
 20
1.965429
 10
2.404924
 20
1.962122
 10
2.397722
 20
1.958789
 10
2.391599
 20
1.95538
 10
2.386536
 20
1.951842
 10
2.382516
 20
1.948124
 10
2.379522
 20
1.944175
 10
2.377536
 20
1.939942
 10
2.376541
 20
1.935375
 10
2.376519
 20
1.930421
 10
2.377452
 20
1.925029
 10
2.379323
 20
1.919147
 10
2.382116
 20
1.912724
 10
2.385811
 20
1.905709
 10
2.390392
 20
1.898048
 10
2.395841
 20
1.889692
 10
2.401013
 20
1.882389
 10
2.406444
 20
1.875432
 10
2.412119
 20
1.868825
 10
2.41802
 20
1.86257
 10
2.424133
 20
1.856672
 10
2.430443
 20
1.851133
 10
2.436932
 20
1.845957
 10
2.443585
 20
1.841147
 10
2.450387
 20
1.836706
 10
2.457321
 20
1.832638
 10
2.464373
 20
1.828946
 10
2.471525
 20
1.825634
 10
2.478763
 20
1.822705
 10
2.48607
 20
1.820161
 10
2.493431
 20
1.818007
 10
2.50083
 20
1.816246
 10
2.508251
 20
1.814881
 10
2.515679
 20
1.813916
 10
2.523097
 20
1.813353
 10
2.530489
 20
1.813196
 10
2.537841
 20
1.813449
 10
2.545136
 20
1.814114
 10
2.552359
 20
1.815195
 10
2.559493
 20
1.816696
 10
2.566522
 20
1.81862
 10
2.573432
 20
1.820969
 10
2.580207
 20
1.823749
 10
2.586829
 20
1.82696
 10
2.593285
 20
1.830608
 10
2.599557
 20
1.834696
 10
2.60563
 20
1.839225
 10
2.611489
 20
1.844202
  0
LWPOLYLINE
  5
33
330
1F
100
AcDbEntity
  8
0
100
AcDbPolyline
 90
      112
 70
   128
 43
0.0
 10
3.389808
 20
1.917943
 10
3.394588
 20
1.920863
 10
3.400269
 20
1.92487
 10
3.413488
 20
1.935431
 10
3.427772
 20
1.948189
 10
3.441426
 20
1.961708
 10
3.4507
 20
1.971861
 10
3.457937
 20
1.981038
 10
3.460869
 20
1.985504
 10
3.463384
 20
1.990015
 10
3.465512
 20
1.994671
 10
3.467286
 20
1.999568
 10
3.468736
 20
2.004802
 10
3.469892
 20
2.010471
 10
3.471448
 20
2.0235
 10
3.472201
 20
2.03943
 10
3.472397
 20
2.059038
 10
3.472194
 20
2.079183
 10
3.471355
 20
2.09558
 10
3.470589
 20
2.102684
 10
3.469535
 20
2.109226
 10
3.468149
 20
2.11533
 10
3.466388
 20
2.12112
 10
3.464209
 20
2.126722
 10
3.46157
 20
2.13226
 10
3.458426
 20
2.137859
 10
3.454735
 20
2.143644
 10
3.445539
 20
2.156269
 10
3.433635
 20
2.171135
 10
3.425198
 20
2.180985
 10
3.416682
 20
2.190024
 10
3.40806
 20
2.198264
 10
3.399303
 20
2.205716
 10
3.390386
 20
2.212391
 10
3.38128
 20
2.218302
 10
3.371958
 20
2.223458
 10
3.362394
 20
2.227872
 10
3.352559
 20
2.231556
 10
3.342426
 20
2.23452
 10
3.331968
 20
2.236776
 10
3.321158
 20
2.238335
 10
3.309968
 20
2.239209
 10
3.298371
 20
2.239409
 10
3.286339
 20
2.238946
 10
3.273846
 20
2.237833
 10
3.263944
 20
2.236467
 10
3.254384
 20
2.234637
 10
3.245161
 20
2.23234
 10
3.236269
 20
2.229572
 10
3.227702
 20
2.226328
 10
3.219453
 20
2.222604
 10
3.211516
 20
2.218397
 10
3.203886
 20
2.213703
 10
3.196557
 20
2.208517
 10
3.189521
 20
2.202836
 10
3.182774
 20
2.196656
 10
3.17631
 20
2.189972
 10
3.170121
 20
2.18278
 10
3.164203
 20
2.175077
 10
3.158548
 20
2.166859
 10
3.153152
 20
2.158121
 10
3.146689
 20
2.146903
 10
3.142095
 20
2.137912
 10
3.140506
 20
2.133978
 10
3.139392
 20
2.130273
 10
3.138755
 20
2.126688
 10
3.138599
 20
2.123113
 10
3.138926
 20
2.11944
 10
3.139738
 20
2.115558
 10
3.141038
 20
2.111358
 10
3.142829
 20
2.106732
 10
3.147892
 20
2.095762
 10
3.154948
 20
2.081773
 10
3.164859
 20
2.061661
 10
3.172965
 20
2.043568
 10
3.179377
 20
2.02709
 10
3.184207
 20
2.011819
 10
3.186064
 20
2.004509
 10
3.187568
 20
1.99735
 10
3.188731
 20
1.990289
 10
3.189569
 20
1.983276
 10
3.190325
 20
1.969193
 10
3.189946
 20
1.954694
 10
3.189746
 20
1.947844
 10
3.190047
 20
1.941547
 10
3.190885
 20
1.935774
 10
3.192295
 20
1.930497
 10
3.194315
 20
1.925689
 10
3.196981
 20
1.921321
 10
3.20033
 20
1.917367
 10
3.204398
 20
1.913797
 10
3.209221
 20
1.910585
 10
3.214837
 20
1.907702
 10
3.221282
 20
1.90512
 10
3.228592
 20
1.902812
 10
3.236803
 20
1.900749
 10
3.245953
 20
1.898905
 10
3.256078
 20
1.89725
 10
3.267214
 20
1.895758
 10
3.275105
 20
1.894957
 10
3.283067
 20
1.894466
 10
3.291078
 20
1.894282
 10
3.299116
 20
1.894399
 10
3.315186
 20
1.895524
 10
3.331105
 20
1.897811
 10
3.3467
 20
1.901227
 10
3.354322
 20
1.903349
 10
3.361797
 20
1.905742
 10
3.369106
 20
1.908402
 10
3.376225
 20
1.911325
 10
3.383133
 20
1.914506
 10
3.389808
 20
1.917943
  0
LWPOLYLINE
  5
34
330
1F
100
AcDbEntity
  8
0
100
AcDbPolyline
 90
      103
 70
   128
 43
0.0
 10
4.134404
 20
1.966784
 10
4.140536
 20
1.974251
 10
4.146223
 20
1.982099
 10
4.151454
 20
1.990282
 10
4.156216
 20
1.998754
 10
4.160497
 20
2.007471
 10
4.164283
 20
2.016385
 10
4.167564
 20
2.025454
 10
4.170327
 20
2.034629
 10
4.172558
 20
2.043867
 10
4.174247
 20
2.053121
 10
4.17538
 20
2.062347
 10
4.175946
 20
2.071498
 10
4.175931
 20
2.080529
 10
4.175324
 20
2.089395
 10
4.174112
 20
2.09805
 10
4.172284
 20
2.106448
 10
4.16789
 20
2.121491
 10
4.162683
 20
2.135985
 10
4.156714
 20
2.149874
 10
4.150039
 20
2.163103
 10
4.142708
 20
2.175616
 10
4.134776
 20
2.187359
 10
4.126297
 20
2.198276
 10
4.117322
 20
2.208312
 10
4.107906
 20
2.21741
 10
4.098101
 20
2.225517
 10
4.087961
 20
2.232576
 10
4.077538
 20
2.238533
 10
4.066887
 20
2.243331
 10
4.061493
 20
2.245279
 10
4.056061
 20
2.246916
 10
4.050598
 20
2.248236
 10
4.045111
 20
2.249232
 10
4.039607
 20
2.249897
 10
4.034093
 20
2.250224
 10
4.025931
 20
2.250116
 10
4.022463
 20
2.249702
 10
4.019349
 20
2.24897
 10
4.016547
 20
2.247863
 10
4.014018
 20
2.246321
 10
4.011719
 20
2.244286
 10
4.00961
 20
2.241701
 10
4.007649
 20
2.238507
 10
4.005796
 20
2.234646
 10
4.002248
 20
2.224687
 10
3.998639
 20
2.21136
 10
3.994639
 20
2.194199
 10
3.989153
 20
2.172147
 10
3.983608
 20
2.154077
 10
3.981016
 20
2.147119
 10
3.978651
 20
2.141856
 10
3.976596
 20
2.138522
 10
3.975709
 20
2.13765
 10
3.97493
 20
2.137349
 10
3.973053
 20
2.136643
 10
3.970393
 20
2.13465
 10
3.967072
 20
2.131507
 10
3.963215
 20
2.127354
 10
3.954383
 20
2.116574
 10
3.944882
 20
2.103424
 10
3.938101
 20
2.092912
 10
3.932911
 20
2.083223
 10
3.930873
 20
2.078439
 10
3.929184
 20
2.073561
 10
3.92783
 20
2.06849
 10
3.926794
 20
2.063125
 10
3.92606
 20
2.057368
 10
3.925612
 20
2.051118
 10
3.925512
 20
2.03674
 10
3.926367
 20
2.019193
 10
3.928049
 20
1.997678
 10
3.929745
 20
1.980883
 10
3.931777
 20
1.965783
 10
3.934137
 20
1.952414
 10
3.936813
 20
1.940815
 10
3.939797
 20
1.931025
 10
3.943077
 20
1.92308
 10
3.944825
 20
1.919812
 10
3.946644
 20
1.91702
 10
3.948532
 20
1.914708
 10
3.950487
 20
1.912882
 10
3.954185
 20
1.910251
 10
3.958217
 20
1.907957
 10
3.962565
 20
1.905996
 10
3.967207
 20
1.904361
 10
3.972123
 20
1.903046
 10
3.977293
 20
1.902045
 10
3.982698
 20
1.901352
 10
3.988315
 20
1.900961
 10
4.000109
 20
1.901062
 10
4.012513
 20
1.902301
 10
4.025366
 20
1.90463
 10
4.038503
 20
1.908001
 10
4.051764
 20
1.912367
 10
4.064986
 20
1.91768
 10
4.078007
 20
1.923893
 10
4.090663
 20
1.930957
 10
4.102793
 20
1.938826
 10
4.114235
 20
1.947452
 10
4.124826
 20
1.956787
 10
4.129752
 20
1.961706
 10
4.134404
 20
1.966784
  0
LWPOLYLINE
  5
35
330
1F
100
AcDbEntity
  8
0
100
AcDbPolyline
 90
      110
 70
   128
 43
0.0
 10
2.773294
 20
1.960708
 10
2.778197
 20
1.963844
 10
2.784134
 20
1.968492
 10
2.790877
 20
1.974424
 10
2.7982
 20
1.981418
 10
2.805874
 20
1.989248
 10
2.813673
 20
1.997689
 10
2.821369
 20
2.006516
 10
2.828734
 20
2.015506
 10
2.838543
 20
2.028367
 10
2.846412
 20
2.039954
 10
2.849687
 20
2.045461
 10
2.852559
 20
2.050877
 10
2.855056
 20
2.05628
 10
2.857204
 20
2.061745
 10
2.859032
 20
2.067349
 10
2.860566
 20
2.073167
 10
2.862864
 20
2.085754
 10
2.864316
 20
2.100115
 10
2.865141
 20
2.11686
 10
2.86525
 20
2.126412
 10
2.864955
 20
2.135769
 10
2.864263
 20
2.144925
 10
2.863177
 20
2.153876
 10
2.861703
 20
2.162615
 10
2.859846
 20
2.171138
 10
2.85761
 20
2.17944
 10
2.855
 20
2.187515
 10
2.852022
 20
2.195358
 10
2.84868
 20
2.202964
 10
2.844979
 20
2.210328
 10
2.840923
 20
2.217445
 10
2.836519
 20
2.224309
 10
2.83177
 20
2.230916
 10
2.826682
 20
2.237259
 10
2.821259
 20
2.243335
 10
2.815506
 20
2.249137
 10
2.809429
 20
2.254661
 10
2.803031
 20
2.259901
 10
2.796319
 20
2.264852
 10
2.789296
 20
2.269509
 10
2.781968
 20
2.273867
 10
2.774339
 20
2.27792
 10
2.766415
 20
2.281664
 10
2.758201
 20
2.285093
 10
2.7497
 20
2.288203
 10
2.740919
 20
2.290987
 10
2.731861
 20
2.29344
 10
2.722532
 20
2.295558
 10
2.712938
 20
2.297336
 10
2.703081
 20
2.298767
 10
2.692968
 20
2.299848
 10
2.682404
 20
2.300333
 10
2.671555
 20
2.29998
 10
2.660498
 20
2.298822
 10
2.649313
 20
2.296898
 10
2.638078
 20
2.294241
 10
2.626871
 20
2.290888
 10
2.61577
 20
2.286875
 10
2.604853
 20
2.282238
 10
2.594199
 20
2.277012
 10
2.583886
 20
2.271233
 10
2.573993
 20
2.264938
 10
2.564597
 20
2.258161
 10
2.555778
 20
2.250938
 10
2.547612
 20
2.243306
 10
2.54018
 20
2.2353
 10
2.533558
 20
2.226956
 10
2.530946
 20
2.223052
 10
2.528503
 20
2.218757
 10
2.524122
 20
2.209085
 10
2.520414
 20
2.198121
 10
2.517381
 20
2.186043
 10
2.515021
 20
2.173031
 10
2.513335
 20
2.159264
 10
2.512323
 20
2.144921
 10
2.511985
 20
2.130181
 10
2.512321
 20
2.115224
 10
2.51333
 20
2.100228
 10
2.515014
 20
2.085373
 10
2.517371
 20
2.070838
 10
2.520402
 20
2.056801
 10
2.524108
 20
2.043444
 10
2.528487
 20
2.030943
 10
2.53354
 20
2.019479
 10
2.537552
 20
2.012333
 10
2.542574
 20
2.004951
 10
2.548478
 20
1.997434
 10
2.555132
 20
1.98988
 10
2.562409
 20
1.982389
 10
2.570179
 20
1.975061
 10
2.578312
 20
1.967995
 10
2.586679
 20
1.961291
 10
2.59515
 20
1.955047
 10
2.603597
 20
1.949365
 10
2.61189
 20
1.944342
 10
2.619899
 20
1.940078
 10
2.627495
 20
1.936674
 10
2.634549
 20
1.934228
 10
2.640931
 20
1.93284
 10
2.646512
 20
1.93261
 10
2.66196
 20
1.934228
 10
2.679606
 20
1.936849
 10
2.698408
 20
1.940242
 10
2.717324
 20
1.944176
 10
2.735313
 20
1.948421
 10
2.751332
 20
1.952745
 10
2.76434
 20
1.956918
 10
2.769389
 20
1.958875
 10
2.773294
 20
1.960708
  0
LWPOLYLINE
  5
36
330
1F
100
AcDbEntity
  8
0
100
AcDbPolyline
 90
      110
 70
   128
 43
0.0
 10
2.135496
 20
2.042691
 10
2.135161
 20
2.04621
 10
2.134201
 20
2.050208
 10
2.132684
 20
2.054547
 10
2.130676
 20
2.059089
 10
2.128245
 20
2.063693
 10
2.125458
 20
2.068222
 10
2.122382
 20
2.072537
 10
2.119086
 20
2.0765
 10
2.117093
 20
2.079008
 10
2.115179
 20
2.082041
 10
2.111588
 20
2.089667
 10
2.108318
 20
2.099357
 10
2.105375
 20
2.111087
 10
2.102763
 20
2.124836
 10
2.100488
 20
2.14058
 10
2.098553
 20
2.158298
 10
2.096964
 20
2.177967
 10
2.095038
 20
2.204915
 10
2.093209
 20
2.225327
 10
2.09112
 20
2.240113
 10
2.089867
 20
2.245681
 10
2.088415
 20
2.250184
 10
2.086722
 20
2.253736
 10
2.084741
 20
2.256451
 10
2.082428
 20
2.258442
 10
2.07974
 20
2.259823
 10
2.076631
 20
2.260709
 10
2.073057
 20
2.261212
 10
2.064337
 20
2.261528
 10
2.058003
 20
2.261995
 10
2.050302
 20
2.263243
 10
2.04153
 20
2.265188
 10
2.031983
 20
2.267743
 10
2.02196
 20
2.270825
 10
2.011755
 20
2.274346
 10
2.001667
 20
2.278222
 10
1.991991
 20
2.282367
 10
1.978053
 20
2.288555
 10
1.966925
 20
2.293057
 10
1.958062
 20
2.29591
 10
1.954309
 20
2.296731
 10
1.950919
 20
2.297154
 10
1.947823
 20
2.297183
 10
1.944953
 20
2.296825
 10
1.94224
 20
2.296083
 10
1.939618
 20
2.294962
 10
1.934371
 20
2.291603
 10
1.928666
 20
2.286786
 10
1.924801
 20
2.282565
 10
1.920671
 20
2.276758
 10
1.916405
 20
2.269624
 10
1.91213
 20
2.261425
 10
1.907974
 20
2.252422
 10
1.904066
 20
2.242874
 10
1.900532
 20
2.233044
 10
1.897501
 20
2.223192
 10
1.895509
 20
2.215462
 10
1.893855
 20
2.207725
 10
1.892535
 20
2.19999
 10
1.891546
 20
2.192266
 10
1.890884
 20
2.184563
 10
1.890545
 20
2.17689
 10
1.890525
 20
2.169256
 10
1.890821
 20
2.161669
 10
1.891428
 20
2.15414
 10
1.892343
 20
2.146676
 10
1.893563
 20
2.139288
 10
1.895082
 20
2.131985
 10
1.896898
 20
2.124775
 10
1.899007
 20
2.117668
 10
1.901405
 20
2.110673
 10
1.904088
 20
2.103799
 10
1.907053
 20
2.097054
 10
1.910295
 20
2.09045
 10
1.913811
 20
2.083993
 10
1.917597
 20
2.077694
 10
1.921649
 20
2.071562
 10
1.925963
 20
2.065605
 10
1.930537
 20
2.059834
 10
1.935365
 20
2.054256
 10
1.940444
 20
2.048882
 10
1.945771
 20
2.04372
 10
1.951341
 20
2.038779
 10
1.95715
 20
2.034069
 10
1.963196
 20
2.029599
 10
1.969474
 20
2.025377
 10
1.97598
 20
2.021414
 10
1.982711
 20
2.017717
 10
1.98773
 20
2.015305
 10
1.993006
 20
2.013143
 10
2.004223
 20
2.009553
 10
2.016143
 20
2.006913
 10
2.028547
 20
2.005186
 10
2.041216
 20
2.004337
 10
2.053932
 20
2.004329
 10
2.066475
 20
2.005128
 10
2.078627
 20
2.006697
 10
2.090168
 20
2.009001
 10
2.100881
 20
2.012004
 10
2.110546
 20
2.015669
 10
2.118945
 20
2.019962
 10
2.122601
 20
2.022333
 10
2.125858
 20
2.024846
 10
2.128689
 20
2.027499
 10
2.131067
 20
2.030287
 10
2.132964
 20
2.033204
 10
2.134352
 20
2.036247
 10
2.135206
 20
2.03941
 10
2.135496
 20
2.042691
  0
LWPOLYLINE
  5
37
330
1F
100
AcDbEntity
  8
0
100
AcDbPolyline
 90
      104
 70
   128
 43
0.0
 10
2.429779
 20
2.123701
 10
2.429965
 20
2.138218
 10
2.430476
 20
2.152448
 10
2.431276
 20
2.166031
 10
2.432329
 20
2.178605
 10
2.433601
 20
2.189811
 10
2.435056
 20
2.199287
 10
2.436659
 20
2.206674
 10
2.438375
 20
2.211611
 10
2.439491
 20
2.214183
 10
2.440226
 20
2.216625
 10
2.440554
 20
2.218962
 10
2.440448
 20
2.221219
 10
2.439881
 20
2.223422
 10
2.438825
 20
2.225594
 10
2.437254
 20
2.227762
 10
2.43514
 20
2.229949
 10
2.432457
 20
2.232182
 10
2.429178
 20
2.234484
 10
2.42072
 20
2.239397
 10
2.409551
 20
2.244889
 10
2.395454
 20
2.251158
 10
2.384639
 20
2.256115
 10
2.373624
 20
2.261724
 10
2.362716
 20
2.267793
 10
2.352222
 20
2.274128
 10
2.34245
 20
2.280536
 10
2.333707
 20
2.286825
 10
2.3263
 20
2.2928
 10
2.320537
 20
2.298269
 10
2.315947
 20
2.3023
 10
2.310874
 20
2.305253
 10
2.305387
 20
2.307221
 10
2.299555
 20
2.308301
 10
2.293446
 20
2.308589
 10
2.287131
 20
2.30818
 10
2.280678
 20
2.30717
 10
2.274155
 20
2.305654
 10
2.26118
 20
2.301491
 10
2.248758
 20
2.296454
 10
2.23744
 20
2.291312
 10
2.227781
 20
2.286828
 10
2.218799
 20
2.282616
 10
2.210697
 20
2.278445
 10
2.203434
 20
2.274248
 10
2.196969
 20
2.269956
 10
2.191259
 20
2.2655
 10
2.186264
 20
2.260813
 10
2.181942
 20
2.255827
 10
2.178251
 20
2.250473
 10
2.17515
 20
2.244684
 10
2.172597
 20
2.238391
 10
2.170551
 20
2.231526
 10
2.16897
 20
2.22402
 10
2.167813
 20
2.215806
 10
2.167037
 20
2.206816
 10
2.166603
 20
2.196982
 10
2.166467
 20
2.186234
 10
2.166882
 20
2.173183
 10
2.168263
 20
2.161167
 10
2.16938
 20
2.155389
 10
2.170815
 20
2.149679
 10
2.172595
 20
2.143973
 10
2.174744
 20
2.138209
 10
2.177289
 20
2.132321
 10
2.180255
 20
2.126247
 10
2.187553
 20
2.113284
 10
2.196842
 20
2.098812
 10
2.208329
 20
2.08232
 10
2.222283
 20
2.063024
 10
2.228197
 20
2.055217
 10
2.23362
 20
2.048523
 10
2.238716
 20
2.042857
 10
2.243648
 20
2.038132
 10
2.24858
 20
2.034265
 10
2.253674
 20
2.031167
 10
2.259095
 20
2.028755
 10
2.265007
 20
2.026943
 10
2.271571
 20
2.025644
 10
2.278952
 20
2.024773
 10
2.296819
 20
2.023974
 10
2.319915
 20
2.02386
 10
2.337263
 20
2.024004
 10
2.352709
 20
2.024502
 10
2.36636
 20
2.025452
 10
2.378325
 20
2.026953
 10
2.388713
 20
2.029103
 10
2.393348
 20
2.030452
 10
2.39763
 20
2.032
 10
2.401572
 20
2.033759
 10
2.405186
 20
2.035742
 10
2.408488
 20
2.037961
 10
2.411489
 20
2.040429
 10
2.414204
 20
2.043157
 10
2.416647
 20
2.046157
 10
2.41883
 20
2.049443
 10
2.420768
 20
2.053027
 10
2.422473
 20
2.05692
 10
2.42396
 20
2.061135
 10
2.426332
 20
2.07058
 10
2.427991
 20
2.081461
 10
2.429047
 20
2.093876
 10
2.429607
 20
2.107924
 10
2.429779
 20
2.123701
  0
LWPOLYLINE
  5
38
330
1F
100
AcDbEntity
  8
0
100
AcDbPolyline
 90
      114
 70
   128
 43
0.0
 10
3.122644
 20
2.236242
 10
3.127677
 20
2.243285
 10
3.132249
 20
2.250581
 10
3.136364
 20
2.258109
 10
3.140025
 20
2.265847
 10
3.143238
 20
2.273773
 10
3.146006
 20
2.281865
 10
3.148334
 20
2.290102
 10
3.150225
 20
2.298461
 10
3.151685
 20
2.306921
 10
3.152717
 20
2.31546
 10
3.153325
 20
2.324056
 10
3.153514
 20
2.332687
 10
3.153288
 20
2.341332
 10
3.152651
 20
2.349968
 10
3.151607
 20
2.358574
 10
3.150161
 20
2.367129
 10
3.148316
 20
2.375609
 10
3.146077
 20
2.383994
 10
3.143449
 20
2.392262
 10
3.140435
 20
2.40039
 10
3.13704
 20
2.408358
 10
3.133267
 20
2.416142
 10
3.129122
 20
2.423722
 10
3.124607
 20
2.431075
 10
3.119728
 20
2.43818
 10
3.114489
 20
2.445015
 10
3.108894
 20
2.451558
 10
3.102947
 20
2.457787
 10
3.096652
 20
2.46368
 10
3.090014
 20
2.469217
 10
3.083036
 20
2.474373
 10
3.075723
 20
2.479129
 10
3.06617
 20
2.484641
 10
3.057066
 20
2.489247
 10
3.048347
 20
2.492934
 10
3.039948
 20
2.495689
 10
3.031806
 20
2.497499
 10
3.023856
 20
2.49835
 10
3.016033
 20
2.498229
 10
3.008273
 20
2.497122
 10
3.000512
 20
2.495017
 10
2.992685
 20
2.4919
 10
2.984728
 20
2.487757
 10
2.976576
 20
2.482576
 10
2.968165
 20
2.476343
 10
2.959431
 20
2.469044
 10
2.950308
 20
2.460667
 10
2.940734
 20
2.451198
 10
2.93077
 20
2.441353
 10
2.920252
 20
2.431541
 10
2.909498
 20
2.422021
 10
2.898827
 20
2.413054
 10
2.888554
 20
2.404897
 10
2.878998
 20
2.397812
 10
2.870477
 20
2.392058
 10
2.863307
 20
2.387894
 10
2.840646
 20
2.375759
 10
2.829763
 20
2.369387
 10
2.819799
 20
2.362985
 10
2.811217
 20
2.356681
 10
2.807589
 20
2.353606
 10
2.804482
 20
2.350603
 10
2.801953
 20
2.347689
 10
2.80006
 20
2.34488
 10
2.798861
 20
2.342192
 10
2.798415
 20
2.339641
 10
2.798721
 20
2.337614
 10
2.799684
 20
2.335722
 10
2.801244
 20
2.333936
 10
2.80334
 20
2.332223
 10
2.808895
 20
2.328892
 10
2.815862
 20
2.325482
 10
2.823754
 20
2.321742
 10
2.832083
 20
2.317423
 10
2.840362
 20
2.312277
 10
2.844331
 20
2.309315
 10
2.848105
 20
2.306052
 10
2.854893
 20
2.299067
 10
2.86221
 20
2.290412
 10
2.869825
 20
2.28043
 10
2.877509
 20
2.269463
 10
2.88503
 20
2.257853
 10
2.892158
 20
2.245942
 10
2.898663
 20
2.234073
 10
2.904314
 20
2.222588
 10
2.912647
 20
2.204699
 10
2.919515
 20
2.191261
 10
2.922673
 20
2.186014
 10
2.925792
 20
2.181643
 10
2.928981
 20
2.17807
 10
2.93235
 20
2.175215
 10
2.936007
 20
2.173
 10
2.940063
 20
2.171347
 10
2.944627
 20
2.170175
 10
2.949806
 20
2.169407
 10
2.962453
 20
2.168766
 10
2.978876
 20
2.168794
 10
2.990953
 20
2.16912
 10
3.002493
 20
2.169907
 10
3.013523
 20
2.171166
 10
3.024069
 20
2.17291
 10
3.034159
 20
2.175152
 10
3.043819
 20
2.177904
 10
3.053076
 20
2.181179
 10
3.061956
 20
2.184989
 10
3.070486
 20
2.189347
 10
3.078693
 20
2.194265
 10
3.086603
 20
2.199756
 10
3.094244
 20
2.205832
 10
3.101642
 20
2.212507
 10
3.108823
 20
2.219791
 10
3.115815
 20
2.227699
 10
3.122644
 20
2.236242
  0
LWPOLYLINE
  5
39
330
1F
100
AcDbEntity
  8
0
100
AcDbPolyline
 90
      109
 70
   128
 43
0.0
 10
2.646254
 20
2.370603
 10
2.648456
 20
2.374291
 10
2.650524
 20
2.37845
 10
2.654263
 20
2.388056
 10
2.657465
 20
2.399182
 10
2.66013
 20
2.41159
 10
2.662252
 20
2.42504
 10
2.663829
 20
2.439293
 10
2.664859
 20
2.454111
 10
2.665337
 20
2.469255
 10
2.66526
 20
2.484485
 10
2.664626
 20
2.499563
 10
2.663432
 20
2.51425
 10
2.661673
 20
2.528307
 10
2.659347
 20
2.541494
 10
2.656451
 20
2.553574
 10
2.652982
 20
2.564307
 10
2.651031
 20
2.569094
 10
2.648936
 20
2.573455
 10
2.643797
 20
2.582531
 10
2.638052
 20
2.591328
 10
2.631748
 20
2.599814
 10
2.624931
 20
2.607956
 10
2.617645
 20
2.615721
 10
2.609938
 20
2.623075
 10
2.601853
 20
2.629987
 10
2.593438
 20
2.636422
 10
2.584737
 20
2.642348
 10
2.575797
 20
2.647731
 10
2.566662
 20
2.65254
 10
2.557379
 20
2.656741
 10
2.547993
 20
2.660301
 10
2.53855
 20
2.663186
 10
2.529096
 20
2.665365
 10
2.519675
 20
2.666805
 10
2.504554
 20
2.668325
 10
2.490412
 20
2.669353
 10
2.477196
 20
2.669873
 10
2.464855
 20
2.669873
 10
2.453336
 20
2.669336
 10
2.442587
 20
2.668248
 10
2.432555
 20
2.666596
 10
2.423189
 20
2.664363
 10
2.414437
 20
2.661536
 10
2.406245
 20
2.6581
 10
2.398562
 20
2.65404
 10
2.391336
 20
2.649342
 10
2.384514
 20
2.643991
 10
2.378044
 20
2.637973
 10
2.371874
 20
2.631273
 10
2.365951
 20
2.623876
 10
2.354223
 20
2.608794
 10
2.34303
 20
2.595363
 10
2.333638
 20
2.585046
 10
2.330014
 20
2.581513
 10
2.327316
 20
2.579306
 10
2.325929
 20
2.577915
 10
2.324638
 20
2.575729
 10
2.323445
 20
2.572797
 10
2.322347
 20
2.569173
 10
2.32044
 20
2.560052
 10
2.318912
 20
2.548777
 10
2.317761
 20
2.535759
 10
2.316982
 20
2.52141
 10
2.316572
 20
2.506141
 10
2.316528
 20
2.490364
 10
2.316846
 20
2.474492
 10
2.317522
 20
2.458934
 10
2.318553
 20
2.444104
 10
2.319936
 20
2.430412
 10
2.321666
 20
2.418271
 10
2.32374
 20
2.408092
 10
2.326155
 20
2.400286
 10
2.327489
 20
2.397402
 10
2.328907
 20
2.395266
 10
2.367959
 20
2.34716
 10
2.372943
 20
2.341243
 10
2.378139
 20
2.335707
 10
2.383588
 20
2.330532
 10
2.389332
 20
2.325698
 10
2.395415
 20
2.321186
 10
2.401879
 20
2.316975
 10
2.408766
 20
2.313046
 10
2.41612
 20
2.309379
 10
2.423981
 20
2.305954
 10
2.432394
 20
2.302752
 10
2.4414
 20
2.299752
 10
2.451042
 20
2.296934
 10
2.461363
 20
2.294279
 10
2.472404
 20
2.291768
 10
2.496821
 20
2.287095
 10
2.507127
 20
2.285711
 10
2.516686
 20
2.285349
 10
2.521304
 20
2.285584
 10
2.525878
 20
2.286116
 10
2.530457
 20
2.286958
 10
2.535086
 20
2.288123
 10
2.544692
 20
2.291476
 10
2.555075
 20
2.296286
 10
2.566619
 20
2.302661
 10
2.579704
 20
2.310709
 10
2.589499
 20
2.317314
 10
2.599418
 20
2.324663
 10
2.609189
 20
2.332508
 10
2.618538
 20
2.340606
 10
2.627191
 20
2.34871
 10
2.634877
 20
2.356575
 10
2.641322
 20
2.363954
 10
2.646254
 20
2.370603
  0
LWPOLYLINE
  5
3A
330
1F
100
AcDbEntity
  8
0
100
AcDbPolyline
 90
      105
 70
   128
 43
0.0
 10
1.890498
 20
2.34111
 10
1.896152
 20
2.347761
 10
1.89838
 20
2.350847
 10
1.900213
 20
2.353913
 10
1.901651
 20
2.357063
 10
1.902696
 20
2.360402
 10
1.903349
 20
2.364033
 10
1.903614
 20
2.368062
 10
1.903491
 20
2.372592
 10
1.902981
 20
2.377729
 10
1.900812
 20
2.390237
 10
1.897119
 20
2.406424
 10
1.891917
 20
2.427123
 10
1.88811
 20
2.443244
 10
1.885011
 20
2.459105
 10
1.882623
 20
2.474674
 10
1.88095
 20
2.489919
 10
1.879993
 20
2.504808
 10
1.879756
 20
2.519308
 10
1.880241
 20
2.533389
 10
1.881452
 20
2.547019
 10
1.883216
 20
2.563307
 10
1.884162
 20
2.576252
 10
1.884165
 20
2.586378
 10
1.883773
 20
2.590548
 10
1.883098
 20
2.59421
 10
1.882124
 20
2.59743
 10
1.880836
 20
2.600273
 10
1.879217
 20
2.602804
 10
1.877253
 20
2.605089
 10
1.874927
 20
2.607195
 10
1.872224
 20
2.609185
 10
1.865623
 20
2.613084
 10
1.86009
 20
2.615405
 10
1.852984
 20
2.617365
 10
1.84458
 20
2.618939
 10
1.835153
 20
2.620101
 10
1.824979
 20
2.620824
 10
1.814334
 20
2.621081
 10
1.803492
 20
2.620846
 10
1.79273
 20
2.620093
 10
1.781699
 20
2.618578
 10
1.77082
 20
2.616189
 10
1.760139
 20
2.612963
 10
1.749699
 20
2.608937
 10
1.739547
 20
2.604148
 10
1.729728
 20
2.598632
 10
1.720286
 20
2.592427
 10
1.711267
 20
2.585569
 10
1.702716
 20
2.578094
 10
1.694677
 20
2.570041
 10
1.687197
 20
2.561445
 10
1.680321
 20
2.552343
 10
1.674093
 20
2.542773
 10
1.668558
 20
2.532771
 10
1.663763
 20
2.522374
 10
1.659751
 20
2.511618
 10
1.657253
 20
2.502838
 10
1.655347
 20
2.493521
 10
1.654018
 20
2.48376
 10
1.653251
 20
2.473651
 10
1.653033
 20
2.46329
 10
1.653348
 20
2.452771
 10
1.654183
 20
2.442191
 10
1.655523
 20
2.431644
 10
1.657354
 20
2.421225
 10
1.659661
 20
2.41103
 10
1.662429
 20
2.401154
 10
1.665645
 20
2.391693
 10
1.669294
 20
2.382741
 10
1.673362
 20
2.374394
 10
1.677833
 20
2.366747
 10
1.682695
 20
2.359896
 10
1.687816
 20
2.353737
 10
1.693208
 20
2.347921
 10
1.698854
 20
2.342449
 10
1.704734
 20
2.337324
 10
1.710831
 20
2.332547
 10
1.717126
 20
2.328119
 10
1.723601
 20
2.324042
 10
1.730238
 20
2.320319
 10
1.737018
 20
2.31695
 10
1.743923
 20
2.313937
 10
1.750935
 20
2.311282
 10
1.758036
 20
2.308986
 10
1.765207
 20
2.307051
 10
1.77243
 20
2.30548
 10
1.779687
 20
2.304272
 10
1.786959
 20
2.303431
 10
1.794228
 20
2.302958
 10
1.801477
 20
2.302854
 10
1.808685
 20
2.303121
 10
1.815837
 20
2.303761
 10
1.822912
 20
2.304775
 10
1.829893
 20
2.306165
 10
1.836761
 20
2.307933
 10
1.843499
 20
2.31008
 10
1.850088
 20
2.312608
 10
1.856509
 20
2.315518
 10
1.862745
 20
2.318813
 10
1.868776
 20
2.322494
 10
1.874586
 20
2.326563
 10
1.880155
 20
2.33102
 10
1.885465
 20
2.335869
 10
1.890498
 20
2.34111
  0
LWPOLYLINE
  5
3B
330
1F
100
AcDbEntity
  8
0
100
AcDbPolyline
 90
      104
 70
   128
 43
0.0
 10
2.238188
 20
2.373845
 10
2.240307
 20
2.379516
 10
2.242381
 20
2.388301
 10
2.244358
 20
2.399757
 10
2.246186
 20
2.413442
 10
2.247813
 20
2.428913
 10
2.249185
 20
2.44573
 10
2.250252
 20
2.463449
 10
2.250959
 20
2.48163
 10
2.251589
 20
2.509002
 10
2.251631
 20
2.530614
 10
2.250879
 20
2.547504
 10
2.250141
 20
2.554501
 10
2.249127
 20
2.560707
 10
2.247812
 20
2.566251
 10
2.246171
 20
2.571262
 10
2.244176
 20
2.57587
 10
2.241804
 20
2.580206
 10
2.239027
 20
2.584397
 10
2.235821
 20
2.588575
 10
2.228017
 20
2.597407
 10
2.221643
 20
2.603841
 10
2.214656
 20
2.610174
 10
2.207141
 20
2.616361
 10
2.19918
 20
2.62236
 10
2.190859
 20
2.628127
 10
2.182259
 20
2.633619
 10
2.173466
 20
2.638793
 10
2.164561
 20
2.643606
 10
2.155629
 20
2.648014
 10
2.146754
 20
2.651975
 10
2.138019
 20
2.655445
 10
2.129506
 20
2.658381
 10
2.121301
 20
2.66074
 10
2.113487
 20
2.662478
 10
2.106147
 20
2.663553
 10
2.099364
 20
2.66392
 10
2.093643
 20
2.663742
 10
2.087827
 20
2.663213
 10
2.081931
 20
2.662347
 10
2.075969
 20
2.661156
 10
2.063914
 20
2.657844
 10
2.051785
 20
2.653373
 10
2.039705
 20
2.64784
 10
2.027799
 20
2.641341
 10
2.016188
 20
2.633971
 10
2.004998
 20
2.625826
 10
1.994351
 20
2.617002
 10
1.98437
 20
2.607596
 10
1.975181
 20
2.597703
 10
1.966905
 20
2.587418
 10
1.959666
 20
2.576839
 10
1.953588
 20
2.566061
 10
1.951023
 20
2.560628
 10
1.948794
 20
2.55518
 10
1.946918
 20
2.549731
 10
1.945408
 20
2.544292
 10
1.939585
 20
2.519525
 10
1.935501
 20
2.499421
 10
1.934122
 20
2.490766
 10
1.933191
 20
2.482855
 10
1.932712
 20
2.475547
 10
1.93269
 20
2.468701
 10
1.933129
 20
2.462178
 10
1.934033
 20
2.455835
 10
1.935408
 20
2.449533
 10
1.937256
 20
2.443131
 10
1.939584
 20
2.436487
 10
1.942394
 20
2.429463
 10
1.949481
 20
2.413706
 10
1.955014
 20
2.402912
 10
1.961245
 20
2.392552
 10
1.96814
 20
2.382648
 10
1.975665
 20
2.373226
 10
1.983785
 20
2.36431
 10
1.992466
 20
2.355923
 10
2.001674
 20
2.34809
 10
2.011374
 20
2.340834
 10
2.021532
 20
2.33418
 10
2.032113
 20
2.328152
 10
2.043084
 20
2.322775
 10
2.054409
 20
2.318071
 10
2.066055
 20
2.314065
 10
2.077987
 20
2.310782
 10
2.09017
 20
2.308244
 10
2.10257
 20
2.306477
 10
2.116605
 20
2.305203
 10
2.128697
 20
2.304803
 10
2.139365
 20
2.305403
 10
2.144326
 20
2.306119
 10
2.149125
 20
2.307132
 10
2.153827
 20
2.30846
 10
2.158495
 20
2.310117
 10
2.167992
 20
2.314486
 10
2.178134
 20
2.320365
 10
2.189437
 20
2.327882
 10
2.197372
 20
2.333643
 10
2.205181
 20
2.339777
 10
2.212664
 20
2.346095
 10
2.219621
 20
2.352408
 10
2.225851
 20
2.358528
 10
2.231156
 20
2.364266
 10
2.235335
 20
2.369435
 10
2.238188
 20
2.373845
  0
LWPOLYLINE
  5
3C
330
1F
100
AcDbEntity
  8
0
100
AcDbPolyline
 90
      112
 70
   128
 43
0.0
 10
3.281167
 20
2.37333
 10
3.295745
 20
2.403853
 10
3.31332
 20
2.438847
 10
3.316685
 20
2.445755
 10
3.31971
 20
2.452769
 10
3.322398
 20
2.459877
 10
3.324751
 20
2.467063
 10
3.326772
 20
2.474317
 10
3.328465
 20
2.481624
 10
3.329833
 20
2.48897
 10
3.330878
 20
2.496344
 10
3.331603
 20
2.503731
 10
3.332012
 20
2.511118
 10
3.332107
 20
2.518492
 10
3.331891
 20
2.52584
 10
3.331368
 20
2.533148
 10
3.33054
 20
2.540404
 10
3.329409
 20
2.547593
 10
3.32798
 20
2.554703
 10
3.326255
 20
2.561721
 10
3.324237
 20
2.568633
 10
3.321929
 20
2.575425
 10
3.319334
 20
2.582086
 10
3.316455
 20
2.5886
 10
3.313295
 20
2.594956
 10
3.309856
 20
2.60114
 10
3.306142
 20
2.607138
 10
3.302156
 20
2.612938
 10
3.297901
 20
2.618526
 10
3.29338
 20
2.623889
 10
3.288595
 20
2.629013
 10
3.283549
 20
2.633885
 10
3.278246
 20
2.638493
 10
3.272689
 20
2.642823
 10
3.26688
 20
2.646861
 10
3.260717
 20
2.650594
 10
3.254134
 20
2.654013
 10
3.247167
 20
2.65712
 10
3.239853
 20
2.659918
 10
3.232229
 20
2.662411
 10
3.224332
 20
2.664603
 10
3.216199
 20
2.666496
 10
3.207865
 20
2.668094
 10
3.199369
 20
2.6694
 10
3.190746
 20
2.670418
 10
3.173268
 20
2.671602
 10
3.155727
 20
2.671672
 10
3.138416
 20
2.670656
 10
3.12163
 20
2.668579
 10
3.105662
 20
2.665468
 10
3.098077
 20
2.663534
 10
3.090807
 20
2.661351
 10
3.083888
 20
2.658923
 10
3.077358
 20
2.656254
 10
3.071254
 20
2.653346
 10
3.065611
 20
2.650203
 10
3.060467
 20
2.646828
 10
3.055859
 20
2.643225
 10
3.051823
 20
2.639397
 10
3.048396
 20
2.635347
 10
3.045615
 20
2.631079
 10
3.043516
 20
2.626596
 10
3.038313
 20
2.611542
 10
3.036551
 20
2.605004
 10
3.035385
 20
2.599045
 10
3.03484
 20
2.593607
 10
3.034944
 20
2.588632
 10
3.035723
 20
2.584059
 10
3.037205
 20
2.57983
 10
3.039414
 20
2.575886
 10
3.042379
 20
2.572168
 10
3.046126
 20
2.568617
 10
3.050681
 20
2.565174
 10
3.056072
 20
2.561779
 10
3.062324
 20
2.558375
 10
3.077521
 20
2.551299
 10
3.088026
 20
2.546447
 10
3.098029
 20
2.541188
 10
3.107544
 20
2.535506
 10
3.116585
 20
2.529384
 10
3.125166
 20
2.522806
 10
3.133301
 20
2.515756
 10
3.141004
 20
2.508218
 10
3.148289
 20
2.500174
 10
3.15517
 20
2.491609
 10
3.16166
 20
2.482505
 10
3.167774
 20
2.472848
 10
3.173526
 20
2.46262
 10
3.17893
 20
2.451805
 10
3.183999
 20
2.440387
 10
3.188748
 20
2.428349
 10
3.19319
 20
2.415675
 10
3.203424
 20
2.384724
 10
3.21124
 20
2.36186
 10
3.217342
 20
2.346036
 10
3.219968
 20
2.340436
 10
3.222429
 20
2.336204
 10
3.224812
 20
2.333208
 10
3.227205
 20
2.331317
 10
3.229695
 20
2.330401
 10
3.23237
 20
2.330329
 10
3.235318
 20
2.330969
 10
3.238627
 20
2.332191
 10
3.246677
 20
2.335858
 10
3.251359
 20
2.338451
 10
3.256219
 20
2.341949
 10
3.261113
 20
2.346198
 10
3.265902
 20
2.351045
 10
3.270443
 20
2.356335
 10
3.274595
 20
2.361915
 10
3.278217
 20
2.367631
 10
3.281167
 20
2.37333
  0
LWPOLYLINE
  5
3D
330
1F
100
AcDbEntity
  8
0
100
AcDbPolyline
 90
      108
 70
   128
 43
0.0
 10
2.937758
 20
2.5452
 10
2.943104
 20
2.555532
 10
2.947765
 20
2.5663
 10
2.95174
 20
2.57743
 10
2.955026
 20
2.588847
 10
2.957623
 20
2.600477
 10
2.95953
 20
2.612246
 10
2.960746
 20
2.62408
 10
2.96127
 20
2.635904
 10
2.9611
 20
2.647644
 10
2.960236
 20
2.659226
 10
2.958675
 20
2.670576
 10
2.956419
 20
2.681618
 10
2.953464
 20
2.692281
 10
2.94981
 20
2.702488
 10
2.945456
 20
2.712165
 10
2.9404
 20
2.721239
 10
2.934152
 20
2.730603
 10
2.927379
 20
2.739363
 10
2.92012
 20
2.747519
 10
2.912413
 20
2.755071
 10
2.904295
 20
2.762019
 10
2.895804
 20
2.768363
 10
2.886978
 20
2.774104
 10
2.877855
 20
2.77924
 10
2.868473
 20
2.783772
 10
2.858869
 20
2.7877
 10
2.849082
 20
2.791025
 10
2.839149
 20
2.793745
 10
2.829108
 20
2.795861
 10
2.818996
 20
2.797373
 10
2.808853
 20
2.798281
 10
2.798715
 20
2.798586
 10
2.78862
 20
2.798286
 10
2.778607
 20
2.797382
 10
2.768713
 20
2.795874
 10
2.758975
 20
2.793762
 10
2.749432
 20
2.791046
 10
2.740122
 20
2.787725
 10
2.731082
 20
2.783801
 10
2.722351
 20
2.779273
 10
2.713965
 20
2.77414
 10
2.705964
 20
2.768403
 10
2.698384
 20
2.762063
 10
2.691264
 20
2.755118
 10
2.684641
 20
2.747569
 10
2.678553
 20
2.739415
 10
2.673038
 20
2.730658
 10
2.668135
 20
2.721297
 10
2.662481
 20
2.709136
 10
2.658456
 20
2.699459
 10
2.656067
 20
2.691608
 10
2.655488
 20
2.688162
 10
2.655322
 20
2.684925
 10
2.655569
 20
2.681815
 10
2.656231
 20
2.67875
 10
2.657308
 20
2.675647
 10
2.658801
 20
2.672424
 10
2.663042
 20
2.66529
 10
2.668961
 20
2.656688
 10
2.675848
 20
2.646454
 10
2.682085
 20
2.636203
 10
2.687711
 20
2.625979
 10
2.692763
 20
2.615823
 10
2.697283
 20
2.605776
 10
2.701308
 20
2.595883
 10
2.708031
 20
2.576721
 10
2.713244
 20
2.558673
 10
2.717261
 20
2.542077
 10
2.722955
 20
2.514588
 10
2.72418
 20
2.504457
 10
2.725114
 20
2.491413
 10
2.726269
 20
2.479114
 10
2.72709
 20
2.474387
 10
2.728159
 20
2.47122
 10
2.730033
 20
2.466949
 10
2.731363
 20
2.462219
 10
2.732242
 20
2.457118
 10
2.732766
 20
2.451732
 10
2.73312
 20
2.440455
 10
2.733179
 20
2.429086
 10
2.733695
 20
2.418322
 10
2.734359
 20
2.413384
 10
2.735419
 20
2.408859
 10
2.73697
 20
2.404833
 10
2.739106
 20
2.401395
 10
2.74192
 20
2.39863
 10
2.745506
 20
2.396627
 10
2.748164
 20
2.39608
 10
2.751487
 20
2.396252
 10
2.755429
 20
2.397106
 10
2.759947
 20
2.398603
 10
2.764994
 20
2.400704
 10
2.770527
 20
2.403371
 10
2.782868
 20
2.410248
 10
2.796613
 20
2.418926
 10
2.811401
 20
2.429098
 10
2.826874
 20
2.440455
 10
2.842674
 20
2.452689
 10
2.858441
 20
2.465493
 10
2.873817
 20
2.478559
 10
2.888442
 20
2.491578
 10
2.901959
 20
2.504243
 10
2.914007
 20
2.516245
 10
2.924229
 20
2.527277
 10
2.932266
 20
2.537032
 10
2.935352
 20
2.541333
 10
2.937758
 20
2.5452
  0
LWPOLYLINE
  5
3E
330
1F
100
AcDbEntity
  8
0
100
AcDbPolyline
 90
      113
 70
   128
 43
0.0
 10
2.352291
 20
2.70514
 10
2.352047
 20
2.709596
 10
2.351329
 20
2.713871
 10
2.350152
 20
2.71795
 10
2.348535
 20
2.721821
 10
2.346496
 20
2.725468
 10
2.344052
 20
2.728877
 10
2.34122
 20
2.732033
 10
2.338018
 20
2.734923
 10
2.334463
 20
2.737533
 10
2.330574
 20
2.739847
 10
2.326368
 20
2.741852
 10
2.321861
 20
2.743533
 10
2.317073
 20
2.744876
 10
2.31202
 20
2.745867
 10
2.306719
 20
2.746492
 10
2.301189
 20
2.746736
 10
2.295971
 20
2.746949
 10
2.290561
 20
2.747494
 10
2.279229
 20
2.749543
 10
2.267308
 20
2.752806
 10
2.254913
 20
2.757207
 10
2.242161
 20
2.762672
 10
2.229165
 20
2.769124
 10
2.216042
 20
2.776488
 10
2.202907
 20
2.784688
 10
2.189876
 20
2.793649
 10
2.177063
 20
2.803294
 10
2.164584
 20
2.813549
 10
2.152554
 20
2.824337
 10
2.14109
 20
2.835582
 10
2.130305
 20
2.84721
 10
2.120317
 20
2.859144
 10
2.111239
 20
2.87131
 10
2.107438
 20
2.876192
 10
2.103461
 20
2.880206
 10
2.099279
 20
2.883341
 10
2.094865
 20
2.885589
 10
2.090191
 20
2.88694
 10
2.085227
 20
2.887386
 10
2.079946
 20
2.886918
 10
2.07432
 20
2.885526
 10
2.06832
 20
2.883202
 10
2.061918
 20
2.879936
 10
2.055086
 20
2.87572
 10
2.047795
 20
2.870544
 10
2.040018
 20
2.8644
 10
2.031726
 20
2.857278
 10
2.022891
 20
2.849169
 10
2.013485
 20
2.840065
 10
2.005809
 20
2.831867
 10
1.998372
 20
2.822776
 10
1.991239
 20
2.812959
 10
1.984477
 20
2.80258
 10
1.97815
 20
2.791807
 10
1.972324
 20
2.780805
 10
1.967065
 20
2.769739
 10
1.962438
 20
2.758777
 10
1.958509
 20
2.748083
 10
1.955343
 20
2.737825
 10
1.953007
 20
2.728168
 10
1.951565
 20
2.719277
 10
1.951083
 20
2.711319
 10
1.951627
 20
2.70446
 10
1.952304
 20
2.701495
 10
1.953262
 20
2.698866
 10
1.954509
 20
2.696596
 10
1.956054
 20
2.694703
 10
1.957278
 20
2.693739
 10
1.958829
 20
2.692954
 10
1.962853
 20
2.691918
 10
1.968009
 20
2.691582
 10
1.974177
 20
2.691934
 10
1.981238
 20
2.692962
 10
1.989073
 20
2.694654
 10
1.997564
 20
2.696996
 10
2.006591
 20
2.699977
 10
2.023098
 20
2.705239
 10
2.039798
 20
2.709365
 10
2.056617
 20
2.712369
 10
2.073481
 20
2.714263
 10
2.090315
 20
2.715061
 10
2.107047
 20
2.714776
 10
2.123601
 20
2.713422
 10
2.139904
 20
2.711013
 10
2.155883
 20
2.707562
 10
2.171462
 20
2.703081
 10
2.186568
 20
2.697585
 10
2.201127
 20
2.691088
 10
2.215065
 20
2.683601
 10
2.221778
 20
2.679492
 10
2.228308
 20
2.67514
 10
2.234645
 20
2.670548
 10
2.240781
 20
2.665717
 10
2.246707
 20
2.660649
 10
2.252412
 20
2.655346
 10
2.265974
 20
2.642642
 10
2.277945
 20
2.632238
 10
2.287027
 20
2.625208
 10
2.29008
 20
2.623294
 10
2.291925
 20
2.622626
 10
2.294534
 20
2.623377
 10
2.297883
 20
2.625515
 10
2.301847
 20
2.628868
 10
2.306301
 20
2.633266
 10
2.316175
 20
2.64451
 10
2.326503
 20
2.657876
 10
2.336281
 20
2.671993
 10
2.344507
 20
2.685489
 10
2.347724
 20
2.691577
 10
2.350178
 20
2.696996
 10
2.351742
 20
2.701574
 10
2.352291
 20
2.70514
  0
LWPOLYLINE
  5
3F
330
1F
100
AcDbEntity
  8
0
100
AcDbPolyline
 90
      113
 70
   128
 43
0.0
 10
2.650218
 20
2.807096
 10
2.658296
 20
2.813195
 10
2.66685
 20
2.819192
 10
2.67562
 20
2.824935
 10
2.684346
 20
2.830271
 10
2.692769
 20
2.835045
 10
2.700628
 20
2.839105
 10
2.707664
 20
2.842297
 10
2.713615
 20
2.844468
 10
2.72434
 20
2.848062
 10
2.733791
 20
2.851994
 10
2.741974
 20
2.856298
 10
2.748895
 20
2.861006
 10
2.754562
 20
2.86615
 10
2.756927
 20
2.868897
 10
2.75898
 20
2.871765
 10
2.760722
 20
2.874759
 10
2.762155
 20
2.877882
 10
2.763279
 20
2.88114
 10
2.764094
 20
2.884536
 10
2.764602
 20
2.888073
 10
2.764803
 20
2.891757
 10
2.764288
 20
2.899581
 10
2.762556
 20
2.908039
 10
2.759613
 20
2.917164
 10
2.755465
 20
2.926989
 10
2.750118
 20
2.937548
 10
2.743579
 20
2.948872
 10
2.735854
 20
2.960996
 10
2.727174
 20
2.973621
 10
2.718536
 20
2.98525
 10
2.70991
 20
2.995899
 10
2.701264
 20
3.00559
 10
2.692567
 20
3.014341
 10
2.683787
 20
3.022171
 10
2.674893
 20
3.0291
 10
2.665855
 20
3.035147
 10
2.65664
 20
3.040331
 10
2.647217
 20
3.044671
 10
2.637556
 20
3.048187
 10
2.627624
 20
3.050898
 10
2.617391
 20
3.052823
 10
2.606826
 20
3.053981
 10
2.595896
 20
3.054392
 10
2.584571
 20
3.054075
 10
2.567531
 20
3.052926
 10
2.560634
 20
3.052164
 10
2.554715
 20
3.051118
 10
2.549698
 20
3.049673
 10
2.545505
 20
3.047708
 10
2.542061
 20
3.045108
 10
2.539287
 20
3.041753
 10
2.537107
 20
3.037527
 10
2.535444
 20
3.03231
 10
2.53422
 20
3.025986
 10
2.533359
 20
3.018437
 10
2.532418
 20
2.99919
 10
2.532004
 20
2.973627
 10
2.53115
 20
2.942998
 10
2.530328
 20
2.929501
 10
2.529188
 20
2.91705
 10
2.527689
 20
2.905522
 10
2.525789
 20
2.894795
 10
2.523448
 20
2.884745
 10
2.520625
 20
2.875248
 10
2.51728
 20
2.866181
 10
2.51337
 20
2.857422
 10
2.508855
 20
2.848846
 10
2.503694
 20
2.840331
 10
2.497846
 20
2.831753
 10
2.49127
 20
2.822988
 10
2.483926
 20
2.813914
 10
2.475771
 20
2.804408
 10
2.469409
 20
2.796829
 10
2.463931
 20
2.789608
 10
2.459337
 20
2.782762
 10
2.455626
 20
2.776309
 10
2.452797
 20
2.770268
 10
2.450848
 20
2.764656
 10
2.449778
 20
2.759493
 10
2.449588
 20
2.754795
 10
2.450274
 20
2.750582
 10
2.451838
 20
2.746872
 10
2.454277
 20
2.743683
 10
2.457591
 20
2.741032
 10
2.461778
 20
2.738939
 10
2.466838
 20
2.737421
 10
2.472769
 20
2.736497
 10
2.479571
 20
2.736185
 10
2.492896
 20
2.735673
 10
2.510923
 20
2.734278
 10
2.531289
 20
2.732214
 10
2.551629
 20
2.729693
 10
2.566561
 20
2.727763
 10
2.578096
 20
2.726717
 10
2.582757
 20
2.726588
 10
2.586768
 20
2.726757
 10
2.590197
 20
2.727248
 10
2.593109
 20
2.728086
 10
2.595572
 20
2.729298
 10
2.597651
 20
2.730909
 10
2.599414
 20
2.732943
 10
2.600928
 20
2.735427
 10
2.603471
 20
2.741844
 10
2.605813
 20
2.750364
 10
2.607949
 20
2.756424
 10
2.611426
 20
2.763244
 10
2.61606
 20
2.770591
 10
2.621669
 20
2.778233
 10
2.628072
 20
2.785938
 10
2.635086
 20
2.793471
 10
2.642529
 20
2.800601
 10
2.650218
 20
2.807096
  0
LWPOLYLINE
  5
40
330
1F
100
AcDbEntity
  8
0
100
AcDbPolyline
 90
       99
 70
   128
 43
0.0
 10
3.054293
 20
2.838236
 10
3.054106
 20
2.845364
 10
3.053554
 20
2.852543
 10
3.052644
 20
2.85976
 10
3.051387
 20
2.867002
 10
3.049792
 20
2.874256
 10
3.047868
 20
2.88151
 10
3.045626
 20
2.88875
 10
3.043074
 20
2.895965
 10
3.03708
 20
2.910264
 10
3.029963
 20
2.924305
 10
3.021799
 20
2.937985
 10
3.012663
 20
2.951201
 10
3.002632
 20
2.96385
 10
2.991781
 20
2.975831
 10
2.980187
 20
2.98704
 10
2.967927
 20
2.997375
 10
2.955075
 20
3.006733
 10
2.948451
 20
3.011013
 10
2.941708
 20
3.015011
 10
2.934855
 20
3.018714
 10
2.927902
 20
3.022107
 10
2.920858
 20
3.02518
 10
2.913733
 20
3.027919
 10
2.893756
 20
3.034471
 10
2.87471
 20
3.039544
 10
2.856995
 20
3.043106
 10
2.848761
 20
3.044309
 10
2.841008
 20
3.045123
 10
2.833787
 20
3.045542
 10
2.827148
 20
3.045563
 10
2.821139
 20
3.045181
 10
2.815812
 20
3.044393
 10
2.811215
 20
3.043194
 10
2.807399
 20
3.041581
 10
2.804414
 20
3.039548
 10
2.802308
 20
3.037093
 10
2.801859
 20
3.035908
 10
2.80163
 20
3.034191
 10
2.801799
 20
3.029291
 10
2.802754
 20
3.022657
 10
2.804434
 20
3.014553
 10
2.806778
 20
3.005243
 10
2.809725
 20
2.99499
 10
2.813214
 20
2.98406
 10
2.817184
 20
2.972716
 10
2.821265
 20
2.961022
 10
2.825073
 20
2.949089
 10
2.828525
 20
2.93725
 10
2.831538
 20
2.925841
 10
2.834027
 20
2.915195
 10
2.83591
 20
2.905648
 10
2.837103
 20
2.897533
 10
2.837522
 20
2.891184
 10
2.837657
 20
2.887297
 10
2.838084
 20
2.883646
 10
2.838844
 20
2.880192
 10
2.839981
 20
2.876895
 10
2.841537
 20
2.873718
 10
2.843555
 20
2.870621
 10
2.846077
 20
2.867566
 10
2.849147
 20
2.864513
 10
2.852806
 20
2.861423
 10
2.857097
 20
2.858258
 10
2.867746
 20
2.851547
 10
2.881436
 20
2.844068
 10
2.898506
 20
2.835509
 10
2.911199
 20
2.828934
 10
2.923905
 20
2.82163
 10
2.936284
 20
2.813842
 10
2.947996
 20
2.805812
 10
2.958702
 20
2.797784
 10
2.968061
 20
2.790002
 10
2.975734
 20
2.782709
 10
2.98138
 20
2.776148
 10
2.985981
 20
2.770194
 10
2.990658
 20
2.76464
 10
2.995281
 20
2.759606
 10
2.99972
 20
2.755216
 10
3.003846
 20
2.751589
 10
3.007528
 20
2.748848
 10
3.010637
 20
2.747114
 10
3.013043
 20
2.746509
 10
3.016027
 20
2.747165
 10
3.019208
 20
2.749055
 10
3.022531
 20
2.752059
 10
3.025942
 20
2.756057
 10
3.029389
 20
2.760931
 10
3.032818
 20
2.766562
 10
3.036174
 20
2.772829
 10
3.039405
 20
2.779615
 10
3.042457
 20
2.786799
 10
3.045275
 20
2.794262
 10
3.047807
 20
2.801886
 10
3.049999
 20
2.809551
 10
3.051797
 20
2.817138
 10
3.053148
 20
2.824527
 10
3.053998
 20
2.8316
 10
3.054293
 20
2.838236
  0
LWPOLYLINE
  5
41
330
1F
100
AcDbEntity
  8
0
100
AcDbPolyline
 90
      113
 70
   128
 43
0.0
 10
2.478755
 20
2.883375
 10
2.482232
 20
2.89027
 10
2.485288
 20
2.897402
 10
2.487931
 20
2.904746
 10
2.490166
 20
2.912281
 10
2.492
 20
2.919984
 10
2.49344
 20
2.927831
 10
2.494492
 20
2.9358
 10
2.495163
 20
2.943868
 10
2.49546
 20
2.952012
 10
2.495388
 20
2.96021
 10
2.494955
 20
2.968438
 10
2.494168
 20
2.976675
 10
2.493032
 20
2.984896
 10
2.491554
 20
2.99308
 10
2.489741
 20
3.001203
 10
2.4876
 20
3.009243
 10
2.485136
 20
3.017176
 10
2.482358
 20
3.024981
 10
2.47927
 20
3.032634
 10
2.47588
 20
3.040113
 10
2.472195
 20
3.047394
 10
2.46822
 20
3.054455
 10
2.463963
 20
3.061273
 10
2.45943
 20
3.067826
 10
2.454627
 20
3.07409
 10
2.449562
 20
3.080042
 10
2.44424
 20
3.085661
 10
2.438669
 20
3.090922
 10
2.432854
 20
3.095804
 10
2.426803
 20
3.100283
 10
2.420522
 20
3.104337
 10
2.414018
 20
3.107943
 10
2.404204
 20
3.112724
 10
2.394442
 20
3.117031
 10
2.384739
 20
3.120867
 10
2.375103
 20
3.124232
 10
2.365541
 20
3.12713
 10
2.356059
 20
3.129561
 10
2.346666
 20
3.131529
 10
2.337368
 20
3.133036
 10
2.328172
 20
3.134083
 10
2.319086
 20
3.134672
 10
2.310117
 20
3.134805
 10
2.301271
 20
3.134485
 10
2.292557
 20
3.133714
 10
2.283981
 20
3.132493
 10
2.275551
 20
3.130824
 10
2.267273
 20
3.128711
 10
2.259156
 20
3.126154
 10
2.251205
 20
3.123155
 10
2.243428
 20
3.119718
 10
2.235833
 20
3.115843
 10
2.228427
 20
3.111534
 10
2.221216
 20
3.106791
 10
2.214208
 20
3.101617
 10
2.20741
 20
3.096014
 10
2.20083
 20
3.089984
 10
2.194474
 20
3.08353
 10
2.18835
 20
3.076652
 10
2.182464
 20
3.069354
 10
2.176825
 20
3.061637
 10
2.171439
 20
3.053503
 10
2.166313
 20
3.044955
 10
2.161454
 20
3.035994
 10
2.156421
 20
3.025343
 10
2.152254
 20
3.01465
 10
2.148933
 20
3.003942
 10
2.146441
 20
2.993242
 10
2.144758
 20
2.982576
 10
2.143868
 20
2.971968
 10
2.14375
 20
2.961443
 10
2.144387
 20
2.951026
 10
2.14576
 20
2.940743
 10
2.147851
 20
2.930617
 10
2.150641
 20
2.920674
 10
2.154112
 20
2.910939
 10
2.158245
 20
2.901436
 10
2.163023
 20
2.89219
 10
2.168425
 20
2.883227
 10
2.174434
 20
2.874571
 10
2.181032
 20
2.866247
 10
2.1882
 20
2.858279
 10
2.19592
 20
2.850693
 10
2.204172
 20
2.843514
 10
2.212939
 20
2.836766
 10
2.222202
 20
2.830475
 10
2.231943
 20
2.824664
 10
2.242143
 20
2.81936
 10
2.252784
 20
2.814586
 10
2.263847
 20
2.810369
 10
2.275314
 20
2.806732
 10
2.287166
 20
2.8037
 10
2.299385
 20
2.801299
 10
2.311953
 20
2.799553
 10
2.32485
 20
2.798487
 10
2.338059
 20
2.798127
 10
2.349167
 20
2.79849
 10
2.360059
 20
2.799572
 10
2.370716
 20
2.80136
 10
2.381117
 20
2.803842
 10
2.391244
 20
2.807007
 10
2.401075
 20
2.810842
 10
2.410591
 20
2.815334
 10
2.419772
 20
2.820473
 10
2.428598
 20
2.826245
 10
2.437049
 20
2.832638
 10
2.445104
 20
2.839641
 10
2.452745
 20
2.847242
 10
2.45995
 20
2.855428
 10
2.4667
 20
2.864186
 10
2.472975
 20
2.873506
 10
2.478755
 20
2.883375
  0
LWPOLYLINE
  5
42
330
1F
100
AcDbEntity
  8
0
100
AcDbPolyline
 90
      165
 70
   128
 43
0.0
 10
1.891353
 20
2.956492
 10
1.882224
 20
2.964986
 10
1.872465
 20
2.974895
 10
1.862243
 20
2.985988
 10
1.851727
 20
2.998032
 10
1.841085
 20
3.010796
 10
1.830485
 20
3.024047
 10
1.820096
 20
3.037553
 10
1.810086
 20
3.051083
 10
1.800624
 20
3.064404
 10
1.791877
 20
3.077284
 10
1.784014
 20
3.08949
 10
1.777203
 20
3.100792
 10
1.771613
 20
3.110957
 10
1.767411
 20
3.119753
 10
1.764767
 20
3.126947
 10
1.764081
 20
3.129871
 10
1.763848
 20
3.132308
 10
1.763607
 20
3.135098
 10
1.762915
 20
3.138168
 10
1.760375
 20
3.144744
 10
1.756615
 20
3.151231
 10
1.754398
 20
3.154189
 10
1.752023
 20
3.156823
 10
1.74899
 20
3.160525
 10
1.745565
 20
3.165887
 10
1.741809
 20
3.172741
 10
1.737784
 20
3.180924
 10
1.729173
 20
3.200606
 10
1.720223
 20
3.223605
 10
1.711424
 20
3.248592
 10
1.703269
 20
3.274238
 10
1.696249
 20
3.299215
 10
1.693319
 20
3.311038
 10
1.690856
 20
3.322195
 10
1.686514
 20
3.340852
 10
1.681364
 20
3.359108
 10
1.676052
 20
3.374869
 10
1.673536
 20
3.381158
 10
1.67122
 20
3.386038
 10
1.66909
 20
3.390561
 10
1.667102
 20
3.395824
 10
1.6653
 20
3.40164
 10
1.663729
 20
3.407818
 10
1.662431
 20
3.414167
 10
1.66145
 20
3.420498
 10
1.660829
 20
3.426621
 10
1.660613
 20
3.432347
 10
1.660461
 20
3.442586
 10
1.659712
 20
3.450055
 10
1.658976
 20
3.452783
 10
1.657925
 20
3.454859
 10
1.656504
 20
3.456296
 10
1.654658
 20
3.457106
 10
1.652332
 20
3.457304
 10
1.649471
 20
3.456902
 10
1.646018
 20
3.455915
 10
1.641921
 20
3.454354
 10
1.631567
 20
3.449568
 10
1.617969
 20
3.442651
 10
1.611775
 20
3.439151
 10
1.606176
 20
3.435404
 10
1.601281
 20
3.431527
 10
1.597201
 20
3.427636
 10
1.594044
 20
3.423848
 10
1.591921
 20
3.420278
 10
1.590941
 20
3.417044
 10
1.590914
 20
3.415589
 10
1.591214
 20
3.414261
 10
1.598316
 20
3.39351
 10
1.609015
 20
3.360761
 10
1.615767
 20
3.341628
 10
1.623887
 20
3.319927
 10
1.631582
 20
3.298103
 10
1.634711
 20
3.287909
 10
1.63706
 20
3.278602
 10
1.641681
 20
3.261056
 10
1.643517
 20
3.254657
 10
1.644609
 20
3.249375
 10
1.644774
 20
3.247044
 10
1.644632
 20
3.244862
 10
1.644142
 20
3.242784
 10
1.643265
 20
3.240767
 10
1.64196
 20
3.238767
 10
1.640186
 20
3.236741
 10
1.635072
 20
3.232436
 10
1.61704
 20
3.220524
 10
1.60186
 20
3.211069
 10
1.598256
 20
3.209144
 10
1.594231
 20
3.207585
 10
1.586028
 20
3.205038
 10
1.582406
 20
3.203788
 10
1.579475
 20
3.202378
 10
1.577513
 20
3.200677
 10
1.576981
 20
3.199677
 10
1.576797
 20
3.198555
 10
1.577025
 20
3.197352
 10
1.577683
 20
3.196279
 10
1.580123
 20
3.194522
 10
1.583788
 20
3.193275
 10
1.58835
 20
3.192528
 10
1.593481
 20
3.192274
 10
1.59885
 20
3.192504
 10
1.604131
 20
3.193209
 10
1.608995
 20
3.19438
 10
1.649566
 20
3.206922
 10
1.652541
 20
3.207707
 10
1.655343
 20
3.208136
 10
1.658001
 20
3.208174
 10
1.660544
 20
3.207788
 10
1.663004
 20
3.206944
 10
1.665409
 20
3.20561
 10
1.667788
 20
3.203751
 10
1.670173
 20
3.201334
 10
1.672592
 20
3.198326
 10
1.675074
 20
3.194693
 10
1.680351
 20
3.185416
 10
1.686241
 20
3.173236
 10
1.69298
 20
3.157885
 10
1.702151
 20
3.136727
 10
1.711468
 20
3.11601
 10
1.720897
 20
3.095789
 10
1.730407
 20
3.076122
 10
1.739965
 20
3.057065
 10
1.749537
 20
3.038676
 10
1.759092
 20
3.02101
 10
1.768598
 20
3.004125
 10
1.77802
 20
2.988076
 10
1.787327
 20
2.972922
 10
1.796487
 20
2.958718
 10
1.805466
 20
2.945522
 10
1.814232
 20
2.93339
 10
1.822753
 20
2.922378
 10
1.830995
 20
2.912543
 10
1.838927
 20
2.903943
 10
1.847744
 20
2.89513
 10
1.856401
 20
2.886907
 10
1.864678
 20
2.879456
 10
1.872355
 20
2.872956
 10
1.879211
 20
2.867588
 10
1.885026
 20
2.86353
 10
1.889579
 20
2.860964
 10
1.891314
 20
2.860296
 10
1.892651
 20
2.860068
 10
1.895195
 20
2.860638
 10
1.898237
 20
2.862271
 10
1.901662
 20
2.864852
 10
1.905356
 20
2.868268
 10
1.909205
 20
2.872403
 10
1.913093
 20
2.877144
 10
1.916908
 20
2.882375
 10
1.920533
 20
2.887983
 10
1.925986
 20
2.897231
 10
1.928009
 20
2.901143
 10
1.929508
 20
2.904712
 10
1.930441
 20
2.908036
 10
1.930765
 20
2.911212
 10
1.930439
 20
2.914339
 10
1.929421
 20
2.917516
 10
1.92767
 20
2.92084
 10
1.925143
 20
2.924411
 10
1.921799
 20
2.928325
 10
1.917595
 20
2.932681
 10
1.906444
 20
2.943113
 10
1.891353
 20
2.956492
  0
LWPOLYLINE
  5
43
330
1F
100
AcDbEntity
  8
0
100
AcDbPolyline
 90
       52
 70
   128
 43
0.0
 10
1.588348
 20
2.979973
 10
1.588086
 20
2.985598
 10
1.587307
 20
2.990707
 10
1.586024
 20
2.995297
 10
1.584247
 20
2.999362
 10
1.581987
 20
3.002897
 10
1.579256
 20
3.005898
 10
1.576065
 20
3.008361
 10
1.572426
 20
3.010279
 10
1.568349
 20
3.011649
 10
1.563846
 20
3.012466
 10
1.558929
 20
3.012724
 10
1.553608
 20
3.012419
 10
1.547895
 20
3.011546
 10
1.541801
 20
3.0101
 10
1.535337
 20
3.008077
 10
1.528516
 20
3.005472
 10
1.523804
 20
3.003308
 10
1.51909
 20
3.000739
 10
1.514416
 20
2.997812
 10
1.509824
 20
2.994573
 10
1.50106
 20
2.987343
 10
1.493137
 20
2.979422
 10
1.486395
 20
2.971182
 10
1.483573
 20
2.967059
 10
1.481173
 20
2.962995
 10
1.479239
 20
2.959037
 10
1.477813
 20
2.955232
 10
1.476937
 20
2.951626
 10
1.476654
 20
2.948265
 10
1.476838
 20
2.946838
 10
1.477351
 20
2.945522
 10
1.479299
 20
2.943214
 10
1.482358
 20
2.941321
 10
1.486389
 20
2.939822
 10
1.491253
 20
2.938693
 10
1.496812
 20
2.937914
 10
1.502925
 20
2.937463
 10
1.509454
 20
2.937318
 10
1.523203
 20
2.937861
 10
1.536946
 20
2.939369
 10
1.549568
 20
2.941669
 10
1.555112
 20
2.943062
 10
1.559958
 20
2.944589
 10
1.567059
 20
2.947456
 10
1.573036
 20
2.950631
 10
1.577943
 20
2.954183
 10
1.581835
 20
2.958179
 10
1.584767
 20
2.962687
 10
1.586793
 20
2.967777
 10
1.587968
 20
2.973516
 10
1.588348
 20
2.979973
  0
LWPOLYLINE
  5
44
330
1F
100
AcDbEntity
  8
0
100
AcDbPolyline
 90
      101
 70
   128
 43
0.0
 10
2.796204
 20
3.207851
 10
2.795803
 20
3.220569
 10
2.7946
 20
3.232844
 10
2.792597
 20
3.244674
 10
2.789797
 20
3.256055
 10
2.786202
 20
3.266985
 10
2.781813
 20
3.27746
 10
2.776632
 20
3.287479
 10
2.770661
 20
3.297037
 10
2.763902
 20
3.306133
 10
2.756357
 20
3.314763
 10
2.748029
 20
3.322925
 10
2.738918
 20
3.330615
 10
2.729027
 20
3.337831
 10
2.718358
 20
3.344571
 10
2.706913
 20
3.35083
 10
2.694693
 20
3.356607
 10
2.682878
 20
3.361439
 10
2.671062
 20
3.365575
 10
2.659268
 20
3.369025
 10
2.647519
 20
3.371801
 10
2.635835
 20
3.373915
 10
2.62424
 20
3.375377
 10
2.612756
 20
3.376198
 10
2.601405
 20
3.376391
 10
2.590209
 20
3.375966
 10
2.579192
 20
3.374935
 10
2.568374
 20
3.373308
 10
2.557779
 20
3.371097
 10
2.547429
 20
3.368313
 10
2.537345
 20
3.364968
 10
2.527551
 20
3.361072
 10
2.518068
 20
3.356637
 10
2.508919
 20
3.351675
 10
2.500126
 20
3.346196
 10
2.491712
 20
3.340211
 10
2.483698
 20
3.333733
 10
2.476107
 20
3.326772
 10
2.468962
 20
3.319339
 10
2.462284
 20
3.311445
 10
2.456096
 20
3.303103
 10
2.45042
 20
3.294322
 10
2.445279
 20
3.285115
 10
2.440695
 20
3.275493
 10
2.436689
 20
3.265466
 10
2.433285
 20
3.255047
 10
2.430504
 20
3.244246
 10
2.42837
 20
3.233074
 10
2.426903
 20
3.221544
 10
2.425609
 20
3.206113
 10
2.425148
 20
3.193643
 10
2.425294
 20
3.188323
 10
2.425723
 20
3.183507
 10
2.426461
 20
3.179118
 10
2.427534
 20
3.175078
 10
2.428966
 20
3.171308
 10
2.430782
 20
3.16773
 10
2.433007
 20
3.164265
 10
2.435667
 20
3.160836
 10
2.442391
 20
3.15377
 10
2.451155
 20
3.145905
 10
2.460235
 20
3.138487
 10
2.46859
 20
3.132784
 10
2.472718
 20
3.130527
 10
2.476933
 20
3.128642
 10
2.481323
 20
3.127108
 10
2.485979
 20
3.125906
 10
2.490989
 20
3.125017
 10
2.496443
 20
3.124423
 10
2.50904
 20
3.124036
 10
2.524483
 20
3.124593
 10
2.543488
 20
3.125938
 10
2.559077
 20
3.126848
 10
2.574597
 20
3.127074
 10
2.590014
 20
3.12662
 10
2.605293
 20
3.125489
 10
2.620399
 20
3.123684
 10
2.635297
 20
3.121209
 10
2.649953
 20
3.118067
 10
2.664332
 20
3.114261
 10
2.690026
 20
3.107015
 10
2.710359
 20
3.102027
 10
2.718822
 20
3.100408
 10
2.726314
 20
3.099389
 10
2.732957
 20
3.098981
 10
2.738874
 20
3.099195
 10
2.744187
 20
3.100043
 10
2.74902
 20
3.101537
 10
2.753496
 20
3.103688
 10
2.757736
 20
3.106508
 10
2.761865
 20
3.110009
 10
2.766004
 20
3.114202
 10
2.774808
 20
3.124711
 10
2.780225
 20
3.132322
 10
2.78476
 20
3.140344
 10
2.788462
 20
3.14897
 10
2.791381
 20
3.15839
 10
2.793565
 20
3.168797
 10
2.795064
 20
3.180381
 10
2.795927
 20
3.193336
 10
2.796204
 20
3.207851
  0
LWPOLYLINE
  5
45
330
1F
100
AcDbEntity
  8
0
100
AcDbPolyline
 90
      170
 70
   128
 43
0.0
 10
1.994262
 20
1.430272
 10
1.979704
 20
1.430272
 10
1.980715
 20
1.449212
 10
1.981052
 20
1.463972
 10
1.980805
 20
1.473116
 10
1.980066
 20
1.481538
 10
1.978834
 20
1.489241
 10
1.977109
 20
1.496223
 10
1.974891
 20
1.502485
 10
1.97218
 20
1.508026
 10
1.968977
 20
1.512848
 10
1.96528
 20
1.516948
 10
1.961209
 20
1.520455
 10
1.956881
 20
1.523495
 10
1.952295
 20
1.526066
 10
1.947453
 20
1.528171
 10
1.942354
 20
1.529807
 10
1.936998
 20
1.530976
 10
1.931384
 20
1.531677
 10
1.925514
 20
1.531911
 10
1.917456
 20
1.531505
 10
1.909322
 20
1.530285
 10
1.901112
 20
1.528253
 10
1.892826
 20
1.525407
 10
1.884464
 20
1.521749
 10
1.876026
 20
1.517277
 10
1.867513
 20
1.511992
 10
1.858924
 20
1.505895
 10
1.850448
 20
1.498936
 10
1.842276
 20
1.491067
 10
1.834407
 20
1.482288
 10
1.826841
 20
1.472599
 10
1.819579
 20
1.462001
 10
1.81262
 20
1.450492
 10
1.805964
 20
1.438074
 10
1.799612
 20
1.424746
 10
1.793799
 20
1.410914
 10
1.78876
 20
1.396985
 10
1.784497
 20
1.38296
 10
1.78101
 20
1.368838
 10
1.778297
 20
1.354618
 10
1.776359
 20
1.340302
 10
1.775196
 20
1.325889
 10
1.774809
 20
1.311379
 10
1.775169
 20
1.297704
 10
1.776249
 20
1.284849
 10
1.77805
 20
1.272816
 10
1.780571
 20
1.261605
 10
1.783813
 20
1.251215
 10
1.787775
 20
1.241646
 10
1.792457
 20
1.232899
 10
1.797859
 20
1.224973
 10
1.803805
 20
1.217928
 10
1.810118
 20
1.211822
 10
1.816797
 20
1.206655
 10
1.823842
 20
1.202428
 10
1.831254
 20
1.19914
 10
1.839032
 20
1.196792
 10
1.847177
 20
1.195383
 10
1.855688
 20
1.194913
 10
1.861555
 20
1.195134
 10
1.867361
 20
1.195797
 10
1.873106
 20
1.196903
 10
1.87879
 20
1.198451
 10
1.884412
 20
1.200442
 10
1.889974
 20
1.202874
 10
1.895474
 20
1.205749
 10
1.900914
 20
1.209067
 10
1.906292
 20
1.212826
 10
1.911609
 20
1.217028
 10
1.916865
 20
1.221673
 10
1.92206
 20
1.226759
 10
1.927194
 20
1.232288
 10
1.932267
 20
1.238259
 10
1.937279
 20
1.244673
 10
1.94223
 20
1.251529
 10
1.944268
 20
1.254005
 10
1.946341
 20
1.255775
 10
1.948447
 20
1.256836
 10
1.950587
 20
1.25719
 10
1.952272
 20
1.257047
 10
1.953822
 20
1.256617
 10
1.955238
 20
1.255901
 10
1.956518
 20
1.254899
 10
1.958338
 20
1.252438
 10
1.958793
 20
1.251082
 10
1.958945
 20
1.249641
 10
1.958665
 20
1.247603
 10
1.957824
 20
1.245126
 10
1.954463
 20
1.238857
 10
1.94886
 20
1.230837
 10
1.941016
 20
1.221064
 10
1.936389
 20
1.215851
 10
1.931471
 20
1.210861
 10
1.926262
 20
1.206095
 10
1.920763
 20
1.201552
 10
1.914973
 20
1.197232
 10
1.908892
 20
1.193135
 10
1.902521
 20
1.189262
 10
1.895859
 20
1.185612
 10
1.889064
 20
1.182294
 10
1.882294
 20
1.179419
 10
1.87555
 20
1.176987
 10
1.868831
 20
1.174996
 10
1.862138
 20
1.173448
 10
1.855469
 20
1.172342
 10
1.848826
 20
1.171679
 10
1.842208
 20
1.171458
 10
1.834327
 20
1.171717
 10
1.826589
 20
1.172494
 10
1.818993
 20
1.173789
 10
1.811542
 20
1.175603
 10
1.804233
 20
1.177934
 10
1.797067
 20
1.180784
 10
1.790045
 20
1.184152
 10
1.783166
 20
1.188038
 10
1.776548
 20
1.192404
 10
1.77031
 20
1.197213
 10
1.76445
 20
1.202464
 10
1.75897
 20
1.208157
 10
1.753869
 20
1.214292
 10
1.749146
 20
1.22087
 10
1.744803
 20
1.22789
 10
1.740839
 20
1.235353
 10
1.737301
 20
1.243217
 10
1.734234
 20
1.251444
 10
1.731639
 20
1.260034
 10
1.729516
 20
1.268985
 10
1.727865
 20
1.278299
 10
1.726685
 20
1.287975
 10
1.725978
 20
1.298013
 10
1.725742
 20
1.308414
 10
1.726224
 20
1.323166
 10
1.727671
 20
1.337901
 10
1.730083
 20
1.35262
 10
1.733459
 20
1.367321
 10
1.7378
 20
1.382006
 10
1.743106
 20
1.396674
 10
1.749376
 20
1.411325
 10
1.756611
 20
1.425959
 10
1.76457
 20
1.440168
 10
1.773014
 20
1.453542
 10
1.781943
 20
1.466083
 10
1.791355
 20
1.477789
 10
1.801253
 20
1.488662
 10
1.811634
 20
1.4987
 10
1.8225
 20
1.507904
 10
1.833851
 20
1.516274
 10
1.84541
 20
1.523731
 10
1.856902
 20
1.530193
 10
1.868326
 20
1.53566
 10
1.879683
 20
1.540134
 10
1.890972
 20
1.543613
 10
1.902194
 20
1.546099
 10
1.913349
 20
1.54759
 10
1.924436
 20
1.548087
 10
1.932372
 20
1.547868
 10
1.940275
 20
1.547211
 10
1.948144
 20
1.546116
 10
1.955979
 20
1.544582
 10
1.973233
 20
1.539123
 10
2.011516
 20
1.52598
 10
2.007885
 20
1.514341
 10
2.004675
 20
1.502609
 10
2.001887
 20
1.490785
 10
1.999519
 20
1.478868
 10
1.997573
 20
1.466858
 10
1.996048
 20
1.454755
 10
1.994944
 20
1.44256
 10
1.994262
 20
1.430272
  0
LWPOLYLINE
  5
46
330
1F
100
AcDbEntity
  8
0
100
AcDbPolyline
 90
      113
 70
   128
 43
0.0
 10
2.1908
 20
1.455615
 10
2.208589
 20
1.459389
 10
2.188369
 20
1.391181
 10
2.182389
 20
1.370051
 10
2.176577
 20
1.347371
 10
2.170933
 20
1.323141
 10
2.165457
 20
1.29736
 10
2.161009
 20
1.273636
 10
2.159897
 20
1.265615
 10
2.159526
 20
1.260156
 10
2.159947
 20
1.256499
 10
2.160474
 20
1.255063
 10
2.161211
 20
1.253888
 10
2.162159
 20
1.252973
 10
2.163317
 20
1.25232
 10
2.166266
 20
1.251798
 10
2.168743
 20
1.252152
 10
2.17186
 20
1.253214
 10
2.175618
 20
1.254983
 10
2.180016
 20
1.25746
 10
2.188289
 20
1.262751
 10
2.196394
 20
1.268648
 10
2.20433
 20
1.275152
 10
2.212098
 20
1.282263
 10
2.220725
 20
1.271748
 10
2.195517
 20
1.249237
 10
2.187059
 20
1.242126
 10
2.181364
 20
1.237779
 10
2.172838
 20
1.232235
 10
2.164514
 20
1.227467
 10
2.156392
 20
1.223473
 10
2.148473
 20
1.220255
 10
2.143384
 20
1.218604
 10
2.138363
 20
1.217424
 10
2.133409
 20
1.216717
 10
2.128522
 20
1.216481
 10
2.125236
 20
1.216683
 10
2.122389
 20
1.21729
 10
2.119979
 20
1.218301
 10
2.118008
 20
1.219716
 10
2.116475
 20
1.221519
 10
2.115379
 20
1.223692
 10
2.114722
 20
1.226237
 10
2.114503
 20
1.229152
 10
2.115042
 20
1.233937
 10
2.11666
 20
1.240205
 10
2.127444
 20
1.276871
 10
2.121508
 20
1.270051
 10
2.115295
 20
1.263475
 10
2.108804
 20
1.257144
 10
2.102034
 20
1.251057
 10
2.094987
 20
1.245214
 10
2.087661
 20
1.239616
 10
2.080058
 20
1.234262
 10
2.072176
 20
1.229152
 10
2.062538
 20
1.223726
 10
2.057871
 20
1.221595
 10
2.053304
 20
1.219851
 10
2.048839
 20
1.218494
 10
2.044475
 20
1.217525
 10
2.040212
 20
1.216944
 10
2.03605
 20
1.21675
 10
2.032254
 20
1.216923
 10
2.028686
 20
1.217441
 10
2.025346
 20
1.218305
 10
2.022233
 20
1.219514
 10
2.019347
 20
1.221068
 10
2.016689
 20
1.222968
 10
2.014259
 20
1.225213
 10
2.012056
 20
1.227804
 10
2.009402
 20
1.231654
 10
2.007102
 20
1.235791
 10
2.005156
 20
1.240214
 10
2.003563
 20
1.244923
 10
2.002325
 20
1.249919
 10
2.00144
 20
1.255202
 10
2.000909
 20
1.260771
 10
2.000732
 20
1.266626
 10
2.00097
 20
1.273872
 10
2.001684
 20
1.281319
 10
2.002874
 20
1.288969
 10
2.004541
 20
1.296821
 10
2.006683
 20
1.304875
 10
2.009301
 20
1.313132
 10
2.012395
 20
1.321591
 10
2.015965
 20
1.330251
 10
2.019935
 20
1.338912
 10
2.02423
 20
1.347371
 10
2.028849
 20
1.355627
 10
2.033792
 20
1.363682
 10
2.03906
 20
1.371534
 10
2.044652
 20
1.379184
 10
2.050568
 20
1.386631
 10
2.056809
 20
1.393877
 10
2.063254
 20
1.400785
 10
2.069783
 20
1.407222
 10
2.076397
 20
1.413187
 10
2.083095
 20
1.41868
 10
2.089877
 20
1.423701
 10
2.096743
 20
1.42825
 10
2.103694
 20
1.432328
 10
2.110729
 20
1.435934
 10
2.116382
 20
1.438335
 10
2.122423
 20
1.440416
 10
2.128851
 20
1.442177
 10
2.135667
 20
1.443618
 10
2.14287
 20
1.444738
 10
2.150461
 20
1.445539
 10
2.158439
 20
1.446019
 10
2.166805
 20
1.446179
 10
2.1755
 20
1.445909
 10
2.184329
 20
1.4451
 10
2.1908
 20
1.455615
  0
LWPOLYLINE
  5
47
330
1F
100
AcDbEntity
  8
0
100
AcDbPolyline
 90
       54
 70
   128
 43
0.0
 10
2.157369
 20
1.414366
 10
2.143957
 20
1.41659
 10
2.13811
 20
1.417146
 10
2.132836
 20
1.417332
 10
2.126867
 20
1.417123
 10
2.121091
 20
1.416498
 10
2.11551
 20
1.415455
 10
2.110122
 20
1.413995
 10
2.104928
 20
1.412119
 10
2.099928
 20
1.409825
 10
2.095121
 20
1.407114
 10
2.090509
 20
1.403987
 10
2.086033
 20
1.400318
 10
2.081637
 20
1.395983
 10
2.077322
 20
1.390983
 10
2.073086
 20
1.385317
 10
2.06893
 20
1.378986
 10
2.064855
 20
1.371989
 10
2.060859
 20
1.364326
 10
2.056944
 20
1.355998
 10
2.053311
 20
1.347339
 10
2.050162
 20
1.338685
 10
2.047497
 20
1.330034
 10
2.045317
 20
1.321388
 10
2.043622
 20
1.312746
 10
2.042411
 20
1.304109
 10
2.041684
 20
1.295475
 10
2.041442
 20
1.286846
 10
2.041829
 20
1.27832
 10
2.042992
 20
1.271074
 10
2.04493
 20
1.26511
 10
2.046189
 20
1.262607
 10
2.047643
 20
1.260425
 10
2.050979
 20
1.256887
 10
2.054787
 20
1.254359
 10
2.059067
 20
1.252843
 10
2.063819
 20
1.252337
 10
2.068511
 20
1.252651
 10
2.073288
 20
1.253593
 10
2.078149
 20
1.255162
 10
2.083095
 20
1.257359
 10
2.088125
 20
1.260183
 10
2.093238
 20
1.263635
 10
2.098437
 20
1.267715
 10
2.103719
 20
1.272422
 10
2.108867
 20
1.27772
 10
2.113661
 20
1.283569
 10
2.118101
 20
1.28997
 10
2.122187
 20
1.296922
 10
2.125919
 20
1.304427
 10
2.129297
 20
1.312483
 10
2.132322
 20
1.321091
 10
2.134993
 20
1.330251
 10
2.157369
 20
1.414366
  0
LWPOLYLINE
  5
48
330
1F
100
AcDbEntity
  8
0
100
AcDbPolyline
 90
      166
 70
   128
 43
0.0
 10
2.357142
 20
1.451032
 10
2.36297
 20
1.450886
 10
2.368457
 20
1.45045
 10
2.373602
 20
1.449724
 10
2.378407
 20
1.448706
 10
2.38287
 20
1.447398
 10
2.386992
 20
1.4458
 10
2.390772
 20
1.44391
 10
2.394212
 20
1.44173
 10
2.397276
 20
1.439361
 10
2.399932
 20
1.436903
 10
2.40218
 20
1.434356
 10
2.404018
 20
1.431722
 10
2.405449
 20
1.428998
 10
2.40647
 20
1.426186
 10
2.407083
 20
1.423286
 10
2.407287
 20
1.420297
 10
2.406942
 20
1.416776
 10
2.405906
 20
1.41349
 10
2.404178
 20
1.41044
 10
2.40176
 20
1.407626
 10
2.398854
 20
1.405267
 10
2.395661
 20
1.403582
 10
2.392181
 20
1.402571
 10
2.388415
 20
1.402234
 10
2.385938
 20
1.402377
 10
2.38363
 20
1.402807
 10
2.38149
 20
1.403523
 10
2.379519
 20
1.404526
 10
2.377429
 20
1.406101
 10
2.374935
 20
1.408536
 10
2.368735
 20
1.415984
 10
2.365436
 20
1.420091
 10
2.362146
 20
1.42365
 10
2.358865
 20
1.426662
 10
2.355592
 20
1.429127
 10
2.352327
 20
1.431043
 10
2.349071
 20
1.432412
 10
2.345823
 20
1.433234
 10
2.342584
 20
1.433508
 10
2.337217
 20
1.432978
 10
2.33217
 20
1.431387
 10
2.327444
 20
1.428737
 10
2.323038
 20
1.425026
 10
2.319322
 20
1.420524
 10
2.316668
 20
1.415501
 10
2.315076
 20
1.409956
 10
2.314545
 20
1.40389
 10
2.314882
 20
1.398411
 10
2.315893
 20
1.393017
 10
2.317578
 20
1.387707
 10
2.319937
 20
1.382482
 10
2.323661
 20
1.376499
 10
2.329441
 20
1.368918
 10
2.337276
 20
1.359738
 10
2.347167
 20
1.348959
 10
2.354181
 20
1.341066
 10
2.360259
 20
1.333274
 10
2.365403
 20
1.325583
 10
2.369611
 20
1.317993
 10
2.372884
 20
1.310504
 10
2.375222
 20
1.303117
 10
2.376625
 20
1.29583
 10
2.377092
 20
1.288645
 10
2.376713
 20
1.28162
 10
2.375576
 20
1.274819
 10
2.37368
 20
1.268241
 10
2.371026
 20
1.261885
 10
2.367614
 20
1.255753
 10
2.363444
 20
1.249844
 10
2.358515
 20
1.244158
 10
2.352828
 20
1.238695
 10
2.346543
 20
1.233678
 10
2.33982
 20
1.22933
 10
2.332659
 20
1.225651
 10
2.32506
 20
1.222641
 10
2.317022
 20
1.2203
 10
2.308547
 20
1.218627
 10
2.299633
 20
1.217624
 10
2.290281
 20
1.21729
 10
2.282518
 20
1.217494
 10
2.275268
 20
1.218107
 10
2.268532
 20
1.219128
 10
2.262311
 20
1.220558
 10
2.256603
 20
1.222397
 10
2.251409
 20
1.224645
 10
2.246729
 20
1.2273
 10
2.242562
 20
1.230365
 10
2.238898
 20
1.233729
 10
2.235721
 20
1.237282
 10
2.233034
 20
1.241025
 10
2.230835
 20
1.244957
 10
2.229125
 20
1.249079
 10
2.227903
 20
1.25339
 10
2.22717
 20
1.257892
 10
2.226926
 20
1.262582
 10
2.227296
 20
1.267098
 10
2.228409
 20
1.271209
 10
2.230262
 20
1.274916
 10
2.232857
 20
1.278219
 10
2.235991
 20
1.280932
 10
2.239462
 20
1.282869
 10
2.24327
 20
1.284032
 10
2.247415
 20
1.28442
 10
2.251055
 20
1.284108
 10
2.254425
 20
1.283173
 10
2.257525
 20
1.281614
 10
2.260356
 20
1.279432
 10
2.262715
 20
1.276829
 10
2.2644
 20
1.274006
 10
2.265411
 20
1.270965
 10
2.265748
 20
1.267704
 10
2.26539
 20
1.260695
 10
2.265209
 20
1.254764
 10
2.265679
 20
1.250484
 10
2.26709
 20
1.246541
 10
2.269441
 20
1.242935
 10
2.272732
 20
1.239666
 10
2.276695
 20
1.236953
 10
2.281329
 20
1.235016
 10
2.286634
 20
1.233853
 10
2.292611
 20
1.233465
 10
2.299646
 20
1.233777
 10
2.306245
 20
1.234711
 10
2.312407
 20
1.236267
 10
2.318132
 20
1.238447
 10
2.323337
 20
1.241257
 10
2.327937
 20
1.244707
 10
2.331934
 20
1.248796
 10
2.335325
 20
1.253525
 10
2.338029
 20
1.258565
 10
2.33996
 20
1.263589
 10
2.341119
 20
1.268595
 10
2.341505
 20
1.273585
 10
2.341143
 20
1.278432
 10
2.340056
 20
1.283279
 10
2.338245
 20
1.288126
 10
2.335709
 20
1.292973
 10
2.331909
 20
1.298611
 10
2.326307
 20
1.305831
 10
2.318901
 20
1.314632
 10
2.309693
 20
1.325015
 10
2.303121
 20
1.332786
 10
2.297426
 20
1.340481
 10
2.292607
 20
1.348101
 10
2.288664
 20
1.355644
 10
2.285597
 20
1.363112
 10
2.283407
 20
1.370504
 10
2.282092
 20
1.37782
 10
2.281654
 20
1.38506
 10
2.281987
 20
1.391555
 10
2.282985
 20
1.397843
 10
2.284649
 20
1.403925
 10
2.286979
 20
1.409801
 10
2.289974
 20
1.41547
 10
2.293635
 20
1.420934
 10
2.297961
 20
1.426191
 10
2.302953
 20
1.431241
 10
2.308458
 20
1.43588
 10
2.314326
 20
1.4399
 10
2.320557
 20
1.443301
 10
2.327149
 20
1.446084
 10
2.334104
 20
1.448249
 10
2.341421
 20
1.449795
 10
2.3491
 20
1.450722
 10
2.357142
 20
1.451032
  0
LWPOLYLINE
  5
49
330
1F
100
AcDbEntity
  8
0
100
AcDbPolyline
 90
      113
 70
   128
 43
0.0
 10
2.599242
 20
1.455615
 10
2.617031
 20
1.459389
 10
2.596811
 20
1.391181
 10
2.590831
 20
1.370051
 10
2.585019
 20
1.347371
 10
2.579375
 20
1.323141
 10
2.573899
 20
1.29736
 10
2.569451
 20
1.273636
 10
2.568339
 20
1.265615
 10
2.567968
 20
1.260156
 10
2.568389
 20
1.256499
 10
2.568916
 20
1.255063
 10
2.569653
 20
1.253888
 10
2.570601
 20
1.252973
 10
2.571759
 20
1.25232
 10
2.574708
 20
1.251798
 10
2.577185
 20
1.252152
 10
2.580302
 20
1.253214
 10
2.58406
 20
1.254983
 10
2.588458
 20
1.25746
 10
2.596731
 20
1.262751
 10
2.604836
 20
1.268648
 10
2.612772
 20
1.275152
 10
2.62054
 20
1.282263
 10
2.629167
 20
1.271748
 10
2.60396
 20
1.249237
 10
2.595501
 20
1.242126
 10
2.589806
 20
1.237779
 10
2.58128
 20
1.232235
 10
2.572956
 20
1.227467
 10
2.564834
 20
1.223473
 10
2.556915
 20
1.220255
 10
2.551826
 20
1.218604
 10
2.546805
 20
1.217424
 10
2.541851
 20
1.216717
 10
2.536964
 20
1.216481
 10
2.533679
 20
1.216683
 10
2.530831
 20
1.21729
 10
2.528421
 20
1.218301
 10
2.52645
 20
1.219716
 10
2.524917
 20
1.221519
 10
2.523821
 20
1.223692
 10
2.523164
 20
1.226237
 10
2.522945
 20
1.229152
 10
2.523484
 20
1.233937
 10
2.525102
 20
1.240205
 10
2.535886
 20
1.276871
 10
2.52995
 20
1.270051
 10
2.523737
 20
1.263475
 10
2.517246
 20
1.257144
 10
2.510476
 20
1.251057
 10
2.503429
 20
1.245214
 10
2.496103
 20
1.239616
 10
2.4885
 20
1.234262
 10
2.480618
 20
1.229152
 10
2.47098
 20
1.223726
 10
2.466313
 20
1.221595
 10
2.461746
 20
1.219851
 10
2.457281
 20
1.218494
 10
2.452917
 20
1.217525
 10
2.448654
 20
1.216944
 10
2.444492
 20
1.21675
 10
2.440696
 20
1.216923
 10
2.437128
 20
1.217441
 10
2.433788
 20
1.218305
 10
2.430675
 20
1.219514
 10
2.427789
 20
1.221068
 10
2.425131
 20
1.222968
 10
2.422701
 20
1.225213
 10
2.420498
 20
1.227804
 10
2.417844
 20
1.231654
 10
2.415544
 20
1.235791
 10
2.413598
 20
1.240214
 10
2.412005
 20
1.244923
 10
2.410767
 20
1.249919
 10
2.409882
 20
1.255202
 10
2.409351
 20
1.260771
 10
2.409174
 20
1.266626
 10
2.409412
 20
1.273872
 10
2.410126
 20
1.281319
 10
2.411317
 20
1.288969
 10
2.412983
 20
1.296821
 10
2.415125
 20
1.304875
 10
2.417743
 20
1.313132
 10
2.420837
 20
1.321591
 10
2.424407
 20
1.330251
 10
2.428377
 20
1.338912
 10
2.432672
 20
1.347371
 10
2.437291
 20
1.355627
 10
2.442234
 20
1.363682
 10
2.447502
 20
1.371534
 10
2.453094
 20
1.379184
 10
2.45901
 20
1.386631
 10
2.465251
 20
1.393877
 10
2.471696
 20
1.400785
 10
2.478225
 20
1.407222
 10
2.484839
 20
1.413187
 10
2.491537
 20
1.41868
 10
2.498319
 20
1.423701
 10
2.505185
 20
1.42825
 10
2.512136
 20
1.432328
 10
2.519171
 20
1.435934
 10
2.524824
 20
1.438335
 10
2.530865
 20
1.440416
 10
2.537293
 20
1.442177
 10
2.544109
 20
1.443618
 10
2.551312
 20
1.444738
 10
2.558903
 20
1.445539
 10
2.566881
 20
1.446019
 10
2.575247
 20
1.446179
 10
2.583942
 20
1.445909
 10
2.592771
 20
1.4451
 10
2.599242
 20
1.455615
  0
LWPOLYLINE
  5
4A
330
1F
100
AcDbEntity
  8
0
100
AcDbPolyline
 90
       54
 70
   128
 43
0.0
 10
2.565811
 20
1.414366
 10
2.552399
 20
1.41659
 10
2.546552
 20
1.417146
 10
2.541278
 20
1.417332
 10
2.535309
 20
1.417123
 10
2.529533
 20
1.416498
 10
2.523952
 20
1.415455
 10
2.518564
 20
1.413995
 10
2.51337
 20
1.412119
 10
2.50837
 20
1.409825
 10
2.503563
 20
1.407114
 10
2.498951
 20
1.403987
 10
2.494475
 20
1.400318
 10
2.490079
 20
1.395983
 10
2.485764
 20
1.390983
 10
2.481528
 20
1.385317
 10
2.477372
 20
1.378986
 10
2.473297
 20
1.371989
 10
2.469301
 20
1.364326
 10
2.465386
 20
1.355998
 10
2.461753
 20
1.347339
 10
2.458604
 20
1.338685
 10
2.455939
 20
1.330034
 10
2.453759
 20
1.321388
 10
2.452064
 20
1.312746
 10
2.450853
 20
1.304109
 10
2.450126
 20
1.295475
 10
2.449884
 20
1.286846
 10
2.450271
 20
1.27832
 10
2.451434
 20
1.271074
 10
2.453372
 20
1.26511
 10
2.454631
 20
1.262607
 10
2.456085
 20
1.260425
 10
2.459421
 20
1.256887
 10
2.463229
 20
1.254359
 10
2.467509
 20
1.252843
 10
2.472261
 20
1.252337
 10
2.476953
 20
1.252651
 10
2.48173
 20
1.253593
 10
2.486591
 20
1.255162
 10
2.491537
 20
1.257359
 10
2.496567
 20
1.260183
 10
2.501681
 20
1.263635
 10
2.506879
 20
1.267715
 10
2.512161
 20
1.272422
 10
2.517309
 20
1.27772
 10
2.522103
 20
1.283569
 10
2.526543
 20
1.28997
 10
2.530629
 20
1.296922
 10
2.534361
 20
1.304427
 10
2.537739
 20
1.312483
 10
2.540764
 20
1.321091
 10
2.543435
 20
1.330251
 10
2.565811
 20
1.414366
  0
LWPOLYLINE
  5
4B
330
1F
100
AcDbEntity
  8
0
100
AcDbPolyline
 90
      199
 70
   128
 43
0.0
 10
2.999056
 20
1.443213
 10
2.985037
 20
1.443213
 10
2.987261
 20
1.468084
 10
2.988003
 20
1.486079
 10
2.987828
 20
1.491132
 10
2.987305
 20
1.495911
 10
2.986433
 20
1.500417
 10
2.985212
 20
1.504648
 10
2.983641
 20
1.508606
 10
2.981722
 20
1.512289
 10
2.979455
 20
1.515699
 10
2.976838
 20
1.518836
 10
2.973922
 20
1.521647
 10
2.970759
 20
1.524084
 10
2.967349
 20
1.526146
 10
2.96369
 20
1.527834
 10
2.959784
 20
1.529146
 10
2.955629
 20
1.530083
 10
2.951227
 20
1.530645
 10
2.946577
 20
1.530833
 10
2.939299
 20
1.530498
 10
2.932256
 20
1.529492
 10
2.925448
 20
1.527816
 10
2.918876
 20
1.52547
 10
2.912538
 20
1.522454
 10
2.906436
 20
1.518767
 10
2.90057
 20
1.51441
 10
2.894939
 20
1.509383
 10
2.88977
 20
1.503938
 10
2.88529
 20
1.498329
 10
2.881499
 20
1.492556
 10
2.878398
 20
1.486618
 10
2.875986
 20
1.480515
 10
2.874263
 20
1.474248
 10
2.873229
 20
1.467817
 10
2.872884
 20
1.461222
 10
2.873262
 20
1.454241
 10
2.874396
 20
1.447598
 10
2.876287
 20
1.441291
 10
2.878933
 20
1.435321
 10
2.882874
 20
1.428946
 10
2.888645
 20
1.421425
 10
2.896248
 20
1.412757
 10
2.905683
 20
1.402942
 10
2.923005
 20
1.385337
 10
2.937068
 20
1.369755
 10
2.942877
 20
1.362724
 10
2.947871
 20
1.356198
 10
2.952051
 20
1.350178
 10
2.955415
 20
1.344664
 10
2.958187
 20
1.33942
 10
2.96059
 20
1.33421
 10
2.962623
 20
1.329033
 10
2.964287
 20
1.32389
 10
2.96558
 20
1.31878
 10
2.966504
 20
1.313705
 10
2.967059
 20
1.308662
 10
2.967244
 20
1.303654
 10
2.966964
 20
1.296336
 10
2.966123
 20
1.289085
 10
2.964723
 20
1.281902
 10
2.962762
 20
1.274786
 10
2.960241
 20
1.267737
 10
2.957159
 20
1.260756
 10
2.953517
 20
1.253842
 10
2.949315
 20
1.246996
 10
2.944568
 20
1.240333
 10
2.93929
 20
1.233969
 10
2.933481
 20
1.227905
 10
2.927141
 20
1.22214
 10
2.92027
 20
1.216674
 10
2.912869
 20
1.211507
 10
2.904937
 20
1.20664
 10
2.896474
 20
1.202072
 10
2.887685
 20
1.19793
 10
2.878773
 20
1.19434
 10
2.86974
 20
1.191302
 10
2.860584
 20
1.188817
 10
2.851306
 20
1.186884
 10
2.841906
 20
1.185503
 10
2.832383
 20
1.184675
 10
2.822739
 20
1.184398
 10
2.813356
 20
1.18471
 10
2.804347
 20
1.185645
 10
2.795714
 20
1.187204
 10
2.787455
 20
1.189386
 10
2.779571
 20
1.192192
 10
2.772063
 20
1.195621
 10
2.764929
 20
1.199673
 10
2.75817
 20
1.204349
 10
2.752009
 20
1.20937
 10
2.74667
 20
1.214459
 10
2.742152
 20
1.219615
 10
2.738456
 20
1.224838
 10
2.735581
 20
1.230129
 10
2.733527
 20
1.235487
 10
2.732295
 20
1.240913
 10
2.731884
 20
1.246406
 10
2.732314
 20
1.252085
 10
2.733603
 20
1.257258
 10
2.735751
 20
1.261925
 10
2.738759
 20
1.266087
 10
2.742323
 20
1.269507
 10
2.746139
 20
1.271951
 10
2.750208
 20
1.273417
 10
2.75453
 20
1.273905
 10
2.758911
 20
1.27345
 10
2.762888
 20
1.272085
 10
2.76646
 20
1.269811
 10
2.769628
 20
1.266626
 10
2.771515
 20
1.263795
 10
2.773402
 20
1.259617
 10
2.775289
 20
1.25409
 10
2.777177
 20
1.247215
 10
2.779451
 20
1.23868
 10
2.781962
 20
1.23141
 10
2.784709
 20
1.225403
 10
2.787691
 20
1.22066
 10
2.791086
 20
1.216733
 10
2.795071
 20
1.213178
 10
2.799646
 20
1.209994
 10
2.804811
 20
1.20718
 10
2.810396
 20
1.20488
 10
2.816235
 20
1.203237
 10
2.822326
 20
1.202251
 10
2.82867
 20
1.201922
 10
2.838157
 20
1.202329
 10
2.84734
 20
1.20355
 10
2.85622
 20
1.205584
 10
2.864796
 20
1.208432
 10
2.87307
 20
1.212093
 10
2.88104
 20
1.216568
 10
2.888706
 20
1.221857
 10
2.89607
 20
1.22796
 10
2.902831
 20
1.234555
 10
2.90869
 20
1.241324
 10
2.913648
 20
1.248266
 10
2.917705
 20
1.25538
 10
2.92086
 20
1.262667
 10
2.923114
 20
1.270127
 10
2.924466
 20
1.27776
 10
2.924917
 20
1.285565
 10
2.924689
 20
1.290953
 10
2.924007
 20
1.296324
 10
2.922869
 20
1.301677
 10
2.921277
 20
1.307013
 10
2.919078
 20
1.312518
 10
2.916121
 20
1.318378
 10
2.912406
 20
1.324592
 10
2.907932
 20
1.331161
 10
2.903534
 20
1.336625
 10
2.897081
 20
1.343843
 10
2.878007
 20
1.363538
 10
2.859337
 20
1.382627
 10
2.853187
 20
1.389491
 10
2.84916
 20
1.394568
 10
2.84525
 20
1.400646
 10
2.84188
 20
1.406742
 10
2.83905
 20
1.412855
 10
2.836758
 20
1.418985
 10
2.834989
 20
1.425115
 10
2.833725
 20
1.431228
 10
2.832967
 20
1.437324
 10
2.832714
 20
1.443403
 10
2.832971
 20
1.449545
 10
2.833742
 20
1.455695
 10
2.835027
 20
1.461854
 10
2.836825
 20
1.468022
 10
2.839138
 20
1.474198
 10
2.841965
 20
1.480382
 10
2.845305
 20
1.486576
 10
2.84916
 20
1.492777
 10
2.853425
 20
1.498825
 10
2.857997
 20
1.504557
 10
2.862877
 20
1.509972
 10
2.868065
 20
1.515071
 10
2.87356
 20
1.519854
 10
2.879363
 20
1.524321
 10
2.885473
 20
1.528471
 10
2.891891
 20
1.532305
 10
2.898574
 20
1.535751
 10
2.90548
 20
1.538738
 10
2.91261
 20
1.541265
 10
2.919963
 20
1.543333
 10
2.927539
 20
1.544941
 10
2.935338
 20
1.54609
 10
2.943361
 20
1.546779
 10
2.951607
 20
1.547009
 10
2.960453
 20
1.546689
 10
2.970277
 20
1.545728
 10
2.981078
 20
1.544127
 10
2.992856
 20
1.541886
 10
3.005931
 20
1.539527
 10
3.01712
 20
1.537842
 10
3.011862
 20
1.520824
 10
3.007953
 20
1.504817
 10
3.006184
 20
1.495153
 10
3.004111
 20
1.481665
 10
2.999056
 20
1.443213
  0
LWPOLYLINE
  5
4C
330
1F
100
AcDbEntity
  8
0
100
AcDbPolyline
 90
       88
 70
   128
 43
0.0
 10
3.156232
 20
1.451032
 10
3.162699
 20
1.450703
 10
3.168887
 20
1.449717
 10
3.174797
 20
1.448074
 10
3.180429
 20
1.445774
 10
3.185783
 20
1.442817
 10
3.190859
 20
1.439203
 10
3.195657
 20
1.434931
 10
3.200177
 20
1.430003
 10
3.204284
 20
1.424489
 10
3.207844
 20
1.418461
 10
3.210856
 20
1.411919
 10
3.21332
 20
1.404863
 10
3.215237
 20
1.397293
 10
3.216606
 20
1.389209
 10
3.217427
 20
1.380612
 10
3.217701
 20
1.3715
 10
3.217537
 20
1.364067
 10
3.217044
 20
1.356729
 10
3.216222
 20
1.349487
 10
3.215072
 20
1.342341
 10
3.213594
 20
1.335291
 10
3.211787
 20
1.328337
 10
3.209651
 20
1.321478
 10
3.207187
 20
1.314716
 10
3.204394
 20
1.308049
 10
3.201272
 20
1.301478
 10
3.197822
 20
1.295003
 10
3.194044
 20
1.288624
 10
3.189936
 20
1.28234
 10
3.185501
 20
1.276153
 10
3.180736
 20
1.270061
 10
3.175644
 20
1.264065
 10
3.165053
 20
1.252912
 10
3.159701
 20
1.247894
 10
3.154312
 20
1.243247
 10
3.148884
 20
1.238972
 10
3.143418
 20
1.235068
 10
3.137914
 20
1.231537
 10
3.132373
 20
1.228377
 10
3.126794
 20
1.225589
 10
3.121176
 20
1.223172
 10
3.115521
 20
1.221128
 10
3.109828
 20
1.219455
 10
3.104097
 20
1.218154
 10
3.098328
 20
1.217224
 10
3.092521
 20
1.216667
 10
3.086676
 20
1.216481
 10
3.079639
 20
1.216776
 10
3.072952
 20
1.21766
 10
3.066614
 20
1.219135
 10
3.060626
 20
1.221199
 10
3.054988
 20
1.223853
 10
3.049699
 20
1.227096
 10
3.04476
 20
1.23093
 10
3.04017
 20
1.235353
 10
3.036031
 20
1.240285
 10
3.032445
 20
1.245648
 10
3.029409
 20
1.25144
 10
3.026926
 20
1.257662
 10
3.024995
 20
1.264313
 10
3.023615
 20
1.271395
 10
3.022787
 20
1.278905
 10
3.022511
 20
1.286846
 10
3.023017
 20
1.300865
 10
3.024533
 20
1.314615
 10
3.027061
 20
1.328095
 10
3.030599
 20
1.341305
 10
3.035149
 20
1.354246
 10
3.040709
 20
1.366917
 10
3.047281
 20
1.379318
 10
3.054863
 20
1.39145
 10
3.06003
 20
1.398665
 10
3.065352
 20
1.405415
 10
3.070831
 20
1.411699
 10
3.076465
 20
1.417517
 10
3.082255
 20
1.42287
 10
3.088201
 20
1.427758
 10
3.094303
 20
1.43218
 10
3.10056
 20
1.436136
 10
3.106974
 20
1.439627
 10
3.113543
 20
1.442653
 10
3.120268
 20
1.445213
 10
3.127149
 20
1.447308
 10
3.134186
 20
1.448937
 10
3.141379
 20
1.450101
 10
3.148728
 20
1.450799
 10
3.156232
 20
1.451032
  0
LWPOLYLINE
  5
4D
330
1F
100
AcDbEntity
  8
0
100
AcDbPolyline
 90
       65
 70
   128
 43
0.0
 10
3.133317
 20
1.430812
 10
3.127611
 20
1.4303
 10
3.121951
 20
1.428764
 10
3.116338
 20
1.426205
 10
3.110771
 20
1.422623
 10
3.105251
 20
1.418016
 10
3.099777
 20
1.412386
 10
3.094349
 20
1.405733
 10
3.088968
 20
1.398055
 10
3.083944
 20
1.389477
 10
3.079591
 20
1.380119
 10
3.075907
 20
1.369981
 10
3.072893
 20
1.359065
 10
3.070549
 20
1.347369
 10
3.068874
 20
1.334894
 10
3.067869
 20
1.321639
 10
3.067534
 20
1.307605
 10
3.067741
 20
1.299075
 10
3.06836
 20
1.291008
 10
3.069392
 20
1.283404
 10
3.070837
 20
1.276264
 10
3.072695
 20
1.269587
 10
3.074965
 20
1.263374
 10
3.077649
 20
1.257624
 10
3.080745
 20
1.252337
 10
3.083272
 20
1.248862
 10
3.086002
 20
1.24585
 10
3.088934
 20
1.243302
 10
3.092068
 20
1.241216
 10
3.095404
 20
1.239595
 10
3.098943
 20
1.238436
 10
3.102683
 20
1.237741
 10
3.106626
 20
1.237509
 10
3.112225
 20
1.237948
 10
3.117697
 20
1.239262
 10
3.123042
 20
1.241452
 10
3.128262
 20
1.244519
 10
3.133354
 20
1.248462
 10
3.138321
 20
1.253281
 10
3.143161
 20
1.258976
 10
3.147875
 20
1.265548
 10
3.153435
 20
1.27492
 10
3.158254
 20
1.284841
 10
3.162332
 20
1.295309
 10
3.165668
 20
1.306324
 10
3.168263
 20
1.317888
 10
3.170117
 20
1.329999
 10
3.171229
 20
1.342657
 10
3.1716
 20
1.355863
 10
3.171429
 20
1.365611
 10
3.170917
 20
1.374634
 10
3.170064
 20
1.382933
 10
3.16887
 20
1.390507
 10
3.167334
 20
1.397356
 10
3.165458
 20
1.403481
 10
3.16324
 20
1.408882
 10
3.160681
 20
1.413557
 10
3.157865
 20
1.417601
 10
3.154876
 20
1.421106
 10
3.151715
 20
1.424072
 10
3.14838
 20
1.426498
 10
3.144873
 20
1.428385
 10
3.141194
 20
1.429733
 10
3.137342
 20
1.430542
 10
3.133317
 20
1.430812
  0
LWPOLYLINE
  5
4E
330
1F
100
AcDbEntity
  8
0
100
AcDbPolyline
 90
      142
 70
   128
 43
0.0
 10
3.251401
 20
1.387676
 10
3.242234
 20
1.397112
 10
3.258627
 20
1.412251
 10
3.273265
 20
1.424612
 10
3.286149
 20
1.434197
 10
3.291933
 20
1.437947
 10
3.297279
 20
1.441004
 10
3.307161
 20
1.445745
 10
3.316301
 20
1.449131
 10
3.3247
 20
1.451163
 10
3.328621
 20
1.451671
 10
3.332356
 20
1.45184
 10
3.335037
 20
1.451689
 10
3.337415
 20
1.451234
 10
3.339489
 20
1.450476
 10
3.341259
 20
1.449414
 10
3.342676
 20
1.44815
 10
3.343687
 20
1.446785
 10
3.344294
 20
1.445319
 10
3.344497
 20
1.443752
 10
3.34416
 20
1.440382
 10
3.343149
 20
1.435125
 10
3.330996
 20
1.380869
 10
3.338077
 20
1.388429
 10
3.345597
 20
1.395863
 10
3.353553
 20
1.40317
 10
3.361947
 20
1.410351
 10
3.370778
 20
1.417405
 10
3.380046
 20
1.424333
 10
3.389752
 20
1.431134
 10
3.399895
 20
1.437809
 10
3.410443
 20
1.44383
 10
3.420016
 20
1.44813
 10
3.424436
 20
1.449635
 10
3.428612
 20
1.450711
 10
3.432544
 20
1.451356
 10
3.436232
 20
1.451571
 10
3.441194
 20
1.45115
 10
3.445585
 20
1.449886
 10
3.449404
 20
1.44778
 10
3.45265
 20
1.444831
 10
3.45524
 20
1.44109
 10
3.45709
 20
1.436608
 10
3.4582
 20
1.431385
 10
3.458571
 20
1.42542
 10
3.457966
 20
1.416523
 10
3.456153
 20
1.406548
 10
3.448363
 20
1.378712
 10
3.433586
 20
1.330251
 10
3.426065
 20
1.305061
 10
3.420693
 20
1.284487
 10
3.41747
 20
1.26853
 10
3.416664
 20
1.262283
 10
3.416395
 20
1.25719
 10
3.4168
 20
1.252354
 10
3.417305
 20
1.250454
 10
3.418013
 20
1.2489
 10
3.418906
 20
1.247691
 10
3.419967
 20
1.246827
 10
3.421197
 20
1.246309
 10
3.422596
 20
1.246137
 10
3.42469
 20
1.246372
 10
3.427061
 20
1.24708
 10
3.432639
 20
1.249911
 10
3.439328
 20
1.254629
 10
3.447129
 20
1.261234
 10
3.458992
 20
1.271614
 10
3.470854
 20
1.281184
 10
3.477594
 20
1.271479
 10
3.465075
 20
1.258467
 10
3.452319
 20
1.246797
 10
3.439328
 20
1.236468
 10
3.432744
 20
1.231806
 10
3.426101
 20
1.22748
 10
3.417979
 20
1.222785
 10
3.410599
 20
1.219433
 10
3.40396
 20
1.217421
 10
3.400919
 20
1.216918
 10
3.398062
 20
1.21675
 10
3.393227
 20
1.217214
 10
3.388964
 20
1.218604
 10
3.385273
 20
1.220921
 10
3.382156
 20
1.224164
 10
3.379679
 20
1.228453
 10
3.37791
 20
1.233904
 10
3.376848
 20
1.240517
 10
3.376495
 20
1.248293
 10
3.376962
 20
1.255408
 10
3.378365
 20
1.264756
 10
3.380703
 20
1.276336
 10
3.383976
 20
1.290149
 10
3.388184
 20
1.306194
 10
3.393328
 20
1.324472
 10
3.40642
 20
1.367726
 10
3.413295
 20
1.394618
 10
3.415013
 20
1.402757
 10
3.415586
 20
1.407357
 10
3.415431
 20
1.409315
 10
3.414963
 20
1.411013
 10
3.414184
 20
1.412449
 10
3.413093
 20
1.413625
 10
3.41169
 20
1.414539
 10
3.409975
 20
1.415192
 10
3.405611
 20
1.415714
 10
3.402818
 20
1.415537
 10
3.399832
 20
1.415005
 10
3.393277
 20
1.412879
 10
3.385947
 20
1.409335
 10
3.377843
 20
1.404374
 10
3.371638
 20
1.400097
 10
3.365694
 20
1.395635
 10
3.360011
 20
1.390986
 10
3.35459
 20
1.386152
 10
3.349429
 20
1.381132
 10
3.34453
 20
1.375926
 10
3.339892
 20
1.370535
 10
3.335516
 20
1.364958
 10
3.332874
 20
1.361043
 10
3.330343
 20
1.356589
 10
3.32792
 20
1.351594
 10
3.325608
 20
1.34606
 10
3.321311
 20
1.333372
 10
3.317452
 20
1.318524
 10
3.295615
 20
1.224299
 10
3.255445
 20
1.224299
 10
3.266027
 20
1.263917
 10
3.275125
 20
1.301783
 10
3.29912
 20
1.404374
 10
3.300131
 20
1.409705
 10
3.300468
 20
1.413279
 10
3.300131
 20
1.416468
 10
3.29912
 20
1.418745
 10
3.297435
 20
1.420111
 10
3.295076
 20
1.420567
 10
3.292683
 20
1.42021
 10
3.289819
 20
1.41914
 10
3.286482
 20
1.417356
 10
3.282674
 20
1.414859
 10
3.274451
 20
1.40898
 10
3.266498
 20
1.40249
 10
3.258815
 20
1.395389
 10
3.251401
 20
1.387676
  0
LWPOLYLINE
  5
4F
330
1F
100
AcDbEntity
  8
0
100
AcDbPolyline
 90
       88
 70
   128
 43
0.0
 10
3.630996
 20
1.451032
 10
3.637462
 20
1.450703
 10
3.64365
 20
1.449717
 10
3.64956
 20
1.448074
 10
3.655192
 20
1.445774
 10
3.660546
 20
1.442817
 10
3.665622
 20
1.439203
 10
3.67042
 20
1.434931
 10
3.67494
 20
1.430003
 10
3.679047
 20
1.424489
 10
3.682607
 20
1.418461
 10
3.685619
 20
1.411919
 10
3.688083
 20
1.404863
 10
3.69
 20
1.397293
 10
3.691369
 20
1.389209
 10
3.69219
 20
1.380612
 10
3.692464
 20
1.3715
 10
3.6923
 20
1.364067
 10
3.691807
 20
1.356729
 10
3.690986
 20
1.349487
 10
3.689836
 20
1.342341
 10
3.688357
 20
1.335291
 10
3.68655
 20
1.328337
 10
3.684414
 20
1.321478
 10
3.68195
 20
1.314716
 10
3.679157
 20
1.308049
 10
3.676036
 20
1.301478
 10
3.672586
 20
1.295003
 10
3.668807
 20
1.288624
 10
3.6647
 20
1.28234
 10
3.660264
 20
1.276153
 10
3.6555
 20
1.270061
 10
3.650407
 20
1.264065
 10
3.639817
 20
1.252912
 10
3.634465
 20
1.247894
 10
3.629075
 20
1.243247
 10
3.623647
 20
1.238972
 10
3.618181
 20
1.235068
 10
3.612678
 20
1.231537
 10
3.607136
 20
1.228377
 10
3.601557
 20
1.225589
 10
3.595939
 20
1.223172
 10
3.590284
 20
1.221128
 10
3.584591
 20
1.219455
 10
3.57886
 20
1.218154
 10
3.573091
 20
1.217224
 10
3.567284
 20
1.216667
 10
3.561439
 20
1.216481
 10
3.554402
 20
1.216776
 10
3.547715
 20
1.21766
 10
3.541377
 20
1.219135
 10
3.535389
 20
1.221199
 10
3.529751
 20
1.223853
 10
3.524462
 20
1.227096
 10
3.519523
 20
1.23093
 10
3.514934
 20
1.235353
 10
3.510795
 20
1.240285
 10
3.507208
 20
1.245648
 10
3.504173
 20
1.25144
 10
3.501689
 20
1.257662
 10
3.499758
 20
1.264313
 10
3.498378
 20
1.271395
 10
3.497551
 20
1.278905
 10
3.497275
 20
1.286846
 10
3.49778
 20
1.300865
 10
3.499297
 20
1.314615
 10
3.501824
 20
1.328095
 10
3.505363
 20
1.341305
 10
3.509912
 20
1.354246
 10
3.515473
 20
1.366917
 10
3.522044
 20
1.379318
 10
3.529627
 20
1.39145
 10
3.534793
 20
1.398665
 10
3.540116
 20
1.405415
 10
3.545594
 20
1.411699
 10
3.551228
 20
1.417517
 10
3.557018
 20
1.42287
 10
3.562964
 20
1.427758
 10
3.569066
 20
1.43218
 10
3.575324
 20
1.436136
 10
3.581737
 20
1.439627
 10
3.588306
 20
1.442653
 10
3.595032
 20
1.445213
 10
3.601913
 20
1.447308
 10
3.60895
 20
1.448937
 10
3.616143
 20
1.450101
 10
3.623491
 20
1.450799
 10
3.630996
 20
1.451032
  0
LWPOLYLINE
  5
50
330
1F
100
AcDbEntity
  8
0
100
AcDbPolyline
 90
       65
 70
   128
 43
0.0
 10
3.60808
 20
1.430812
 10
3.602374
 20
1.4303
 10
3.596715
 20
1.428764
 10
3.591101
 20
1.426205
 10
3.585535
 20
1.422623
 10
3.580014
 20
1.418016
 10
3.57454
 20
1.412386
 10
3.569112
 20
1.405733
 10
3.563731
 20
1.398055
 10
3.558707
 20
1.389477
 10
3.554354
 20
1.380119
 10
3.55067
 20
1.369981
 10
3.547656
 20
1.359065
 10
3.545312
 20
1.347369
 10
3.543637
 20
1.334894
 10
3.542633
 20
1.321639
 10
3.542298
 20
1.307605
 10
3.542504
 20
1.299075
 10
3.543123
 20
1.291008
 10
3.544155
 20
1.283404
 10
3.5456
 20
1.276264
 10
3.547458
 20
1.269587
 10
3.549729
 20
1.263374
 10
3.552412
 20
1.257624
 10
3.555508
 20
1.252337
 10
3.558036
 20
1.248862
 10
3.560765
 20
1.24585
 10
3.563697
 20
1.243302
 10
3.566831
 20
1.241216
 10
3.570168
 20
1.239595
 10
3.573706
 20
1.238436
 10
3.577447
 20
1.237741
 10
3.58139
 20
1.237509
 10
3.586988
 20
1.237948
 10
3.59246
 20
1.239262
 10
3.597806
 20
1.241452
 10
3.603025
 20
1.244519
 10
3.608118
 20
1.248462
 10
3.613084
 20
1.253281
 10
3.617924
 20
1.258976
 10
3.622638
 20
1.265548
 10
3.628199
 20
1.27492
 10
3.633018
 20
1.284841
 10
3.637095
 20
1.295309
 10
3.640432
 20
1.306324
 10
3.643027
 20
1.317888
 10
3.64488
 20
1.329999
 10
3.645992
 20
1.342657
 10
3.646363
 20
1.355863
 10
3.646192
 20
1.365611
 10
3.64568
 20
1.374634
 10
3.644827
 20
1.382933
 10
3.643633
 20
1.390507
 10
3.642098
 20
1.397356
 10
3.640221
 20
1.403481
 10
3.638003
 20
1.408882
 10
3.635444
 20
1.413557
 10
3.632628
 20
1.417601
 10
3.629639
 20
1.421106
 10
3.626478
 20
1.424072
 10
3.623144
 20
1.426498
 10
3.619637
 20
1.428385
 10
3.615957
 20
1.429733
 10
3.612105
 20
1.430542
 10
3.60808
 20
1.430812
  0
LWPOLYLINE
  5
51
330
1F
100
AcDbEntity
  8
0
100
AcDbPolyline
 90
      196
 70
   128
 43
0.0
 10
3.725355
 20
1.389024
 10
3.717267
 20
1.399808
 10
3.730447
 20
1.412277
 10
3.743297
 20
1.422993
 10
3.749598
 20
1.427694
 10
3.755816
 20
1.431957
 10
3.761951
 20
1.435782
 10
3.768005
 20
1.439169
 10
3.779389
 20
1.444713
 10
3.789496
 20
1.448673
 10
3.798325
 20
1.451048
 10
3.802261
 20
1.451642
 10
3.805877
 20
1.45184
 10
3.808544
 20
1.451689
 10
3.810854
 20
1.451234
 10
3.812807
 20
1.450476
 10
3.814403
 20
1.449414
 10
3.815643
 20
1.448083
 10
3.816529
 20
1.446516
 10
3.817061
 20
1.444713
 10
3.817238
 20
1.442674
 10
3.816968
 20
1.439355
 10
3.816159
 20
1.434788
 10
3.812924
 20
1.421915
 10
3.807663
 20
1.401628
 10
3.804289
 20
1.386058
 10
3.819947
 20
1.401476
 10
3.834655
 20
1.414838
 10
3.848414
 20
1.426144
 10
3.861224
 20
1.435395
 10
3.867272
 20
1.439249
 10
3.873083
 20
1.44259
 10
3.878657
 20
1.445416
 10
3.883994
 20
1.447729
 10
3.889093
 20
1.449528
 10
3.893955
 20
1.450813
 10
3.898579
 20
1.451583
 10
3.902966
 20
1.45184
 10
3.907135
 20
1.451537
 10
3.910765
 20
1.450627
 10
3.913858
 20
1.449111
 10
3.916412
 20
1.446988
 10
3.918412
 20
1.444207
 10
3.91984
 20
1.440719
 10
3.920697
 20
1.436524
 10
3.920983
 20
1.43162
 10
3.920478
 20
1.424965
 10
3.918965
 20
1.416321
 10
3.916443
 20
1.405688
 10
3.912912
 20
1.393068
 10
3.927784
 20
1.407938
 10
3.941645
 20
1.420466
 10
3.948196
 20
1.425851
 10
3.954494
 20
1.430652
 10
3.96054
 20
1.434866
 10
3.966332
 20
1.438495
 10
3.977041
 20
1.444334
 10
3.986501
 20
1.448504
 10
3.990763
 20
1.449964
 10
3.994713
 20
1.451006
 10
3.998351
 20
1.451632
 10
4.001677
 20
1.45184
 10
4.007022
 20
1.451436
 10
4.011727
 20
1.450223
 10
4.015791
 20
1.448201
 10
4.019214
 20
1.44537
 10
4.021928
 20
1.441697
 10
4.023867
 20
1.437147
 10
4.025031
 20
1.431722
 10
4.025419
 20
1.42542
 10
4.02525
 20
1.42119
 10
4.024745
 20
1.41659
 10
4.022723
 20
1.406278
 10
4.016454
 20
1.383902
 10
4.003042
 20
1.338879
 10
3.993724
 20
1.307487
 10
3.987068
 20
1.283139
 10
3.983075
 20
1.265834
 10
3.982076
 20
1.259823
 10
3.981744
 20
1.255573
 10
3.982215
 20
1.251562
 10
3.982805
 20
1.249987
 10
3.983631
 20
1.248698
 10
3.984692
 20
1.247695
 10
3.98599
 20
1.246979
 10
3.987523
 20
1.246549
 10
3.989292
 20
1.246406
 10
3.991837
 20
1.246608
 10
3.994347
 20
1.247215
 10
3.996824
 20
1.248226
 10
3.999268
 20
1.249641
 10
4.007271
 20
1.25564
 10
4.015376
 20
1.262312
 10
4.023582
 20
1.269659
 10
4.031889
 20
1.27768
 10
4.040786
 20
1.267974
 10
4.03263
 20
1.260965
 10
4.019487
 20
1.249102
 10
4.00129
 20
1.233331
 10
3.994718
 20
1.228175
 10
3.989832
 20
1.224838
 10
3.982317
 20
1.220828
 10
3.975408
 20
1.217964
 10
3.969106
 20
1.216245
 10
3.963411
 20
1.215672
 10
3.959485
 20
1.216169
 10
3.955795
 20
1.21766
 10
3.952341
 20
1.220146
 10
3.949122
 20
1.223625
 10
3.946409
 20
1.227981
 10
3.944472
 20
1.233095
 10
3.943309
 20
1.238967
 10
3.942921
 20
1.245597
 10
3.943157
 20
1.252346
 10
3.943865
 20
1.25965
 10
3.945045
 20
1.267511
 10
3.946696
 20
1.275927
 10
3.949493
 20
1.287326
 10
3.95411
 20
1.304134
 10
3.968803
 20
1.353976
 10
3.974818
 20
1.374516
 10
3.979115
 20
1.390574
 10
3.981693
 20
1.40215
 10
3.982552
 20
1.409244
 10
3.982047
 20
1.413254
 10
3.981415
 20
1.41483
 10
3.98053
 20
1.416119
 10
3.979393
 20
1.417121
 10
3.978003
 20
1.417837
 10
3.97636
 20
1.418267
 10
3.974464
 20
1.41841
 10
3.970808
 20
1.417989
 10
3.966579
 20
1.416725
 10
3.961776
 20
1.414619
 10
3.956401
 20
1.41167
 10
3.94528
 20
1.404273
 10
3.935103
 20
1.396101
 10
3.930368
 20
1.391724
 10
3.925869
 20
1.387154
 10
3.921606
 20
1.382389
 10
3.917579
 20
1.377431
 10
3.914925
 20
1.373669
 10
3.912356
 20
1.369394
 10
3.907469
 20
1.359301
 10
3.90292
 20
1.347152
 10
3.898707
 20
1.332947
 10
3.890249
 20
1.301185
 10
3.882936
 20
1.27249
 10
3.876769
 20
1.246861
 10
3.871747
 20
1.224299
 10
3.833464
 20
1.224299
 10
3.873635
 20
1.389024
 10
3.87687
 20
1.403043
 10
3.877948
 20
1.409513
 10
3.877814
 20
1.411544
 10
3.87741
 20
1.413321
 10
3.876737
 20
1.414846
 10
3.875796
 20
1.416119
 10
3.874601
 20
1.417121
 10
3.873171
 20
1.417837
 10
3.871505
 20
1.418267
 10
3.869603
 20
1.41841
 10
3.86766
 20
1.418233
 10
3.865465
 20
1.417702
 10
3.860318
 20
1.415579
 10
3.854161
 20
1.412041
 10
3.846995
 20
1.407087
 10
3.834606
 20
1.397592
 10
3.824085
 20
1.388249
 10
3.819524
 20
1.383634
 10
3.81543
 20
1.379057
 10
3.811803
 20
1.374518
 10
3.808642
 20
1.370017
 10
3.805768
 20
1.365242
 10
3.802999
 20
1.359882
 10
3.800334
 20
1.353936
 10
3.797776
 20
1.347405
 10
3.792974
 20
1.332585
 10
3.788593
 20
1.315423
 10
3.767868
 20
1.224299
 10
3.72913
 20
1.224299
 10
3.759594
 20
1.352898
 10
3.769704
 20
1.395966
 10
3.772232
 20
1.407946
 10
3.773074
 20
1.413557
 10
3.772771
 20
1.41627
 10
3.771861
 20
1.418208
 10
3.770345
 20
1.419371
 10
3.768221
 20
1.419758
 10
3.765252
 20
1.419278
 10
3.761599
 20
1.417837
 10
3.757265
 20
1.415436
 10
3.752248
 20
1.412075
 10
3.746548
 20
1.407753
 10
3.740166
 20
1.40247
 10
3.725355
 20
1.389024
  0
LWPOLYLINE
  5
52
330
1F
100
AcDbEntity
  8
0
100
AcDbPolyline
 90
      113
 70
   128
 43
0.0
 10
4.244333
 20
1.455615
 10
4.262122
 20
1.459389
 10
4.241902
 20
1.391181
 10
4.235922
 20
1.370051
 10
4.23011
 20
1.347371
 10
4.224466
 20
1.323141
 10
4.21899
 20
1.29736
 10
4.214542
 20
1.273636
 10
4.21343
 20
1.265615
 10
4.213059
 20
1.260156
 10
4.213481
 20
1.256499
 10
4.214007
 20
1.255063
 10
4.214744
 20
1.253888
 10
4.215692
 20
1.252973
 10
4.216851
 20
1.25232
 10
4.219799
 20
1.251798
 10
4.222276
 20
1.252152
 10
4.225393
 20
1.253214
 10
4.229151
 20
1.254983
 10
4.233549
 20
1.25746
 10
4.241822
 20
1.262751
 10
4.249927
 20
1.268648
 10
4.257863
 20
1.275152
 10
4.265631
 20
1.282263
 10
4.274258
 20
1.271748
 10
4.249051
 20
1.249237
 10
4.240592
 20
1.242126
 10
4.234897
 20
1.237779
 10
4.226371
 20
1.232235
 10
4.218047
 20
1.227467
 10
4.209925
 20
1.223473
 10
4.202006
 20
1.220255
 10
4.196917
 20
1.218604
 10
4.191896
 20
1.217424
 10
4.186942
 20
1.216717
 10
4.182055
 20
1.216481
 10
4.17877
 20
1.216683
 10
4.175922
 20
1.21729
 10
4.173513
 20
1.218301
 10
4.171541
 20
1.219716
 10
4.170008
 20
1.221519
 10
4.168913
 20
1.223692
 10
4.168255
 20
1.226237
 10
4.168036
 20
1.229152
 10
4.168576
 20
1.233937
 10
4.170193
 20
1.240205
 10
4.180977
 20
1.276871
 10
4.175042
 20
1.270051
 10
4.168828
 20
1.263475
 10
4.162337
 20
1.257144
 10
4.155567
 20
1.251057
 10
4.14852
 20
1.245214
 10
4.141194
 20
1.239616
 10
4.133591
 20
1.234262
 10
4.125709
 20
1.229152
 10
4.116071
 20
1.223726
 10
4.111404
 20
1.221595
 10
4.106837
 20
1.219851
 10
4.102372
 20
1.218494
 10
4.098008
 20
1.217525
 10
4.093745
 20
1.216944
 10
4.089583
 20
1.21675
 10
4.085788
 20
1.216923
 10
4.08222
 20
1.217441
 10
4.078879
 20
1.218305
 10
4.075766
 20
1.219514
 10
4.072881
 20
1.221068
 10
4.070223
 20
1.222968
 10
4.067792
 20
1.225213
 10
4.065589
 20
1.227804
 10
4.062935
 20
1.231654
 10
4.060635
 20
1.235791
 10
4.058689
 20
1.240214
 10
4.057096
 20
1.244923
 10
4.055858
 20
1.249919
 10
4.054973
 20
1.255202
 10
4.054443
 20
1.260771
 10
4.054266
 20
1.266626
 10
4.054504
 20
1.273872
 10
4.055218
 20
1.281319
 10
4.056408
 20
1.288969
 10
4.058074
 20
1.296821
 10
4.060216
 20
1.304875
 10
4.062834
 20
1.313132
 10
4.065928
 20
1.321591
 10
4.069498
 20
1.330251
 10
4.073468
 20
1.338912
 10
4.077763
 20
1.347371
 10
4.082382
 20
1.355627
 10
4.087325
 20
1.363682
 10
4.092593
 20
1.371534
 10
4.098185
 20
1.379184
 10
4.104101
 20
1.386631
 10
4.110342
 20
1.393877
 10
4.116787
 20
1.400785
 10
4.123317
 20
1.407222
 10
4.12993
 20
1.413187
 10
4.136628
 20
1.41868
 10
4.14341
 20
1.423701
 10
4.150277
 20
1.42825
 10
4.157227
 20
1.432328
 10
4.164262
 20
1.435934
 10
4.169915
 20
1.438335
 10
4.175956
 20
1.440416
 10
4.182384
 20
1.442177
 10
4.1892
 20
1.443618
 10
4.196403
 20
1.444738
 10
4.203994
 20
1.445539
 10
4.211973
 20
1.446019
 10
4.220338
 20
1.446179
 10
4.229033
 20
1.445909
 10
4.237862
 20
1.4451
 10
4.244333
 20
1.455615
  0
LWPOLYLINE
  5
53
330
1F
100
AcDbEntity
  8
0
100
AcDbPolyline
 90
       54
 70
   128
 43
0.0
 10
4.210903
 20
1.414366
 10
4.19749
 20
1.41659
 10
4.191643
 20
1.417146
 10
4.186369
 20
1.417332
 10
4.1804
 20
1.417123
 10
4.174625
 20
1.416498
 10
4.169043
 20
1.415455
 10
4.163655
 20
1.413995
 10
4.158461
 20
1.412119
 10
4.153461
 20
1.409825
 10
4.148655
 20
1.407114
 10
4.144042
 20
1.403987
 10
4.139566
 20
1.400318
 10
4.135171
 20
1.395983
 10
4.130855
 20
1.390983
 10
4.126619
 20
1.385317
 10
4.122464
 20
1.378986
 10
4.118388
 20
1.371989
 10
4.114393
 20
1.364326
 10
4.110477
 20
1.355998
 10
4.106844
 20
1.347339
 10
4.103695
 20
1.338685
 10
4.101031
 20
1.330034
 10
4.098851
 20
1.321388
 10
4.097155
 20
1.312746
 10
4.095944
 20
1.304109
 10
4.095217
 20
1.295475
 10
4.094975
 20
1.286846
 10
4.095363
 20
1.27832
 10
4.096525
 20
1.271074
 10
4.098463
 20
1.26511
 10
4.099723
 20
1.262607
 10
4.101176
 20
1.260425
 10
4.104512
 20
1.256887
 10
4.10832
 20
1.254359
 10
4.1126
 20
1.252843
 10
4.117352
 20
1.252337
 10
4.122044
 20
1.252651
 10
4.126821
 20
1.253593
 10
4.131683
 20
1.255162
 10
4.136628
 20
1.257359
 10
4.141658
 20
1.260183
 10
4.146772
 20
1.263635
 10
4.15197
 20
1.267715
 10
4.157252
 20
1.272422
 10
4.1624
 20
1.27772
 10
4.167194
 20
1.283569
 10
4.171634
 20
1.28997
 10
4.17572
 20
1.296922
 10
4.179452
 20
1.304427
 10
4.182831
 20
1.312483
 10
4.185855
 20
1.321091
 10
4.188526
 20
1.330251
 10
4.210903
 20
1.414366
  0
LWPOLYLINE
  5
54
330
1F
100
AcDbEntity
  8
0
100
AcDbPolyline
 90
      104
 70
   128
 43
0.0
 10
3.640519
 20
2.19308
 10
3.64336
 20
2.197516
 10
3.646021
 20
2.202261
 10
3.650808
 20
2.212603
 10
3.654878
 20
2.223953
 10
3.658231
 20
2.236161
 10
3.660866
 20
2.249075
 10
3.66278
 20
2.262544
 10
3.663974
 20
2.276417
 10
3.664445
 20
2.290542
 10
3.664194
 20
2.304768
 10
3.663217
 20
2.318944
 10
3.661515
 20
2.332918
 10
3.659087
 20
2.346539
 10
3.65593
 20
2.359656
 10
3.652044
 20
2.372117
 10
3.647427
 20
2.383772
 10
3.64208
 20
2.394468
 10
3.636337
 20
2.403886
 10
3.630039
 20
2.412739
 10
3.623219
 20
2.421023
 10
3.615914
 20
2.428737
 10
3.608158
 20
2.435881
 10
3.599988
 20
2.442452
 10
3.591439
 20
2.448449
 10
3.582546
 20
2.45387
 10
3.573345
 20
2.458713
 10
3.563871
 20
2.462978
 10
3.55416
 20
2.466662
 10
3.544247
 20
2.469764
 10
3.534168
 20
2.472282
 10
3.523958
 20
2.474215
 10
3.513652
 20
2.475561
 10
3.503286
 20
2.476319
 10
3.492896
 20
2.476486
 10
3.482516
 20
2.476062
 10
3.472183
 20
2.475045
 10
3.461932
 20
2.473433
 10
3.451798
 20
2.471224
 10
3.441817
 20
2.468418
 10
3.432024
 20
2.465012
 10
3.422455
 20
2.461006
 10
3.413145
 20
2.456396
 10
3.404129
 20
2.451182
 10
3.395443
 20
2.445363
 10
3.387123
 20
2.438935
 10
3.379204
 20
2.431899
 10
3.371722
 20
2.424253
 10
3.364711
 20
2.415994
 10
3.358207
 20
2.407121
 10
3.352278
 20
2.398011
 10
3.347166
 20
2.38933
 10
3.34287
 20
2.381073
 10
3.339391
 20
2.373237
 10
3.336729
 20
2.365815
 10
3.334885
 20
2.358805
 10
3.333857
 20
2.3522
 10
3.333648
 20
2.345998
 10
3.334256
 20
2.340193
 10
3.335681
 20
2.33478
 10
3.337925
 20
2.329755
 10
3.340987
 20
2.325114
 10
3.344867
 20
2.320851
 10
3.349566
 20
2.316963
 10
3.355083
 20
2.313445
 10
3.361419
 20
2.310292
 10
3.368869
 20
2.30676
 10
3.377165
 20
2.302386
 10
3.395703
 20
2.291529
 10
3.415859
 20
2.278561
 10
3.436457
 20
2.264321
 10
3.456319
 20
2.249651
 10
3.474272
 20
2.235391
 10
3.489137
 20
2.222379
 10
3.495045
 20
2.216605
 10
3.499741
 20
2.211458
 10
3.506871
 20
2.201967
 10
3.513702
 20
2.191066
 10
3.51946
 20
2.180104
 10
3.521694
 20
2.17502
 10
3.523369
 20
2.170426
 10
3.524951
 20
2.166039
 10
3.526921
 20
2.16155
 10
3.531708
 20
2.152775
 10
3.537104
 20
2.145111
 10
3.539834
 20
2.142012
 10
3.542481
 20
2.139572
 10
3.544307
 20
2.138311
 10
3.546321
 20
2.137298
 10
3.55087
 20
2.135995
 10
3.556042
 20
2.135614
 10
3.56175
 20
2.136108
 10
3.567908
 20
2.13743
 10
3.574428
 20
2.139532
 10
3.581225
 20
2.142368
 10
3.588211
 20
2.145889
 10
3.5953
 20
2.150049
 10
3.602404
 20
2.154801
 10
3.609439
 20
2.160097
 10
3.616316
 20
2.165889
 10
3.622949
 20
2.172131
 10
3.629252
 20
2.178775
 10
3.635138
 20
2.185773
 10
3.640519
 20
2.19308
  0
LWPOLYLINE
  5
55
330
1F
100
AcDbEntity
  8
0
100
AcDbPolyline
 90
      115
 70
   128
 43
0.0
 10
3.83032
 20
1.861547
 10
3.8365
 20
1.867959
 10
3.842163
 20
1.875197
 10
3.847295
 20
1.883183
 10
3.851882
 20
1.891843
 10
3.85591
 20
1.901099
 10
3.859366
 20
1.910876
 10
3.862235
 20
1.921097
 10
3.864503
 20
1.931686
 10
3.866157
 20
1.942567
 10
3.867183
 20
1.953664
 10
3.867566
 20
1.9649
 10
3.867294
 20
1.976199
 10
3.866351
 20
1.987486
 10
3.864724
 20
1.998683
 10
3.862399
 20
2.009715
 10
3.859362
 20
2.020505
 10
3.856369
 20
2.028741
 10
3.852579
 20
2.037303
 10
3.848073
 20
2.046094
 10
3.842932
 20
2.055018
 10
3.837238
 20
2.063977
 10
3.831073
 20
2.072873
 10
3.824518
 20
2.08161
 10
3.817655
 20
2.09009
 10
3.810566
 20
2.098217
 10
3.803332
 20
2.105893
 10
3.796034
 20
2.113021
 10
3.788755
 20
2.119504
 10
3.781577
 20
2.125244
 10
3.774579
 20
2.130145
 10
3.767846
 20
2.13411
 10
3.761457
 20
2.137041
 10
3.741403
 20
2.144561
 10
3.725536
 20
2.1498
 10
3.718896
 20
2.15154
 10
3.71297
 20
2.152682
 10
3.707648
 20
2.153215
 10
3.70282
 20
2.153131
 10
3.698374
 20
2.15242
 10
3.694201
 20
2.151072
 10
3.69019
 20
2.149078
 10
3.68623
 20
2.146428
 10
3.682211
 20
2.143114
 10
3.678021
 20
2.139125
 10
3.66869
 20
2.129084
 10
3.662495
 20
2.122654
 10
3.65513
 20
2.115884
 10
3.646868
 20
2.108979
 10
3.637985
 20
2.10214
 10
3.628756
 20
2.095572
 10
3.619454
 20
2.089478
 10
3.610355
 20
2.084061
 10
3.601733
 20
2.079525
 10
3.592993
 20
2.074887
 10
3.58482
 20
2.06976
 10
3.577216
 20
2.064173
 10
3.57018
 20
2.058154
 10
3.563712
 20
2.05173
 10
3.557811
 20
2.04493
 10
3.552478
 20
2.037782
 10
3.547712
 20
2.030313
 10
3.543514
 20
2.022552
 10
3.539883
 20
2.014526
 10
3.536819
 20
2.006263
 10
3.534321
 20
1.997793
 10
3.53239
 20
1.989141
 10
3.531026
 20
1.980337
 10
3.530227
 20
1.971408
 10
3.529995
 20
1.962383
 10
3.530329
 20
1.953289
 10
3.531229
 20
1.944154
 10
3.532695
 20
1.935007
 10
3.534726
 20
1.925875
 10
3.537322
 20
1.916786
 10
3.540483
 20
1.907768
 10
3.54421
 20
1.89885
 10
3.548501
 20
1.890058
 10
3.553358
 20
1.881422
 10
3.558778
 20
1.872969
 10
3.564764
 20
1.864727
 10
3.571313
 20
1.856724
 10
3.578427
 20
1.848988
 10
3.586104
 20
1.841546
 10
3.594345
 20
1.834428
 10
3.60315
 20
1.827661
 10
3.609607
 20
1.823193
 10
3.61614
 20
1.819087
 10
3.622745
 20
1.815342
 10
3.629419
 20
1.811958
 10
3.636158
 20
1.808934
 10
3.64296
 20
1.806269
 10
3.64982
 20
1.803964
 10
3.656735
 20
1.802017
 10
3.663703
 20
1.800428
 10
3.670718
 20
1.799197
 10
3.677779
 20
1.798323
 10
3.68488
 20
1.797806
 10
3.69202
 20
1.797644
 10
3.699195
 20
1.797839
 10
3.7064
 20
1.798388
 10
3.713633
 20
1.799292
 10
3.720891
 20
1.800549
 10
3.728169
 20
1.802161
 10
3.735464
 20
1.804125
 10
3.742774
 20
1.806441
 10
3.750094
 20
1.80911
 10
3.757421
 20
1.81213
 10
3.764751
 20
1.815501
 10
3.772082
 20
1.819223
 10
3.779409
 20
1.823294
 10
3.78673
 20
1.827715
 10
3.801338
 20
1.837602
 10
3.815877
 20
1.848881
 10
3.83032
 20
1.861547
  0
LWPOLYLINE
  5
56
330
1F
100
AcDbEntity
  8
0
100
AcDbPolyline
 90
      108
 70
   128
 43
0.0
 10
3.925312
 20
2.186456
 10
3.931453
 20
2.199483
 10
3.933704
 20
2.205181
 10
3.935356
 20
2.210152
 10
3.936367
 20
2.214257
 10
3.936698
 20
2.21736
 10
3.936308
 20
2.219323
 10
3.935831
 20
2.219833
 10
3.935157
 20
2.220008
 10
3.933905
 20
2.22026
 10
3.933226
 20
2.220985
 10
3.9331
 20
2.222131
 10
3.933506
 20
2.223647
 10
3.935835
 20
2.227586
 10
3.940054
 20
2.232396
 10
3.943372
 20
2.236194
 10
3.946138
 20
2.240404
 10
3.948352
 20
2.245028
 10
3.950014
 20
2.250066
 10
3.951123
 20
2.255521
 10
3.95168
 20
2.261394
 10
3.951684
 20
2.267688
 10
3.951135
 20
2.274404
 10
3.950033
 20
2.281544
 10
3.948377
 20
2.28911
 10
3.946167
 20
2.297104
 10
3.943404
 20
2.305527
 10
3.940086
 20
2.314381
 10
3.936214
 20
2.323668
 10
3.931788
 20
2.33339
 10
3.926807
 20
2.343548
 10
3.922057
 20
2.352573
 10
3.917092
 20
2.361334
 10
3.911925
 20
2.369824
 10
3.906566
 20
2.378036
 10
3.901029
 20
2.385964
 10
3.895325
 20
2.393598
 10
3.889466
 20
2.400933
 10
3.883464
 20
2.40796
 10
3.877332
 20
2.414672
 10
3.87108
 20
2.421063
 10
3.864721
 20
2.427124
 10
3.858267
 20
2.432849
 10
3.851731
 20
2.43823
 10
3.845123
 20
2.44326
 10
3.838456
 20
2.44793
 10
3.831742
 20
2.452236
 10
3.824992
 20
2.456167
 10
3.81822
 20
2.459719
 10
3.811437
 20
2.462882
 10
3.804654
 20
2.46565
 10
3.797884
 20
2.468015
 10
3.791139
 20
2.469971
 10
3.78443
 20
2.47151
 10
3.777771
 20
2.472623
 10
3.771172
 20
2.473305
 10
3.764645
 20
2.473548
 10
3.758204
 20
2.473345
 10
3.751859
 20
2.472687
 10
3.745622
 20
2.471568
 10
3.739506
 20
2.469981
 10
3.733523
 20
2.467918
 10
3.727684
 20
2.465372
 10
3.719763
 20
2.461211
 10
3.713476
 20
2.457046
 10
3.710898
 20
2.454872
 10
3.708671
 20
2.45259
 10
3.706777
 20
2.450163
 10
3.705197
 20
2.447556
 10
3.703911
 20
2.444731
 10
3.7029
 20
2.441655
 10
3.701631
 20
2.4346
 10
3.701236
 20
2.426103
 10
3.701564
 20
2.415878
 10
3.705474
 20
2.347789
 10
3.708682
 20
2.297042
 10
3.710188
 20
2.277325
 10
3.711719
 20
2.260928
 10
3.71334
 20
2.247512
 10
3.715117
 20
2.236739
 10
3.717118
 20
2.22827
 10
3.719408
 20
2.221766
 10
3.722055
 20
2.216889
 10
3.725124
 20
2.213301
 10
3.728683
 20
2.210662
 10
3.732797
 20
2.208635
 10
3.742958
 20
2.20506
 10
3.749749
 20
2.202399
 10
3.75802
 20
2.198571
 10
3.767452
 20
2.193756
 10
3.777725
 20
2.188135
 10
3.799517
 20
2.175193
 10
3.810397
 20
2.168233
 10
3.820841
 20
2.161185
 10
3.856241
 20
2.137206
 10
3.867595
 20
2.129986
 10
3.870944
 20
2.128054
 10
3.872459
 20
2.127424
 10
3.874837
 20
2.128034
 10
3.877528
 20
2.129265
 10
3.880491
 20
2.131074
 10
3.883685
 20
2.133414
 10
3.890607
 20
2.139507
 10
3.897967
 20
2.147182
 10
3.905442
 20
2.156077
 10
3.912708
 20
2.16583
 10
3.919439
 20
2.176077
 10
3.925312
 20
2.186456
  0
LWPOLYLINE
  5
57
330
1F
100
AcDbEntity
  8
0
100
AcDbPolyline
 90
       83
 70
   128
 43
0.0
 10
3.458599
 20
1.814956
 10
3.46471
 20
1.828894
 10
3.469722
 20
1.842392
 10
3.473555
 20
1.855012
 10
3.47613
 20
1.866317
 10
3.477365
 20
1.875871
 10
3.477456
 20
1.879855
 10
3.477182
 20
1.883237
 10
3.476533
 20
1.885962
 10
3.4755
 20
1.887977
 10
3.474073
 20
1.889225
 10
3.472241
 20
1.889654
 10
3.470011
 20
1.888998
 10
3.465685
 20
1.887119
 10
3.451767
 20
1.880219
 10
3.432528
 20
1.870006
 10
3.41001
 20
1.857534
 10
3.392306
 20
1.847791
 10
3.377308
 20
1.840321
 10
3.370487
 20
1.837366
 10
3.363938
 20
1.834891
 10
3.357526
 20
1.832868
 10
3.351115
 20
1.831266
 10
3.344572
 20
1.830058
 10
3.33776
 20
1.829213
 10
3.330546
 20
1.828703
 10
3.322793
 20
1.828497
 10
3.305134
 20
1.828884
 10
3.283703
 20
1.83014
 10
3.255333
 20
1.832594
 10
3.229386
 20
1.835783
 10
3.218218
 20
1.837525
 10
3.208732
 20
1.839295
 10
3.201287
 20
1.841043
 10
3.196242
 20
1.842717
 10
3.191145
 20
1.844645
 10
3.187071
 20
1.845428
 10
3.185384
 20
1.845346
 10
3.183913
 20
1.844923
 10
3.182645
 20
1.844141
 10
3.181566
 20
1.842983
 10
3.180664
 20
1.841431
 10
3.179924
 20
1.839466
 10
3.178882
 20
1.834226
 10
3.178335
 20
1.827119
 10
3.178176
 20
1.818
 10
3.17839
 20
1.812881
 10
3.179026
 20
1.807801
 10
3.18007
 20
1.802769
 10
3.181511
 20
1.797793
 10
3.183337
 20
1.792881
 10
3.185534
 20
1.788041
 10
3.188091
 20
1.783282
 10
3.190995
 20
1.778612
 10
3.194235
 20
1.774039
 10
3.197797
 20
1.769571
 10
3.205842
 20
1.760984
 10
3.215031
 20
1.752916
 10
3.225266
 20
1.745433
 10
3.236449
 20
1.7386
 10
3.248482
 20
1.732484
 10
3.261266
 20
1.727149
 10
3.274705
 20
1.722662
 10
3.288698
 20
1.719087
 10
3.303149
 20
1.716491
 10
3.317958
 20
1.71494
 10
3.333029
 20
1.714498
 10
3.34015
 20
1.715174
 10
3.347897
 20
1.717021
 10
3.356158
 20
1.719948
 10
3.364819
 20
1.723865
 10
3.373766
 20
1.728679
 10
3.382886
 20
1.734302
 10
3.392065
 20
1.740641
 10
3.401189
 20
1.747606
 10
3.410146
 20
1.755106
 10
3.418821
 20
1.76305
 10
3.427101
 20
1.771348
 10
3.434872
 20
1.779908
 10
3.442021
 20
1.78864
 10
3.448434
 20
1.797452
 10
3.453998
 20
1.806254
 10
3.458599
 20
1.814956
  0
LWPOLYLINE
  5
58
330
1F
100
AcDbEntity
  8
0
100
AcDbPolyline
 90
     1101
 70
   128
 43
0.0
 10
3.317544
 20
1.603489
 10
3.332458
 20
1.604775
 10
3.348037
 20
1.607084
 10
3.364128
 20
1.610348
 10
3.380578
 20
1.614497
 10
3.397235
 20
1.619463
 10
3.413947
 20
1.625178
 10
3.43056
 20
1.631571
 10
3.446922
 20
1.638576
 10
3.462881
 20
1.646123
 10
3.478283
 20
1.654143
 10
3.492977
 20
1.662568
 10
3.50681
 20
1.671328
 10
3.519628
 20
1.680356
 10
3.531281
 20
1.689583
 10
3.541614
 20
1.69894
 10
3.550475
 20
1.708357
 10
3.556226
 20
1.714939
 10
3.561475
 20
1.720112
 10
3.564084
 20
1.722112
 10
3.566773
 20
1.723688
 10
3.569611
 20
1.724817
 10
3.572669
 20
1.725476
 10
3.576014
 20
1.72564
 10
3.579716
 20
1.725285
 10
3.583842
 20
1.724388
 10
3.588463
 20
1.722925
 10
3.593647
 20
1.720873
 10
3.599463
 20
1.718207
 10
3.613266
 20
1.710938
 10
3.621119
 20
1.706794
 10
3.629041
 20
1.7031
 10
3.637029
 20
1.699852
 10
3.645077
 20
1.697045
 10
3.653182
 20
1.694672
 10
3.66134
 20
1.692729
 10
3.669546
 20
1.69121
 10
3.677795
 20
1.69011
 10
3.686085
 20
1.689423
 10
3.69441
 20
1.689144
 10
3.702767
 20
1.689268
 10
3.711151
 20
1.689789
 10
3.719557
 20
1.690701
 10
3.727982
 20
1.691999
 10
3.736422
 20
1.693679
 10
3.744872
 20
1.695734
 10
3.753328
 20
1.698159
 10
3.761786
 20
1.700948
 10
3.770242
 20
1.704097
 10
3.778691
 20
1.707599
 10
3.787129
 20
1.71145
 10
3.795552
 20
1.715645
 10
3.803956
 20
1.720176
 10
3.812336
 20
1.72504
 10
3.829009
 20
1.735743
 10
3.845537
 20
1.747709
 10
3.861887
 20
1.760896
 10
3.878025
 20
1.775261
 10
3.891702
 20
1.78781
 10
3.902802
 20
1.797302
 10
3.907597
 20
1.800986
 10
3.912003
 20
1.804007
 10
3.916105
 20
1.8064
 10
3.919987
 20
1.808197
 10
3.923735
 20
1.809432
 10
3.927434
 20
1.81014
 10
3.931168
 20
1.810354
 10
3.935024
 20
1.810108
 10
3.939085
 20
1.809436
 10
3.943437
 20
1.808372
 10
3.953355
 20
1.8052
 10
3.958596
 20
1.803575
 10
3.964206
 20
1.802215
 10
3.976441
 20
1.800271
 10
3.989869
 20
1.799325
 10
4.0043
 20
1.799333
 10
4.019544
 20
1.800252
 10
4.03541
 20
1.802039
 10
4.051709
 20
1.804651
 10
4.06825
 20
1.808044
 10
4.084842
 20
1.812176
 10
4.101297
 20
1.817003
 10
4.117424
 20
1.822483
 10
4.133031
 20
1.828571
 10
4.147931
 20
1.835224
 10
4.161931
 20
1.842401
 10
4.174842
 20
1.850056
 10
4.186474
 20
1.858148
 10
4.199447
 20
1.868402
 10
4.211368
 20
1.8787
 10
4.222265
 20
1.8891
 10
4.232167
 20
1.899664
 10
4.241103
 20
1.910451
 10
4.249102
 20
1.921522
 10
4.256193
 20
1.932937
 10
4.262406
 20
1.944756
 10
4.267768
 20
1.95704
 10
4.272309
 20
1.969848
 10
4.276058
 20
1.983242
 10
4.279043
 20
1.997281
 10
4.281295
 20
2.012025
 10
4.28284
 20
2.027535
 10
4.28371
 20
2.043872
 10
4.283932
 20
2.061094
 10
4.283599
 20
2.077495
 10
4.282768
 20
2.093184
 10
4.281423
 20
2.108198
 10
4.279551
 20
2.122576
 10
4.277138
 20
2.136355
 10
4.27417
 20
2.149576
 10
4.270632
 20
2.162274
 10
4.26651
 20
2.17449
 10
4.261791
 20
2.186261
 10
4.25646
 20
2.197624
 10
4.250503
 20
2.20862
 10
4.243906
 20
2.219285
 10
4.236656
 20
2.229658
 10
4.228736
 20
2.239777
 10
4.220135
 20
2.249681
 10
4.210837
 20
2.259407
 10
4.203008
 20
2.266819
 10
4.194089
 20
2.274534
 10
4.184258
 20
2.282444
 10
4.173692
 20
2.290441
 10
4.162569
 20
2.298419
 10
4.151068
 20
2.306269
 10
4.139364
 20
2.313884
 10
4.127637
 20
2.321157
 10
4.116064
 20
2.32798
 10
4.104822
 20
2.334246
 10
4.094089
 20
2.339847
 10
4.084044
 20
2.344676
 10
4.074863
 20
2.348624
 10
4.066724
 20
2.351586
 10
4.059805
 20
2.353453
 10
4.054284
 20
2.354117
 10
4.050316
 20
2.35455
 10
4.046299
 20
2.35578
 10
4.04226
 20
2.35777
 10
4.038224
 20
2.360482
 10
4.034215
 20
2.363879
 10
4.030259
 20
2.367925
 10
4.02638
 20
2.372581
 10
4.022604
 20
2.377812
 10
4.018956
 20
2.383579
 10
4.015461
 20
2.389846
 10
4.012144
 20
2.396575
 10
4.00903
 20
2.403729
 10
4.006144
 20
2.411272
 10
4.003511
 20
2.419166
 10
4.001157
 20
2.427374
 10
3.999106
 20
2.435859
 10
3.998045
 20
2.439889
 10
3.996579
 20
2.444208
 10
3.992501
 20
2.453603
 10
3.987017
 20
2.463825
 10
3.980271
 20
2.474655
 10
3.972407
 20
2.485877
 10
3.96357
 20
2.497272
 10
3.953904
 20
2.508623
 10
3.943553
 20
2.519711
 10
3.92949
 20
2.533665
 10
3.91688
 20
2.545094
 10
3.91092
 20
2.549974
 10
3.905084
 20
2.55436
 10
3.899293
 20
2.558295
 10
3.893466
 20
2.561826
 10
3.887524
 20
2.564998
 10
3.881387
 20
2.567856
 10
3.874976
 20
2.570445
 10
3.86821
 20
2.572812
 10
3.853297
 20
2.577059
 10
3.83601
 20
2.580959
 10
3.82444
 20
2.583057
 10
3.812555
 20
2.584666
 10
3.800425
 20
2.585795
 10
3.788121
 20
2.586451
 10
3.775712
 20
2.586642
 10
3.763268
 20
2.586376
 10
3.75086
 20
2.58566
 10
3.738558
 20
2.584504
 10
3.726432
 20
2.582914
 10
3.714551
 20
2.580898
 10
3.702987
 20
2.578465
 10
3.691809
 20
2.575622
 10
3.681087
 20
2.572377
 10
3.670891
 20
2.568739
 10
3.661292
 20
2.564714
 10
3.65236
 20
2.560311
 10
3.646893
 20
2.557827
 10
3.641367
 20
2.556255
 10
3.635646
 20
2.555613
 10
3.629592
 20
2.555917
 10
3.62307
 20
2.557185
 10
3.615944
 20
2.559433
 10
3.608075
 20
2.562679
 10
3.59933
 20
2.566939
 10
3.59058
 20
2.570805
 10
3.580054
 20
2.574311
 10
3.567912
 20
2.577427
 10
3.554311
 20
2.580126
 10
3.539411
 20
2.582381
 10
3.52337
 20
2.584165
 10
3.506347
 20
2.585449
 10
3.4885
 20
2.586206
 10
3.462886
 20
2.586948
 10
3.443559
 20
2.58789
 10
3.435946
 20
2.588559
 10
3.429535
 20
2.589425
 10
3.424204
 20
2.590538
 10
3.419829
 20
2.591946
 10
3.416288
 20
2.593699
 10
3.413457
 20
2.595846
 10
3.411214
 20
2.598435
 10
3.409435
 20
2.601517
 10
3.407997
 20
2.60514
 10
3.406777
 20
2.609354
 10
3.404501
 20
2.619749
 10
3.402888
 20
2.626542
 10
3.400805
 20
2.633459
 10
3.398255
 20
2.640493
 10
3.395243
 20
2.647639
 10
3.391773
 20
2.65489
 10
3.387848
 20
2.662241
 10
3.383474
 20
2.669684
 10
3.378654
 20
2.677215
 10
3.373391
 20
2.684827
 10
3.367691
 20
2.692513
 10
3.354994
 20
2.708085
 10
3.340595
 20
2.723883
 10
3.324525
 20
2.739858
 10
3.315451
 20
2.747836
 10
3.306063
 20
2.754679
 10
3.301124
 20
2.757724
 10
3.295954
 20
2.760546
 10
3.290503
 20
2.763163
 10
3.284718
 20
2.765597
 10
3.271947
 20
2.769994
 10
3.257232
 20
2.773895
 10
3.240168
 20
2.777463
 10
3.220347
 20
2.780856
 10
3.196204
 20
2.784766
 10
3.186436
 20
2.786562
 10
3.178062
 20
2.788383
 10
3.170972
 20
2.790327
 10
3.165062
 20
2.792493
 10
3.160223
 20
2.794979
 10
3.156348
 20
2.797883
 10
3.15333
 20
2.801304
 10
3.151062
 20
2.80534
 10
3.149437
 20
2.810089
 10
3.148348
 20
2.815649
 10
3.147687
 20
2.822119
 10
3.147348
 20
2.829598
 10
3.147205
 20
2.847973
 10
3.14688
 20
2.859678
 10
3.145917
 20
2.871483
 10
3.144338
 20
2.883361
 10
3.142162
 20
2.895286
 10
3.139408
 20
2.907232
 10
3.136098
 20
2.919174
 10
3.13225
 20
2.931084
 10
3.127886
 20
2.942938
 10
3.123024
 20
2.954709
 10
3.117686
 20
2.966371
 10
3.111891
 20
2.977898
 10
3.105658
 20
2.989264
 10
3.099009
 20
3.000444
 10
3.091963
 20
3.011411
 10
3.08454
 20
3.022139
 10
3.076761
 20
3.032603
 10
3.068644
 20
3.042775
 10
3.060211
 20
3.052631
 10
3.051481
 20
3.062145
 10
3.042474
 20
3.07129
 10
3.03321
 20
3.08004
 10
3.023709
 20
3.088369
 10
3.013992
 20
3.096252
 10
3.004078
 20
3.103663
 10
2.993987
 20
3.110574
 10
2.98374
 20
3.116961
 10
2.973356
 20
3.122798
 10
2.962855
 20
3.128058
 10
2.952258
 20
3.132716
 10
2.941584
 20
3.136745
 10
2.930854
 20
3.140119
 10
2.920087
 20
3.142813
 10
2.912133
 20
3.144867
 10
2.908838
 20
3.146094
 10
2.905956
 20
3.147557
 10
2.903455
 20
3.149335
 10
2.901303
 20
3.151504
 10
2.89947
 20
3.154141
 10
2.897924
 20
3.157325
 10
2.896634
 20
3.161133
 10
2.895568
 20
3.165641
 10
2.893982
 20
3.177071
 10
2.892917
 20
3.192233
 10
2.89212
 20
3.211748
 10
2.890901
 20
3.231049
 10
2.888579
 20
3.249785
 10
2.88515
 20
3.267958
 10
2.88302
 20
3.276835
 10
2.880613
 20
3.285572
 10
2.877929
 20
3.294171
 10
2.874966
 20
3.302631
 10
2.871726
 20
3.310952
 10
2.868207
 20
3.319137
 10
2.864409
 20
3.327184
 10
2.860333
 20
3.335094
 10
2.855977
 20
3.342869
 10
2.851342
 20
3.350507
 10
2.846427
 20
3.358009
 10
2.841232
 20
3.365377
 10
2.835757
 20
3.37261
 10
2.830001
 20
3.379709
 10
2.817647
 20
3.393506
 10
2.804167
 20
3.406771
 10
2.78956
 20
3.419508
 10
2.773823
 20
3.43172
 10
2.756954
 20
3.443411
 10
2.738951
 20
3.454583
 10
2.723708
 20
3.463194
 10
2.709988
 20
3.470033
 10
2.703452
 20
3.472848
 10
2.697002
 20
3.475292
 10
2.690538
 20
3.477388
 10
2.683964
 20
3.479161
 10
2.677179
 20
3.480635
 10
2.670086
 20
3.481833
 10
2.654581
 20
3.483498
 10
2.636662
 20
3.484348
 10
2.615542
 20
3.484574
 10
2.594548
 20
3.484293
 10
2.576547
 20
3.483371
 10
2.560763
 20
3.481621
 10
2.55346
 20
3.480378
 10
2.546421
 20
3.478858
 10
2.539549
 20
3.477038
 10
2.532748
 20
3.474895
 10
2.518968
 20
3.469547
 10
2.504306
 20
3.462627
 10
2.487988
 20
3.45395
 10
2.477196
 20
3.447667
 10
2.466494
 20
3.440823
 10
2.455964
 20
3.433504
 10
2.445692
 20
3.425797
 10
2.43576
 20
3.417789
 10
2.426252
 20
3.409567
 10
2.417253
 20
3.401218
 10
2.408845
 20
3.392828
 10
2.401113
 20
3.384484
 10
2.394141
 20
3.376273
 10
2.388011
 20
3.368282
 10
2.382808
 20
3.360598
 10
2.378615
 20
3.353307
 10
2.375517
 20
3.346497
 10
2.373597
 20
3.340254
 10
2.373105
 20
3.337372
 10
2.372938
 20
3.334664
 10
2.372745
 20
3.331204
 10
2.372192
 20
3.327588
 10
2.370162
 20
3.320321
 10
2.368762
 20
3.316882
 10
2.367158
 20
3.313715
 10
2.365387
 20
3.310928
 10
2.363489
 20
3.308627
 10
2.36152
 20
3.306148
 10
2.359547
 20
3.302852
 10
2.357623
 20
3.298882
 10
2.3558
 20
3.29438
 10
2.352671
 20
3.284349
 10
2.351471
 20
3.279105
 10
2.350584
 20
3.273899
 10
2.349215
 20
3.266436
 10
2.348287
 20
3.263312
 10
2.347122
 20
3.260557
 10
2.345666
 20
3.258143
 10
2.343864
 20
3.256044
 10
2.341661
 20
3.254232
 10
2.339001
 20
3.25268
 10
2.335829
 20
3.251361
 10
2.33209
 20
3.250248
 10
2.322692
 20
3.248531
 10
2.310365
 20
3.247312
 10
2.294668
 20
3.246373
 10
2.283304
 20
3.245505
 10
2.271106
 20
3.244029
 10
2.258456
 20
3.242024
 10
2.245735
 20
3.239571
 10
2.233323
 20
3.236749
 10
2.221601
 20
3.233639
 10
2.210952
 20
3.230321
 10
2.201756
 20
3.226874
 10
2.194626
 20
3.223697
 10
2.187532
 20
3.220143
 10
2.180485
 20
3.21623
 10
2.173498
 20
3.211974
 10
2.159753
 20
3.202503
 10
2.146399
 20
3.191868
 10
2.133534
 20
3.180205
 10
2.121259
 20
3.167651
 10
2.109675
 20
3.154344
 10
2.09888
 20
3.14042
 10
2.088975
 20
3.126016
 10
2.08006
 20
3.111268
 10
2.072236
 20
3.096315
 10
2.065601
 20
3.081293
 10
2.062761
 20
3.073798
 10
2.060257
 20
3.066338
 10
2.0581
 20
3.058929
 10
2.056303
 20
3.051588
 10
2.054878
 20
3.044333
 10
2.053839
 20
3.03718
 10
2.053197
 20
3.030146
 10
2.052965
 20
3.023249
 10
2.052538
 20
3.019755
 10
2.051329
 20
3.016001
 10
2.049416
 20
3.012052
 10
2.046876
 20
3.007977
 10
2.043787
 20
3.003843
 10
2.040226
 20
2.999717
 10
2.03627
 20
2.995665
 10
2.031997
 20
2.991755
 10
2.027485
 20
2.988054
 10
2.02281
 20
2.984629
 10
2.018051
 20
2.981547
 10
2.013284
 20
2.978875
 10
2.008587
 20
2.976679
 10
2.004037
 20
2.975028
 10
1.999712
 20
2.973989
 10
1.995689
 20
2.973627
 10
1.99355
 20
2.973836
 10
1.991113
 20
2.974453
 10
1.985412
 20
2.976847
 10
1.978714
 20
2.980687
 10
1.971145
 20
2.98585
 10
1.962833
 20
2.992213
 10
1.953905
 20
2.999653
 10
1.944487
 20
3.008047
 10
1.934708
 20
3.017272
 10
1.924693
 20
3.027205
 10
1.914571
 20
3.037722
 10
1.904468
 20
3.048702
 10
1.894511
 20
3.06002
 10
1.884827
 20
3.071554
 10
1.875544
 20
3.083181
 10
1.866788
 20
3.094778
 10
1.858687
 20
3.106222
 10
1.844283
 20
3.127857
 10
1.8307
 20
3.149357
 10
1.817935
 20
3.170726
 10
1.805988
 20
3.191968
 10
1.794857
 20
3.213085
 10
1.784541
 20
3.234082
 10
1.775039
 20
3.254962
 10
1.766348
 20
3.275728
 10
1.758468
 20
3.296384
 10
1.751397
 20
3.316933
 10
1.745134
 20
3.337379
 10
1.739677
 20
3.357726
 10
1.735025
 20
3.377977
 10
1.731177
 20
3.398135
 10
1.728131
 20
3.418204
 10
1.725885
 20
3.438187
 10
1.724438
 20
3.451889
 10
1.7227
 20
3.464958
 10
1.720684
 20
3.477359
 10
1.718404
 20
3.489058
 10
1.715875
 20
3.500021
 10
1.713111
 20
3.510212
 10
1.710125
 20
3.519597
 10
1.706932
 20
3.528141
 10
1.703545
 20
3.53581
 10
1.69998
 20
3.542569
 10
1.696249
 20
3.548383
 10
1.692367
 20
3.553218
 10
1.688349
 20
3.557039
 10
1.684207
 20
3.559811
 10
1.679957
 20
3.561499
 10
1.675612
 20
3.56207
 10
1.671428
 20
3.561515
 10
1.666043
 20
3.559918
 10
1.659617
 20
3.557381
 10
1.652309
 20
3.554005
 10
1.635689
 20
3.545141
 10
1.617464
 20
3.534138
 10
1.598912
 20
3.521809
 10
1.581314
 20
3.508965
 10
1.573272
 20
3.502604
 10
1.565948
 20
3.496418
 10
1.559503
 20
3.49051
 10
1.554095
 20
3.48498
 10
1.5503
 20
3.480235
 10
1.547131
 20
3.475015
 10
1.544588
 20
3.469321
 10
1.542672
 20
3.463149
 10
1.541383
 20
3.456498
 10
1.54072
 20
3.449367
 10
1.540685
 20
3.441753
 10
1.541277
 20
3.433656
 10
1.542497
 20
3.425074
 10
1.544344
 20
3.416004
 10
1.546819
 20
3.406445
 10
1.549922
 20
3.396396
 10
1.553653
 20
3.385855
 10
1.558013
 20
3.37482
 10
1.563001
 20
3.363289
 10
1.568618
 20
3.351262
 10
1.573083
 20
3.341425
 10
1.576971
 20
3.331635
 10
1.580281
 20
3.32196
 10
1.583012
 20
3.312469
 10
1.585164
 20
3.30323
 10
1.586734
 20
3.294312
 10
1.587724
 20
3.285785
 10
1.58813
 20
3.277717
 10
1.587953
 20
3.270176
 10
1.587191
 20
3.263232
 10
1.585843
 20
3.256953
 10
1.583908
 20
3.251409
 10
1.581386
 20
3.246668
 10
1.578274
 20
3.242798
 10
1.574573
 20
3.239869
 10
1.572501
 20
3.238778
 10
1.570282
 20
3.237949
 10
1.557565
 20
3.23493
 10
1.536294
 20
3.230762
 10
1.509435
 20
3.225996
 10
1.47995
 20
3.221182
 10
1.461055
 20
3.217953
 10
1.444528
 20
3.214498
 10
1.430095
 20
3.210712
 10
1.417482
 20
3.206492
 10
1.406417
 20
3.201734
 10
1.396626
 20
3.196335
 10
1.387835
 20
3.190191
 10
1.379772
 20
3.183199
 10
1.373807
 20
3.176976
 10
1.368346
 20
3.170256
 10
1.363371
 20
3.163104
 10
1.358866
 20
3.15559
 10
1.354815
 20
3.147779
 10
1.351202
 20
3.139741
 10
1.34801
 20
3.131542
 10
1.345224
 20
3.12325
 10
1.342826
 20
3.114932
 10
1.340801
 20
3.106657
 10
1.337803
 20
3.090503
 10
1.3361
 20
3.075329
 10
1.335562
 20
3.061674
 10
1.335867
 20
3.049254
 10
1.337098
 20
3.033801
 10
1.33821
 20
3.025205
 10
1.339733
 20
3.016172
 10
1.341724
 20
3.00681
 10
1.344245
 20
2.997226
 10
1.347353
 20
2.987527
 10
1.35111
 20
2.97782
 10
1.355574
 20
2.968212
 10
1.360804
 20
2.958811
 10
1.366861
 20
2.949724
 10
1.373803
 20
2.941057
 10
1.38169
 20
2.932919
 10
1.386006
 20
2.929081
 10
1.390581
 20
2.925416
 10
1.398165
 20
2.918933
 10
1.404335
 20
2.91231
 10
1.409224
 20
2.905792
 10
1.412966
 20
2.899622
 10
1.415695
 20
2.894043
 10
1.417546
 20
2.889301
 10
1.419148
 20
2.883297
 10
1.421467
 20
2.871245
 10
1.424839
 20
2.859069
 10
1.429156
 20
2.846877
 10
1.434311
 20
2.834779
 10
1.440198
 20
2.822881
 10
1.44671
 20
2.811292
 10
1.45374
 20
2.800121
 10
1.46118
 20
2.789475
 10
1.468925
 20
2.779462
 10
1.476867
 20
2.77019
 10
1.4849
 20
2.761768
 10
1.492915
 20
2.754304
 10
1.500808
 20
2.747905
 10
1.508471
 20
2.742681
 10
1.515796
 20
2.738738
 10
1.522678
 20
2.736185
 10
1.525871
 20
2.734906
 10
1.529082
 20
2.732866
 10
1.532268
 20
2.730144
 10
1.535382
 20
2.726821
 10
1.538379
 20
2.722976
 10
1.541216
 20
2.71869
 10
1.543846
 20
2.714042
 10
1.546225
 20
2.709114
 10
1.548308
 20
2.703984
 10
1.55005
 20
2.698734
 10
1.551406
 20
2.693442
 10
1.552331
 20
2.68819
 10
1.55278
 20
2.683056
 10
1.552708
 20
2.678122
 10
1.55207
 20
2.673467
 10
1.550821
 20
2.669172
 10
1.549059
 20
2.665387
 10
1.546977
 20
2.662309
 10
1.544605
 20
2.659901
 10
1.541973
 20
2.658128
 10
1.53911
 20
2.656953
 10
1.536046
 20
2.656342
 10
1.532811
 20
2.656257
 10
1.529435
 20
2.656664
 10
1.525947
 20
2.657527
 10
1.522376
 20
2.658809
 10
1.515108
 20
2.66249
 10
1.507868
 20
2.66742
 10
1.500893
 20
2.673312
 10
1.491162
 20
2.683018
 10
1.482226
 20
2.692871
 10
1.47399
 20
2.702271
 10
1.466355
 20
2.710619
 10
1.459227
 20
2.717316
 10
1.455823
 20
2.719858
 10
1.452509
 20
2.721762
 10
1.449273
 20
2.722954
 10
1.446104
 20
2.723359
 10
1.442989
 20
2.722901
 10
1.439916
 20
2.721506
 10
1.438233
 20
2.720099
 10
1.436987
 20
2.718257
 10
1.436157
 20
2.716009
 10
1.435722
 20
2.713384
 10
1.435663
 20
2.710411
 10
1.435958
 20
2.707121
 10
1.437531
 20
2.699703
 10
1.440278
 20
2.691364
 10
1.444036
 20
2.68234
 10
1.448641
 20
2.672865
 10
1.453931
 20
2.663174
 10
1.45974
 20
2.653502
 10
1.465907
 20
2.644084
 10
1.472269
 20
2.635154
 10
1.47866
 20
2.626948
 10
1.48492
 20
2.619699
 10
1.490883
 20
2.613644
 10
1.496387
 20
2.609016
 10
1.501268
 20
2.60605
 10
1.504166
 20
2.604915
 10
1.50725
 20
2.604051
 10
1.513905
 20
2.603099
 10
1.521103
 20
2.603113
 10
1.528711
 20
2.60401
 10
1.536597
 20
2.605708
 10
1.544628
 20
2.608126
 10
1.552673
 20
2.61118
 10
1.560599
 20
2.614789
 10
1.568275
 20
2.618871
 10
1.575568
 20
2.623344
 10
1.582346
 20
2.628126
 10
1.588478
 20
2.633134
 10
1.593831
 20
2.638286
 10
1.598272
 20
2.643501
 10
1.601671
 20
2.648696
 10
1.603894
 20
2.65379
 10
1.6048
 20
2.658558
 10
1.604958
 20
2.664509
 10
1.604437
 20
2.671437
 10
1.60331
 20
2.679135
 10
1.601646
 20
2.687399
 10
1.599519
 20
2.696023
 10
1.596997
 20
2.704802
 10
1.594152
 20
2.713529
 10
1.591056
 20
2.721999
 10
1.58778
 20
2.730007
 10
1.584393
 20
2.737347
 10
1.580968
 20
2.743814
 10
1.577575
 20
2.749201
 10
1.574285
 20
2.753304
 10
1.57117
 20
2.755916
 10
1.5697
 20
2.756599
 10
1.5683
 20
2.756832
 10
1.56609
 20
2.757635
 10
1.562313
 20
2.759936
 10
1.550881
 20
2.768386
 10
1.535646
 20
2.780893
 10
1.518251
 20
2.796165
 10
1.507293
 20
2.806252
 10
1.497476
 20
2.815796
 10
1.48902
 20
2.824827
 10
1.482142
 20
2.833372
 10
1.479364
 20
2.837472
 10
1.477062
 20
2.841461
 10
1.475263
 20
2.845343
 10
1.473997
 20
2.849121
 10
1.473288
 20
2.852799
 10
1.473166
 20
2.85638
 10
1.473657
 20
2.859869
 10
1.474789
 20
2.863268
 10
1.477439
 20
2.870064
 10
1.479506
 20
2.875839
 10
1.481724
 20
2.88063
 10
1.48312
 20
2.882667
 10
1.484828
 20
2.884471
 10
1.48694
 20
2.886046
 10
1.489549
 20
2.887397
 10
1.492746
 20
2.888528
 10
1.496622
 20
2.889444
 10
1.50127
 20
2.890148
 10
1.506781
 20
2.890646
 10
1.520759
 20
2.891039
 10
1.532049
 20
2.891227
 10
1.542621
 20
2.8918
 10
1.552496
 20
2.892768
 10
1.561697
 20
2.894145
 10
1.570248
 20
2.895942
 10
1.578171
 20
2.898171
 10
1.585488
 20
2.900844
 10
1.592224
 20
2.903972
 10
1.598399
 20
2.907567
 10
1.604038
 20
2.911642
 10
1.609163
 20
2.916208
 10
1.613797
 20
2.921278
 10
1.617963
 20
2.926862
 10
1.621682
 20
2.932973
 10
1.624979
 20
2.939623
 10
1.627876
 20
2.946823
 10
1.633598
 20
2.96419
 10
1.63571
 20
2.972063
 10
1.637315
 20
2.979464
 10
1.638406
 20
2.986442
 10
1.638977
 20
2.993046
 10
1.63902
 20
2.999327
 10
1.638531
 20
3.005334
 10
1.637502
 20
3.011119
 10
1.635927
 20
3.016729
 10
1.633799
 20
3.022216
 10
1.631113
 20
3.02763
 10
1.627861
 20
3.03302
 10
1.624038
 20
3.038436
 10
1.619636
 20
3.043928
 10
1.61465
 20
3.049546
 10
1.606835
 20
3.057309
 10
1.59888
 20
3.06387
 10
1.590767
 20
3.069229
 10
1.582479
 20
3.073382
 10
1.578265
 20
3.075006
 10
1.574
 20
3.076327
 10
1.569684
 20
3.077346
 10
1.565313
 20
3.078062
 10
1.560887
 20
3.078475
 10
1.556402
 20
3.078585
 10
1.547249
 20
3.077893
 10
1.537838
 20
3.075984
 10
1.528152
 20
3.072855
 10
1.518175
 20
3.068505
 10
1.507889
 20
3.06293
 10
1.497278
 20
3.056129
 10
1.486325
 20
3.048099
 10
1.475013
 20
3.038838
 10
1.463327
 20
3.028343
 10
1.456025
 20
3.021236
 10
1.449718
 20
3.014577
 10
1.439751
 20
3.002683
 10
1.432744
 20
2.992836
 10
1.428014
 20
2.985209
 10
1.42488
 20
2.979974
 10
1.423698
 20
2.978308
 10
1.422659
 20
2.977306
 10
1.421679
 20
2.976988
 10
1.420671
 20
2.977376
 10
1.41955
 20
2.978493
 10
1.418232
 20
2.980359
 10
1.415334
 20
2.985212
 10
1.412737
 20
2.990265
 10
1.410439
 20
2.9955
 10
1.408433
 20
3.000897
 10
1.406717
 20
3.006435
 10
1.405285
 20
3.012096
 10
1.403257
 20
3.023706
 10
1.402315
 20
3.035569
 10
1.402422
 20
3.047528
 10
1.403545
 20
3.059426
 10
1.405648
 20
3.071105
 10
1.408695
 20
3.082409
 10
1.412652
 20
3.09318
 10
1.417483
 20
3.10326
 10
1.423154
 20
3.112493
 10
1.426293
 20
3.116743
 10
1.429629
 20
3.120721
 10
1.433157
 20
3.124409
 10
1.436873
 20
3.127787
 10
1.440773
 20
3.130835
 10
1.444851
 20
3.133534
 10
1.449104
 20
3.135864
 10
1.453528
 20
3.137804
 10
1.460514
 20
3.139917
 10
1.470276
 20
3.142012
 10
1.482367
 20
3.144035
 10
1.496343
 20
3.14593
 10
1.511758
 20
3.147644
 10
1.528166
 20
3.149121
 10
1.545121
 20
3.150307
 10
1.562178
 20
3.151146
 10
1.58934
 20
3.152113
 10
1.609883
 20
3.152397
 10
1.618012
 20
3.152163
 10
1.624894
 20
3.151612
 10
1.630666
 20
3.150697
 10
1.635463
 20
3.149369
 10
1.639421
 20
3.147579
 10
1.642678
 20
3.14528
 10
1.645368
 20
3.142423
 10
1.647628
 20
3.138959
 10
1.649594
 20
3.134839
 10
1.651403
 20
3.130017
 10
1.65509
 20
3.118066
 10
1.657546
 20
3.110902
 10
1.66124
 20
3.101715
 10
1.671715
 20
3.078458
 10
1.685264
 20
3.050679
 10
1.700635
 20
3.02076
 10
1.716576
 20
2.991082
 10
1.731836
 20
2.964027
 10
1.745163
 20
2.941979
 10
1.750711
 20
2.933576
 10
1.755306
 20
2.927319
 10
1.81696
 20
2.849451
 10
1.860861
 20
2.7932
 10
1.862589
 20
2.790155
 10
1.863944
 20
2.78629
 10
1.864915
 20
2.781763
 10
1.86549
 20
2.776733
 10
1.865659
 20
2.771357
 10
1.86541
 20
2.765793
 10
1.864731
 20
2.760198
 10
1.863612
 20
2.75473
 10
1.861302
 20
2.747064
 10
1.859931
 20
2.743816
 10
1.858339
 20
2.740918
 10
1.856471
 20
2.738344
 10
1.854269
 20
2.736063
 10
1.851678
 20
2.734046
 10
1.84864
 20
2.732265
 10
1.845099
 20
2.730692
 10
1.840998
 20
2.729296
 10
1.830891
 20
2.726923
 10
1.817866
 20
2.724916
 10
1.801468
 20
2.723044
 10
1.7903
 20
2.721644
 10
1.77905
 20
2.719754
 10
1.767782
 20
2.717403
 10
1.75656
 20
2.714616
 10
1.745446
 20
2.711423
 10
1.734506
 20
2.70785
 10
1.723802
 20
2.703925
 10
1.713399
 20
2.699675
 10
1.70336
 20
2.695128
 10
1.693749
 20
2.690311
 10
1.684631
 20
2.685251
 10
1.676068
 20
2.679976
 10
1.668124
 20
2.674514
 10
1.660863
 20
2.668892
 10
1.65435
 20
2.663137
 10
1.648647
 20
2.657276
 10
1.643357
 20
2.65092
 10
1.637794
 20
2.643425
 10
1.63203
 20
2.634939
 10
1.626137
 20
2.625608
 10
1.614252
 20
2.604997
 10
1.602718
 20
2.582765
 10
1.592113
 20
2.560085
 10
1.583015
 20
2.538129
 10
1.579211
 20
2.527789
 10
1.576002
 20
2.51807
 10
1.573457
 20
2.509118
 10
1.571651
 20
2.501081
 10
1.570637
 20
2.494668
 10
1.569942
 20
2.487983
 10
1.569557
 20
2.481047
 10
1.569474
 20
2.473883
 10
1.570183
 20
2.458958
 10
1.572002
 20
2.443385
 10
1.574867
 20
2.427342
 10
1.578712
 20
2.411006
 10
1.583472
 20
2.394553
 10
1.589082
 20
2.378162
 10
1.595475
 20
2.362009
 10
1.602588
 20
2.346272
 10
1.610353
 20
2.331128
 10
1.618707
 20
2.316754
 10
1.627583
 20
2.303328
 10
1.636916
 20
2.291026
 10
1.641734
 20
2.285353
 10
1.646641
 20
2.280027
 10
1.65163
 20
2.275071
 10
1.656693
 20
2.270506
 10
1.661391
 20
2.266814
 10
1.666807
 20
2.263133
 10
1.672854
 20
2.259495
 10
1.679443
 20
2.255932
 10
1.693903
 20
2.249152
 10
1.709486
 20
2.243043
 10
1.725493
 20
2.237857
 10
1.741223
 20
2.233843
 10
1.748767
 20
2.232353
 10
1.755978
 20
2.231251
 10
1.762771
 20
2.230566
 10
1.769058
 20
2.230331
 10
1.775964
 20
2.229925
 10
1.778873
 20
2.229314
 10
1.781457
 20
2.228339
 10
1.783748
 20
2.226929
 10
1.785776
 20
2.225017
 10
1.787569
 20
2.222532
 10
1.789159
 20
2.219405
 10
1.790575
 20
2.215567
 10
1.791846
 20
2.210949
 10
1.794076
 20
2.199096
 10
1.796089
 20
2.183289
 10
1.798123
 20
2.162976
 10
1.79967
 20
2.148228
 10
1.801497
 20
2.134351
 10
1.803641
 20
2.12126
 10
1.806141
 20
2.108868
 10
1.809034
 20
2.097091
 10
1.812359
 20
2.085841
 10
1.816154
 20
2.075034
 10
1.820457
 20
2.064582
 10
1.825307
 20
2.0544
 10
1.83074
 20
2.044401
 10
1.836796
 20
2.034501
 10
1.843513
 20
2.024612
 10
1.850929
 20
2.01465
 10
1.859081
 20
2.004527
 10
1.868009
 20
1.994158
 10
1.87775
 20
1.983457
 10
1.888064
 20
1.971968
 10
1.89672
 20
1.961353
 10
1.903806
 20
1.951449
 10
1.90941
 20
1.942092
 10
1.91362
 20
1.933117
 10
1.916523
 20
1.924362
 10
1.918207
 20
1.915662
 10
1.918759
 20
1.906854
 10
1.918998
 20
1.897467
 10
1.919671
 20
1.887841
 10
1.920763
 20
1.878021
 10
1.922261
 20
1.868056
 10
1.924149
 20
1.857992
 10
1.926413
 20
1.847876
 10
1.929037
 20
1.837755
 10
1.932008
 20
1.827678
 10
1.935311
 20
1.817689
 10
1.93893
 20
1.807837
 10
1.942851
 20
1.798169
 10
1.94706
 20
1.788731
 10
1.951541
 20
1.779571
 10
1.956281
 20
1.770735
 10
1.961264
 20
1.762271
 10
1.966475
 20
1.754226
 10
1.973731
 20
1.744284
 10
1.981465
 20
1.73512
 10
1.989724
 20
1.726715
 10
1.998554
 20
1.719054
 10
2.008003
 20
1.712116
 10
2.018119
 20
1.705885
 10
2.028947
 20
1.700343
 10
2.040537
 20
1.695471
 10
2.052933
 20
1.691252
 10
2.066185
 20
1.687669
 10
2.080338
 20
1.684702
 10
2.095441
 20
1.682335
 10
2.11154
 20
1.680549
 10
2.128683
 20
1.679326
 10
2.146916
 20
1.678649
 10
2.166287
 20
1.6785
 10
2.197817
 20
1.679045
 10
2.211455
 20
1.679668
 10
2.223907
 20
1.680602
 10
2.235346
 20
1.681902
 10
2.245945
 20
1.683626
 10
2.255877
 20
1.68583
 10
2.265317
 20
1.688572
 10
2.274438
 20
1.691907
 10
2.283412
 20
1.695893
 10
2.292415
 20
1.700587
 10
2.301618
 20
1.706045
 10
2.311196
 20
1.712324
 10
2.321321
 20
1.719481
 10
2.34391
 20
1.736656
 10
2.356555
 20
1.746464
 10
2.366535
 20
1.753579
 10
2.370809
 20
1.756158
 10
2.374757
 20
1.758102
 10
2.378491
 20
1.759425
 10
2.382126
 20
1.760139
 10
2.385773
 20
1.760257
 10
2.389547
 20
1.759792
 10
2.393561
 20
1.758758
 10
2.397927
 20
1.757166
 10
2.408171
 20
1.752362
 10
2.421184
 20
1.745486
 10
2.42984
 20
1.741266
 10
2.439426
 20
1.737328
 10
2.449624
 20
1.733761
 10
2.460116
 20
1.730648
 10
2.470585
 20
1.728077
 10
2.480713
 20
1.726135
 10
2.490182
 20
1.724906
 10
2.498674
 20
1.724477
 10
2.509307
 20
1.724066
 10
2.519065
 20
1.722738
 10
2.523712
 20
1.721684
 10
2.528253
 20
1.720346
 10
2.532728
 20
1.718706
 10
2.537173
 20
1.716746
 10
2.54613
 20
1.711792
 10
2.555427
 20
1.705339
 10
2.565367
 20
1.697242
 10
2.576254
 20
1.687356
 10
2.584197
 20
1.680057
 10
2.592173
 20
1.673139
 10
2.600183
 20
1.6666
 10
2.608227
 20
1.660442
 10
2.616305
 20
1.654664
 10
2.624418
 20
1.649267
 10
2.632566
 20
1.644249
 10
2.640749
 20
1.639611
 10
2.648967
 20
1.635353
 10
2.657222
 20
1.631475
 10
2.665512
 20
1.627977
 10
2.673838
 20
1.624859
 10
2.682201
 20
1.622121
 10
2.690601
 20
1.619762
 10
2.699038
 20
1.617783
 10
2.707512
 20
1.616183
 10
2.716024
 20
1.614963
 10
2.724573
 20
1.614123
 10
2.733161
 20
1.613662
 10
2.741788
 20
1.613581
 10
2.750453
 20
1.613879
 10
2.759157
 20
1.614557
 10
2.7679
 20
1.615613
 10
2.776683
 20
1.617049
 10
2.785506
 20
1.618864
 10
2.794369
 20
1.621059
 10
2.803272
 20
1.623632
 10
2.812216
 20
1.626585
 10
2.821201
 20
1.629917
 10
2.830227
 20
1.633627
 10
2.839295
 20
1.637717
 10
2.848404
 20
1.642185
 10
2.857531
 20
1.646509
 10
2.866878
 20
1.650325
 10
2.876181
 20
1.653565
 10
2.885177
 20
1.656161
 10
2.8936
 20
1.658046
 10
2.901188
 20
1.659151
 10
2.907676
 20
1.659408
 10
2.912799
 20
1.65875
 10
2.918375
 20
1.657953
 10
2.926126
 20
1.657819
 10
2.935754
 20
1.658291
 10
2.946962
 20
1.659313
 10
2.972918
 20
1.662775
 10
3.001605
 20
1.667751
 10
3.030637
 20
1.673785
 10
3.057623
 20
1.680421
 10
3.069602
 20
1.683822
 10
3.080175
 20
1.687203
 10
3.089043
 20
1.690507
 10
3.095906
 20
1.693677
 10
3.101725
 20
1.696242
 10
3.10454
 20
1.697002
 10
3.107344
 20
1.697391
 10
3.110177
 20
1.697389
 10
3.113078
 20
1.696977
 10
3.116086
 20
1.696139
 10
3.119241
 20
1.694854
 10
3.122581
 20
1.693106
 10
3.126147
 20
1.690875
 10
3.134111
 20
1.684893
 10
3.143448
 20
1.67676
 10
3.154472
 20
1.66633
 10
3.16447
 20
1.656875
 10
3.174111
 20
1.648304
 10
3.183478
 20
1.640586
 10
3.192653
 20
1.633688
 10
3.201718
 20
1.627581
 10
3.210755
 20
1.622231
 10
3.219844
 20
1.617607
 10
3.229069
 20
1.613679
 10
3.23851
 20
1.610414
 10
3.24825
 20
1.607781
 10
3.258371
 20
1.605749
 10
3.268953
 20
1.604285
 10
3.28008
 20
1.603359
 10
3.291833
 20
1.602938
 10
3.304294
 20
1.602992
 10
3.317544
 20
1.603489
  0
LWPOLYLINE
  5
59
330
1F
100
AcDbEntity
  8
0
100
AcDbPolyline
 90
       51
 70
   128
 43
0.0
 10
4.024139
 20
1.800396
 10
4.036041
 20
1.801994
 10
4.047736
 20
1.803568
 10
4.058089
 20
1.805473
 10
4.068341
 20
1.807759
 10
4.077765
 20
1.810119
 10
4.082364
 20
1.811471
 10
4.087666
 20
1.812765
 10
4.095087
 20
1.814701
 10
4.102567
 20
1.816956
 10
4.104914
 20
1.817929
 10
4.105875
 20
1.818226
 10
4.106828
 20
1.81812
 10
4.135249
 20
1.809705
 10
4.166033
 20
1.80114
 10
4.19679
 20
1.793082
 10
4.225127
 20
1.786189
 10
4.321074
 20
1.763837
 10
4.326539
 20
1.762239
 10
4.331649
 20
1.760156
 10
4.336381
 20
1.757635
 10
4.340711
 20
1.754718
 10
4.344615
 20
1.751452
 10
4.34807
 20
1.747881
 10
4.35105
 20
1.744048
 10
4.353533
 20
1.74
 10
4.355494
 20
1.735779
 10
4.356909
 20
1.731432
 10
4.357755
 20
1.727002
 10
4.358007
 20
1.722534
 10
4.357641
 20
1.718073
 10
4.356634
 20
1.713663
 10
4.354962
 20
1.709349
 10
4.3526
 20
1.705175
 10
4.342349
 20
1.689736
 10
3.782359
 20
1.687955
 10
3.710689
 20
1.688832
 10
3.733682
 20
1.692839
 10
3.751662
 20
1.697063
 10
3.758603
 20
1.699151
 10
3.765659
 20
1.701656
 10
3.781428
 20
1.708038
 10
3.789498
 20
1.711719
 10
3.797975
 20
1.716066
 10
3.814159
 20
1.725397
 10
4.282754
 20
1.725495
 10
4.18671
 20
1.750925
 10
4.148323
 20
1.761592
 10
4.104697
 20
1.774518
 10
4.061434
 20
1.788015
 10
4.024139
 20
1.800396
  0
LWPOLYLINE
  5
5A
330
1F
100
AcDbEntity
  8
0
100
AcDbPolyline
 90
      276
 70
   128
 43
0.0
 10
3.602712
 20
2.571493
 10
3.602745
 20
2.566233
 10
3.612272
 20
2.561268
 10
3.621148
 20
2.558067
 10
3.628861
 20
2.556466
 10
3.635555
 20
2.55603
 10
3.642103
 20
2.556757
 10
3.648069
 20
2.558649
 10
3.647906
 20
2.564044
 10
3.649433
 20
2.88513
 10
3.625458
 20
2.893488
 10
3.532128
 20
2.935601
 10
3.500103
 20
2.951849
 10
3.484403
 20
2.960316
 10
3.468912
 20
2.969012
 10
3.453629
 20
2.977938
 10
3.438554
 20
2.987093
 10
3.423688
 20
2.996479
 10
3.409028
 20
3.006096
 10
3.394577
 20
3.015943
 10
3.380332
 20
3.026021
 10
3.366295
 20
3.036331
 10
3.352465
 20
3.046872
 10
3.338841
 20
3.057645
 10
3.325424
 20
3.068651
 10
3.312213
 20
3.079889
 10
3.299209
 20
3.09136
 10
3.28641
 20
3.103065
 10
3.273817
 20
3.115002
 10
3.26143
 20
3.127174
 10
3.249248
 20
3.13958
 10
3.237272
 20
3.15222
 10
3.2255
 20
3.165095
 10
3.213934
 20
3.178205
 10
3.202572
 20
3.19155
 10
3.191414
 20
3.205131
 10
3.180461
 20
3.218948
 10
3.169711
 20
3.233001
 10
3.159166
 20
3.24729
 10
3.148824
 20
3.261817
 10
3.138686
 20
3.276581
 10
3.11902
 20
3.30682
 10
3.100165
 20
3.338012
 10
3.08212
 20
3.370159
 10
3.064884
 20
3.403263
 10
3.048456
 20
3.437326
 10
3.032833
 20
3.472352
 10
3.018014
 20
3.508341
 10
3.003998
 20
3.545298
 10
2.990782
 20
3.583223
 10
2.978367
 20
3.622121
 10
2.966749
 20
3.661992
 10
2.955928
 20
3.70284
 10
2.945902
 20
3.744667
 10
2.93667
 20
3.787475
 10
2.928229
 20
3.831267
 10
2.920579
 20
3.876045
 10
2.913718
 20
3.921811
 10
2.900291
 20
4.017856
 10
2.900052
 20
4.417401
 10
2.909775
 20
4.50192
 10
2.91475
 20
4.542238
 10
2.921108
 20
4.589536
 10
2.928031
 20
4.63792
 10
2.934702
 20
4.681499
 10
2.949906
 20
4.776559
 10
2.958246
 20
4.790054
 10
4.492831
 20
4.790054
 10
4.497314
 20
4.768924
 10
4.516732
 20
4.647908
 10
4.523167
 20
4.602152
 10
4.529647
 20
4.551407
 10
4.535418
 20
4.501851
 10
4.539726
 20
4.459661
 10
4.547785
 20
4.3713
 10
4.547811
 20
4.220363
 10
4.547627
 20
4.181472
 10
4.547052
 20
4.144021
 10
4.54607
 20
4.107875
 10
4.544667
 20
4.0729
 10
4.542827
 20
4.038962
 10
4.540536
 20
4.005925
 10
4.537779
 20
3.973656
 10
4.534541
 20
3.942019
 10
4.530807
 20
3.910881
 10
4.526562
 20
3.880105
 10
4.521791
 20
3.849559
 10
4.516478
 20
3.819108
 10
4.51061
 20
3.788616
 10
4.504171
 20
3.75795
 10
4.497147
 20
3.726974
 10
4.489521
 20
3.695554
 10
4.482004
 20
3.666603
 10
4.474071
 20
3.638154
 10
4.465718
 20
3.610205
 10
4.456944
 20
3.582751
 10
4.447746
 20
3.555788
 10
4.438122
 20
3.529314
 10
4.428069
 20
3.503325
 10
4.417585
 20
3.477816
 10
4.406668
 20
3.452785
 10
4.395314
 20
3.428227
 10
4.383522
 20
3.404139
 10
4.37129
 20
3.380517
 10
4.358614
 20
3.357358
 10
4.345493
 20
3.334658
 10
4.331924
 20
3.312413
 10
4.317904
 20
3.29062
 10
4.303431
 20
3.269275
 10
4.288504
 20
3.248374
 10
4.273118
 20
3.227913
 10
4.257273
 20
3.20789
 10
4.240965
 20
3.1883
 10
4.224192
 20
3.169139
 10
4.206952
 20
3.150405
 10
4.189242
 20
3.132093
 10
4.17106
 20
3.1142
 10
4.152403
 20
3.096722
 10
4.13327
 20
3.079655
 10
4.113657
 20
3.062996
 10
4.093562
 20
3.046741
 10
4.072983
 20
3.030887
 10
4.051917
 20
3.015429
 10
4.030362
 20
3.000364
 10
3.99311
 20
2.974956
 10
3.802531
 20
2.883792
 10
3.802559
 20
2.5984
 10
3.802815
 20
2.58644
 10
3.818731
 20
2.584621
 10
3.830739
 20
2.582836
 10
3.841468
 20
2.580755
 10
3.841095
 20
2.596613
 10
3.840949
 20
2.858393
 10
3.869763
 20
2.868495
 10
3.880115
 20
2.87242
 10
3.891865
 20
2.877398
 10
3.904835
 20
2.883329
 10
3.918846
 20
2.890111
 10
3.949278
 20
2.905824
 10
3.981734
 20
2.923726
 10
4.014785
 20
2.943007
 10
4.047004
 20
2.962856
 10
4.076963
 20
2.982464
 10
4.090648
 20
2.991923
 10
4.103233
 20
3.001018
 10
4.120264
 20
3.013923
 10
4.136992
 20
3.027159
 10
4.153419
 20
3.040726
 10
4.169544
 20
3.054626
 10
4.185369
 20
3.068861
 10
4.200894
 20
3.083431
 10
4.216121
 20
3.098337
 10
4.23105
 20
3.11358
 10
4.245682
 20
3.129163
 10
4.260018
 20
3.145085
 10
4.274058
 20
3.161349
 10
4.287804
 20
3.177955
 10
4.301255
 20
3.194904
 10
4.314414
 20
3.212198
 10
4.32728
 20
3.229837
 10
4.339854
 20
3.247824
 10
4.352138
 20
3.266158
 10
4.364132
 20
3.284842
 10
4.375837
 20
3.303876
 10
4.387254
 20
3.323262
 10
4.398383
 20
3.343
 10
4.409225
 20
3.363093
 10
4.419781
 20
3.38354
 10
4.430053
 20
3.404343
 10
4.44004
 20
3.425504
 10
4.449743
 20
3.447024
 10
4.459163
 20
3.468903
 10
4.468302
 20
3.491143
 10
4.477159
 20
3.513745
 10
4.485736
 20
3.53671
 10
4.494034
 20
3.560039
 10
4.502053
 20
3.583735
 10
4.508377
 20
3.603482
 10
4.514486
 20
3.623731
 10
4.520377
 20
3.644462
 10
4.526048
 20
3.665653
 10
4.531497
 20
3.687285
 10
4.536721
 20
3.709337
 10
4.541719
 20
3.73179
 10
4.546488
 20
3.754623
 10
4.555332
 20
3.801349
 10
4.563233
 20
3.849353
 10
4.570176
 20
3.898475
 10
4.576143
 20
3.948552
 10
4.581116
 20
3.999423
 10
4.585077
 20
4.050927
 10
4.58801
 20
4.102902
 10
4.589896
 20
4.155186
 10
4.590718
 20
4.207619
 10
4.590459
 20
4.260039
 10
4.589102
 20
4.312284
 10
4.586628
 20
4.364192
 10
4.578239
 20
4.506914
 10
4.566448
 20
4.59662
 10
4.560835
 20
4.636908
 10
4.554271
 20
4.680288
 10
4.547571
 20
4.721549
 10
4.541553
 20
4.755478
 10
4.52845
 20
4.82463
 10
2.920471
 20
4.828542
 10
2.912151
 20
4.79201
 10
2.905061
 20
4.759254
 10
2.898466
 20
4.725429
 10
2.892369
 20
4.690573
 10
2.886772
 20
4.65472
 10
2.881679
 20
4.617908
 10
2.877093
 20
4.580173
 10
2.873016
 20
4.541551
 10
2.869453
 20
4.502077
 10
2.866405
 20
4.461789
 10
2.863876
 20
4.420722
 10
2.861868
 20
4.378914
 10
2.860386
 20
4.336398
 10
2.859431
 20
4.293214
 10
2.859006
 20
4.249395
 10
2.859116
 20
4.204979
 10
2.859762
 20
4.160002
 10
2.863728
 20
3.964071
 10
2.876459
 20
3.883393
 10
2.882326
 20
3.847583
 10
2.888437
 20
3.812991
 10
2.894816
 20
3.779543
 10
2.901483
 20
3.747165
 10
2.908459
 20
3.715781
 10
2.915768
 20
3.685316
 10
2.923429
 20
3.655697
 10
2.931465
 20
3.626847
 10
2.939898
 20
3.598693
 10
2.948748
 20
3.57116
 10
2.958038
 20
3.544172
 10
2.967789
 20
3.517655
 10
2.978023
 20
3.491535
 10
2.988762
 20
3.465735
 10
3.000026
 20
3.440183
 10
3.011838
 20
3.414802
 10
3.050421
 20
3.334019
 10
3.074633
 20
3.295601
 10
3.085942
 20
3.27803
 10
3.097586
 20
3.260672
 10
3.109556
 20
3.243534
 10
3.121843
 20
3.226624
 10
3.134437
 20
3.209949
 10
3.147331
 20
3.193517
 10
3.160516
 20
3.177336
 10
3.173982
 20
3.161413
 10
3.18772
 20
3.145756
 10
3.201722
 20
3.130373
 10
3.21598
 20
3.115272
 10
3.230483
 20
3.100459
 10
3.245224
 20
3.085943
 10
3.260192
 20
3.071732
 10
3.275381
 20
3.057832
 10
3.29078
 20
3.044253
 10
3.306381
 20
3.031001
 10
3.322174
 20
3.018083
 10
3.338152
 20
3.005509
 10
3.354305
 20
2.993285
 10
3.370624
 20
2.981419
 10
3.387101
 20
2.969919
 10
3.403726
 20
2.958793
 10
3.420491
 20
2.948047
 10
3.437387
 20
2.93769
 10
3.454405
 20
2.92773
 10
3.471536
 20
2.918174
 10
3.488771
 20
2.909029
 10
3.506102
 20
2.900304
 10
3.523519
 20
2.892006
 10
3.541014
 20
2.884143
 10
3.558578
 20
2.876723
 10
3.602759
 20
2.858652
 10
3.602712
 20
2.571493
  0
ENDSEC
  0
SECTION
  2
OBJECTS
  0
DICTIONARY
  5
C
330
0
100
AcDbDictionary
281
     1
  3
ACAD_GROUP
350
D
  3
ACAD_LAYOUT
350
1A
  3
ACAD_MLINESTYLE
350
17
  3
ACAD_PLOTSETTINGS
350
19
  3
ACAD_PLOTSTYLENAME
350
E
  0
DICTIONARY
  5
D
102
{ACAD_REACTORS
330
C
102
}
330
C
100
AcDbDictionary
281
     1
  0
DICTIONARY
  5
1A
102
{ACAD_REACTORS
330
C
102
}
330
C
100
AcDbDictionary
281
     1
  3
Layout1
350
1E
  3
Layout2
350
26
  3
Model
350
22
  0
DICTIONARY
  5
17
102
{ACAD_REACTORS
330
C
102
}
330
C
100
AcDbDictionary
281
     1
  3
Standard
350
18
  0
DICTIONARY
  5
19
102
{ACAD_REACTORS
330
C
102
}
330
C
100
AcDbDictionary
281
     1
  0
ACDBDICTIONARYWDFLT
  5
E
102
{ACAD_REACTORS
330
C
102
}
330
C
100
AcDbDictionary
281
     1
  3
Normal
350
F
100
AcDbDictionaryWithDefault
340
F
  0
LAYOUT
  5
1E
102
{ACAD_REACTORS
330
1A
102
}
330
1A
100
AcDbPlotSettings
  1

  2

  4

  6

 40
0.0
 41
0.0
 42
0.0
 43
0.0
 44
0.0
 45
0.0
 46
0.0
 47
0.0
 48
0.0
 49
0.0
140
0.0
141
0.0
142
1.0
143
1.0
 70
   688
 72
     0
 73
     0
 74
     5
  7

 75
    16
147
1.0
148
0.0
149
0.0
100
AcDbLayout
  1
Layout1
 70
     1
 71
     1
 10
0.0
 20
0.0
 11
420.0
 21
297.0
 12
0.0
 22
0.0
 32
0.0
 14
1.000000E+20
 24
1.000000E+20
 34
1.000000E+20
 15
-1.000000E+20
 25
-1.000000E+20
 35
-1.000000E+20
146
0.0
 13
0.0
 23
0.0
 33
0.0
 16
1.0
 26
0.0
 36
0.0
 17
0.0
 27
1.0
 37
0.0
 76
     0
330
1B
  0
LAYOUT
  5
26
102
{ACAD_REACTORS
330
1A
102
}
330
1A
100
AcDbPlotSettings
  1

  2

  4

  6

 40
0.0
 41
0.0
 42
0.0
 43
0.0
 44
0.0
 45
0.0
 46
0.0
 47
0.0
 48
0.0
 49
0.0
140
0.0
141
0.0
142
1.0
143
1.0
 70
   688
 72
     0
 73
     0
 74
     5
  7

 75
    16
147
1.0
148
0.0
149
0.0
100
AcDbLayout
  1
Layout2
 70
     1
 71
     2
 10
0.0
 20
0.0
 11
0.0
 21
0.0
 12
0.0
 22
0.0
 32
0.0
 14
0.0
 24
0.0
 34
0.0
 15
0.0
 25
0.0
 35
0.0
146
0.0
 13
0.0
 23
0.0
 33
0.0
 16
1.0
 26
0.0
 36
0.0
 17
0.0
 27
1.0
 37
0.0
 76
     0
330
23
  0
LAYOUT
  5
22
102
{ACAD_REACTORS
330
1A
102
}
330
1A
100
AcDbPlotSettings
  1

  2

  4

  6

 40
0.0
 41
0.0
 42
0.0
 43
0.0
 44
0.0
 45
0.0
 46
0.0
 47
0.0
 48
0.0
 49
0.0
140
0.0
141
0.0
142
1.0
143
1.0
 70
  1712
 72
     0
 73
     0
 74
     0
  7

 75
     0
147
1.0
148
0.0
149
0.0
100
AcDbLayout
  1
Model
 70
     1
 71
     0
 10
0.0
 20
0.0
 11
0.0
 21
0.0
 12
0.0
 22
0.0
 32
0.0
 14
0.0
 24
0.0
 34
0.0
 15
0.0
 25
0.0
 35
0.0
146
0.0
 13
0.0
 23
0.0
 33
0.0
 16
1.0
 26
0.0
 36
0.0
 17
0.0
 27
1.0
 37
0.0
 76
     0
330
1F
  0
MLINESTYLE
  5
18
102
{ACAD_REACTORS
330
17
102
}
330
17
100
AcDbMlineStyle
  2
Standard
 70
     0
  3

 62
   256
 51
90.0
 52
90.0
 71
     2
 49
1.0
 62
   256
  6
BYLAYER
 49
-1.0
 62
   256
  6
BYLAYER
  0
ACDBPLACEHOLDER
  5
F
102
{ACAD_REACTORS
330
E
102
}
330
E
  0
ENDSEC
  0
EOF
