  0
SECTION
  2
HEADER
  9
$ACADVER
  1
AC1009
  9
$DWGCODEPAGE
  3
ansi_1252
  9
$INSBASE
 10
0.0
 20
0.0
 30
0.0
  9
$EXTMIN
 10
-0.0338004810242335
 20
0.0089425546810513
 30
0.0
  9
$EXTMAX
 10
6.129282036173213
 20
4.009784767251745
 30
0.0
  9
$LIMMIN
 10
0.0
 20
0.0
  9
$LIMMAX
 10
420.0
 20
297.0
  9
$ORTHOMODE
 70
     0
  9
$REGENMODE
 70
     1
  9
$FILLMODE
 70
     1
  9
$QTEXTMODE
 70
     0
  9
$MIRRTEXT
 70
     0
  9
$DRAGMODE
 70
     2
  9
$LTSCALE
 40
1.0
  9
$OSMODE
 70
    37
  9
$ATTMODE
 70
     1
  9
$TEXTSIZE
 40
2.5
  9
$TRACEWID
 40
1.0
  9
$TEXTSTYLE
  7
STANDARD
  9
$CLAYER
  8
0
  9
$CELTYPE
  6
BYLAYER
  9
$CECOLOR
 62
   256
  9
$DIMSCALE
 40
1.0
  9
$DIMASZ
 40
2.5
  9
$DIMEXO
 40
0.625
  9
$DIMDLI
 40
3.75
  9
$DIMRND
 40
0.0
  9
$DIMDLE
 40
0.0
  9
$DIMEXE
 40
1.25
  9
$DIMTP
 40
0.0
  9
$DIMTM
 40
0.0
  9
$DIMTXT
 40
2.5
  9
$DIMCEN
 40
2.5
  9
$DIMTSZ
 40
0.0
  9
$DIMTOL
 70
     0
  9
$DIMLIM
 70
     0
  9
$DIMTIH
 70
     0
  9
$DIMTOH
 70
     0
  9
$DIMSE1
 70
     0
  9
$DIMSE2
 70
     0
  9
$DIMTAD
 70
     1
  9
$DIMZIN
 70
     8
  9
$DIMBLK
  1

  9
$DIMASO
 70
     1
  9
$DIMSHO
 70
     1
  9
$DIMPOST
  1

  9
$DIMAPOST
  1

  9
$DIMALT
 70
     0
  9
$DIMALTD
 70
     3
  9
$DIMALTF
 40
0.03937007874016
  9
$DIMLFAC
 40
1.0
  9
$DIMTOFL
 70
     1
  9
$DIMTVP
 40
0.0
  9
$DIMTIX
 70
     0
  9
$DIMSOXD
 70
     0
  9
$DIMSAH
 70
     0
  9
$DIMBLK1
  1

  9
$DIMBLK2
  1

  9
$DIMSTYLE
  2
STANDARD
  9
$DIMCLRD
 70
     0
  9
$DIMCLRE
 70
     0
  9
$DIMCLRT
 70
     0
  9
$DIMTFAC
 40
1.0
  9
$DIMGAP
 40
0.09
  9
$LUNITS
 70
     2
  9
$LUPREC
 70
     4
  9
$SKETCHINC
 40
1.0
  9
$FILLETRAD
 40
0.0
  9
$AUNITS
 70
     0
  9
$AUPREC
 70
     0
  9
$MENU
  1
.
  9
$ELEVATION
 40
0.0
  9
$PELEVATION
 40
0.0
  9
$THICKNESS
 40
0.0
  9
$LIMCHECK
 70
     0
  9
$CHAMFERA
 40
0.0
  9
$CHAMFERB
 40
0.0
  9
$SKPOLY
 70
     0
  9
$TDCREATE
 40
2453353.550459155
  9
$TDUPDATE
 40
4881699.891561481
  9
$TDINDWG
 40
4881544.065984908
  9
$TDUSRTIMER
 40
4881544.065984908
  9
$USRTIMER
 70
     1
  9
$ANGBASE
 50
0.0
  9
$ANGDIR
 70
     0
  9
$PDMODE
 70
     0
  9
$PDSIZE
 40
0.0
  9
$PLINEWID
 40
0.0
  9
$COORDS
 70
     1
  9
$SPLFRAME
 70
     0
  9
$SPLINETYPE
 70
     6
  9
$SPLINESEGS
 70
     8
  9
$ATTDIA
 70
     0
  9
$ATTREQ
 70
     1
  9
$HANDLING
 70
     1
  9
$HANDSEED
  5
207
  9
$SURFTAB1
 70
     6
  9
$SURFTAB2
 70
     6
  9
$SURFTYPE
 70
     6
  9
$SURFU
 70
     6
  9
$SURFV
 70
     6
  9
$UCSNAME
  2

  9
$UCSORG
 10
0.0
 20
0.0
 30
0.0
  9
$UCSXDIR
 10
1.0
 20
0.0
 30
0.0
  9
$UCSYDIR
 10
0.0
 20
1.0
 30
0.0
  9
$PUCSNAME
  2

  9
$PUCSORG
 10
0.0
 20
0.0
 30
0.0
  9
$PUCSXDIR
 10
1.0
 20
0.0
 30
0.0
  9
$PUCSYDIR
 10
0.0
 20
1.0
 30
0.0
  9
$USERI1
 70
     0
  9
$USERI2
 70
     0
  9
$USERI3
 70
     0
  9
$USERI4
 70
     0
  9
$USERI5
 70
     0
  9
$USERR1
 40
0.0
  9
$USERR2
 40
0.0
  9
$USERR3
 40
0.0
  9
$USERR4
 40
0.0
  9
$USERR5
 40
0.0
  9
$WORLDVIEW
 70
     1
  9
$SHADEDGE
 70
     3
  9
$SHADEDIF
 70
    70
  9
$TILEMODE
 70
     1
  9
$MAXACTVP
 70
    64
  9
$PLIMCHECK
 70
     0
  9
$PEXTMIN
 10
0.0
 20
0.0
 30
0.0
  9
$PEXTMAX
 10
0.0
 20
0.0
 30
0.0
  9
$PLIMMIN
 10
0.0
 20
0.0
  9
$PLIMMAX
 10
0.0
 20
0.0
  9
$UNITMODE
 70
     0
  9
$VISRETAIN
 70
     1
  9
$PLINEGEN
 70
     0
  9
$PSLTSCALE
 70
     1
  0
ENDSEC
  0
SECTION
  2
TABLES
  0
TABLE
  2
VPORT
 70
     1
  0
VPORT
  2
*ACTIVE
 70
     0
 10
0.0
 20
0.0
 11
1.0
 21
1.0
 12
2.890075239896879
 22
2.177498143216581
 13
0.0
 23
0.0
 14
10.0
 24
10.0
 15
10.0
 25
10.0
 16
0.0
 26
0.0
 36
1.0
 17
0.0
 27
0.0
 37
0.0
 40
6.343083080147165
 41
1.664827586206897
 42
50.0
 43
0.0
 44
0.0
 50
0.0
 51
0.0
 71
    16
 72
  1000
 73
     1
 74
     3
 75
     0
 76
     0
 77
     0
 78
     0
  0
ENDTAB
  0
TABLE
  2
LTYPE
 70
     1
  0
LTYPE
  2
CONTINUOUS
 70
     0
  3
Solid line
 72
    65
 73
     0
 40
0.0
  0
ENDTAB
  0
TABLE
  2
LAYER
 70
     2
  0
LAYER
  2
0
 70
     0
 62
     7
  6
CONTINUOUS
  0
LAYER
  2
1
 70
     0
 62
     7
  6
CONTINUOUS
  0
ENDTAB
  0
TABLE
  2
STYLE
 70
     1
  0
STYLE
  2
STANDARD
 70
     0
 40
0.0
 41
1.0
 50
0.0
 71
     0
 42
2.5
  3
txt
  4

  0
ENDTAB
  0
TABLE
  2
VIEW
 70
     0
  0
ENDTAB
  0
TABLE
  2
UCS
 70
     0
  0
ENDTAB
  0
TABLE
  2
APPID
 70
     1
  0
APPID
  2
ACAD
 70
     0
  0
ENDTAB
  0
TABLE
  2
DIMSTYLE
 70
     1
  0
DIMSTYLE
  2
STANDARD
 70
     0
  3

  4

  5

  6

  7

 40
1.0
 41
0.18
 42
0.0625
 43
0.38
 44
0.18
 45
0.0
 46
0.0
 47
0.0
 48
0.0
140
0.18
141
0.09
142
0.0
143
25.4
144
1.0
145
0.0
146
1.0
147
0.09
 71
     0
 72
     0
 73
     1
 74
     1
 75
     0
 76
     0
 77
     0
 78
     0
170
     0
171
     2
172
     0
173
     0
174
     0
175
     0
176
     0
177
     0
178
     0
  0
ENDTAB
  0
ENDSEC
  0
SECTION
  2
BLOCKS
  0
BLOCK
  8
0
  2
$MODEL_SPACE
 70
     0
 10
0.0
 20
0.0
 30
0.0
  3
$MODEL_SPACE
  1

  0
ENDBLK
  5
21
  8
0
  0
BLOCK
 67
     1
  8
0
  2
$PAPER_SPACE
 70
     0
 10
0.0
 20
0.0
 30
0.0
  3
$PAPER_SPACE
  1

  0
ENDBLK
  5
76
 67
     1
  8
0
  0
ENDSEC
  0
SECTION
  2
ENTITIES
  0
ARC
  5
31
  8
1
 62
     6
 10
3.305707500633409
 20
2.931511114463262
 30
0.0
 40
1.078838197574039
 50
1.811344749431838
 51
103.1611341340077
  0
ARC
  5
32
  8
1
 62
     6
 10
5.191476138139217
 20
2.488242124461385
 30
0.0
 40
0.9380238650402454
 50
330.2646018779905
 51
149.4087545405028
  0
ARC
  5
35
  8
1
 62
     6
 10
5.935390734926243
 20
-2.680085759729159
 30
0.0
 40
3.939200094287675
 50
106.6186211025663
 51
136.9502541436985
  0
ARC
  5
40
  8
1
 62
     6
 10
0.6592668379053213
 20
0.5354801078080178
 30
0.0
 40
2.454646793727501
 50
347.6134269659673
 51
11.96023057063798
  0
ARC
  5
46
  8
1
 62
     6
 10
4.301905329259284
 20
2.98431199725471
 30
0.0
 40
1.956536976291604
 50
285.0147319406304
 51
330.5712940979169
  0
ARC
  5
146
  8
1
 62
     6
 10
1.698836451156057
 20
1.287180049733681
 30
0.0
 40
1.7563744981898
 50
334.599544081809
 51
18.44870498591108
  0
ARC
  5
147
  8
1
 62
     6
 10
4.765369133852548
 20
2.243390054794073
 30
0.0
 40
0.651391335848958
 50
5.975094536528119
 51
148.9935140627838
  0
ARC
  5
148
  8
1
 62
     6
 10
4.778205971085122
 20
2.319448749425873
 30
0.0
 40
0.6350692512215161
 50
290.2319951252053
 51
359.2555432770124
  0
ARC
  5
149
  8
1
 62
     6
 10
5.905620041362852
 20
-1.410192546470528
 30
0.0
 40
3.262593057530543
 50
106.1553572098986
 51
143.4273363132797
  0
ARC
  5
160
  8
1
 62
     6
 10
2.828696033511953
 20
2.928103212155312
 30
0.0
 40
1.078768111011749
 50
325.7085435890928
 51
24.20009962465924
  0
ARC
  5
161
  8
1
 62
     6
 10
0.9395354898037258
 20
2.500578891660094
 30
0.0
 40
0.9380238650402456
 50
30.10981851846663
 51
209.2539711809788
  0
ARC
  5
162
  8
1
 62
     6
 10
0.1133797253556461
 20
-2.745840904693232
 30
0.0
 40
4.031428058769926
 50
43.10417327003319
 51
72.72556346539129
  0
ARC
  5
163
  8
1
 62
     6
 10
5.647460898324764
 20
0.5160724904863383
 30
0.0
 40
2.640188488586442
 50
136.8917330242194
 51
149.8287585020651
  0
ARC
  5
164
  8
1
 62
     6
 10
1.833243066968413
 20
2.989156735225384
 30
0.0
 40
1.956536976291604
 50
208.9472789610524
 51
254.503841118339
  0
ARC
  5
165
  8
1
 62
     6
 10
2.568575073325651
 20
2.771412317660356
 30
0.0
 40
0.6257731819583287
 50
322.2790453372011
 51
37.16294350127861
  0
ARC
  5
166
  8
1
 62
     6
 10
4.432739368894483
 20
1.271396143050077
 30
0.0
 40
1.767113369265629
 50
140.7878459490937
 51
161.293626059248
  0
ARC
  5
168
  8
1
 62
     6
 10
1.351372800991866
 20
2.328319019530445
 30
0.0
 40
0.6350692512215161
 50
180.2630297819569
 51
249.2865779337639
  0
ARC
  5
169
  8
1
 62
     6
 10
0.1926606420449053
 20
-1.391717648921153
 30
0.0
 40
3.262593057530543
 50
36.09123674568959
 51
73.36321584907068
  0
ARC
  5
16A
  8
1
 62
     6
 10
0.693272601043934
 20
0.7453574935354964
 30
0.0
 40
2.33694283698629
 50
27.87944868106285
 51
42.73924658771783
  0
ARC
  5
16B
  8
1
 62
     6
 10
3.550907148323738
 20
2.785280576933001
 30
0.0
 40
0.6284088438852985
 50
213.7410057343636
 51
219.1475142053082
  0
ARC
  5
16C
  8
1
 62
     6
 10
2.829279843945276
 20
2.927815985586639
 30
0.0
 40
1.079162575687148
 50
77.6515168872987
 51
177.6988161760296
  0
ARC
  5
16E
  8
1
 62
     6
 10
2.542455509409246
 20
2.762825929536056
 30
0.0
 40
0.6399720171993996
 50
110.657441464556
 51
198.4836468069149
  0
ARC
  5
170
  8
1
 62
     6
 10
3.586708076514155
 20
2.763746149242096
 30
0.0
 40
0.6472888571265956
 50
343.4112079135207
 51
69.56916420044446
  0
ARC
  5
175
  8
1
 62
     6
 10
1.362337517828147
 20
2.253268922153878
 30
0.0
 40
0.6500420389560112
 50
28.14863291889672
 51
173.6288088565017
  0
ARC
  5
17B
  8
1
 62
     6
 10
3.587128542222244
 20
2.763255666919541
 30
0.0
 40
0.647601957295655
 50
69.61917239045512
 51
143.3934191083347
  0
ARC
  5
17F
  8
1
 62
     6
 10
3.587261312321497
 20
2.763397954573691
 30
0.0
 40
0.6476237186757776
 50
143.4105288586369
 51
210.3426918047231
  0
ARC
  5
184
  8
1
 62
     6
 10
3.305741433779142
 20
2.931542562690307
 30
0.0
 40
1.07852868905155
 50
156.4972817744102
 51
213.8132888273343
  0
ARC
  5
18D
  8
1
 62
     6
 10
5.648167071806823
 20
0.5158083249508164
 30
0.0
 40
2.64093176370294
 50
149.8315037085181
 51
168.459309555789
  0
ARC
  5
190
  8
1
 62
     6
 10
4.432154849896499
 20
1.271987659414792
 30
0.0
 40
1.766370056896178
 50
161.305718687259
 51
204.8319123354118
  0
ARC
  5
193
  8
1
 62
     6
 10
5.641496361284919
 20
0.5169434387255809
 30
0.0
 40
2.634168830006248
 50
168.4544720763656
 51
191.1191854602396
  0
ARC
  5
1C9
  8
1
 62
     6
 10
3.306444944474603
 20
2.931197901494461
 30
0.0
 40
1.079311286223189
 50
103.1954676209029
 51
156.4953965140464
  0
ENDSEC
  0
EOF
