  0
SECTION
  2
HEADER
  9
$ACADVER
  1
AC1009
  9
$EXTMIN
 10
3.10911430
 20
2.58852074
 30
0.0
  9
$EXTMAX
 10
6.89088570
 20
7.41147926
 30
0.0
  0
ENDSEC
  0
SECTION
  2
TABLES
  0
TABLE
  2
LAYER
 70
1
 0
LAYER
 2
Default_Layer
 70
0
 62
1
 6
CONTINUOUS
 0
ENDTAB
 0
ENDSEC
  0
SECTION
  2
ENTITIES
  0
POLYLINE
  8
Default_Layer
 66
   1
 39
0.000000
 70
    1
  0
VERTEX
  8
0
 10
3.62699681
 20
7.25112482
  0
VERTEX
  8
0
 10
3.55563421
 20
7.24590823
  0
VERTEX
  8
0
 10
3.50199681
 20
7.22334704
  0
VERTEX
  8
0
 10
3.43435720
 20
7.28248690
  0
VERTEX
  8
0
 10
3.37148925
 20
7.35238775
  0
VERTEX
  8
0
 10
3.29748619
 20
7.40290713
  0
VERTEX
  8
0
 10
3.25133813
 20
7.41147926
  0
VERTEX
  8
0
 10
3.19644126
 20
7.40390260
  0
VERTEX
  8
0
 10
3.14077146
 20
7.28187416
  0
VERTEX
  8
0
 10
3.12041199
 20
7.13804278
  0
VERTEX
  8
0
 10
3.13806716
 20
6.99519686
  0
VERTEX
  8
0
 10
3.19644126
 20
6.87612482
  0
VERTEX
  8
0
 10
3.15076219
 20
6.83313432
  0
VERTEX
  8
0
 10
3.12493077
 20
6.77927202
  0
VERTEX
  8
0
 10
3.11624168
 20
6.64952733
  0
VERTEX
  8
0
 10
3.15477459
 20
6.37612482
  0
VERTEX
  8
0
 10
3.14875844
 20
6.21499194
  0
VERTEX
  8
0
 10
3.12904845
 20
6.05691587
  0
VERTEX
  8
0
 10
3.11178487
 20
5.90219428
  0
VERTEX
  8
0
 10
3.11310792
 20
5.75112482
  0
VERTEX
  8
0
 10
3.16017126
 20
5.54068135
  0
VERTEX
  8
0
 10
3.24343855
 20
5.34154261
  0
VERTEX
  8
0
 10
3.44644126
 20
4.97334704
  0
VERTEX
  8
0
 10
3.53762456
 20
4.77301492
  0
VERTEX
  8
0
 10
3.61227224
 20
4.57267021
  0
VERTEX
  8
0
 10
3.69428220
 20
4.38169170
  0
VERTEX
  8
0
 10
3.80755237
 20
4.20945816
  0
VERTEX
  8
0
 10
3.72751553
 20
4.10154323
  0
VERTEX
  8
0
 10
3.67040622
 20
3.96982692
  0
VERTEX
  8
0
 10
3.63644253
 20
3.82252911
  0
VERTEX
  8
0
 10
3.62584255
 20
3.66786969
  0
VERTEX
  8
0
 10
3.63882434
 20
3.51406855
  0
VERTEX
  8
0
 10
3.67560600
 20
3.36934558
  0
VERTEX
  8
0
 10
3.73640561
 20
3.24192067
  0
VERTEX
  8
0
 10
3.82144126
 20
3.14001371
  0
VERTEX
  8
0
 10
3.89082215
 20
3.11785467
  0
VERTEX
  8
0
 10
3.94535179
 20
3.08579020
  0
VERTEX
  8
0
 10
4.02967553
 20
3.00656101
  0
VERTEX
  8
0
 10
4.11404880
 20
2.93155817
  0
VERTEX
  8
0
 10
4.16864036
 20
2.90477664
  0
VERTEX
  8
0
 10
4.23810792
 20
2.89001371
  0
VERTEX
  8
0
 10
4.35405644
 20
2.89391813
  0
VERTEX
  8
0
 10
4.46033014
 20
2.91779149
  0
VERTEX
  8
0
 10
4.57175469
 20
2.96428785
  0
VERTEX
  8
0
 10
4.67618268
 20
3.02664480
  0
VERTEX
  8
0
 10
4.86198994
 20
3.18826900
  0
VERTEX
  8
0
 10
5.01363398
 20
3.38132110
  0
VERTEX
  8
0
 10
5.12699681
 20
3.58445816
  0
VERTEX
  8
0
 10
5.13891737
 20
3.65479834
  0
VERTEX
  8
0
 10
5.15677057
 20
3.68403172
  0
VERTEX
  8
0
 10
5.19644126
 20
3.68168038
  0
VERTEX
  8
0
 10
5.21956403
 20
3.64609135
  0
VERTEX
  8
0
 10
5.21688803
 20
3.60102125
  0
VERTEX
  8
0
 10
5.19644126
 20
3.50112482
  0
VERTEX
  8
0
 10
5.22466338
 20
3.34108914
  0
VERTEX
  8
0
 10
5.26588570
 20
3.19556927
  0
VERTEX
  8
0
 10
5.22018414
 20
3.13301897
  0
VERTEX
  8
0
 10
5.18849604
 20
3.05497746
  0
VERTEX
  8
0
 10
5.16822467
 20
2.87747959
  0
VERTEX
  8
0
 10
5.18017361
 20
2.79055262
  0
VERTEX
  8
0
 10
5.20720047
 20
2.71319322
  0
VERTEX
  8
0
 10
5.24957135
 20
2.65166609
  0
VERTEX
  8
0
 10
5.30755237
 20
2.61223593
  0
VERTEX
  8
0
 10
5.39590077
 20
2.59002919
  0
VERTEX
  8
0
 10
5.47993658
 20
2.59257744
  0
VERTEX
  8
0
 10
5.55936356
 20
2.61489185
  0
VERTEX
  8
0
 10
5.63388543
 20
2.65198358
  0
VERTEX
  8
0
 10
5.76702886
 20
2.75054367
  0
VERTEX
  8
0
 10
5.87699681
 20
2.84834704
  0
VERTEX
  8
0
 10
6.04384845
 20
3.01325077
  0
VERTEX
  8
0
 10
6.18255237
 20
3.19556927
  0
VERTEX
  8
0
 10
6.30607649
 20
3.40741108
  0
VERTEX
  8
0
 10
6.41710887
 20
3.62572143
  0
VERTEX
  8
0
 10
6.53239077
 20
3.83034459
  0
VERTEX
  8
0
 10
6.66866348
 20
4.00112482
  0
VERTEX
  8
0
 10
6.78689064
 20
4.08982594
  0
VERTEX
  8
0
 10
6.84285051
 20
4.13110483
  0
VERTEX
  8
0
 10
6.89088570
 20
4.18168038
  0
VERTEX
  8
0
 10
6.87461360
 20
4.32165828
  0
VERTEX
  8
0
 10
6.83140053
 20
4.43469521
  0
VERTEX
  8
0
 10
6.76237449
 20
4.52191917
  0
VERTEX
  8
0
 10
6.66866348
 20
4.58445816
  0
VERTEX
  8
0
 10
6.60207758
 20
4.57431299
  0
VERTEX
  8
0
 10
6.53679756
 20
4.58002818
  0
VERTEX
  8
0
 10
6.40888612
 20
4.62105268
  0
VERTEX
  8
0
 10
6.28239114
 20
4.67155769
  0
VERTEX
  8
0
 10
6.15477459
 20
4.69556927
  0
VERTEX
  8
0
 10
6.07804711
 20
4.68469873
  0
VERTEX
  8
0
 10
6.00921095
 20
4.65942993
  0
VERTEX
  8
0
 10
5.86310792
 20
4.59834704
  0
VERTEX
  8
0
 10
5.74918235
 20
4.69314268
  0
VERTEX
  8
0
 10
5.65496477
 20
4.81228080
  0
VERTEX
  8
0
 10
5.58495765
 20
4.94945205
  0
VERTEX
  8
0
 10
5.54366348
 20
5.09834704
  0
VERTEX
  8
0
 10
5.52906251
 20
5.30239278
  0
VERTEX
  8
0
 10
5.51588570
 20
5.47334704
  0
VERTEX
  8
0
 10
5.45672419
 20
5.64380766
  0
VERTEX
  8
0
 10
5.36944502
 20
5.78973838
  0
VERTEX
  8
0
 10
5.15692484
 20
6.04894955
  0
VERTEX
  8
0
 10
5.05487936
 20
6.18269974
  0
VERTEX
  8
0
 10
4.97110731
 20
6.33285947
  0
VERTEX
  8
0
 10
4.91720646
 20
6.50966362
  0
VERTEX
  8
0
 10
4.90477459
 20
6.72334704
  0
VERTEX
  8
0
 10
4.78563951
 20
6.73131064
  0
VERTEX
  8
0
 10
4.69438039
 20
6.68663497
  0
VERTEX
  8
0
 10
4.63887393
 20
6.59781533
  0
VERTEX
  8
0
 10
4.62699681
 20
6.47334704
  0
VERTEX
  8
0
 10
4.53051362
 20
6.59908551
  0
VERTEX
  8
0
 10
4.42373561
 20
6.71452963
  0
VERTEX
  8
0
 10
4.18358942
 20
6.91882855
  0
VERTEX
  8
0
 10
3.91514693
 20
7.09483115
  0
VERTEX
  8
0
 10
3.62699681
 20
7.25112482
  0
SEQEND
  0
POLYLINE
  8
Default_Layer
 66
   1
 39
0.000000
 70
    1
  0
VERTEX
  8
0
 10
4.62699681
 20
6.47334704
  0
VERTEX
  8
0
 10
4.63887393
 20
6.59781533
  0
VERTEX
  8
0
 10
4.69438039
 20
6.68663497
  0
VERTEX
  8
0
 10
4.78563951
 20
6.73131064
  0
VERTEX
  8
0
 10
4.90477459
 20
6.72334704
  0
VERTEX
  8
0
 10
4.91720646
 20
6.50966362
  0
VERTEX
  8
0
 10
4.97110731
 20
6.33285947
  0
VERTEX
  8
0
 10
5.05487936
 20
6.18269974
  0
VERTEX
  8
0
 10
5.15692484
 20
6.04894955
  0
VERTEX
  8
0
 10
5.36944502
 20
5.78973838
  0
VERTEX
  8
0
 10
5.45672419
 20
5.64380766
  0
VERTEX
  8
0
 10
5.51588570
 20
5.47334704
  0
VERTEX
  8
0
 10
5.52906251
 20
5.30239278
  0
VERTEX
  8
0
 10
5.54366348
 20
5.09834704
  0
VERTEX
  8
0
 10
5.58495765
 20
4.94945205
  0
VERTEX
  8
0
 10
5.65496477
 20
4.81228080
  0
VERTEX
  8
0
 10
5.74918235
 20
4.69314268
  0
VERTEX
  8
0
 10
5.86310792
 20
4.59834704
  0
VERTEX
  8
0
 10
6.00921095
 20
4.65942993
  0
VERTEX
  8
0
 10
6.07804711
 20
4.68469873
  0
VERTEX
  8
0
 10
6.15477459
 20
4.69556927
  0
VERTEX
  8
0
 10
6.28239114
 20
4.67155769
  0
VERTEX
  8
0
 10
6.40888612
 20
4.62105268
  0
VERTEX
  8
0
 10
6.53679756
 20
4.58002818
  0
VERTEX
  8
0
 10
6.60207758
 20
4.57431299
  0
VERTEX
  8
0
 10
6.66866348
 20
4.58445816
  0
VERTEX
  8
0
 10
6.76237449
 20
4.52191917
  0
VERTEX
  8
0
 10
6.83140053
 20
4.43469521
  0
VERTEX
  8
0
 10
6.87461360
 20
4.32165828
  0
VERTEX
  8
0
 10
6.89088570
 20
4.18168038
  0
VERTEX
  8
0
 10
6.84285051
 20
4.13110483
  0
VERTEX
  8
0
 10
6.78689064
 20
4.08982594
  0
VERTEX
  8
0
 10
6.66866348
 20
4.00112482
  0
VERTEX
  8
0
 10
6.53239077
 20
3.83034459
  0
VERTEX
  8
0
 10
6.41710887
 20
3.62572143
  0
VERTEX
  8
0
 10
6.30607649
 20
3.40741108
  0
VERTEX
  8
0
 10
6.18255237
 20
3.19556927
  0
VERTEX
  8
0
 10
6.04384845
 20
3.01325077
  0
VERTEX
  8
0
 10
5.87699681
 20
2.84834704
  0
VERTEX
  8
0
 10
5.76702886
 20
2.75054367
  0
VERTEX
  8
0
 10
5.63388543
 20
2.65198358
  0
VERTEX
  8
0
 10
5.55936356
 20
2.61489185
  0
VERTEX
  8
0
 10
5.47993658
 20
2.59257744
  0
VERTEX
  8
0
 10
5.39590077
 20
2.59002919
  0
VERTEX
  8
0
 10
5.30755237
 20
2.61223593
  0
VERTEX
  8
0
 10
5.24957135
 20
2.65166609
  0
VERTEX
  8
0
 10
5.20720047
 20
2.71319322
  0
VERTEX
  8
0
 10
5.18017361
 20
2.79055262
  0
VERTEX
  8
0
 10
5.16822467
 20
2.87747959
  0
VERTEX
  8
0
 10
5.18849604
 20
3.05497746
  0
VERTEX
  8
0
 10
5.22018414
 20
3.13301897
  0
VERTEX
  8
0
 10
5.26588570
 20
3.19556927
  0
VERTEX
  8
0
 10
5.22466338
 20
3.34108914
  0
VERTEX
  8
0
 10
5.19644126
 20
3.50112482
  0
VERTEX
  8
0
 10
5.21688803
 20
3.60102125
  0
VERTEX
  8
0
 10
5.21956403
 20
3.64609135
  0
VERTEX
  8
0
 10
5.19644126
 20
3.68168038
  0
VERTEX
  8
0
 10
5.15677057
 20
3.68403172
  0
VERTEX
  8
0
 10
5.13891737
 20
3.65479834
  0
VERTEX
  8
0
 10
5.12699681
 20
3.58445816
  0
VERTEX
  8
0
 10
5.01363398
 20
3.38132110
  0
VERTEX
  8
0
 10
4.86198994
 20
3.18826900
  0
VERTEX
  8
0
 10
4.67618268
 20
3.02664480
  0
VERTEX
  8
0
 10
4.57175469
 20
2.96428785
  0
VERTEX
  8
0
 10
4.46033014
 20
2.91779149
  0
VERTEX
  8
0
 10
4.35405644
 20
2.89391813
  0
VERTEX
  8
0
 10
4.23810792
 20
2.89001371
  0
VERTEX
  8
0
 10
4.16864036
 20
2.90477664
  0
VERTEX
  8
0
 10
4.11404880
 20
2.93155817
  0
VERTEX
  8
0
 10
4.02967553
 20
3.00656101
  0
VERTEX
  8
0
 10
3.94535179
 20
3.08579020
  0
VERTEX
  8
0
 10
3.89082215
 20
3.11785467
  0
VERTEX
  8
0
 10
3.82144126
 20
3.14001371
  0
VERTEX
  8
0
 10
3.73640561
 20
3.24192067
  0
VERTEX
  8
0
 10
3.67560600
 20
3.36934558
  0
VERTEX
  8
0
 10
3.63882434
 20
3.51406855
  0
VERTEX
  8
0
 10
3.62584255
 20
3.66786969
  0
VERTEX
  8
0
 10
3.63644253
 20
3.82252911
  0
VERTEX
  8
0
 10
3.67040622
 20
3.96982692
  0
VERTEX
  8
0
 10
3.72751553
 20
4.10154323
  0
VERTEX
  8
0
 10
3.80755237
 20
4.20945816
  0
VERTEX
  8
0
 10
3.69428220
 20
4.38169170
  0
VERTEX
  8
0
 10
3.61227224
 20
4.57267021
  0
VERTEX
  8
0
 10
3.53762456
 20
4.77301492
  0
VERTEX
  8
0
 10
3.44644126
 20
4.97334704
  0
VERTEX
  8
0
 10
3.24343855
 20
5.34154261
  0
VERTEX
  8
0
 10
3.16017126
 20
5.54068135
  0
VERTEX
  8
0
 10
3.11310792
 20
5.75112482
  0
VERTEX
  8
0
 10
3.11178487
 20
5.90219428
  0
VERTEX
  8
0
 10
3.12904845
 20
6.05691587
  0
VERTEX
  8
0
 10
3.14875844
 20
6.21499194
  0
VERTEX
  8
0
 10
3.15477459
 20
6.37612482
  0
VERTEX
  8
0
 10
3.11624168
 20
6.64952733
  0
VERTEX
  8
0
 10
3.12493077
 20
6.77927202
  0
VERTEX
  8
0
 10
3.15076219
 20
6.83313432
  0
VERTEX
  8
0
 10
3.19644126
 20
6.87612482
  0
VERTEX
  8
0
 10
3.13806716
 20
6.99519686
  0
VERTEX
  8
0
 10
3.12041199
 20
7.13804278
  0
VERTEX
  8
0
 10
3.14077146
 20
7.28187416
  0
VERTEX
  8
0
 10
3.19644126
 20
7.40390260
  0
VERTEX
  8
0
 10
3.25133813
 20
7.41147926
  0
VERTEX
  8
0
 10
3.29748619
 20
7.40290713
  0
VERTEX
  8
0
 10
3.37148925
 20
7.35238775
  0
VERTEX
  8
0
 10
3.43435720
 20
7.28248690
  0
VERTEX
  8
0
 10
3.50199681
 20
7.22334704
  0
VERTEX
  8
0
 10
3.55563421
 20
7.24590823
  0
VERTEX
  8
0
 10
3.62699681
 20
7.25112482
  0
VERTEX
  8
0
 10
3.91514693
 20
7.09483115
  0
VERTEX
  8
0
 10
4.18358942
 20
6.91882855
  0
VERTEX
  8
0
 10
4.42373561
 20
6.71452963
  0
VERTEX
  8
0
 10
4.53051362
 20
6.59908551
  0
VERTEX
  8
0
 10
4.62699681
 20
6.47334704
  0
SEQEND
  0
POLYLINE
  8
Default_Layer
 66
   1
 39
0.000000
 70
    1
  0
VERTEX
  8
0
 10
3.21033014
 20
7.20945816
  0
VERTEX
  8
0
 10
3.23907862
 20
7.16181611
  0
VERTEX
  8
0
 10
3.28713873
 20
7.13348636
  0
VERTEX
  8
0
 10
3.40477459
 20
7.09834704
  0
VERTEX
  8
0
 10
3.54330158
 20
6.90747768
  0
VERTEX
  8
0
 10
3.69644126
 20
6.72334704
  0
VERTEX
  8
0
 10
3.88004619
 20
6.57142125
  0
VERTEX
  8
0
 10
4.05755237
 20
6.41779149
  0
VERTEX
  8
0
 10
4.12699681
 20
6.30668038
  0
VERTEX
  8
0
 10
4.28809932
 20
6.07120077
  0
VERTEX
  8
0
 10
4.41866348
 20
5.82056927
  0
VERTEX
  8
0
 10
4.45486321
 20
5.75976292
  0
VERTEX
  8
0
 10
4.46306184
 20
5.72606001
  0
VERTEX
  8
0
 10
4.44644126
 20
5.69556927
  0
VERTEX
  8
0
 10
4.39107469
 20
5.76433354
  0
VERTEX
  8
0
 10
4.34712536
 20
5.84203028
  0
VERTEX
  8
0
 10
4.26588570
 20
6.00112482
  0
VERTEX
  8
0
 10
4.07144126
 20
6.30668038
  0
VERTEX
  8
0
 10
4.03112935
 20
6.31129035
  0
VERTEX
  8
0
 10
4.01657458
 20
6.30910667
  0
VERTEX
  8
0
 10
4.00199681
 20
6.32056927
  0
VERTEX
  8
0
 10
4.01223057
 20
6.35215598
  0
VERTEX
  8
0
 10
4.00199681
 20
6.39001371
  0
VERTEX
  8
0
 10
3.83138695
 20
6.53537477
  0
VERTEX
  8
0
 10
3.67188144
 20
6.69184278
  0
VERTEX
  8
0
 10
3.36310792
 20
7.01501371
  0
VERTEX
  8
0
 10
3.35197586
 20
6.98090465
  0
VERTEX
  8
0
 10
3.37733265
 20
6.95198497
  0
VERTEX
  8
0
 10
3.40252152
 20
6.92332965
  0
VERTEX
  8
0
 10
3.39088570
 20
6.89001371
  0
VERTEX
  8
0
 10
3.33612994
 20
6.89428508
  0
VERTEX
  8
0
 10
3.30476355
 20
6.92194712
  0
VERTEX
  8
0
 10
3.28173602
 20
6.95794801
  0
VERTEX
  8
0
 10
3.25199681
 20
6.98723593
  0
VERTEX
  8
0
 10
3.24546303
 20
6.90806290
  0
VERTEX
  8
0
 10
3.26090323
 20
6.84500361
  0
VERTEX
  8
0
 10
3.29322414
 20
6.79436719
  0
VERTEX
  8
0
 10
3.33733248
 20
6.75246275
  0
VERTEX
  8
0
 10
3.44053834
 20
6.68008625
  0
VERTEX
  8
0
 10
3.52977459
 20
6.59834704
  0
VERTEX
  8
0
 10
3.57773456
 20
6.50395806
  0
VERTEX
  8
0
 10
3.62699681
 20
6.40390260
  0
VERTEX
  8
0
 10
3.78663977
 20
6.19586012
  0
VERTEX
  8
0
 10
3.95679776
 20
5.99250129
  0
VERTEX
  8
0
 10
4.03332025
 20
5.88595161
  0
VERTEX
  8
0
 10
4.09747193
 20
5.77262089
  0
VERTEX
  8
0
 10
4.14425296
 20
5.64985847
  0
VERTEX
  8
0
 10
4.16866348
 20
5.51501371
  0
VERTEX
  8
0
 10
4.07592760
 20
5.66533501
  0
VERTEX
  8
0
 10
3.99365557
 20
5.82611952
  0
VERTEX
  8
0
 10
3.89472083
 20
5.97024001
  0
VERTEX
  8
0
 10
3.83052789
 20
6.02757399
  0
VERTEX
  8
0
 10
3.75199681
 20
6.07056927
  0
VERTEX
  8
0
 10
3.71051788
 20
6.18534033
  0
VERTEX
  8
0
 10
3.64875175
 20
6.27982420
  0
VERTEX
  8
0
 10
3.58305260
 20
6.37037505
  0
VERTEX
  8
0
 10
3.52977459
 20
6.47334704
  0
VERTEX
  8
0
 10
3.44706026
 20
6.50174382
  0
VERTEX
  8
0
 10
3.41227432
 20
6.52251475
  0
VERTEX
  8
0
 10
3.39088570
 20
6.55668038
  0
VERTEX
  8
0
 10
3.44070418
 20
6.55528271
  0
VERTEX
  8
0
 10
3.45911571
 20
6.56122464
  0
VERTEX
  8
0
 10
3.46033014
 20
6.58445816
  0
VERTEX
  8
0
 10
3.45004789
 20
6.61584257
  0
VERTEX
  8
0
 10
3.42928456
 20
6.63674591
  0
VERTEX
  8
0
 10
3.36310792
 20
6.65390260
  0
VERTEX
  8
0
 10
3.33598938
 20
6.56298556
  0
VERTEX
  8
0
 10
3.34644185
 20
6.47026726
  0
VERTEX
  8
0
 10
3.41866348
 20
6.29279149
  0
VERTEX
  8
0
 10
3.50115299
 20
6.13663148
  0
VERTEX
  8
0
 10
3.59349619
 20
5.98566657
  0
VERTEX
  8
0
 10
3.68175637
 20
5.83548634
  0
VERTEX
  8
0
 10
3.75199681
 20
5.68168038
  0
VERTEX
  8
0
 10
3.83909131
 20
5.40382380
  0
VERTEX
  8
0
 10
3.91843300
 20
5.13082039
  0
VERTEX
  8
0
 10
4.01525104
 20
4.87283031
  0
VERTEX
  8
0
 10
4.07809780
 20
4.75264031
  0
VERTEX
  8
0
 10
4.15477459
 20
4.64001371
  0
VERTEX
  8
0
 10
4.26796494
 20
4.52232941
  0
VERTEX
  8
0
 10
4.39088570
 20
4.40390260
  0
VERTEX
  8
0
 10
4.50137456
 20
4.27279493
  0
VERTEX
  8
0
 10
4.60982675
 20
4.15532872
  0
VERTEX
  8
0
 10
4.67203372
 20
4.10807607
  0
VERTEX
  8
0
 10
4.74422508
 20
4.07187167
  0
VERTEX
  8
0
 10
4.82989868
 20
4.04926149
  0
VERTEX
  8
0
 10
4.93255237
 20
4.04279149
  0
VERTEX
  8
0
 10
4.98323615
 20
3.95111383
  0
VERTEX
  8
0
 10
5.04910696
 20
3.87462125
  0
VERTEX
  8
0
 10
5.12961714
 20
3.81276935
  0
VERTEX
  8
0
 10
5.22421903
 20
3.76501371
  0
VERTEX
  8
0
 10
5.25647851
 20
3.77427623
  0
VERTEX
  8
0
 10
5.27593960
 20
3.79643358
  0
VERTEX
  8
0
 10
5.29731818
 20
3.81676989
  0
VERTEX
  8
0
 10
5.33533014
 20
3.82056927
  0
VERTEX
  8
0
 10
5.29597282
 20
3.67583486
  0
VERTEX
  8
0
 10
5.27526529
 20
3.52388566
  0
VERTEX
  8
0
 10
5.28111796
 20
3.37097271
  0
VERTEX
  8
0
 10
5.32144126
 20
3.22334704
  0
VERTEX
  8
0
 10
5.49658374
 20
3.25291644
  0
VERTEX
  8
0
 10
5.65854151
 20
3.29577091
  0
VERTEX
  8
0
 10
5.80472692
 20
3.35449678
  0
VERTEX
  8
0
 10
5.93255237
 20
3.43168038
  0
VERTEX
  8
0
 10
5.95501683
 20
3.61225652
  0
VERTEX
  8
0
 10
5.99884142
 20
3.77149665
  0
VERTEX
  8
0
 10
6.05980948
 20
3.91361742
  0
VERTEX
  8
0
 10
6.13370435
 20
4.04283549
  0
VERTEX
  8
0
 10
6.30340796
 20
4.27943011
  0
VERTEX
  8
0
 10
6.47421903
 20
4.51501371
  0
VERTEX
  8
0
 10
6.27632953
 20
4.59207264
  0
VERTEX
  8
0
 10
6.17702169
 20
4.61443649
  0
VERTEX
  8
0
 10
6.07144126
 20
4.61223593
  0
VERTEX
  8
0
 10
5.93885399
 20
4.56116227
  0
VERTEX
  8
0
 10
5.82465974
 20
4.47049556
  0
VERTEX
  8
0
 10
5.64088570
 20
4.26501371
  0
VERTEX
  8
0
 10
5.54122050
 20
4.15513549
  0
VERTEX
  8
0
 10
5.48663836
 20
4.11253297
  0
VERTEX
  8
0
 10
5.43255237
 20
4.09834704
  0
VERTEX
  8
0
 10
5.50228762
 20
4.22290895
  0
VERTEX
  8
0
 10
5.58884689
 20
4.33074851
  0
VERTEX
  8
0
 10
5.79366348
 20
4.51501371
  0
VERTEX
  8
0
 10
5.59871876
 20
4.76731431
  0
VERTEX
  8
0
 10
5.52115286
 20
4.91042985
  0
VERTEX
  8
0
 10
5.47421903
 20
5.07056927
  0
VERTEX
  8
0
 10
5.47421903
 20
5.23723593
  0
VERTEX
  8
0
 10
5.43848940
 20
5.45182278
  0
VERTEX
  8
0
 10
5.37183109
 20
5.62726208
  0
VERTEX
  8
0
 10
5.28389997
 20
5.77528980
  0
VERTEX
  8
0
 10
5.18435192
 20
5.90764191
  0
VERTEX
  8
0
 10
5.08284282
 20
6.03605439
  0
VERTEX
  8
0
 10
4.98902853
 20
6.17226320
  0
VERTEX
  8
0
 10
4.91256494
 20
6.32800432
  0
VERTEX
  8
0
 10
4.86310792
 20
6.51501371
  0
VERTEX
  8
0
 10
4.84351846
 20
6.52787011
  0
VERTEX
  8
0
 10
4.82020053
 20
6.52072004
  0
VERTEX
  8
0
 10
4.79750297
 20
6.51418903
  0
VERTEX
  8
0
 10
4.77977459
 20
6.52890260
  0
VERTEX
  8
0
 10
4.77637862
 20
6.57099767
  0
VERTEX
  8
0
 10
4.78510262
 20
6.61006622
  0
VERTEX
  8
0
 10
4.79116260
 20
6.64327518
  0
VERTEX
  8
0
 10
4.77977459
 20
6.66779149
  0
VERTEX
  8
0
 10
4.73521583
 20
6.61551098
  0
VERTEX
  8
0
 10
4.71253278
 20
6.55713660
  0
VERTEX
  8
0
 10
4.70789718
 20
6.49499941
  0
VERTEX
  8
0
 10
4.71748074
 20
6.43143045
  0
VERTEX
  8
0
 10
4.76399229
 20
6.30932149
  0
VERTEX
  8
0
 10
4.82144126
 20
6.20945816
  0
VERTEX
  8
0
 10
4.91866348
 20
6.04279149
  0
VERTEX
  8
0
 10
5.04893578
 20
5.88407820
  0
VERTEX
  8
0
 10
5.10229856
 20
5.81134044
  0
VERTEX
  8
0
 10
5.12699681
 20
5.73723593
  0
VERTEX
  8
0
 10
5.01489778
 20
5.79744988
  0
VERTEX
  8
0
 10
4.92882849
 20
5.88344226
  0
VERTEX
  8
0
 10
4.79366348
 20
6.08445816
  0
VERTEX
  8
0
 10
4.58938369
 20
6.38271952
  0
VERTEX
  8
0
 10
4.37699681
 20
6.66779149
  0
VERTEX
  8
0
 10
4.29366348
 20
6.66779149
  0
VERTEX
  8
0
 10
4.30654376
 20
6.69638497
  0
VERTEX
  8
0
 10
4.30755237
 20
6.73723593
  0
VERTEX
  8
0
 10
4.16002282
 20
6.83276260
  0
VERTEX
  8
0
 10
4.02140661
 20
6.93720129
  0
VERTEX
  8
0
 10
3.87308550
 20
7.03193508
  0
VERTEX
  8
0
 10
3.69644126
 20
7.09834704
  0
VERTEX
  8
0
 10
3.66407588
 20
7.16560407
  0
VERTEX
  8
0
 10
3.63570935
 20
7.18149736
  0
VERTEX
  8
0
 10
3.59921903
 20
7.16779149
  0
VERTEX
  8
0
 10
3.60742992
 20
7.11540136
  0
VERTEX
  8
0
 10
3.64471755
 20
7.07826205
  0
VERTEX
  8
0
 10
3.73810792
 20
7.02890260
  0
VERTEX
  8
0
 10
4.00354012
 20
6.83497594
  0
VERTEX
  8
0
 10
4.23810792
 20
6.61223593
  0
VERTEX
  8
0
 10
4.38303421
 20
6.41880476
  0
VERTEX
  8
0
 10
4.51588570
 20
6.20945816
  0
VERTEX
  8
0
 10
4.65477459
 20
6.00112482
  0
VERTEX
  8
0
 10
4.72965644
 20
5.90308983
  0
VERTEX
  8
0
 10
4.74527081
 20
5.84640561
  0
VERTEX
  8
0
 10
4.73580754
 20
5.81883129
  0
VERTEX
  8
0
 10
4.71033014
 20
5.79279149
  0
VERTEX
  8
0
 10
4.59141404
 20
6.01067866
  0
VERTEX
  8
0
 10
4.45718608
 20
6.21325593
  0
VERTEX
  8
0
 10
4.30947275
 20
6.40234914
  0
VERTEX
  8
0
 10
4.15010053
 20
6.57978410
  0
VERTEX
  8
0
 10
3.80368535
 20
6.90698263
  0
VERTEX
  8
0
 10
3.43255237
 20
7.20945816
  0
VERTEX
  8
0
 10
3.37523213
 20
7.19571535
  0
VERTEX
  8
0
 10
3.34579116
 20
7.19652078
  0
VERTEX
  8
0
 10
3.32144126
 20
7.20945816
  0
VERTEX
  8
0
 10
3.35235314
 20
7.23390893
  0
VERTEX
  8
0
 10
3.36447790
 20
7.24961082
  0
VERTEX
  8
0
 10
3.36310792
 20
7.27890260
  0
VERTEX
  8
0
 10
3.32675765
 20
7.32588566
  0
VERTEX
  8
0
 10
3.30233910
 20
7.34313378
  0
VERTEX
  8
0
 10
3.26588570
 20
7.34834704
  0
VERTEX
  8
0
 10
3.25273595
 20
7.27476240
  0
VERTEX
  8
0
 10
3.21033014
 20
7.20945816
  0
SEQEND
  0
POLYLINE
  8
Default_Layer
 66
   1
 39
0.000000
 70
    1
  0
VERTEX
  8
0
 10
3.27977459
 20
6.48723593
  0
VERTEX
  8
0
 10
3.28881911
 20
6.66239677
  0
VERTEX
  8
0
 10
3.27445420
 20
6.73159406
  0
VERTEX
  8
0
 10
3.22421903
 20
6.77890260
  0
VERTEX
  8
0
 10
3.19644126
 20
6.77890260
  0
VERTEX
  8
0
 10
3.18499268
 20
6.69361574
  0
VERTEX
  8
0
 10
3.18841512
 20
6.60001605
  0
VERTEX
  8
0
 10
3.21668396
 20
6.52294296
  0
VERTEX
  8
0
 10
3.24325309
 20
6.49836622
  0
VERTEX
  8
0
 10
3.27977459
 20
6.48723593
  0
SEQEND
  0
POLYLINE
  8
Default_Layer
 66
   1
 39
0.000000
 70
    1
  0
VERTEX
  8
0
 10
3.25199681
 20
6.40390260
  0
VERTEX
  8
0
 10
3.24320383
 20
6.38472750
  0
VERTEX
  8
0
 10
3.23810792
 20
6.36223593
  0
VERTEX
  8
0
 10
3.19015557
 20
6.05953948
  0
VERTEX
  8
0
 10
3.17757933
 20
5.90348508
  0
VERTEX
  8
0
 10
3.18255237
 20
5.73723593
  0
VERTEX
  8
0
 10
3.20589780
 20
5.60823789
  0
VERTEX
  8
0
 10
3.24881568
 20
5.47733899
  0
VERTEX
  8
0
 10
3.37262970
 20
5.21592490
  0
VERTEX
  8
0
 10
3.51251616
 20
4.96516633
  0
VERTEX
  8
0
 10
3.62699681
 20
4.73723593
  0
VERTEX
  8
0
 10
3.68809046
 20
4.54585164
  0
VERTEX
  8
0
 10
3.75199681
 20
4.37612482
  0
VERTEX
  8
0
 10
3.83828092
 20
4.26693948
  0
VERTEX
  8
0
 10
3.94644126
 20
4.14001371
  0
VERTEX
  8
0
 10
4.04381651
 20
3.99365164
  0
VERTEX
  8
0
 10
4.09388161
 20
3.92802536
  0
VERTEX
  8
0
 10
4.14088570
 20
3.89001371
  0
VERTEX
  8
0
 10
4.22696132
 20
3.87451034
  0
VERTEX
  8
0
 10
4.31107293
 20
3.88609920
  0
VERTEX
  8
0
 10
4.38995203
 20
3.90311755
  0
VERTEX
  8
0
 10
4.46033014
 20
3.90390260
  0
VERTEX
  8
0
 10
4.39284745
 20
3.84262705
  0
VERTEX
  8
0
 10
4.29270505
 20
3.81218045
  0
VERTEX
  8
0
 10
4.18262519
 20
3.81370604
  0
VERTEX
  8
0
 10
4.08533014
 20
3.84834704
  0
VERTEX
  8
0
 10
4.04514008
 20
3.78203600
  0
VERTEX
  8
0
 10
4.02836134
 20
3.71583093
  0
VERTEX
  8
0
 10
4.03150986
 20
3.65220743
  0
VERTEX
  8
0
 10
4.05110158
 20
3.59364105
  0
VERTEX
  8
0
 10
4.12567831
 20
3.50158193
  0
VERTEX
  8
0
 10
4.17369521
 20
3.47304034
  0
VERTEX
  8
0
 10
4.22421903
 20
3.45945816
  0
VERTEX
  8
0
 10
4.32033706
 20
3.46573453
  0
VERTEX
  8
0
 10
4.41678940
 20
3.50062217
  0
VERTEX
  8
0
 10
4.51009443
 20
3.55809539
  0
VERTEX
  8
0
 10
4.59677050
 20
3.63212855
  0
VERTEX
  8
0
 10
4.73630919
 20
3.80577195
  0
VERTEX
  8
0
 10
4.78220854
 20
3.89333087
  0
VERTEX
  8
0
 10
4.80755237
 20
3.97334704
  0
VERTEX
  8
0
 10
4.64072432
 20
4.04813085
  0
VERTEX
  8
0
 10
4.51197380
 20
4.15105806
  0
VERTEX
  8
0
 10
4.27977459
 20
4.40390260
  0
VERTEX
  8
0
 10
4.12406321
 20
4.58181848
  0
VERTEX
  8
0
 10
4.00199681
 20
4.76501371
  0
VERTEX
  8
0
 10
3.89872122
 20
4.98807178
  0
VERTEX
  8
0
 10
3.81819203
 20
5.22678028
  0
VERTEX
  8
0
 10
3.66866348
 20
5.72334704
  0
VERTEX
  8
0
 10
3.59532044
 20
5.80278015
  0
VERTEX
  8
0
 10
3.54517432
 20
5.90541084
  0
VERTEX
  8
0
 10
3.49427278
 20
6.00728740
  0
VERTEX
  8
0
 10
3.41866348
 20
6.08445816
  0
VERTEX
  8
0
 10
3.40101998
 20
5.93032941
  0
VERTEX
  8
0
 10
3.40477459
 20
5.79279149
  0
VERTEX
  8
0
 10
3.45018233
 20
5.64642438
  0
VERTEX
  8
0
 10
3.52559168
 20
5.52179209
  0
VERTEX
  8
0
 10
3.60309248
 20
5.40071505
  0
VERTEX
  8
0
 10
3.65477459
 20
5.26501371
  0
VERTEX
  8
0
 10
3.60884674
 20
5.29504029
  0
VERTEX
  8
0
 10
3.57039029
 20
5.33975025
  0
VERTEX
  8
0
 10
3.50199681
 20
5.44556927
  0
VERTEX
  8
0
 10
3.42368196
 20
5.54297733
  0
VERTEX
  8
0
 10
3.36310792
 20
5.64001371
  0
VERTEX
  8
0
 10
3.34909272
 20
5.73603905
  0
VERTEX
  8
0
 10
3.35087901
 20
5.83612160
  0
VERTEX
  8
0
 10
3.34489086
 20
5.93537243
  0
VERTEX
  8
0
 10
3.30755237
 20
6.02890260
  0
VERTEX
  8
0
 10
3.35278215
 20
6.10866132
  0
VERTEX
  8
0
 10
3.36484793
 20
6.22107959
  0
VERTEX
  8
0
 10
3.34479370
 20
6.33115936
  0
VERTEX
  8
0
 10
3.29366348
 20
6.40390260
  0
VERTEX
  8
0
 10
3.25199681
 20
6.40390260
  0
SEQEND
  0
POLYLINE
  8
Default_Layer
 66
   1
 39
0.000000
 70
    1
  0
VERTEX
  8
0
 10
5.47421903
 20
2.66779149
  0
VERTEX
  8
0
 10
5.57162541
 20
2.69774743
  0
VERTEX
  8
0
 10
5.67100644
 20
2.75139625
  0
VERTEX
  8
0
 10
5.84921903
 20
2.89001371
  0
VERTEX
  8
0
 10
5.99846876
 20
3.05067872
  0
VERTEX
  8
0
 10
6.12699681
 20
3.22334704
  0
VERTEX
  8
0
 10
6.24127202
 20
3.42051655
  0
VERTEX
  8
0
 10
6.34037762
 20
3.62832386
  0
VERTEX
  8
0
 10
6.44043170
 20
3.82808721
  0
VERTEX
  8
0
 10
6.55755237
 20
4.00112482
  0
VERTEX
  8
0
 10
6.62032554
 20
4.05991433
  0
VERTEX
  8
0
 10
6.68760852
 20
4.10709712
  0
VERTEX
  8
0
 10
6.75236343
 20
4.15337709
  0
VERTEX
  8
0
 10
6.80755237
 20
4.20945816
  0
VERTEX
  8
0
 10
6.81026494
 20
4.22044157
  0
VERTEX
  8
0
 10
6.82144126
 20
4.22334704
  0
VERTEX
  8
0
 10
6.80444798
 20
4.31399721
  0
VERTEX
  8
0
 10
6.77519914
 20
4.39238792
  0
VERTEX
  8
0
 10
6.73087692
 20
4.45570264
  0
VERTEX
  8
0
 10
6.66866348
 20
4.50112482
  0
VERTEX
  8
0
 10
6.61098721
 20
4.49466205
  0
VERTEX
  8
0
 10
6.55798940
 20
4.47196603
  0
VERTEX
  8
0
 10
6.46383647
 20
4.39022420
  0
VERTEX
  8
0
 10
6.30755237
 20
4.16779149
  0
VERTEX
  8
0
 10
6.17558578
 20
3.97786882
  0
VERTEX
  8
0
 10
6.11518862
 20
3.87797364
  0
VERTEX
  8
0
 10
6.07144126
 20
3.77890260
  0
VERTEX
  8
0
 10
6.02184498
 20
3.58719864
  0
VERTEX
  8
0
 10
5.98409185
 20
3.39111778
  0
VERTEX
  8
0
 10
5.94140232
 20
3.20490155
  0
VERTEX
  8
0
 10
5.87699681
 20
3.04279149
  0
VERTEX
  8
0
 10
5.81735210
 20
2.95048966
  0
VERTEX
  8
0
 10
5.77527994
 20
2.91486388
  0
VERTEX
  8
0
 10
5.72421903
 20
2.90390260
  0
VERTEX
  8
0
 10
5.82702432
 20
3.09952073
  0
VERTEX
  8
0
 10
5.87505216
 20
3.20084472
  0
VERTEX
  8
0
 10
5.90477459
 20
3.32056927
  0
VERTEX
  8
0
 10
5.81846792
 20
3.27169320
  0
VERTEX
  8
0
 10
5.71062894
 20
3.23976972
  0
VERTEX
  8
0
 10
5.47511772
 20
3.19104261
  0
VERTEX
  8
0
 10
5.36982731
 20
3.15637004
  0
VERTEX
  8
0
 10
5.28776827
 20
3.10291216
  0
VERTEX
  8
0
 10
5.24013150
 20
3.02173451
  0
VERTEX
  8
0
 10
5.23810792
 20
2.90390260
  0
VERTEX
  8
0
 10
5.29116347
 20
2.89087438
  0
VERTEX
  8
0
 10
5.35668039
 20
2.90662264
  0
VERTEX
  8
0
 10
5.41846664
 20
2.91753866
  0
VERTEX
  8
0
 10
5.44290074
 20
2.91068185
  0
VERTEX
  8
0
 10
5.46033014
 20
2.89001371
  0
VERTEX
  8
0
 10
5.42500318
 20
2.85227933
  0
VERTEX
  8
0
 10
5.36686546
 20
2.83745216
  0
VERTEX
  8
0
 10
5.30337675
 20
2.82807243
  0
VERTEX
  8
0
 10
5.25199681
 20
2.80668038
  0
VERTEX
  8
0
 10
5.27103302
 20
2.72531349
  0
VERTEX
  8
0
 10
5.31591251
 20
2.67892230
  0
VERTEX
  8
0
 10
5.38438971
 20
2.66168792
  0
VERTEX
  8
0
 10
5.47421903
 20
2.66779149
  0
SEQEND
  0
POLYLINE
  8
Default_Layer
 66
   1
 39
0.000000
 70
    1
  0
VERTEX
  8
0
 10
3.87699681
 20
3.33445816
  0
VERTEX
  8
0
 10
3.95656987
 20
3.33262108
  0
VERTEX
  8
0
 10
4.03813647
 20
3.34643966
  0
VERTEX
  8
0
 10
4.18255237
 20
3.40390260
  0
VERTEX
  8
0
 10
4.10780779
 20
3.42503927
  0
VERTEX
  8
0
 10
4.04812219
 20
3.46958593
  0
VERTEX
  8
0
 10
4.00416373
 20
3.53174663
  0
VERTEX
  8
0
 10
3.97660053
 20
3.60572542
  0
VERTEX
  8
0
 10
3.96610076
 20
3.68572636
  0
VERTEX
  8
0
 10
3.97333257
 20
3.76595350
  0
VERTEX
  8
0
 10
3.99896409
 20
3.84061090
  0
VERTEX
  8
0
 10
4.04366348
 20
3.90390260
  0
VERTEX
  8
0
 10
3.98555312
 20
3.96384845
  0
VERTEX
  8
0
 10
3.93831703
 20
4.03466726
  0
VERTEX
  8
0
 10
3.89167083
 20
4.10607597
  0
VERTEX
  8
0
 10
3.83533014
 20
4.16779149
  0
VERTEX
  8
0
 10
3.78608273
 20
4.08176497
  0
VERTEX
  8
0
 10
3.74000826
 20
3.96763308
  0
VERTEX
  8
0
 10
3.70329966
 20
3.83685707
  0
VERTEX
  8
0
 10
3.68214984
 20
3.70089816
  0
VERTEX
  8
0
 10
3.68275173
 20
3.57121759
  0
VERTEX
  8
0
 10
3.71129824
 20
3.45927657
  0
VERTEX
  8
0
 10
3.77398229
 20
3.37653635
  0
VERTEX
  8
0
 10
3.82006119
 20
3.34969817
  0
VERTEX
  8
0
 10
3.87699681
 20
3.33445816
  0
SEQEND
  0
POLYLINE
  8
Default_Layer
 66
   1
 39
0.000000
 70
    1
  0
VERTEX
  8
0
 10
4.09921903
 20
3.29279149
  0
VERTEX
  8
0
 10
3.97133647
 20
3.27900632
  0
VERTEX
  8
0
 10
3.91711427
 20
3.26746974
  0
VERTEX
  8
0
 10
3.87699681
 20
3.23723593
  0
VERTEX
  8
0
 10
3.89558893
 20
3.20482575
  0
VERTEX
  8
0
 10
3.92593474
 20
3.18463254
  0
VERTEX
  8
0
 10
4.00199681
 20
3.14001371
  0
VERTEX
  8
0
 10
4.09246425
 20
3.03396396
  0
VERTEX
  8
0
 10
4.13890807
 20
2.98746813
  0
VERTEX
  8
0
 10
4.19644126
 20
2.95945816
  0
VERTEX
  8
0
 10
4.29632549
 20
2.94991014
  0
VERTEX
  8
0
 10
4.38348074
 20
2.96494486
  0
VERTEX
  8
0
 10
4.52977459
 20
3.02890260
  0
VERTEX
  8
0
 10
4.62999547
 20
3.08822583
  0
VERTEX
  8
0
 10
4.72509181
 20
3.16177375
  0
VERTEX
  8
0
 10
4.89356546
 20
3.33979052
  0
VERTEX
  8
0
 10
5.02250479
 20
3.53944667
  0
VERTEX
  8
0
 10
5.09921903
 20
3.73723593
  0
VERTEX
  8
0
 10
4.87699681
 20
3.95945816
  0
VERTEX
  8
0
 10
4.83046974
 20
3.83851824
  0
VERTEX
  8
0
 10
4.76283380
 20
3.72601524
  0
VERTEX
  8
0
 10
4.67740126
 20
3.62310308
  0
VERTEX
  8
0
 10
4.57748439
 20
3.53093566
  0
VERTEX
  8
0
 10
4.46639546
 20
3.45066689
  0
VERTEX
  8
0
 10
4.34744674
 20
3.38345066
  0
VERTEX
  8
0
 10
4.09921903
 20
3.29279149
  0
SEQEND
  0
POLYLINE
  8
Default_Layer
 66
   1
 39
0.000000
 70
    1
  0
VERTEX
  8
0
 10
3.26588570
 20
7.34834704
  0
VERTEX
  8
0
 10
3.30233910
 20
7.34313378
  0
VERTEX
  8
0
 10
3.32675765
 20
7.32588566
  0
VERTEX
  8
0
 10
3.36310792
 20
7.27890260
  0
VERTEX
  8
0
 10
3.36447790
 20
7.24961082
  0
VERTEX
  8
0
 10
3.35235314
 20
7.23390893
  0
VERTEX
  8
0
 10
3.32144126
 20
7.20945816
  0
VERTEX
  8
0
 10
3.34579116
 20
7.19652078
  0
VERTEX
  8
0
 10
3.37523213
 20
7.19571535
  0
VERTEX
  8
0
 10
3.43255237
 20
7.20945816
  0
VERTEX
  8
0
 10
3.80368535
 20
6.90698263
  0
VERTEX
  8
0
 10
4.15010053
 20
6.57978410
  0
VERTEX
  8
0
 10
4.30947275
 20
6.40234914
  0
VERTEX
  8
0
 10
4.45718608
 20
6.21325593
  0
VERTEX
  8
0
 10
4.59141404
 20
6.01067866
  0
VERTEX
  8
0
 10
4.71033014
 20
5.79279149
  0
VERTEX
  8
0
 10
4.73580754
 20
5.81883129
  0
VERTEX
  8
0
 10
4.74527081
 20
5.84640561
  0
VERTEX
  8
0
 10
4.72965644
 20
5.90308983
  0
VERTEX
  8
0
 10
4.65477459
 20
6.00112482
  0
VERTEX
  8
0
 10
4.51588570
 20
6.20945816
  0
VERTEX
  8
0
 10
4.38303421
 20
6.41880476
  0
VERTEX
  8
0
 10
4.23810792
 20
6.61223593
  0
VERTEX
  8
0
 10
4.00354012
 20
6.83497594
  0
VERTEX
  8
0
 10
3.73810792
 20
7.02890260
  0
VERTEX
  8
0
 10
3.64471755
 20
7.07826205
  0
VERTEX
  8
0
 10
3.60742992
 20
7.11540136
  0
VERTEX
  8
0
 10
3.59921903
 20
7.16779149
  0
VERTEX
  8
0
 10
3.63570935
 20
7.18149736
  0
VERTEX
  8
0
 10
3.66407588
 20
7.16560407
  0
VERTEX
  8
0
 10
3.69644126
 20
7.09834704
  0
VERTEX
  8
0
 10
3.87308550
 20
7.03193508
  0
VERTEX
  8
0
 10
4.02140661
 20
6.93720129
  0
VERTEX
  8
0
 10
4.16002282
 20
6.83276260
  0
VERTEX
  8
0
 10
4.30755237
 20
6.73723593
  0
VERTEX
  8
0
 10
4.30654376
 20
6.69638497
  0
VERTEX
  8
0
 10
4.29366348
 20
6.66779149
  0
VERTEX
  8
0
 10
4.37699681
 20
6.66779149
  0
VERTEX
  8
0
 10
4.58938369
 20
6.38271952
  0
VERTEX
  8
0
 10
4.79366348
 20
6.08445816
  0
VERTEX
  8
0
 10
4.92882849
 20
5.88344226
  0
VERTEX
  8
0
 10
5.01489778
 20
5.79744988
  0
VERTEX
  8
0
 10
5.12699681
 20
5.73723593
  0
VERTEX
  8
0
 10
5.10229856
 20
5.81134044
  0
VERTEX
  8
0
 10
5.04893578
 20
5.88407820
  0
VERTEX
  8
0
 10
4.91866348
 20
6.04279149
  0
VERTEX
  8
0
 10
4.82144126
 20
6.20945816
  0
VERTEX
  8
0
 10
4.76399229
 20
6.30932149
  0
VERTEX
  8
0
 10
4.71748074
 20
6.43143045
  0
VERTEX
  8
0
 10
4.70789718
 20
6.49499941
  0
VERTEX
  8
0
 10
4.71253278
 20
6.55713660
  0
VERTEX
  8
0
 10
4.73521583
 20
6.61551098
  0
VERTEX
  8
0
 10
4.77977459
 20
6.66779149
  0
VERTEX
  8
0
 10
4.79116260
 20
6.64327518
  0
VERTEX
  8
0
 10
4.78510262
 20
6.61006622
  0
VERTEX
  8
0
 10
4.77637862
 20
6.57099767
  0
VERTEX
  8
0
 10
4.77977459
 20
6.52890260
  0
VERTEX
  8
0
 10
4.79750297
 20
6.51418903
  0
VERTEX
  8
0
 10
4.82020053
 20
6.52072004
  0
VERTEX
  8
0
 10
4.84351846
 20
6.52787011
  0
VERTEX
  8
0
 10
4.86310792
 20
6.51501371
  0
VERTEX
  8
0
 10
4.91256494
 20
6.32800432
  0
VERTEX
  8
0
 10
4.98902853
 20
6.17226320
  0
VERTEX
  8
0
 10
5.08284282
 20
6.03605439
  0
VERTEX
  8
0
 10
5.18435192
 20
5.90764191
  0
VERTEX
  8
0
 10
5.28389997
 20
5.77528980
  0
VERTEX
  8
0
 10
5.37183109
 20
5.62726208
  0
VERTEX
  8
0
 10
5.43848940
 20
5.45182278
  0
VERTEX
  8
0
 10
5.47421903
 20
5.23723593
  0
VERTEX
  8
0
 10
5.47421903
 20
5.07056927
  0
VERTEX
  8
0
 10
5.52115286
 20
4.91042985
  0
VERTEX
  8
0
 10
5.59871876
 20
4.76731431
  0
VERTEX
  8
0
 10
5.79366348
 20
4.51501371
  0
VERTEX
  8
0
 10
5.58884689
 20
4.33074851
  0
VERTEX
  8
0
 10
5.50228762
 20
4.22290895
  0
VERTEX
  8
0
 10
5.43255237
 20
4.09834704
  0
VERTEX
  8
0
 10
5.48663836
 20
4.11253297
  0
VERTEX
  8
0
 10
5.54122050
 20
4.15513549
  0
VERTEX
  8
0
 10
5.64088570
 20
4.26501371
  0
VERTEX
  8
0
 10
5.82465974
 20
4.47049556
  0
VERTEX
  8
0
 10
5.93885399
 20
4.56116227
  0
VERTEX
  8
0
 10
6.07144126
 20
4.61223593
  0
VERTEX
  8
0
 10
6.17702169
 20
4.61443649
  0
VERTEX
  8
0
 10
6.27632953
 20
4.59207264
  0
VERTEX
  8
0
 10
6.47421903
 20
4.51501371
  0
VERTEX
  8
0
 10
6.30340796
 20
4.27943011
  0
VERTEX
  8
0
 10
6.13370435
 20
4.04283549
  0
VERTEX
  8
0
 10
6.05980948
 20
3.91361742
  0
VERTEX
  8
0
 10
5.99884142
 20
3.77149665
  0
VERTEX
  8
0
 10
5.95501683
 20
3.61225652
  0
VERTEX
  8
0
 10
5.93255237
 20
3.43168038
  0
VERTEX
  8
0
 10
5.80472692
 20
3.35449678
  0
VERTEX
  8
0
 10
5.65854151
 20
3.29577091
  0
VERTEX
  8
0
 10
5.49658374
 20
3.25291644
  0
VERTEX
  8
0
 10
5.32144126
 20
3.22334704
  0
VERTEX
  8
0
 10
5.28111796
 20
3.37097271
  0
VERTEX
  8
0
 10
5.27526529
 20
3.52388566
  0
VERTEX
  8
0
 10
5.29597282
 20
3.67583486
  0
VERTEX
  8
0
 10
5.33533014
 20
3.82056927
  0
VERTEX
  8
0
 10
5.29731818
 20
3.81676989
  0
VERTEX
  8
0
 10
5.27593960
 20
3.79643358
  0
VERTEX
  8
0
 10
5.25647851
 20
3.77427623
  0
VERTEX
  8
0
 10
5.22421903
 20
3.76501371
  0
VERTEX
  8
0
 10
5.12961714
 20
3.81276935
  0
VERTEX
  8
0
 10
5.04910696
 20
3.87462125
  0
VERTEX
  8
0
 10
4.98323615
 20
3.95111383
  0
VERTEX
  8
0
 10
4.93255237
 20
4.04279149
  0
VERTEX
  8
0
 10
4.82989868
 20
4.04926149
  0
VERTEX
  8
0
 10
4.74422508
 20
4.07187167
  0
VERTEX
  8
0
 10
4.67203372
 20
4.10807607
  0
VERTEX
  8
0
 10
4.60982675
 20
4.15532872
  0
VERTEX
  8
0
 10
4.50137456
 20
4.27279493
  0
VERTEX
  8
0
 10
4.39088570
 20
4.40390260
  0
VERTEX
  8
0
 10
4.26796494
 20
4.52232941
  0
VERTEX
  8
0
 10
4.15477459
 20
4.64001371
  0
VERTEX
  8
0
 10
4.07809780
 20
4.75264031
  0
VERTEX
  8
0
 10
4.01525104
 20
4.87283031
  0
VERTEX
  8
0
 10
3.91843300
 20
5.13082039
  0
VERTEX
  8
0
 10
3.83909131
 20
5.40382380
  0
VERTEX
  8
0
 10
3.75199681
 20
5.68168038
  0
VERTEX
  8
0
 10
3.68175637
 20
5.83548634
  0
VERTEX
  8
0
 10
3.59349619
 20
5.98566657
  0
VERTEX
  8
0
 10
3.50115299
 20
6.13663148
  0
VERTEX
  8
0
 10
3.41866348
 20
6.29279149
  0
VERTEX
  8
0
 10
3.34644185
 20
6.47026726
  0
VERTEX
  8
0
 10
3.33598938
 20
6.56298556
  0
VERTEX
  8
0
 10
3.36310792
 20
6.65390260
  0
VERTEX
  8
0
 10
3.42928456
 20
6.63674591
  0
VERTEX
  8
0
 10
3.45004789
 20
6.61584257
  0
VERTEX
  8
0
 10
3.46033014
 20
6.58445816
  0
VERTEX
  8
0
 10
3.45911571
 20
6.56122464
  0
VERTEX
  8
0
 10
3.44070418
 20
6.55528271
  0
VERTEX
  8
0
 10
3.39088570
 20
6.55668038
  0
VERTEX
  8
0
 10
3.41227432
 20
6.52251475
  0
VERTEX
  8
0
 10
3.44706026
 20
6.50174382
  0
VERTEX
  8
0
 10
3.52977459
 20
6.47334704
  0
VERTEX
  8
0
 10
3.58305260
 20
6.37037505
  0
VERTEX
  8
0
 10
3.64875175
 20
6.27982420
  0
VERTEX
  8
0
 10
3.71051788
 20
6.18534033
  0
VERTEX
  8
0
 10
3.75199681
 20
6.07056927
  0
VERTEX
  8
0
 10
3.83052789
 20
6.02757399
  0
VERTEX
  8
0
 10
3.89472083
 20
5.97024001
  0
VERTEX
  8
0
 10
3.99365557
 20
5.82611952
  0
VERTEX
  8
0
 10
4.07592760
 20
5.66533501
  0
VERTEX
  8
0
 10
4.16866348
 20
5.51501371
  0
VERTEX
  8
0
 10
4.14425296
 20
5.64985847
  0
VERTEX
  8
0
 10
4.09747193
 20
5.77262089
  0
VERTEX
  8
0
 10
4.03332025
 20
5.88595161
  0
VERTEX
  8
0
 10
3.95679776
 20
5.99250129
  0
VERTEX
  8
0
 10
3.78663977
 20
6.19586012
  0
VERTEX
  8
0
 10
3.62699681
 20
6.40390260
  0
VERTEX
  8
0
 10
3.57773456
 20
6.50395806
  0
VERTEX
  8
0
 10
3.52977459
 20
6.59834704
  0
VERTEX
  8
0
 10
3.44053834
 20
6.68008625
  0
VERTEX
  8
0
 10
3.33733248
 20
6.75246275
  0
VERTEX
  8
0
 10
3.29322414
 20
6.79436719
  0
VERTEX
  8
0
 10
3.26090323
 20
6.84500361
  0
VERTEX
  8
0
 10
3.24546303
 20
6.90806290
  0
VERTEX
  8
0
 10
3.25199681
 20
6.98723593
  0
VERTEX
  8
0
 10
3.28173602
 20
6.95794801
  0
VERTEX
  8
0
 10
3.30476355
 20
6.92194712
  0
VERTEX
  8
0
 10
3.33612994
 20
6.89428508
  0
VERTEX
  8
0
 10
3.39088570
 20
6.89001371
  0
VERTEX
  8
0
 10
3.40252152
 20
6.92332965
  0
VERTEX
  8
0
 10
3.37733265
 20
6.95198497
  0
VERTEX
  8
0
 10
3.35197586
 20
6.98090465
  0
VERTEX
  8
0
 10
3.36310792
 20
7.01501371
  0
VERTEX
  8
0
 10
3.67188144
 20
6.69184278
  0
VERTEX
  8
0
 10
3.83138695
 20
6.53537477
  0
VERTEX
  8
0
 10
4.00199681
 20
6.39001371
  0
VERTEX
  8
0
 10
4.01223057
 20
6.35215598
  0
VERTEX
  8
0
 10
4.00199681
 20
6.32056927
  0
VERTEX
  8
0
 10
4.01657458
 20
6.30910667
  0
VERTEX
  8
0
 10
4.03112935
 20
6.31129035
  0
VERTEX
  8
0
 10
4.07144126
 20
6.30668038
  0
VERTEX
  8
0
 10
4.26588570
 20
6.00112482
  0
VERTEX
  8
0
 10
4.34712536
 20
5.84203028
  0
VERTEX
  8
0
 10
4.39107469
 20
5.76433354
  0
VERTEX
  8
0
 10
4.44644126
 20
5.69556927
  0
VERTEX
  8
0
 10
4.46306184
 20
5.72606001
  0
VERTEX
  8
0
 10
4.45486321
 20
5.75976292
  0
VERTEX
  8
0
 10
4.41866348
 20
5.82056927
  0
VERTEX
  8
0
 10
4.28809932
 20
6.07120077
  0
VERTEX
  8
0
 10
4.12699681
 20
6.30668038
  0
VERTEX
  8
0
 10
4.05755237
 20
6.41779149
  0
VERTEX
  8
0
 10
3.88004619
 20
6.57142125
  0
VERTEX
  8
0
 10
3.69644126
 20
6.72334704
  0
VERTEX
  8
0
 10
3.54330158
 20
6.90747768
  0
VERTEX
  8
0
 10
3.40477459
 20
7.09834704
  0
VERTEX
  8
0
 10
3.28713873
 20
7.13348636
  0
VERTEX
  8
0
 10
3.23907862
 20
7.16181611
  0
VERTEX
  8
0
 10
3.21033014
 20
7.20945816
  0
VERTEX
  8
0
 10
3.25273595
 20
7.27476240
  0
VERTEX
  8
0
 10
3.26588570
 20
7.34834704
  0
SEQEND
  0
POLYLINE
  8
Default_Layer
 66
   1
 39
0.000000
 70
    1
  0
VERTEX
  8
0
 10
3.19644126
 20
6.77890260
  0
VERTEX
  8
0
 10
3.22421903
 20
6.77890260
  0
VERTEX
  8
0
 10
3.27445420
 20
6.73159406
  0
VERTEX
  8
0
 10
3.28881911
 20
6.66239677
  0
VERTEX
  8
0
 10
3.27977459
 20
6.48723593
  0
VERTEX
  8
0
 10
3.24325309
 20
6.49836622
  0
VERTEX
  8
0
 10
3.21668396
 20
6.52294296
  0
VERTEX
  8
0
 10
3.18841512
 20
6.60001605
  0
VERTEX
  8
0
 10
3.18499268
 20
6.69361574
  0
VERTEX
  8
0
 10
3.19644126
 20
6.77890260
  0
SEQEND
  0
POLYLINE
  8
Default_Layer
 66
   1
 39
0.000000
 70
    1
  0
VERTEX
  8
0
 10
3.29366348
 20
6.40390260
  0
VERTEX
  8
0
 10
3.34479370
 20
6.33115936
  0
VERTEX
  8
0
 10
3.36484793
 20
6.22107959
  0
VERTEX
  8
0
 10
3.35278215
 20
6.10866132
  0
VERTEX
  8
0
 10
3.30755237
 20
6.02890260
  0
VERTEX
  8
0
 10
3.34489086
 20
5.93537243
  0
VERTEX
  8
0
 10
3.35087901
 20
5.83612160
  0
VERTEX
  8
0
 10
3.34909272
 20
5.73603905
  0
VERTEX
  8
0
 10
3.36310792
 20
5.64001371
  0
VERTEX
  8
0
 10
3.42368196
 20
5.54297733
  0
VERTEX
  8
0
 10
3.50199681
 20
5.44556927
  0
VERTEX
  8
0
 10
3.57039029
 20
5.33975025
  0
VERTEX
  8
0
 10
3.60884674
 20
5.29504029
  0
VERTEX
  8
0
 10
3.65477459
 20
5.26501371
  0
VERTEX
  8
0
 10
3.60309248
 20
5.40071505
  0
VERTEX
  8
0
 10
3.52559168
 20
5.52179209
  0
VERTEX
  8
0
 10
3.45018233
 20
5.64642438
  0
VERTEX
  8
0
 10
3.40477459
 20
5.79279149
  0
VERTEX
  8
0
 10
3.40101998
 20
5.93032941
  0
VERTEX
  8
0
 10
3.41866348
 20
6.08445816
  0
VERTEX
  8
0
 10
3.49427278
 20
6.00728740
  0
VERTEX
  8
0
 10
3.54517432
 20
5.90541084
  0
VERTEX
  8
0
 10
3.59532044
 20
5.80278015
  0
VERTEX
  8
0
 10
3.66866348
 20
5.72334704
  0
VERTEX
  8
0
 10
3.81819203
 20
5.22678028
  0
VERTEX
  8
0
 10
3.89872122
 20
4.98807178
  0
VERTEX
  8
0
 10
4.00199681
 20
4.76501371
  0
VERTEX
  8
0
 10
4.12406321
 20
4.58181848
  0
VERTEX
  8
0
 10
4.27977459
 20
4.40390260
  0
VERTEX
  8
0
 10
4.51197380
 20
4.15105806
  0
VERTEX
  8
0
 10
4.64072432
 20
4.04813085
  0
VERTEX
  8
0
 10
4.80755237
 20
3.97334704
  0
VERTEX
  8
0
 10
4.78220854
 20
3.89333087
  0
VERTEX
  8
0
 10
4.73630919
 20
3.80577195
  0
VERTEX
  8
0
 10
4.59677050
 20
3.63212855
  0
VERTEX
  8
0
 10
4.51009443
 20
3.55809539
  0
VERTEX
  8
0
 10
4.41678940
 20
3.50062217
  0
VERTEX
  8
0
 10
4.32033706
 20
3.46573453
  0
VERTEX
  8
0
 10
4.22421903
 20
3.45945816
  0
VERTEX
  8
0
 10
4.17369521
 20
3.47304034
  0
VERTEX
  8
0
 10
4.12567831
 20
3.50158193
  0
VERTEX
  8
0
 10
4.05110158
 20
3.59364105
  0
VERTEX
  8
0
 10
4.03150986
 20
3.65220743
  0
VERTEX
  8
0
 10
4.02836134
 20
3.71583093
  0
VERTEX
  8
0
 10
4.04514008
 20
3.78203600
  0
VERTEX
  8
0
 10
4.08533014
 20
3.84834704
  0
VERTEX
  8
0
 10
4.18262519
 20
3.81370604
  0
VERTEX
  8
0
 10
4.29270505
 20
3.81218045
  0
VERTEX
  8
0
 10
4.39284745
 20
3.84262705
  0
VERTEX
  8
0
 10
4.46033014
 20
3.90390260
  0
VERTEX
  8
0
 10
4.38995203
 20
3.90311755
  0
VERTEX
  8
0
 10
4.31107293
 20
3.88609920
  0
VERTEX
  8
0
 10
4.22696132
 20
3.87451034
  0
VERTEX
  8
0
 10
4.14088570
 20
3.89001371
  0
VERTEX
  8
0
 10
4.09388161
 20
3.92802536
  0
VERTEX
  8
0
 10
4.04381651
 20
3.99365164
  0
VERTEX
  8
0
 10
3.94644126
 20
4.14001371
  0
VERTEX
  8
0
 10
3.83828092
 20
4.26693948
  0
VERTEX
  8
0
 10
3.75199681
 20
4.37612482
  0
VERTEX
  8
0
 10
3.68809046
 20
4.54585164
  0
VERTEX
  8
0
 10
3.62699681
 20
4.73723593
  0
VERTEX
  8
0
 10
3.51251616
 20
4.96516633
  0
VERTEX
  8
0
 10
3.37262970
 20
5.21592490
  0
VERTEX
  8
0
 10
3.24881568
 20
5.47733899
  0
VERTEX
  8
0
 10
3.20589780
 20
5.60823789
  0
VERTEX
  8
0
 10
3.18255237
 20
5.73723593
  0
VERTEX
  8
0
 10
3.17757933
 20
5.90348508
  0
VERTEX
  8
0
 10
3.19015557
 20
6.05953948
  0
VERTEX
  8
0
 10
3.23810792
 20
6.36223593
  0
VERTEX
  8
0
 10
3.24320383
 20
6.38472750
  0
VERTEX
  8
0
 10
3.25199681
 20
6.40390260
  0
VERTEX
  8
0
 10
3.29366348
 20
6.40390260
  0
SEQEND
  0
POLYLINE
  8
Default_Layer
 66
   1
 39
0.000000
 70
    1
  0
VERTEX
  8
0
 10
5.25199681
 20
2.80668038
  0
VERTEX
  8
0
 10
5.30337675
 20
2.82807243
  0
VERTEX
  8
0
 10
5.36686546
 20
2.83745216
  0
VERTEX
  8
0
 10
5.42500318
 20
2.85227933
  0
VERTEX
  8
0
 10
5.46033014
 20
2.89001371
  0
VERTEX
  8
0
 10
5.44290074
 20
2.91068185
  0
VERTEX
  8
0
 10
5.41846664
 20
2.91753866
  0
VERTEX
  8
0
 10
5.35668039
 20
2.90662264
  0
VERTEX
  8
0
 10
5.29116347
 20
2.89087438
  0
VERTEX
  8
0
 10
5.23810792
 20
2.90390260
  0
VERTEX
  8
0
 10
5.24013150
 20
3.02173451
  0
VERTEX
  8
0
 10
5.28776827
 20
3.10291216
  0
VERTEX
  8
0
 10
5.36982731
 20
3.15637004
  0
VERTEX
  8
0
 10
5.47511772
 20
3.19104261
  0
VERTEX
  8
0
 10
5.71062894
 20
3.23976972
  0
VERTEX
  8
0
 10
5.81846792
 20
3.27169320
  0
VERTEX
  8
0
 10
5.90477459
 20
3.32056927
  0
VERTEX
  8
0
 10
5.87505216
 20
3.20084472
  0
VERTEX
  8
0
 10
5.82702432
 20
3.09952073
  0
VERTEX
  8
0
 10
5.72421903
 20
2.90390260
  0
VERTEX
  8
0
 10
5.77527994
 20
2.91486388
  0
VERTEX
  8
0
 10
5.81735210
 20
2.95048966
  0
VERTEX
  8
0
 10
5.87699681
 20
3.04279149
  0
VERTEX
  8
0
 10
5.94140232
 20
3.20490155
  0
VERTEX
  8
0
 10
5.98409185
 20
3.39111778
  0
VERTEX
  8
0
 10
6.02184498
 20
3.58719864
  0
VERTEX
  8
0
 10
6.07144126
 20
3.77890260
  0
VERTEX
  8
0
 10
6.11518862
 20
3.87797364
  0
VERTEX
  8
0
 10
6.17558578
 20
3.97786882
  0
VERTEX
  8
0
 10
6.30755237
 20
4.16779149
  0
VERTEX
  8
0
 10
6.46383647
 20
4.39022420
  0
VERTEX
  8
0
 10
6.55798940
 20
4.47196603
  0
VERTEX
  8
0
 10
6.61098721
 20
4.49466205
  0
VERTEX
  8
0
 10
6.66866348
 20
4.50112482
  0
VERTEX
  8
0
 10
6.73087692
 20
4.45570264
  0
VERTEX
  8
0
 10
6.77519914
 20
4.39238792
  0
VERTEX
  8
0
 10
6.80444798
 20
4.31399721
  0
VERTEX
  8
0
 10
6.82144126
 20
4.22334704
  0
VERTEX
  8
0
 10
6.81026494
 20
4.22044157
  0
VERTEX
  8
0
 10
6.80755237
 20
4.20945816
  0
VERTEX
  8
0
 10
6.75236343
 20
4.15337709
  0
VERTEX
  8
0
 10
6.68760852
 20
4.10709712
  0
VERTEX
  8
0
 10
6.62032554
 20
4.05991433
  0
VERTEX
  8
0
 10
6.55755237
 20
4.00112482
  0
VERTEX
  8
0
 10
6.44043170
 20
3.82808721
  0
VERTEX
  8
0
 10
6.34037762
 20
3.62832386
  0
VERTEX
  8
0
 10
6.24127202
 20
3.42051655
  0
VERTEX
  8
0
 10
6.12699681
 20
3.22334704
  0
VERTEX
  8
0
 10
5.99846876
 20
3.05067872
  0
VERTEX
  8
0
 10
5.84921903
 20
2.89001371
  0
VERTEX
  8
0
 10
5.67100644
 20
2.75139625
  0
VERTEX
  8
0
 10
5.57162541
 20
2.69774743
  0
VERTEX
  8
0
 10
5.47421903
 20
2.66779149
  0
VERTEX
  8
0
 10
5.38438971
 20
2.66168792
  0
VERTEX
  8
0
 10
5.31591251
 20
2.67892230
  0
VERTEX
  8
0
 10
5.27103302
 20
2.72531349
  0
VERTEX
  8
0
 10
5.25199681
 20
2.80668038
  0
SEQEND
  0
POLYLINE
  8
Default_Layer
 66
   1
 39
0.000000
 70
    1
  0
VERTEX
  8
0
 10
3.83533014
 20
4.16779149
  0
VERTEX
  8
0
 10
3.89167083
 20
4.10607597
  0
VERTEX
  8
0
 10
3.93831703
 20
4.03466726
  0
VERTEX
  8
0
 10
3.98555312
 20
3.96384845
  0
VERTEX
  8
0
 10
4.04366348
 20
3.90390260
  0
VERTEX
  8
0
 10
3.99896409
 20
3.84061090
  0
VERTEX
  8
0
 10
3.97333257
 20
3.76595350
  0
VERTEX
  8
0
 10
3.96610076
 20
3.68572636
  0
VERTEX
  8
0
 10
3.97660053
 20
3.60572542
  0
VERTEX
  8
0
 10
4.00416373
 20
3.53174663
  0
VERTEX
  8
0
 10
4.04812219
 20
3.46958593
  0
VERTEX
  8
0
 10
4.10780779
 20
3.42503927
  0
VERTEX
  8
0
 10
4.18255237
 20
3.40390260
  0
VERTEX
  8
0
 10
4.03813647
 20
3.34643966
  0
VERTEX
  8
0
 10
3.95656987
 20
3.33262108
  0
VERTEX
  8
0
 10
3.87699681
 20
3.33445816
  0
VERTEX
  8
0
 10
3.82006119
 20
3.34969817
  0
VERTEX
  8
0
 10
3.77398229
 20
3.37653635
  0
VERTEX
  8
0
 10
3.71129824
 20
3.45927657
  0
VERTEX
  8
0
 10
3.68275173
 20
3.57121759
  0
VERTEX
  8
0
 10
3.68214984
 20
3.70089816
  0
VERTEX
  8
0
 10
3.70329966
 20
3.83685707
  0
VERTEX
  8
0
 10
3.74000826
 20
3.96763308
  0
VERTEX
  8
0
 10
3.78608273
 20
4.08176497
  0
VERTEX
  8
0
 10
3.83533014
 20
4.16779149
  0
SEQEND
  0
POLYLINE
  8
Default_Layer
 66
   1
 39
0.000000
 70
    1
  0
VERTEX
  8
0
 10
4.87699681
 20
3.95945816
  0
VERTEX
  8
0
 10
5.09921903
 20
3.73723593
  0
VERTEX
  8
0
 10
5.02250479
 20
3.53944667
  0
VERTEX
  8
0
 10
4.89356546
 20
3.33979052
  0
VERTEX
  8
0
 10
4.72509181
 20
3.16177375
  0
VERTEX
  8
0
 10
4.62999547
 20
3.08822583
  0
VERTEX
  8
0
 10
4.52977459
 20
3.02890260
  0
VERTEX
  8
0
 10
4.38348074
 20
2.96494486
  0
VERTEX
  8
0
 10
4.29632549
 20
2.94991014
  0
VERTEX
  8
0
 10
4.19644126
 20
2.95945816
  0
VERTEX
  8
0
 10
4.13890807
 20
2.98746813
  0
VERTEX
  8
0
 10
4.09246425
 20
3.03396396
  0
VERTEX
  8
0
 10
4.00199681
 20
3.14001371
  0
VERTEX
  8
0
 10
3.92593474
 20
3.18463254
  0
VERTEX
  8
0
 10
3.89558893
 20
3.20482575
  0
VERTEX
  8
0
 10
3.87699681
 20
3.23723593
  0
VERTEX
  8
0
 10
3.91711427
 20
3.26746974
  0
VERTEX
  8
0
 10
3.97133647
 20
3.27900632
  0
VERTEX
  8
0
 10
4.09921903
 20
3.29279149
  0
VERTEX
  8
0
 10
4.34744674
 20
3.38345066
  0
VERTEX
  8
0
 10
4.46639546
 20
3.45066689
  0
VERTEX
  8
0
 10
4.57748439
 20
3.53093566
  0
VERTEX
  8
0
 10
4.67740126
 20
3.62310308
  0
VERTEX
  8
0
 10
4.76283380
 20
3.72601524
  0
VERTEX
  8
0
 10
4.83046974
 20
3.83851824
  0
VERTEX
  8
0
 10
4.87699681
 20
3.95945816
  0
SEQEND
  0
ENDSEC
  0
EOF
