  0
SECTION
  2
HEADER
  9
$ACADVER
  1
AC1009
  9
$DWGCODEPAGE
  3
ansi_1252
  9
$INSBASE
 10
0.0
 20
0.0
 30
0.0
  9
$EXTMIN
 10
-15.1292575625923
 20
-2.3208305178665
 30
0.0
  9
$EXTMAX
 10
140.54738580899
 20
99.7768696011521
 30
0.0
  9
$LIMMIN
 10
0.0
 20
0.0
  9
$LIMMAX
 10
12.0
 20
9.0
  9
$ORTHOMODE
 70
     0
  9
$REGENMODE
 70
     1
  9
$FILLMODE
 70
     1
  9
$QTEXTMODE
 70
     0
  9
$MIRRTEXT
 70
     1
  9
$DRAGMODE
 70
     2
  9
$LTSCALE
 40
1.0
  9
$OSMODE
 70
    37
  9
$ATTMODE
 70
     1
  9
$TEXTSIZE
 40
0.2
  9
$TRACEWID
 40
0.05
  9
$TEXTSTYLE
  7
STANDARD
  9
$CLAYER
  8
0
  9
$CELTYPE
  6
BYBLOCK
  9
$CECOLOR
 62
   256
  9
$DIMSCALE
 40
1.0
  9
$DIMASZ
 40
0.18
  9
$DIMEXO
 40
0.0625
  9
$DIMDLI
 40
0.38
  9
$DIMRND
 40
0.0
  9
$DIMDLE
 40
0.0
  9
$DIMEXE
 40
0.18
  9
$DIMTP
 40
0.0
  9
$DIMTM
 40
0.0
  9
$DIMTXT
 40
0.18
  9
$DIMCEN
 40
0.09
  9
$DIMTSZ
 40
0.0
  9
$DIMTOL
 70
     0
  9
$DIMLIM
 70
     0
  9
$DIMTIH
 70
     1
  9
$DIMTOH
 70
     1
  9
$DIMSE1
 70
     0
  9
$DIMSE2
 70
     0
  9
$DIMTAD
 70
     0
  9
$DIMZIN
 70
     0
  9
$DIMBLK
  1

  9
$DIMASO
 70
     1
  9
$DIMSHO
 70
     1
  9
$DIMPOST
  1

  9
$DIMAPOST
  1

  9
$DIMALT
 70
     0
  9
$DIMALTD
 70
     2
  9
$DIMALTF
 40
25.4
  9
$DIMLFAC
 40
1.0
  9
$DIMTOFL
 70
     0
  9
$DIMTVP
 40
0.0
  9
$DIMTIX
 70
     0
  9
$DIMSOXD
 70
     0
  9
$DIMSAH
 70
     0
  9
$DIMBLK1
  1

  9
$DIMBLK2
  1

  9
$DIMSTYLE
  2
STANDARD
  9
$DIMCLRD
 70
     0
  9
$DIMCLRE
 70
     0
  9
$DIMCLRT
 70
     0
  9
$DIMTFAC
 40
1.0
  9
$DIMGAP
 40
0.09
  9
$LUNITS
 70
     2
  9
$LUPREC
 70
     4
  9
$SKETCHINC
 40
0.1
  9
$FILLETRAD
 40
0.5
  9
$AUNITS
 70
     0
  9
$AUPREC
 70
     0
  9
$MENU
  1
.
  9
$ELEVATION
 40
0.0
  9
$PELEVATION
 40
0.0
  9
$THICKNESS
 40
0.0
  9
$LIMCHECK
 70
     0
  9
$CHAMFERA
 40
0.5
  9
$CHAMFERB
 40
0.5
  9
$SKPOLY
 70
     0
  9
$TDCREATE
 40
2453353.550459155
  9
$TDUPDATE
 40
4910675.889637037
  9
$TDINDWG
 40
4895786.051922963
  9
$TDUSRTIMER
 40
4895786.051922963
  9
$USRTIMER
 70
     1
  9
$ANGBASE
 50
0.0
  9
$ANGDIR
 70
     0
  9
$PDMODE
 70
     0
  9
$PDSIZE
 40
0.0
  9
$PLINEWID
 40
0.0
  9
$COORDS
 70
     1
  9
$SPLFRAME
 70
     0
  9
$SPLINETYPE
 70
     6
  9
$SPLINESEGS
 70
     8
  9
$ATTDIA
 70
     0
  9
$ATTREQ
 70
     1
  9
$HANDLING
 70
     1
  9
$HANDSEED
  5
321
  9
$SURFTAB1
 70
     6
  9
$SURFTAB2
 70
     6
  9
$SURFTYPE
 70
     6
  9
$SURFU
 70
     6
  9
$SURFV
 70
     6
  9
$UCSNAME
  2

  9
$UCSORG
 10
0.0
 20
0.0
 30
0.0
  9
$UCSXDIR
 10
1.0
 20
0.0
 30
0.0
  9
$UCSYDIR
 10
0.0
 20
1.0
 30
0.0
  9
$PUCSNAME
  2

  9
$PUCSORG
 10
0.0
 20
0.0
 30
0.0
  9
$PUCSXDIR
 10
1.0
 20
0.0
 30
0.0
  9
$PUCSYDIR
 10
0.0
 20
1.0
 30
0.0
  9
$USERI1
 70
     0
  9
$USERI2
 70
     0
  9
$USERI3
 70
     0
  9
$USERI4
 70
     0
  9
$USERI5
 70
     0
  9
$USERR1
 40
0.0
  9
$USERR2
 40
0.0
  9
$USERR3
 40
0.0
  9
$USERR4
 40
0.0
  9
$USERR5
 40
0.0
  9
$WORLDVIEW
 70
     1
  9
$SHADEDGE
 70
     3
  9
$SHADEDIF
 70
    70
  9
$TILEMODE
 70
     1
  9
$MAXACTVP
 70
    64
  9
$PLIMCHECK
 70
     0
  9
$PEXTMIN
 10
0.0
 20
0.0
 30
0.0
  9
$PEXTMAX
 10
0.0
 20
0.0
 30
0.0
  9
$PLIMMIN
 10
0.0
 20
0.0
  9
$PLIMMAX
 10
0.0
 20
0.0
  9
$UNITMODE
 70
     0
  9
$VISRETAIN
 70
     1
  9
$PLINEGEN
 70
     0
  9
$PSLTSCALE
 70
     1
  0
ENDSEC
  0
SECTION
  2
TABLES
  0
TABLE
  2
VPORT
 70
     1
  0
VPORT
  2
*ACTIVE
 70
     0
 10
0.0
 20
0.0
 11
1.0
 21
1.0
 12
43.81963002860651
 22
52.54377802436459
 13
0.0
 23
0.0
 14
10.0
 24
10.0
 15
10.0
 25
10.0
 16
0.0
 26
0.0
 36
1.0
 17
0.0
 27
0.0
 37
0.0
 40
115.335277771264
 41
1.972972972850329
 42
50.0
 43
0.0
 44
0.0
 50
0.0
 51
0.0
 71
    16
 72
   100
 73
     1
 74
     1
 75
     0
 76
     0
 77
     0
 78
     0
  0
ENDTAB
  0
TABLE
  2
LTYPE
 70
     1
  0
LTYPE
  2
CONTINUOUS
 70
     0
  3
Solid line
 72
    65
 73
     0
 40
0.0
  0
ENDTAB
  0
TABLE
  2
LAYER
 70
     2
  0
LAYER
  2
0
 70
     0
 62
     7
  6
CONTINUOUS
  0
LAYER
  2
DEFAULT
 70
     0
 62
    14
  6
CONTINUOUS
  0
ENDTAB
  0
TABLE
  2
STYLE
 70
     1
  0
STYLE
  2
STANDARD
 70
     0
 40
0.0
 41
1.0
 50
0.0
 71
     0
 42
0.2
  3
txt
  4

  0
ENDTAB
  0
TABLE
  2
VIEW
 70
     0
  0
ENDTAB
  0
TABLE
  2
UCS
 70
     0
  0
ENDTAB
  0
TABLE
  2
APPID
 70
     1
  0
APPID
  2
ACAD
 70
     0
  0
ENDTAB
  0
TABLE
  2
DIMSTYLE
 70
     1
  0
DIMSTYLE
  2
STANDARD
 70
     0
  3

  4

  5

  6

  7

 40
1.0
 41
0.18
 42
0.0625
 43
0.38
 44
0.18
 45
0.0
 46
0.0
 47
0.0
 48
0.0
140
0.18
141
0.09
142
0.0
143
25.4
144
1.0
145
0.0
146
1.0
147
0.09
 71
     0
 72
     0
 73
     1
 74
     1
 75
     0
 76
     0
 77
     0
 78
     0
170
     0
171
     2
172
     0
173
     0
174
     0
175
     0
176
     0
177
     0
178
     0
  0
ENDTAB
  0
ENDSEC
  0
SECTION
  2
BLOCKS
  0
BLOCK
  8
0
  2
$MODEL_SPACE
 70
     0
 10
0.0
 20
0.0
 30
0.0
  3
$MODEL_SPACE
  1

  0
ENDBLK
  5
21
  8
0
  0
BLOCK
 67
     1
  8
0
  2
$PAPER_SPACE
 70
     0
 10
0.0
 20
0.0
 30
0.0
  3
$PAPER_SPACE
  1

  0
ENDBLK
  5
76
 67
     1
  8
0
  0
ENDSEC
  0
SECTION
  2
ENTITIES
  0
POLYLINE
  5
24
  8
DEFAULT
 62
     4
 66
     1
 10
0.0
 20
0.0
 30
0.0
 70
     1
  0
VERTEX
  5
1C9
  8
DEFAULT
 62
     4
 10
57.81763698286379
 20
69.36510442545384
 30
0.0
  0
VERTEX
  5
1CA
  8
DEFAULT
 62
     4
 10
57.31757464194985
 20
68.72216712999293
 30
0.0
  0
VERTEX
  5
1CB
  8
DEFAULT
 62
     4
 10
57.10326221012963
 20
68.07922983453224
 30
0.0
  0
VERTEX
  5
1CC
  8
DEFAULT
 62
     4
 10
57.17469968740305
 20
67.65060497089156
 30
0.0
  0
VERTEX
  5
1CD
  8
DEFAULT
 62
     4
 10
55.60307450075304
 20
66.72191776633719
 30
0.0
  0
VERTEX
  5
1CE
  8
DEFAULT
 62
     4
 10
55.24588711438594
 20
65.57891812996233
 30
0.0
  0
VERTEX
  5
1CF
  8
DEFAULT
 62
     4
 10
55.1030121598391
 20
65.29316730535572
 30
0.0
  0
VERTEX
  5
1D0
  8
DEFAULT
 62
     4
 10
55.03157468256572
 20
64.86454244171527
 30
0.0
  0
VERTEX
  5
1D1
  8
DEFAULT
 62
     4
 10
54.81726225074543
 20
64.86454244171527
 30
0.0
  0
VERTEX
  5
1D2
  8
DEFAULT
 62
     4
 10
54.6029498189252
 20
64.72166748716853
 30
0.0
  0
VERTEX
  5
1D3
  8
DEFAULT
 62
     4
 10
54.6029498189252
 20
64.00729271443413
 30
0.0
  0
VERTEX
  5
1D4
  8
DEFAULT
 62
     4
 10
54.38863738710491
 20
63.00716803260627
 30
0.0
  0
VERTEX
  5
1D5
  8
DEFAULT
 62
     4
 10
54.10288747801123
 20
61.86416748071876
 30
0.0
  0
VERTEX
  5
1D6
  8
DEFAULT
 62
     4
 10
53.88857504619099
 20
60.57829288979718
 30
0.0
  0
VERTEX
  5
1D7
  8
DEFAULT
 62
     4
 10
52.95988692612355
 20
58.36373063656464
 30
0.0
  0
VERTEX
  5
1D8
  8
DEFAULT
 62
     4
 10
51.67401233520198
 20
55.14904324374768
 30
0.0
  0
VERTEX
  5
1D9
  8
DEFAULT
 62
     4
 10
51.45969990338172
 20
54.50610571940867
 30
0.0
  0
VERTEX
  5
1DA
  8
DEFAULT
 62
     4
 10
51.31682494883488
 20
52.72016832981667
 30
0.0
  0
VERTEX
  5
1DB
  8
DEFAULT
 62
     4
 10
51.67401233520198
 20
51.14854342926449
 30
0.0
  0
VERTEX
  5
1DC
  8
DEFAULT
 62
     4
 10
52.4598245852096
 20
50.21985593861223
 30
0.0
  0
VERTEX
  5
1DD
  8
DEFAULT
 62
     4
 10
53.10276188067039
 20
48.64823098084048
 30
0.0
  0
VERTEX
  5
1DE
  8
DEFAULT
 62
     4
 10
53.88857504619099
 20
46.36223079257809
 30
0.0
  0
VERTEX
  5
1DF
  8
DEFAULT
 62
     4
 10
54.88869972801885
 20
43.36185537382497
 30
0.0
  0
VERTEX
  5
1E0
  8
DEFAULT
 62
     4
 10
55.38876206893282
 20
41.71879339653628
 30
0.0
  0
VERTEX
  5
1E1
  8
DEFAULT
 62
     4
 10
54.46007486437833
 20
39.93285554918782
 30
0.0
  0
VERTEX
  5
1E2
  8
DEFAULT
 62
     4
 10
53.03132440339697
 20
37.36110545183173
 30
0.0
  0
VERTEX
  5
1E3
  8
DEFAULT
 62
     4
 10
52.60269953975644
 20
36.14666833818356
 30
0.0
  0
VERTEX
  5
1E4
  8
DEFAULT
 62
     4
 10
52.88844944885013
 20
35.78948095181649
 30
0.0
  0
VERTEX
  5
1E5
  8
DEFAULT
 62
     4
 10
53.60282467934081
 20
36.28954329273042
 30
0.0
  0
VERTEX
  5
1E6
  8
DEFAULT
 62
     4
 10
54.74582477347201
 20
36.36098077000384
 30
0.0
  0
VERTEX
  5
1E7
  8
DEFAULT
 62
     4
 10
55.53163702347962
 20
36.43241824727725
 30
0.0
  0
VERTEX
  5
1E8
  8
DEFAULT
 62
     4
 10
56.10313729942348
 20
36.28954329273042
 30
0.0
  0
VERTEX
  5
1E9
  8
DEFAULT
 62
     4
 10
56.60319964033742
 20
36.36098077000384
 30
0.0
  0
VERTEX
  5
1EA
  8
DEFAULT
 62
     4
 10
57.03182450397794
 20
36.43241824727725
 30
0.0
  0
VERTEX
  5
1EB
  8
DEFAULT
 62
     4
 10
57.38901211922327
 20
36.28954329273042
 30
0.0
  0
VERTEX
  5
1EC
  8
DEFAULT
 62
     4
 10
58.38913702992942
 20
35.57516851999621
 30
0.0
  0
VERTEX
  5
1ED
  8
DEFAULT
 62
     4
 10
58.88919937084336
 20
35.57516851999621
 30
0.0
  0
VERTEX
  5
1EE
  8
DEFAULT
 62
     4
 10
59.17494939437616
 20
36.14666833818356
 30
0.0
  0
VERTEX
  5
1EF
  8
DEFAULT
 62
     4
 10
58.81776189356994
 20
37.64685536092539
 30
0.0
  0
VERTEX
  5
1F0
  8
DEFAULT
 62
     4
 10
58.03194941468409
 20
39.36135573100047
 30
0.0
  0
VERTEX
  5
1F1
  8
DEFAULT
 62
     4
 10
57.60332455104357
 20
40.57579284464861
 30
0.0
  0
VERTEX
  5
1F2
  8
DEFAULT
 62
     4
 10
57.38901211922327
 20
40.93298023101571
 30
0.0
  0
VERTEX
  5
1F3
  8
DEFAULT
 62
     4
 10
57.46044959649673
 20
41.86166835108314
 30
0.0
  0
VERTEX
  5
1F4
  8
DEFAULT
 62
     4
 10
58.24626207538258
 20
43.21898041927811
 30
0.0
  0
VERTEX
  5
1F5
  8
DEFAULT
 62
     4
 10
59.10351191710274
 20
45.14779322117344
 30
0.0
  0
VERTEX
  5
1F6
  8
DEFAULT
 62
     4
 10
60.24651183957526
 20
46.64798070167174
 30
0.0
  0
VERTEX
  5
1F7
  8
DEFAULT
 62
     4
 10
61.96101158023515
 20
48.29104336559514
 30
0.0
  0
VERTEX
  5
1F8
  8
DEFAULT
 62
     4
 10
62.74682383024278
 20
49.50548093699979
 30
0.0
  0
VERTEX
  5
1F9
  8
DEFAULT
 62
     4
 10
63.17544892276153
 20
50.86279346295124
 30
0.0
  0
VERTEX
  5
1FA
  8
DEFAULT
 62
     4
 10
63.17544892276153
 20
52.43441842072298
 30
0.0
  0
VERTEX
  5
1FB
  8
DEFAULT
 62
     4
 10
63.17544892276153
 20
54.0060433784947
 30
0.0
  0
VERTEX
  5
1FC
  8
DEFAULT
 62
     4
 10
62.74682383024278
 20
55.93485549375531
 30
0.0
  0
VERTEX
  5
1FD
  8
DEFAULT
 62
     4
 10
62.10388653478199
 20
58.22085568201766
 30
0.0
  0
VERTEX
  5
1FE
  8
DEFAULT
 62
     4
 10
62.03244905750857
 20
59.86391811706278
 30
0.0
  0
VERTEX
  5
1FF
  8
DEFAULT
 62
     4
 10
61.81813662568831
 20
60.7926053216174
 30
0.0
  0
VERTEX
  5
200
  8
DEFAULT
 62
     4
 10
61.88957410296173
 20
61.64985504889829
 30
0.0
  0
VERTEX
  5
201
  8
DEFAULT
 62
     4
 10
61.74669914841489
 20
62.07847991253897
 30
0.0
  0
VERTEX
  5
202
  8
DEFAULT
 62
     4
 10
61.0323242469367
 20
63.15004298715325
 30
0.0
  0
VERTEX
  5
203
  8
DEFAULT
 62
     4
 10
60.60369929746682
 20
63.57866785079369
 30
0.0
  0
VERTEX
  5
204
  8
DEFAULT
 62
     4
 10
60.10363682780886
 20
64.29304262352785
 30
0.0
  0
VERTEX
  5
205
  8
DEFAULT
 62
     4
 10
59.88932433876904
 20
65.36460569814211
 30
0.0
  0
VERTEX
  5
206
  8
DEFAULT
 62
     4
 10
59.317824348923
 20
66.36473037996998
 30
0.0
  0
VERTEX
  5
207
  8
DEFAULT
 62
     4
 10
59.17494939437616
 20
67.43629253907133
 30
0.0
  0
VERTEX
  5
208
  8
DEFAULT
 62
     4
 10
58.88919937084336
 20
67.50773001634482
 30
0.0
  0
VERTEX
  5
209
  8
DEFAULT
 62
     4
 10
58.317699552656
 20
67.57916749361831
 30
0.0
  0
VERTEX
  5
20A
  8
DEFAULT
 62
     4
 10
58.81776189356994
 20
67.50773001634482
 30
0.0
  0
VERTEX
  5
20B
  8
DEFAULT
 62
     4
 10
59.317824348923
 20
67.57916749361831
 30
0.0
  0
VERTEX
  5
20C
  8
DEFAULT
 62
     4
 10
59.81788680427606
 20
67.86491740271178
 30
0.0
  0
VERTEX
  5
20D
  8
DEFAULT
 62
     4
 10
59.88932433876904
 20
68.4364172208992
 30
0.0
  0
VERTEX
  5
20E
  8
DEFAULT
 62
     4
 10
59.81788680427606
 20
69.15079199363336
 30
0.0
  0
VERTEX
  5
20F
  8
DEFAULT
 62
     4
 10
59.38926194063554
 20
69.50797938000056
 30
0.0
  0
VERTEX
  5
210
  8
DEFAULT
 62
     4
 10
58.9606369625559
 20
69.50797938000056
 30
0.0
  0
SEQEND
  5
1C8
  8
DEFAULT
 62
     4
  0
POLYLINE
  5
6E
  8
DEFAULT
 62
     2
 66
     1
 10
0.0
 20
0.0
 30
0.0
  0
VERTEX
  5
212
  8
DEFAULT
 62
     2
 10
57.9498519272273
 20
72.90913928555528
 30
0.0
  0
VERTEX
  5
213
  8
DEFAULT
 62
     2
 10
70.42142554904407
 20
82.35892015029367
 30
0.0
  0
VERTEX
  5
214
  8
DEFAULT
 62
     2
 10
83.0988393993828
 20
85.78680593385469
 30
0.0
  0
VERTEX
  5
215
  8
DEFAULT
 62
     2
 10
84.88480341152879
 20
86.0844677151657
 30
0.0
  0
VERTEX
  5
216
  8
DEFAULT
 62
     2
 10
83.99182092861869
 20
89.06107694520721
 30
0.0
  0
VERTEX
  5
217
  8
DEFAULT
 62
     2
 10
83.0988393993828
 20
91.14470178499001
 30
0.0
  0
VERTEX
  5
218
  8
DEFAULT
 62
     2
 10
82.2058569164727
 20
94.4189727963425
 30
0.0
  0
VERTEX
  5
219
  8
DEFAULT
 62
     2
 10
82.5035177441094
 20
97.3955810727097
 30
0.0
  0
VERTEX
  5
21A
  8
DEFAULT
 62
     2
 10
83.99182092861869
 20
99.4792087735154
 30
0.0
  0
VERTEX
  5
21B
  8
DEFAULT
 62
     2
 10
86.6707702846978
 20
99.7768696011521
 30
0.0
  0
VERTEX
  5
21C
  8
DEFAULT
 62
     2
 10
90.24270021633841
 20
99.7768696011521
 30
0.0
  0
VERTEX
  5
21D
  8
DEFAULT
 62
     2
 10
91.731004354522
 20
98.5862262906052
 30
0.0
  0
VERTEX
  5
21E
  8
DEFAULT
 62
     2
 10
93.21930849270559
 20
95.60961610688941
 30
0.0
  0
VERTEX
  5
21F
  8
DEFAULT
 62
     2
 10
92.9216476650689
 20
92.93066865815889
 30
0.0
  0
VERTEX
  5
220
  8
DEFAULT
 62
     2
 10
92.9216476650689
 20
90.5493801297165
 30
0.0
  0
VERTEX
  5
221
  8
DEFAULT
 62
     2
 10
90.8380218716118
 20
89.358737772844
 30
0.0
  0
VERTEX
  5
222
  8
DEFAULT
 62
     2
 10
90.8380218716118
 20
86.6797893704392
 30
0.0
  0
VERTEX
  5
223
  8
DEFAULT
 62
     2
 10
95.0052753658745
 20
85.1914842785813
 30
0.0
  0
VERTEX
  5
224
  8
DEFAULT
 62
     2
 10
100.958491918609
 20
80.7265709103562
 30
0.0
  0
VERTEX
  5
225
  8
DEFAULT
 62
     2
 10
104.53042185025
 20
72.6897264183976
 30
0.0
  0
VERTEX
  5
226
  8
DEFAULT
 62
     2
 10
106.018725988433
 20
66.43884689225921
 30
0.0
  0
VERTEX
  5
227
  8
DEFAULT
 62
     2
 10
106.911708471343
 20
60.4856289090134
 30
0.0
  0
VERTEX
  5
228
  8
DEFAULT
 62
     2
 10
105.42340433316
 20
55.4253929318405
 30
0.0
  0
VERTEX
  5
229
  8
DEFAULT
 62
     2
 10
104.828082677886
 20
51.8534610928513
 30
0.0
  0
VERTEX
  5
22A
  8
DEFAULT
 62
     2
 10
104.53042185025
 20
47.6862075985886
 30
0.0
  0
VERTEX
  5
22B
  8
DEFAULT
 62
     2
 10
103.042117712066
 20
45.3049209774948
 30
0.0
  0
VERTEX
  5
22C
  8
DEFAULT
 62
     2
 10
100.660831090972
 20
44.4119384945847
 30
0.0
  0
VERTEX
  5
22D
  8
DEFAULT
 62
     2
 10
100.660831090972
 20
47.0908859433152
 30
0.0
  0
VERTEX
  5
22E
  8
DEFAULT
 62
     2
 10
99.47018778042531
 20
46.197903460405
 30
0.0
  0
VERTEX
  5
22F
  8
DEFAULT
 62
     2
 10
98.57720529751521
 20
46.7932251156784
 30
0.0
  0
VERTEX
  5
230
  8
DEFAULT
 62
     2
 10
98.57720529751521
 20
50.3651569546677
 30
0.0
  0
VERTEX
  5
231
  8
DEFAULT
 62
     2
 10
98.57720529751521
 20
53.6394260586716
 30
0.0
  0
VERTEX
  5
232
  8
DEFAULT
 62
     2
 10
98.57720529751521
 20
58.4020021618821
 30
0.0
  0
VERTEX
  5
233
  8
DEFAULT
 62
     2
 10
97.68422281460499
 20
63.4622371853806
 30
0.0
  0
VERTEX
  5
234
  8
DEFAULT
 62
     2
 10
97.9818836422417
 20
67.92715150728
 30
0.0
  0
VERTEX
  5
235
  8
DEFAULT
 62
     2
 10
97.68422281460499
 20
70.3084390820481
 30
0.0
  0
VERTEX
  5
236
  8
DEFAULT
 62
     2
 10
97.0889011593316
 20
73.88037017597929
 30
0.0
  0
VERTEX
  5
237
  8
DEFAULT
 62
     2
 10
95.0052753658745
 20
77.7499616803147
 30
0.0
  0
VERTEX
  5
238
  8
DEFAULT
 62
     2
 10
92.0286651821587
 20
78.642944640062
 30
0.0
  0
VERTEX
  5
239
  8
DEFAULT
 62
     2
 10
86.0754486294243
 20
78.0476229847885
 30
0.0
  0
VERTEX
  5
23A
  8
DEFAULT
 62
     2
 10
82.80117857174611
 20
77.4523010910965
 30
0.0
  0
VERTEX
  5
23B
  8
DEFAULT
 62
     2
 10
80.7175527782891
 20
75.6663356484391
 30
0.0
  0
VERTEX
  5
23C
  8
DEFAULT
 62
     2
 10
79.22924768643119
 20
72.98738742484819
 30
0.0
  0
VERTEX
  5
23D
  8
DEFAULT
 62
     2
 10
77.4432827206109
 20
69.4154561223008
 30
0.0
  0
VERTEX
  5
23E
  8
DEFAULT
 62
     2
 10
75.9549785824273
 20
64.3552206219651
 30
0.0
  0
VERTEX
  5
23F
  8
DEFAULT
 62
     2
 10
75.9549785824273
 20
61.0809505642868
 30
0.0
  0
VERTEX
  5
240
  8
DEFAULT
 62
     2
 10
75.35965597347951
 20
58.4020021618821
 30
0.0
  0
VERTEX
  5
241
  8
DEFAULT
 62
     2
 10
73.2760306568596
 20
54.2347496212937
 30
0.0
  0
VERTEX
  5
242
  8
DEFAULT
 62
     2
 10
72.9783693523858
 20
50.3651569546677
 30
0.0
  0
VERTEX
  5
243
  8
DEFAULT
 62
     2
 10
72.9783693523858
 20
45.9002426327683
 30
0.0
  0
VERTEX
  5
244
  8
DEFAULT
 62
     2
 10
72.9783693523858
 20
42.0306518734909
 30
0.0
  0
VERTEX
  5
245
  8
DEFAULT
 62
     2
 10
73.2760306568596
 20
36.0774315060593
 30
0.0
  0
VERTEX
  5
246
  8
DEFAULT
 62
     2
 10
73.8713523121331
 20
29.8265541256882
 30
0.0
  0
VERTEX
  5
247
  8
DEFAULT
 62
     2
 10
73.8713523121331
 20
25.0639770688034
 30
0.0
  0
VERTEX
  5
248
  8
DEFAULT
 62
     2
 10
73.8713523121331
 20
18.8130996884323
 30
0.0
  0
VERTEX
  5
249
  8
DEFAULT
 62
     2
 10
73.8713523121331
 20
15.2411659420945
 30
0.0
  0
VERTEX
  5
24A
  8
DEFAULT
 62
     2
 10
73.8713523121331
 20
11.9668968380905
 30
0.0
  0
VERTEX
  5
24B
  8
DEFAULT
 62
     2
 10
72.3830476971123
 20
7.5019844235398
 30
0.0
  0
VERTEX
  5
24C
  8
DEFAULT
 62
     2
 10
71.4900652142022
 20
4.8230369748093
 30
0.0
  0
VERTEX
  5
24D
  8
DEFAULT
 62
     2
 10
70.72384396377709
 20
0.9406135913325073
 30
0.0
  0
VERTEX
  5
24E
  8
DEFAULT
 62
     2
 10
74.9138444946643
 20
1.16113993506341
 30
0.0
  0
VERTEX
  5
24F
  8
DEFAULT
 62
     2
 10
79.76542405674424
 20
4.46903509102701
 30
0.0
  0
VERTEX
  5
250
  8
DEFAULT
 62
     2
 10
81.6105352611992
 20
7.5019844235398
 30
0.0
  0
VERTEX
  5
251
  8
DEFAULT
 62
     2
 10
81.6105352611992
 20
10.478592699907
 30
0.0
  0
VERTEX
  5
252
  8
DEFAULT
 62
     2
 10
82.80117857174611
 20
14.0505226315476
 30
0.0
  0
VERTEX
  5
253
  8
DEFAULT
 62
     2
 10
84.2894817562554
 20
19.1107605160691
 30
0.0
  0
VERTEX
  5
254
  8
DEFAULT
 62
     2
 10
85.1824661465142
 20
22.6826904477097
 30
0.0
  0
VERTEX
  5
255
  8
DEFAULT
 62
     2
 10
85.48012697415091
 20
25.6592987240769
 30
0.0
  0
VERTEX
  5
256
  8
DEFAULT
 62
     2
 10
84.88480341152879
 20
28.0405853451706
 30
0.0
  0
VERTEX
  5
257
  8
DEFAULT
 62
     2
 10
85.7777878017876
 20
31.0171974362351
 30
0.0
  0
VERTEX
  5
258
  8
DEFAULT
 62
     2
 10
86.9684311123345
 20
32.5055015744187
 30
0.0
  0
VERTEX
  5
259
  8
DEFAULT
 62
     2
 10
87.8614135952446
 20
30.7195366085984
 30
0.0
  0
VERTEX
  5
25A
  8
DEFAULT
 62
     2
 10
88.45673525051809
 20
27.1476028622605
 30
0.0
  0
VERTEX
  5
25B
  8
DEFAULT
 62
     2
 10
89.0520569057915
 20
24.46865541353
 30
0.0
  0
VERTEX
  5
25C
  8
DEFAULT
 62
     2
 10
89.34971773342819
 20
21.1943863095261
 30
0.0
  0
VERTEX
  5
25D
  8
DEFAULT
 62
     2
 10
89.34971773342819
 20
17.6224563778855
 30
0.0
  0
VERTEX
  5
25E
  8
DEFAULT
 62
     2
 10
90.24270021633841
 20
14.9435051144577
 30
0.0
  0
VERTEX
  5
25F
  8
DEFAULT
 62
     2
 10
90.8380218716118
 20
11.6692360104538
 30
0.0
  0
VERTEX
  5
260
  8
DEFAULT
 62
     2
 10
92.114899305675
 20
9.761667340568756
 30
0.0
  0
VERTEX
  5
261
  8
DEFAULT
 62
     2
 10
94.09963639925316
 20
6.233245840874254
 30
0.0
  0
VERTEX
  5
262
  8
DEFAULT
 62
     2
 10
93.65858371179134
 20
2.704824341179759
 30
0.0
  0
VERTEX
  5
263
  8
DEFAULT
 62
     2
 10
95.0052753658745
 20
-0.5348655520462
 30
0.0
  0
VERTEX
  5
264
  8
DEFAULT
 62
     2
 10
98.2795444698784
 20
-0.5348655520462
 30
0.0
  0
VERTEX
  5
265
  8
DEFAULT
 62
     2
 10
99.61279499252581
 20
2.043245309987036
 30
0.0
  0
VERTEX
  5
266
  8
DEFAULT
 62
     2
 10
100.958491918609
 20
3.6323936642624
 30
0.0
  0
VERTEX
  5
267
  8
DEFAULT
 62
     2
 10
101.851474401519
 20
7.5019844235398
 30
0.0
  0
VERTEX
  5
268
  8
DEFAULT
 62
     2
 10
101.256152746246
 20
11.9668968380905
 30
0.0
  0
VERTEX
  5
269
  8
DEFAULT
 62
     2
 10
101.256152746246
 20
15.5388267697312
 30
0.0
  0
VERTEX
  5
26A
  8
DEFAULT
 62
     2
 10
101.256152746246
 20
18.5154388607956
 30
0.0
  0
VERTEX
  5
26B
  8
DEFAULT
 62
     2
 10
100.363170263335
 20
22.385029620073
 30
0.0
  0
VERTEX
  5
26C
  8
DEFAULT
 62
     2
 10
99.1725269527886
 20
27.7429245175339
 30
0.0
  0
VERTEX
  5
26D
  8
DEFAULT
 62
     2
 10
98.8748661251519
 20
31.9101799191452
 30
0.0
  0
VERTEX
  5
26E
  8
DEFAULT
 62
     2
 10
99.47018778042531
 20
37.5657356442429
 30
0.0
  0
VERTEX
  5
26F
  8
DEFAULT
 62
     2
 10
99.47018778042531
 20
41.1376655758835
 30
0.0
  0
VERTEX
  5
270
  8
DEFAULT
 62
     2
 10
99.47018778042531
 20
42.6259735287644
 30
0.0
  0
VERTEX
  5
271
  8
DEFAULT
 62
     2
 10
98.57003100495166
 20
46.86262512019415
 30
0.0
  0
SEQEND
  5
211
  8
DEFAULT
 62
     2
  0
POLYLINE
  5
D0
  8
DEFAULT
 62
     2
 66
     1
 10
0.0
 20
0.0
 30
0.0
  0
VERTEX
  5
273
  8
DEFAULT
 62
     2
 10
76.05729108035703
 20
62.23251271743864
 30
0.0
  0
VERTEX
  5
274
  8
DEFAULT
 62
     2
 10
81.6105352611992
 20
62.2715938748337
 30
0.0
  0
VERTEX
  5
275
  8
DEFAULT
 62
     2
 10
85.1824661465142
 20
62.5692547024704
 30
0.0
  0
VERTEX
  5
276
  8
DEFAULT
 62
     2
 10
94.70761453823781
 20
61.6762722195603
 30
0.0
  0
VERTEX
  5
277
  8
DEFAULT
 62
     2
 10
97.9818836422417
 20
61.3786113919236
 30
0.0
  0
VERTEX
  5
278
  8
DEFAULT
 62
     2
 10
97.9818836422417
 20
56.6160362423874
 30
0.0
  0
VERTEX
  5
279
  8
DEFAULT
 62
     2
 10
95.3029361935112
 20
57.8066805066086
 30
0.0
  0
VERTEX
  5
27A
  8
DEFAULT
 62
     2
 10
90.5403610439751
 20
58.6996629895188
 30
0.0
  0
VERTEX
  5
27B
  8
DEFAULT
 62
     2
 10
87.85575251392646
 20
58.78863748818054
 30
0.0
  0
VERTEX
  5
27C
  8
DEFAULT
 62
     2
 10
86.00626396488043
 20
54.26057931637823
 30
0.0
  0
VERTEX
  5
27D
  8
DEFAULT
 62
     2
 10
85.49606022721257
 20
43.61007629256151
 30
0.0
  0
VERTEX
  5
27E
  8
DEFAULT
 62
     2
 10
84.15677541583442
 20
54.19680384916974
 30
0.0
  0
VERTEX
  5
27F
  8
DEFAULT
 62
     2
 10
84.53942821908532
 20
58.97996388980599
 30
0.0
  0
VERTEX
  5
280
  8
DEFAULT
 62
     2
 10
79.5269085140679
 20
58.9973238171555
 30
0.0
  0
VERTEX
  5
281
  8
DEFAULT
 62
     2
 10
75.61086280989765
 20
58.97996388980599
 30
0.0
  0
SEQEND
  5
272
  8
DEFAULT
 62
     2
  0
POLYLINE
  5
EA
  8
DEFAULT
 66
     1
 10
0.0
 20
0.0
 30
0.0
  0
VERTEX
  5
283
  8
DEFAULT
 10
34.5801120968316
 20
18.8130996884323
 30
0.0
  0
VERTEX
  5
284
  8
DEFAULT
 10
31.0081821651909
 20
19.4084213437058
 30
0.0
  0
VERTEX
  5
285
  8
DEFAULT
 10
31.0081821651909
 20
23.2780121029831
 30
0.0
  0
VERTEX
  5
286
  8
DEFAULT
 10
30.7105213375542
 20
24.7663162411667
 30
0.0
  0
VERTEX
  5
287
  8
DEFAULT
 10
28.6268955440972
 20
28.0405853451706
 30
0.0
  0
VERTEX
  5
288
  8
DEFAULT
 10
29.2222171993706
 20
31.3148582638718
 30
0.0
  0
VERTEX
  5
289
  8
DEFAULT
 10
29.2222171993706
 20
34.8867881955124
 30
0.0
  0
VERTEX
  5
28A
  8
DEFAULT
 10
28.3292347164605
 20
36.6727531613327
 30
0.0
  0
VERTEX
  5
28B
  8
DEFAULT
 10
23.8643223019097
 20
36.6727531613327
 30
0.0
  0
VERTEX
  5
28C
  8
DEFAULT
 10
20.5900531979058
 20
35.1844490231491
 30
0.0
  0
VERTEX
  5
28D
  8
DEFAULT
 10
16.7204586239312
 20
31.9101799191452
 30
0.0
  0
VERTEX
  5
28E
  8
DEFAULT
 10
12.8508678646538
 20
29.5288932980515
 30
0.0
  0
VERTEX
  5
28F
  8
DEFAULT
 10
14.3391720028374
 20
24.46865541353
 30
0.0
  0
VERTEX
  5
290
  8
DEFAULT
 10
11.9578853817437
 20
20.8967254818894
 30
0.0
  0
VERTEX
  5
291
  8
DEFAULT
 10
12.5532070370171
 20
17.9201172055222
 30
0.0
  0
VERTEX
  5
292
  8
DEFAULT
 10
8.385955450102999
 20
18.2177780331589
 30
0.0
  0
VERTEX
  5
293
  8
DEFAULT
 10
-15.1292575625923
 20
8.692627734086599
 30
0.0
  0
VERTEX
  5
294
  8
DEFAULT
 10
-13.6409534244087
 20
5.7160194577195
 30
0.0
  0
VERTEX
  5
295
  8
DEFAULT
 10
-10.9620059756782
 20
4.8230369748093
 30
0.0
  0
VERTEX
  5
296
  8
DEFAULT
 10
-10.9620059756782
 20
2.441742724321
 30
0.0
  0
VERTEX
  5
297
  8
DEFAULT
 10
-8.2830585269477
 20
2.7394035519577
 30
0.0
  0
VERTEX
  5
298
  8
DEFAULT
 10
17.16275079621082
 20
16.44789074310868
 30
0.0
  0
VERTEX
  5
299
  8
DEFAULT
 10
-7.985397699311
 20
2.7394035519577
 30
0.0
  0
VERTEX
  5
29A
  8
DEFAULT
 10
-4.1158069400337
 20
0.0604561032273
 30
0.0
  0
VERTEX
  5
29B
  8
DEFAULT
 10
1.2420955868218
 20
-0.2372047244095
 30
0.0
  0
VERTEX
  5
29C
  8
DEFAULT
 10
3.3257213802788
 20
0.358116930864
 30
0.0
  0
VERTEX
  5
29D
  8
DEFAULT
 10
16.37038683668593
 20
7.731887188334857
 30
0.0
  0
VERTEX
  5
29E
  8
DEFAULT
 10
34.69380340069908
 20
18.62689163180214
 30
0.0
  0
VERTEX
  5
29F
  8
DEFAULT
 10
42.42237352269087
 20
17.31952549646761
 30
0.0
  0
VERTEX
  5
2A0
  8
DEFAULT
 10
23.566661474273
 20
5.7160194577195
 30
0.0
  0
VERTEX
  5
2A1
  8
DEFAULT
 10
12.90379451376452
 20
-1.380298346201411
 30
0.0
  0
VERTEX
  5
2A2
  8
DEFAULT
 10
3.3257213802788
 20
0.9534385861374
 30
0.0
  0
VERTEX
  5
2A3
  8
DEFAULT
 10
10.22956615036801
 20
-1.182207356320188
 30
0.0
  0
VERTEX
  5
2A4
  8
DEFAULT
 10
14.6368328304741
 20
-1.1301872073196
 30
0.0
  0
VERTEX
  5
2A5
  8
DEFAULT
 10
17.6134411068413
 20
-0.5348655520462
 30
0.0
  0
VERTEX
  5
2A6
  8
DEFAULT
 10
20.5900531979058
 20
-0.5348655520462
 30
0.0
  0
VERTEX
  5
2A7
  8
DEFAULT
 10
47.4282733186085
 20
16.45643932475768
 30
0.0
  0
VERTEX
  5
2A8
  8
DEFAULT
 10
20.5900531979058
 20
-0.5348655520462
 30
0.0
  0
VERTEX
  5
2A9
  8
DEFAULT
 10
24.4596439571831
 20
-0.5348655520462
 30
0.0
  0
VERTEX
  5
2AA
  8
DEFAULT
 10
28.9245563717339
 20
-0.5348655520462
 30
0.0
  0
VERTEX
  5
2AB
  8
DEFAULT
 10
32.1988254757378
 20
-0.5348655520462
 30
0.0
  0
VERTEX
  5
2AC
  8
DEFAULT
 10
54.90835347342795
 20
15.01796237190778
 30
0.0
  0
VERTEX
  5
2AD
  8
DEFAULT
 10
32.4964863033745
 20
-0.8325263796829
 30
0.0
  0
VERTEX
  5
2AE
  8
DEFAULT
 10
37.2590614529107
 20
0.0604561032273
 30
0.0
  0
VERTEX
  5
2AF
  8
DEFAULT
 10
41.1286541195366
 20
0.0604561032273
 30
0.0
  0
VERTEX
  5
2B0
  8
DEFAULT
 10
44.1052623959038
 20
0.0604561032273
 30
0.0
  0
VERTEX
  5
2B1
  8
DEFAULT
 10
59.97179234745958
 20
13.92471988774186
 30
0.0
  0
VERTEX
  5
2B2
  8
DEFAULT
 10
44.4029232235405
 20
-0.2372047244095
 30
0.0
  0
VERTEX
  5
2B3
  8
DEFAULT
 10
46.1888881893609
 20
-0.2372047244095
 30
0.0
  0
VERTEX
  5
2B4
  8
DEFAULT
 10
49.4631592007134
 20
-0.2372047244095
 30
0.0
  0
VERTEX
  5
2B5
  8
DEFAULT
 10
51.8444467754815
 20
0.358116930864
 30
0.0
  0
VERTEX
  5
2B6
  8
DEFAULT
 10
54.5233942242119
 20
0.358116930864
 30
0.0
  0
VERTEX
  5
2B7
  8
DEFAULT
 10
56.6070209713433
 20
0.0604561032273
 30
0.0
  0
VERTEX
  5
2B8
  8
DEFAULT
 10
58.6906467648003
 20
0.0604561032273
 30
0.0
  0
VERTEX
  5
2B9
  8
DEFAULT
 10
59.8812905521843
 20
0.0604561032273
 30
0.0
  0
VERTEX
  5
2BA
  8
DEFAULT
 10
66.13216936306689
 20
13.4552009762741
 30
0.0
  0
VERTEX
  5
2BB
  8
DEFAULT
 10
62.560238477752
 20
13.1575401486374
 30
0.0
  0
VERTEX
  5
2BC
  8
DEFAULT
 10
59.8812905521843
 20
14.0505226315476
 30
0.0
  0
VERTEX
  5
2BD
  8
DEFAULT
 10
62.2625776501152
 20
12.8598793210007
 30
0.0
  0
VERTEX
  5
2BE
  8
DEFAULT
 10
65.1503093777192
 20
12.37116477866398
 30
0.0
  0
VERTEX
  5
2BF
  8
DEFAULT
 10
67.025152024791
 20
12.2645576657273
 30
0.0
  0
VERTEX
  5
2C0
  8
DEFAULT
 10
70.0017608376
 20
12.2645576657273
 30
0.0
  0
VERTEX
  5
2C1
  8
DEFAULT
 10
73.57369148449639
 20
12.8598793210007
 30
0.0
  0
VERTEX
  5
2C2
  8
DEFAULT
 10
69.406438943908
 20
1.2510994137741
 30
0.0
  0
VERTEX
  5
2C3
  8
DEFAULT
 10
66.4298302503083
 20
0.6557777585007
 30
0.0
  0
VERTEX
  5
2C4
  8
DEFAULT
 10
63.1555601330254
 20
0.0604561032273
 30
0.0
  0
VERTEX
  5
2C5
  8
DEFAULT
 10
60.7742730350945
 20
0.0604561032273
 30
0.0
  0
VERTEX
  5
2C6
  8
DEFAULT
 10
66.13216936306689
 20
0.6557777585007
 30
0.0
  0
VERTEX
  5
2C7
  8
DEFAULT
 10
70.0017608376
 20
0.358116930864
 30
0.0
  0
VERTEX
  5
2C8
  8
DEFAULT
 10
75.35965597347951
 20
0.0604561032273
 30
0.0
  0
VERTEX
  5
2C9
  8
DEFAULT
 10
76.8479610653374
 20
0.6557777585007
 30
0.0
  0
VERTEX
  5
2CA
  8
DEFAULT
 10
81.6105352611992
 20
0.6557777585007
 30
0.0
  0
VERTEX
  5
2CB
  8
DEFAULT
 10
84.5871425838921
 20
-0.8325263796829
 30
0.0
  0
VERTEX
  5
2CC
  8
DEFAULT
 10
85.48012697415091
 20
-0.5348655520462
 30
0.0
  0
VERTEX
  5
2CD
  8
DEFAULT
 10
86.9684311123345
 20
12.2645576657273
 30
0.0
  0
VERTEX
  5
2CE
  8
DEFAULT
 10
83.0988393993828
 20
12.2645576657273
 30
0.0
  0
VERTEX
  5
2CF
  8
DEFAULT
 10
90.5403610439751
 20
11.6692360104538
 30
0.0
  0
VERTEX
  5
2D0
  8
DEFAULT
 10
86.6707702846978
 20
11.6692360104538
 30
0.0
  0
VERTEX
  5
2D1
  8
DEFAULT
 10
85.1824661465142
 20
-0.8325263796829
 30
0.0
  0
VERTEX
  5
2D2
  8
DEFAULT
 10
87.5637527676079
 20
-0.5348655520462
 30
0.0
  0
VERTEX
  5
2D3
  8
DEFAULT
 10
90.8380218716118
 20
-0.8325263796829
 30
0.0
  0
VERTEX
  5
2D4
  8
DEFAULT
 10
92.6239868374321
 20
-0.8325263796829
 30
0.0
  0
VERTEX
  5
2D5
  8
DEFAULT
 10
95.8982578487847
 20
-1.1301872073196
 30
0.0
  0
VERTEX
  5
2D6
  8
DEFAULT
 10
99.1725269527886
 20
-1.1301872073196
 30
0.0
  0
VERTEX
  5
2D7
  8
DEFAULT
 10
103.339778539703
 20
-1.1301872073196
 30
0.0
  0
VERTEX
  5
2D8
  8
DEFAULT
 10
104.828082677886
 20
-0.8325263796829
 30
0.0
  0
VERTEX
  5
2D9
  8
DEFAULT
 10
101.851474401519
 20
5.7160194577195
 30
0.0
  0
VERTEX
  5
2DA
  8
DEFAULT
 10
105.125743505523
 20
-1.1301872073196
 30
0.0
  0
VERTEX
  5
2DB
  8
DEFAULT
 10
107.507030126617
 20
-1.1301872073196
 30
0.0
  0
VERTEX
  5
2DC
  8
DEFAULT
 10
111.971942541167
 20
-2.3208305178665
 30
0.0
  0
VERTEX
  5
2DD
  8
DEFAULT
 10
112.864925024078
 20
-1.1301872073196
 30
0.0
  0
VERTEX
  5
2DE
  8
DEFAULT
 10
107.20936929898
 20
11.3715751828171
 30
0.0
  0
VERTEX
  5
2DF
  8
DEFAULT
 10
102.744456884429
 20
11.6692360104538
 30
0.0
  0
VERTEX
  5
2E0
  8
DEFAULT
 10
133.105865118072
 20
11.3715751828171
 30
0.0
  0
VERTEX
  5
2E1
  8
DEFAULT
 10
118.520484563873
 20
11.3715751828171
 30
0.0
  0
VERTEX
  5
2E2
  8
DEFAULT
 10
130.426917669341
 20
-0.5348655520462
 30
0.0
  0
VERTEX
  5
2E3
  8
DEFAULT
 10
124.771361944244
 20
-1.4278480349563
 30
0.0
  0
VERTEX
  5
2E4
  8
DEFAULT
 10
122.687736150787
 20
-1.4278480349563
 30
0.0
  0
VERTEX
  5
2E5
  8
DEFAULT
 10
111.674281713531
 20
11.0739143551804
 30
0.0
  0
VERTEX
  5
2E6
  8
DEFAULT
 10
122.687736150787
 20
-1.4278480349563
 30
0.0
  0
VERTEX
  5
2E7
  8
DEFAULT
 10
120.901771184966
 20
-1.4278480349563
 30
0.0
  0
VERTEX
  5
2E8
  8
DEFAULT
 10
118.222823736236
 20
-1.7255088625931
 30
0.0
  0
VERTEX
  5
2E9
  8
DEFAULT
 10
115.841537115142
 20
-1.4278480349563
 30
0.0
  0
VERTEX
  5
2EA
  8
DEFAULT
 10
113.460246679351
 20
-1.4278480349563
 30
0.0
  0
SEQEND
  5
282
  8
DEFAULT
  0
CIRCLE
  5
154
  8
DEFAULT
 62
     4
 10
56.1745747766969
 20
64.93597991898876
 30
0.0
 40
0.4345372100177798
  0
POLYLINE
  5
155
  8
DEFAULT
 62
     4
 66
     1
 10
0.0
 20
0.0
 30
0.0
  0
VERTEX
  5
2EC
  8
DEFAULT
 62
     4
 10
60.24651183957526
 20
63.79298028261391
 30
0.0
  0
VERTEX
  5
2ED
  8
DEFAULT
 62
     4
 10
59.88932433876904
 20
63.43579289624695
 30
0.0
  0
VERTEX
  5
2EE
  8
DEFAULT
 62
     4
 10
59.317824348923
 20
63.00716803260627
 30
0.0
  0
VERTEX
  5
2EF
  8
DEFAULT
 62
     4
 10
58.24626207538258
 20
62.93573055533302
 30
0.0
  0
VERTEX
  5
2F0
  8
DEFAULT
 62
     4
 10
57.46044959649673
 20
62.93573055533302
 30
0.0
  0
VERTEX
  5
2F1
  8
DEFAULT
 62
     4
 10
57.24613716467647
 20
63.15004298715325
 30
0.0
  0
VERTEX
  5
2F2
  8
DEFAULT
 62
     4
 10
57.17469968740305
 20
63.43579289624695
 30
0.0
  0
SEQEND
  5
2EB
  8
DEFAULT
 62
     4
  0
POLYLINE
  5
163
  8
DEFAULT
 66
     1
 10
0.0
 20
0.0
 30
0.0
  0
VERTEX
  5
2F4
  8
DEFAULT
 10
105.125743505523
 20
52.7464435757614
 30
0.0
  0
VERTEX
  5
2F5
  8
DEFAULT
 10
111.674281713531
 20
53.0441044033982
 30
0.0
  0
VERTEX
  5
2F6
  8
DEFAULT
 10
115.246215459869
 20
57.2113578976609
 30
0.0
  0
VERTEX
  5
2F7
  8
DEFAULT
 10
120.008788702056
 20
61.3786113919236
 30
0.0
  0
VERTEX
  5
2F8
  8
DEFAULT
 10
130.724578496978
 20
64.3552206219651
 30
0.0
  0
VERTEX
  5
2F9
  8
DEFAULT
 10
138.166099187896
 20
68.5224736393906
 30
0.0
  0
VERTEX
  5
2FA
  8
DEFAULT
 10
139.65440332608
 20
11.0739143551804
 30
0.0
  0
VERTEX
  5
2FB
  8
DEFAULT
 10
132.212882635162
 20
11.3715751828171
 30
0.0
  0
VERTEX
  5
2FC
  8
DEFAULT
 10
140.54738580899
 20
0.358116930864
 30
0.0
  0
VERTEX
  5
2FD
  8
DEFAULT
 10
138.761420843169
 20
0.0604561032273
 30
0.0
  0
VERTEX
  5
2FE
  8
DEFAULT
 10
135.189490911529
 20
0.0604561032273
 30
0.0
  0
VERTEX
  5
2FF
  8
DEFAULT
 10
132.212882635162
 20
0.358116930864
 30
0.0
  0
VERTEX
  5
300
  8
DEFAULT
 10
130.426917669341
 20
-0.8325263796829
 30
0.0
  0
SEQEND
  5
2F3
  8
DEFAULT
  0
POLYLINE
  5
172
  8
DEFAULT
 62
     4
 66
     1
 10
0.0
 20
0.0
 30
0.0
  0
VERTEX
  5
302
  8
DEFAULT
 62
     4
 10
55.67451197802646
 20
36.57529320182411
 30
0.0
  0
VERTEX
  5
303
  8
DEFAULT
 62
     4
 10
56.03169982215006
 20
40.07573050373465
 30
0.0
  0
VERTEX
  5
304
  8
DEFAULT
 62
     4
 10
55.38876206893282
 20
40.00429302646123
 30
0.0
  0
VERTEX
  5
305
  8
DEFAULT
 62
     4
 10
54.81726225074543
 20
40.14716798100809
 30
0.0
  0
VERTEX
  5
306
  8
DEFAULT
 62
     4
 10
55.24588711438594
 20
40.00429302646123
 30
0.0
  0
VERTEX
  5
307
  8
DEFAULT
 62
     4
 10
56.03169982215006
 20
40.07573050373465
 30
0.0
  0
VERTEX
  5
308
  8
DEFAULT
 62
     4
 10
56.531762163064
 20
39.93285554918782
 30
0.0
  0
VERTEX
  5
309
  8
DEFAULT
 62
     4
 10
56.96038702670452
 20
39.93285554918782
 30
0.0
  0
VERTEX
  5
30A
  8
DEFAULT
 62
     4
 10
57.60332455104357
 20
40.2186054582815
 30
0.0
  0
SEQEND
  5
301
  8
DEFAULT
 62
     4
  0
POLYLINE
  5
17D
  8
DEFAULT
 66
     1
 10
0.0
 20
0.0
 30
0.0
  0
VERTEX
  5
30C
  8
DEFAULT
 10
13.1485286922905
 20
17.9201172055222
 30
0.0
  0
VERTEX
  5
30D
  8
DEFAULT
 10
17.3157802792046
 20
16.1341522397019
 30
0.0
  0
VERTEX
  5
30E
  8
DEFAULT
 10
20.2923923702691
 20
16.1341522397019
 30
0.0
  0
VERTEX
  5
30F
  8
DEFAULT
 10
25.3526264400933
 20
16.1341522397019
 30
0.0
  0
VERTEX
  5
310
  8
DEFAULT
 10
28.3292347164605
 20
17.6224563778855
 30
0.0
  0
VERTEX
  5
311
  8
DEFAULT
 10
31.0081821651909
 20
18.2177780331589
 30
0.0
  0
VERTEX
  5
312
  8
DEFAULT
 10
34.5801120968316
 20
18.8130996884323
 30
0.0
  0
VERTEX
  5
313
  8
DEFAULT
 10
60.02933142557357
 20
13.98225896585586
 30
0.0
  0
SEQEND
  5
30B
  8
DEFAULT
  0
POLYLINE
  5
187
  8
DEFAULT
 62
     4
 66
     1
 10
0.0
 20
0.0
 30
0.0
  0
VERTEX
  5
315
  8
DEFAULT
 62
     4
 10
57.38901211922327
 20
61.29266766253134
 30
0.0
  0
VERTEX
  5
316
  8
DEFAULT
 62
     4
 10
56.60319964033742
 20
44.07623106207213
 30
0.0
  0
SEQEND
  5
314
  8
DEFAULT
 62
     4
  0
POLYLINE
  5
18B
  8
DEFAULT
 62
     4
 66
     1
 10
0.0
 20
0.0
 30
0.0
  0
VERTEX
  5
318
  8
DEFAULT
 62
     4
 10
52.95988692612355
 20
55.93485549375531
 30
0.0
  0
VERTEX
  5
319
  8
DEFAULT
 62
     4
 10
52.8170119715767
 20
54.57754319668207
 30
0.0
  0
VERTEX
  5
31A
  8
DEFAULT
 62
     4
 10
51.88832476702224
 20
53.93460590122129
 30
0.0
  0
VERTEX
  5
31B
  8
DEFAULT
 62
     4
 10
52.95988692612355
 20
54.64898067395549
 30
0.0
  0
VERTEX
  5
31C
  8
DEFAULT
 62
     4
 10
52.74557449430328
 20
53.36310585415569
 30
0.0
  0
VERTEX
  5
31D
  8
DEFAULT
 62
     4
 10
51.88832476702224
 20
52.57729343248938
 30
0.0
  0
VERTEX
  5
31E
  8
DEFAULT
 62
     4
 10
52.74557449430328
 20
53.29166837688226
 30
0.0
  0
VERTEX
  5
31F
  8
DEFAULT
 62
     4
 10
52.95988692612355
 20
52.22010593168317
 30
0.0
  0
VERTEX
  5
320
  8
DEFAULT
 62
     4
 10
52.31694963066276
 20
51.29141844103089
 30
0.0
  0
SEQEND
  5
317
  8
DEFAULT
 62
     4
  0
LINE
  5
19D
  8
0
  6
BYBLOCK
 62
     2
 10
80.86805577539877
 20
75.91957045984066
 30
0.0
 11
79.54489771301334
 21
78.12483389714971
 31
0.0
  0
LINE
  5
19E
  8
0
  6
BYBLOCK
 62
     2
 10
79.54489771301334
 20
78.12483389714971
 30
0.0
 11
73.22693149939555
 21
76.74790824959071
 31
0.0
  0
LINE
  5
19F
  8
0
  6
BYBLOCK
 62
     2
 10
73.22693149939555
 20
76.74790824959071
 30
0.0
 11
62.00490769798962
 21
72.14687849101428
 31
0.0
  0
LINE
  5
1A0
  8
0
  6
BYBLOCK
 62
     2
 10
62.00490769798962
 20
72.14687849101428
 30
0.0
 11
61.55602674593339
 21
71.36133682491587
 31
0.0
  0
LINE
  5
1A1
  8
0
  6
BYBLOCK
 62
     2
 10
61.55602674593339
 20
71.36133682491587
 30
0.0
 11
60.4338243657928
 21
70.23913444477527
 31
0.0
  0
LINE
  5
1A2
  8
0
  6
BYBLOCK
 62
     2
 10
60.4338243657928
 20
70.23913444477527
 30
0.0
 11
58.95669173583763
 21
69.50837153444289
 31
0.0
  0
LINE
  5
1A3
  8
0
  6
BYBLOCK
 62
     2
 10
58.52855848611185
 20
69.45058667865168
 30
0.0
 11
58.18941960551161
 21
70.35135468278934
 31
0.0
  0
LINE
  5
1A4
  8
0
  6
BYBLOCK
 62
     2
 10
58.18941960551161
 20
70.35135468278934
 30
0.0
 11
57.62831841544131
 21
71.58577730094399
 31
0.0
  0
LINE
  5
1A5
  8
0
  6
BYBLOCK
 62
     2
 10
57.62831841544131
 20
71.58577730094399
 30
0.0
 11
57.9498519272273
 21
72.90913928555528
 31
0.0
  0
TEXT
  5
1B5
  8
0
  6
BYBLOCK
 10
39.75788492100108
 20
52.62924573621504
 30
0.0
 40
3.86875110707193
  1
8"
  0
LINE
  5
1B6
  8
0
  6
BYBLOCK
 10
54.25933025977005
 20
69.55036454741442
 30
0.0
 11
38.58103900658155
 21
69.55036454741442
 31
0.0
  0
LINE
  5
1B7
  8
0
  6
BYBLOCK
 10
51.91491287611569
 20
35.70283857090466
 30
0.0
 11
38.87409117953834
 21
35.70283857090466
 31
0.0
  0
LINE
  5
1B8
  8
0
  6
BYBLOCK
 10
41.2185085631927
 20
69.55036454741442
 30
0.0
 11
41.2185085631927
 21
59.44006458040501
 31
0.0
  0
LINE
  5
1B9
  8
0
  6
BYBLOCK
 10
41.2185085631927
 20
50.50197330522278
 30
0.0
 11
41.2185085631927
 21
35.70283857090466
 31
0.0
  0
LINE
  5
1BA
  8
0
  6
BYBLOCK
 10
40.28081632340142
 20
67.12369048980953
 30
0.0
 11
41.13013161265065
 21
69.60086008345309
 31
0.0
  0
LINE
  5
1BB
  8
0
  6
BYBLOCK
 10
41.13013161265065
 20
69.60086008345309
 30
0.0
 11
42.05022317600397
 21
67.05291421570543
 31
0.0
  0
LINE
  5
1BC
  8
0
  6
BYBLOCK
 10
40.28081632340142
 20
37.96386555891964
 30
0.0
 11
41.20090788675475
 21
35.69902478758839
 31
0.0
  0
LINE
  5
1BD
  8
0
  6
BYBLOCK
 10
41.20090788675475
 20
35.69902478758839
 30
0.0
 11
42.12099945010807
 21
37.89308928481554
 31
0.0
  0
ENDSEC
  0
EOF
