  0
SECTION
  2
HEADER
  9
$ACADVER
  1
AC1009
  9
$DWGCODEPAGE
  3
ansi_1252
  9
$INSBASE
 10
0.0
 20
0.0
 30
0.0
  9
$EXTMIN
 10
227.7419825475883
 20
-25.87834532034543
 30
0.0
  9
$EXTMAX
 10
659.0405711594002
 20
111.0791462435691
 30
0.0
  9
$LIMMIN
 10
0.0
 20
0.0
  9
$LIMMAX
 10
12.0
 20
9.0
  9
$ORTHOMODE
 70
     0
  9
$REGENMODE
 70
     1
  9
$FILLMODE
 70
     1
  9
$QTEXTMODE
 70
     0
  9
$MIRRTEXT
 70
     1
  9
$DRAGMODE
 70
     2
  9
$LTSCALE
 40
1.0
  9
$OSMODE
 70
    37
  9
$ATTMODE
 70
     1
  9
$TEXTSIZE
 40
0.15
  9
$TRACEWID
 40
0.05
  9
$TEXTSTYLE
  7
STANDARD
  9
$CLAYER
  8
0
  9
$CELTYPE
  6
BYBLOCK
  9
$CECOLOR
 62
     1
  9
$DIMSCALE
 40
1.0
  9
$DIMASZ
 40
0.18
  9
$DIMEXO
 40
0.0625
  9
$DIMDLI
 40
0.38
  9
$DIMRND
 40
0.0
  9
$DIMDLE
 40
0.0
  9
$DIMEXE
 40
0.18
  9
$DIMTP
 40
0.0
  9
$DIMTM
 40
0.0
  9
$DIMTXT
 40
0.18
  9
$DIMCEN
 40
0.09
  9
$DIMTSZ
 40
0.0
  9
$DIMTOL
 70
     0
  9
$DIMLIM
 70
     0
  9
$DIMTIH
 70
     1
  9
$DIMTOH
 70
     1
  9
$DIMSE1
 70
     0
  9
$DIMSE2
 70
     0
  9
$DIMTAD
 70
     0
  9
$DIMZIN
 70
     0
  9
$DIMBLK
  1

  9
$DIMASO
 70
     1
  9
$DIMSHO
 70
     1
  9
$DIMPOST
  1

  9
$DIMAPOST
  1

  9
$DIMALT
 70
     0
  9
$DIMALTD
 70
     2
  9
$DIMALTF
 40
25.4
  9
$DIMLFAC
 40
1.0
  9
$DIMTOFL
 70
     0
  9
$DIMTVP
 40
0.0
  9
$DIMTIX
 70
     0
  9
$DIMSOXD
 70
     0
  9
$DIMSAH
 70
     0
  9
$DIMBLK1
  1

  9
$DIMBLK2
  1

  9
$DIMSTYLE
  2
STANDARD
  9
$DIMCLRD
 70
     0
  9
$DIMCLRE
 70
     0
  9
$DIMCLRT
 70
     0
  9
$DIMTFAC
 40
1.0
  9
$DIMGAP
 40
0.09
  9
$LUNITS
 70
     2
  9
$LUPREC
 70
     4
  9
$SKETCHINC
 40
0.1
  9
$FILLETRAD
 40
0.5
  9
$AUNITS
 70
     0
  9
$AUPREC
 70
     0
  9
$MENU
  1
.
  9
$ELEVATION
 40
0.0
  9
$PELEVATION
 40
0.0
  9
$THICKNESS
 40
0.0
  9
$LIMCHECK
 70
     0
  9
$CHAMFERA
 40
0.5
  9
$CHAMFERB
 40
0.5
  9
$SKPOLY
 70
     0
  9
$TDCREATE
 40
2453353.508792488
  9
$TDUPDATE
 40
4881403.861512593
  9
$TDINDWG
 40
4881544.065984908
  9
$TDUSRTIMER
 40
4881544.065984908
  9
$USRTIMER
 70
     1
  9
$ANGBASE
 50
0.0
  9
$ANGDIR
 70
     0
  9
$PDMODE
 70
     0
  9
$PDSIZE
 40
0.0
  9
$PLINEWID
 40
0.0
  9
$COORDS
 70
     1
  9
$SPLFRAME
 70
     0
  9
$SPLINETYPE
 70
     6
  9
$SPLINESEGS
 70
     8
  9
$ATTDIA
 70
     0
  9
$ATTREQ
 70
     1
  9
$HANDLING
 70
     1
  9
$HANDSEED
  5
1919
  9
$SURFTAB1
 70
     6
  9
$SURFTAB2
 70
     6
  9
$SURFTYPE
 70
     6
  9
$SURFU
 70
     6
  9
$SURFV
 70
     6
  9
$UCSNAME
  2

  9
$UCSORG
 10
0.0
 20
0.0
 30
0.0
  9
$UCSXDIR
 10
1.0
 20
0.0
 30
0.0
  9
$UCSYDIR
 10
0.0
 20
1.0
 30
0.0
  9
$PUCSNAME
  2

  9
$PUCSORG
 10
0.0
 20
0.0
 30
0.0
  9
$PUCSXDIR
 10
1.0
 20
0.0
 30
0.0
  9
$PUCSYDIR
 10
0.0
 20
1.0
 30
0.0
  9
$USERI1
 70
     0
  9
$USERI2
 70
     0
  9
$USERI3
 70
     0
  9
$USERI4
 70
     0
  9
$USERI5
 70
     0
  9
$USERR1
 40
0.0
  9
$USERR2
 40
0.0
  9
$USERR3
 40
0.0
  9
$USERR4
 40
0.0
  9
$USERR5
 40
0.0
  9
$WORLDVIEW
 70
     1
  9
$SHADEDGE
 70
     3
  9
$SHADEDIF
 70
    70
  9
$TILEMODE
 70
     1
  9
$MAXACTVP
 70
    64
  9
$PLIMCHECK
 70
     0
  9
$PEXTMIN
 10
0.0
 20
0.0
 30
0.0
  9
$PEXTMAX
 10
0.0
 20
0.0
 30
0.0
  9
$PLIMMIN
 10
0.0
 20
0.0
  9
$PLIMMAX
 10
0.0
 20
0.0
  9
$UNITMODE
 70
     0
  9
$VISRETAIN
 70
     1
  9
$PLINEGEN
 70
     0
  9
$PSLTSCALE
 70
     1
  0
ENDSEC
  0
SECTION
  2
TABLES
  0
TABLE
  2
VPORT
 70
     1
  0
VPORT
  2
*ACTIVE
 70
     0
 10
0.0
 20
0.0
 11
1.0
 21
1.0
 12
307.3323441994921
 22
52.28819933123337
 13
0.0
 23
0.0
 14
0.5
 24
0.5
 15
0.5
 25
0.5
 16
0.0
 26
0.0
 36
1.0
 17
0.0
 27
0.0
 37
0.0
 40
121.8236769002176
 41
1.972972972850329
 42
50.0
 43
0.0
 44
0.0
 50
0.0
 51
0.0
 71
    16
 72
   100
 73
     1
 74
     3
 75
     0
 76
     0
 77
     0
 78
     0
  0
ENDTAB
  0
TABLE
  2
LTYPE
 70
     1
  0
LTYPE
  2
CONTINUOUS
 70
     0
  3
Solid line
 72
    65
 73
     0
 40
0.0
  0
ENDTAB
  0
TABLE
  2
LAYER
 70
     2
  0
LAYER
  2
0
 70
     0
 62
     7
  6
CONTINUOUS
  0
LAYER
  2
LAYER_1
 70
     0
 62
     7
  6
CONTINUOUS
  0
ENDTAB
  0
TABLE
  2
STYLE
 70
     1
  0
STYLE
  2
STANDARD
 70
     0
 40
0.0
 41
1.0
 50
0.0
 71
     0
 42
0.2
  3
txt
  4

  0
ENDTAB
  0
TABLE
  2
VIEW
 70
     0
  0
ENDTAB
  0
TABLE
  2
UCS
 70
     0
  0
ENDTAB
  0
TABLE
  2
APPID
 70
     1
  0
APPID
  2
ACAD
 70
     0
  0
ENDTAB
  0
TABLE
  2
DIMSTYLE
 70
     1
  0
DIMSTYLE
  2
STANDARD
 70
     0
  3

  4

  5

  6

  7

 40
1.0
 41
0.18
 42
0.0625
 43
0.38
 44
0.18
 45
0.0
 46
0.0
 47
0.0
 48
0.0
140
0.18
141
0.09
142
0.0
143
25.4
144
1.0
145
0.0
146
1.0
147
0.09
 71
     0
 72
     0
 73
     1
 74
     1
 75
     0
 76
     0
 77
     0
 78
     0
170
     0
171
     2
172
     0
173
     0
174
     0
175
     0
176
     0
177
     0
178
     0
  0
ENDTAB
  0
ENDSEC
  0
SECTION
  2
BLOCKS
  0
BLOCK
  8
0
  2
$MODEL_SPACE
 70
     0
 10
0.0
 20
0.0
 30
0.0
  3
$MODEL_SPACE
  1

  0
ENDBLK
  5
21
  8
0
  0
BLOCK
 67
     1
  8
0
  2
$PAPER_SPACE
 70
     0
 10
0.0
 20
0.0
 30
0.0
  3
$PAPER_SPACE
  1

  0
ENDBLK
  5
76
 67
     1
  8
0
  0
ENDSEC
  0
SECTION
  2
ENTITIES
  0
LINE
  5
1728
  8
0
  6
BYBLOCK
 62
     1
 10
274.3983191393485
 20
65.37074784418893
 30
0.0
 11
271.1616179737357
 21
65.37382204933994
 31
0.0
  0
LINE
  5
1729
  8
0
  6
BYBLOCK
 62
     1
 10
271.1942559783964
 20
65.34118404467925
 30
0.0
 11
298.5918870085568
 21
80.91774740073862
 31
0.0
  0
LINE
  5
172A
  8
0
  6
BYBLOCK
 62
     1
 10
288.5757460790522
 20
75.30870848021606
 30
0.0
 11
288.6368588319608
 21
99.31074124710497
 31
0.0
  0
LINE
  5
172B
  8
0
  6
BYBLOCK
 62
     1
 10
287.1802254312514
 20
99.31074124710497
 30
0.0
 11
304.5949977818617
 21
107.2243576450039
 31
0.0
  0
LINE
  5
172C
  8
0
  6
BYBLOCK
 62
     1
 10
304.5949977818617
 20
107.2243576450039
 30
0.0
 11
321.3569042212145
 21
98.90038836756358
 31
0.0
  0
LINE
  5
172D
  8
0
  6
BYBLOCK
 62
     1
 10
320.1232318699817
 20
98.90038836756358
 30
0.0
 11
320.1420612703419
 21
75.93813158211079
 31
0.0
  0
LINE
  5
172E
  8
0
  6
BYBLOCK
 62
     1
 10
320.1420612703419
 20
75.93813158211079
 30
0.0
 11
298.5918870085568
 21
80.91774740073862
 31
0.0
  0
LINE
  5
172F
  8
0
  6
BYBLOCK
 62
     1
 10
298.6215354302596
 20
80.94739582244138
 30
0.0
 11
323.3716020252291
 21
64.36857619134736
 31
0.0
  0
LINE
  5
1730
  8
0
  6
BYBLOCK
 62
     1
 10
323.3716020252291
 20
64.36857619134736
 30
0.0
 11
336.6812687865103
 21
64.37209088812945
 31
0.0
  0
LINE
  5
1731
  8
0
  6
BYBLOCK
 62
     1
 10
336.6516203648075
 20
64.34244246642669
 30
0.0
 11
334.0395249623634
 21
63.7509945996676
 31
0.0
  0
LINE
  5
1732
  8
0
  6
BYBLOCK
 62
     1
 10
333.7508227288254
 20
49.80839612755269
 30
0.0
 11
333.7727771169836
 21
14.48085132771756
 31
0.0
  0
LINE
  5
1733
  8
0
  6
BYBLOCK
 62
     1
 10
270.1530664378343
 20
0.0631023721215689
 30
0.0
 11
230.3564635154522
 21
0.0565996003227962
 31
0.0
  0
LINE
  5
1734
  8
0
  6
BYBLOCK
 62
     1
 10
315.6774635716837
 20
-3.219950662510453
 30
0.0
 11
315.8093517437625
 21
38.03158178486158
 31
0.0
  0
LINE
  5
1735
  8
0
  6
BYBLOCK
 62
     1
 10
314.2196883262611
 20
38.04790335852658
 30
0.0
 11
292.8668793032742
 21
51.83411780486223
 31
0.0
  0
LINE
  5
1736
  8
0
  6
BYBLOCK
 62
     1
 10
292.8668793032742
 20
51.83411780486223
 30
0.0
 11
268.0784898814688
 21
36.15908236955848
 31
0.0
  0
LINE
  5
1737
  8
0
  6
BYBLOCK
 62
     1
 10
270.2371424402895
 20
36.15908236955848
 30
0.0
 11
270.268996758436
 21
-3.259035945115706
 31
0.0
  0
LINE
  5
1738
  8
0
  6
BYBLOCK
 62
     1
 10
230.3564635154522
 20
0.0565996003227962
 30
0.0
 11
230.2350070942834
 21
20.16430887072974
 31
0.0
  0
LINE
  5
1739
  8
0
  6
BYBLOCK
 62
     1
 10
227.7419825475883
 20
20.06313535301542
 30
0.0
 11
242.5903495790925
 21
45.1221006900441
 31
0.0
  0
LINE
  5
173A
  8
0
  6
BYBLOCK
 62
     1
 10
242.5903495790925
 20
45.1221006900441
 30
0.0
 11
274.4671331898999
 21
45.1221006900441
 31
0.0
  0
LINE
  5
173B
  8
0
  6
BYBLOCK
 62
     1
 10
274.408170269017
 20
40.45583566861029
 30
0.0
 11
274.3983191393485
 21
65.37074784418893
 31
0.0
  0
LINE
  5
173C
  8
0
  6
BYBLOCK
 62
     1
 10
320.1420612703419
 20
75.93813158211079
 30
0.0
 11
336.6516203648075
 21
64.34244246642669
 31
0.0
  0
LINE
  5
173E
  8
0
  6
BYBLOCK
 62
     1
 10
287.1802254312514
 20
99.31074124710497
 30
0.0
 11
288.6368588319608
 21
99.31074124710497
 31
0.0
  0
LINE
  5
173F
  8
0
  6
BYBLOCK
 62
     1
 10
321.1957897777468
 20
37.94133497287805
 30
0.0
 11
321.1957897777468
 21
1.846053723383516
 31
0.0
  0
LINE
  5
1740
  8
0
  6
BYBLOCK
 62
     1
 10
292.8668793032742
 20
51.83411780486223
 30
0.0
 11
304.1860062352952
 21
50.23091189552947
 31
0.0
  0
LINE
  5
1741
  8
0
  6
BYBLOCK
 62
     1
 10
304.1860062352952
 20
50.23091189552947
 30
0.0
 11
322.4622908742203
 21
37.94133497287805
 31
0.0
  0
LINE
  5
1742
  8
0
  6
BYBLOCK
 62
     1
 10
322.4622908742203
 20
37.94133497287805
 30
0.0
 11
314.2196883262611
 21
38.04790335852658
 31
0.0
  0
LINE
  5
1743
  8
0
  6
BYBLOCK
 62
     1
 10
270.268996758436
 20
-3.259035945115706
 30
0.0
 11
315.6774635716837
 21
-3.219950662510453
 31
0.0
  0
LINE
  5
1744
  8
0
  6
BYBLOCK
 62
     1
 10
315.6774635716837
 20
-3.219950662510453
 30
0.0
 11
319.6578955891719
 21
1.755589359349695
 31
0.0
  0
LINE
  5
1745
  8
0
  6
BYBLOCK
 62
     1
 10
333.7727771169836
 20
14.48085132771756
 30
0.0
 11
321.1957897777468
 21
1.846053723383516
 31
0.0
  0
LINE
  5
1746
  8
0
  6
BYBLOCK
 62
     1
 10
227.7419825475883
 20
20.06313535301542
 30
0.0
 11
270.2009722879466
 21
20.0711138704487
 31
0.0
  0
LINE
  5
1747
  8
0
  6
BYBLOCK
 62
     1
 10
231.3006131191115
 20
0.0862773719649379
 30
0.0
 11
231.3006131191115
 21
14.88694543079991
 31
0.0
  0
LINE
  5
1748
  8
0
  6
BYBLOCK
 62
     1
 10
231.3006131191115
 20
14.88694543079991
 30
0.0
 11
238.4178742621578
 21
14.88694543079991
 31
0.0
  0
LINE
  5
1749
  8
0
  6
BYBLOCK
 62
     1
 10
238.4178742621578
 20
14.88694543079991
 30
0.0
 11
238.4178742621578
 21
0.0862773719649379
 31
0.0
  0
CIRCLE
  5
174A
  8
0
  6
BYBLOCK
 62
     1
 10
237.8517284894155
 20
7.122660547476645
 30
0.0
 40
0.2557585899345345
  0
LINE
  5
174B
  8
0
  6
BYBLOCK
 62
     1
 10
305.9896908572771
 20
103.3132410049932
 30
0.0
 11
303.3901011516014
 21
103.3126072451489
 31
0.0
  0
LINE
  5
174C
  8
0
  6
BYBLOCK
 62
     1
 10
303.3901011516014
 20
103.3126072451489
 30
0.0
 11
303.3858208633714
 21
99.28632578186011
 31
0.0
  0
LINE
  5
174D
  8
0
  6
BYBLOCK
 62
     1
 10
303.3858208633714
 20
99.28632578186011
 30
0.0
 11
305.9896908572771
 21
99.28632578186011
 31
0.0
  0
LINE
  5
174E
  8
0
  6
BYBLOCK
 62
     1
 10
305.9896908572771
 20
99.28632578186011
 30
0.0
 11
305.9896908572771
 21
103.3132410049932
 31
0.0
  0
LINE
  5
174F
  8
0
  6
BYBLOCK
 62
     1
 10
296.9169235795538
 20
69.58186445413465
 30
0.0
 11
300.8600305940034
 21
69.58186445413465
 31
0.0
  0
LINE
  5
1750
  8
0
  6
BYBLOCK
 62
     1
 10
296.9169235795537
 20
76.26324022861883
 30
0.0
 11
296.9169235795538
 21
69.58186445413465
 31
0.0
  0
LINE
  5
1751
  8
0
  6
BYBLOCK
 62
     1
 10
300.8600305940034
 20
69.58186445413465
 30
0.0
 11
300.8600305940034
 21
76.26324022861883
 31
0.0
  0
LINE
  5
1752
  8
0
  6
BYBLOCK
 62
     1
 10
300.8600305940034
 20
76.26324022861883
 30
0.0
 11
296.9169235795537
 21
76.26324022861883
 31
0.0
  0
LINE
  5
1753
  8
0
  6
BYBLOCK
 62
     1
 10
257.2990825741269
 20
13.11179800476949
 30
0.0
 11
241.7678952940827
 21
13.11179800476949
 31
0.0
  0
LINE
  5
1754
  8
0
  6
BYBLOCK
 62
     1
 10
241.7678952940827
 20
13.11179800476949
 30
0.0
 11
241.7678952940827
 21
6.635472806913157
 31
0.0
  0
LINE
  5
1755
  8
0
  6
BYBLOCK
 62
     1
 10
241.7678952940827
 20
6.635472806913157
 30
0.0
 11
257.2990825741269
 21
6.635472806913157
 31
0.0
  0
LINE
  5
1756
  8
0
  6
BYBLOCK
 62
     1
 10
257.2990825741269
 20
6.635472806913157
 30
0.0
 11
257.2990825741269
 21
13.11179800476949
 31
0.0
  0
LINE
  5
1757
  8
0
  6
BYBLOCK
 62
     1
 10
249.5634719211319
 20
13.11179800476949
 30
0.0
 11
249.5634719211319
 21
6.635472806913157
 31
0.0
  0
LINE
  5
1758
  8
0
  6
BYBLOCK
 62
     1
 10
290.9673458729663
 20
38.34658149455052
 30
0.0
 11
294.910452887416
 21
38.34658149455052
 31
0.0
  0
LINE
  5
1759
  8
0
  6
BYBLOCK
 62
     1
 10
290.9673458729662
 20
45.0279572690347
 30
0.0
 11
290.9673458729663
 21
38.34658149455052
 31
0.0
  0
LINE
  5
175A
  8
0
  6
BYBLOCK
 62
     1
 10
294.9104528874159
 20
45.0279572690347
 30
0.0
 11
290.9673458729662
 21
45.0279572690347
 31
0.0
  0
LINE
  5
175B
  8
0
  6
BYBLOCK
 62
     1
 10
294.910452887416
 20
38.34658149455052
 30
0.0
 11
294.9104528874159
 21
45.0279572690347
 31
0.0
  0
LINE
  5
175C
  8
0
  6
BYBLOCK
 62
     1
 10
325.5273773739719
 20
59.06931342605225
 30
0.0
 11
326.2259852054809
 21
59.81868177070309
 31
0.0
  0
LINE
  5
175D
  8
0
  6
BYBLOCK
 62
     1
 10
326.2259852054809
 20
59.81868177070309
 30
0.0
 11
327.5093151018348
 21
59.81868177070309
 31
0.0
  0
LINE
  5
175E
  8
0
  6
BYBLOCK
 62
     1
 10
327.5093151018348
 20
59.81868177070309
 30
0.0
 11
339.0592841690193
 21
47.3062152812532
 31
0.0
  0
LINE
  5
175F
  8
0
  6
BYBLOCK
 62
     1
 10
339.0592841690193
 20
47.3062152812532
 30
0.0
 11
339.0592841690193
 21
32.86875394727257
 31
0.0
  0
LINE
  5
1760
  8
0
  6
BYBLOCK
 62
     1
 10
339.0592841690193
 20
32.86875394727257
 30
0.0
 11
336.8134568504
 21
34.79374879180332
 31
0.0
  0
LINE
  5
1761
  8
0
  6
BYBLOCK
 62
     1
 10
336.8134568504
 20
34.79374879180332
 30
0.0
 11
336.8134568504
 21
46.34371785898783
 31
0.0
  0
LINE
  5
1762
  8
0
  6
BYBLOCK
 62
     1
 10
336.8134568504
 20
46.34371785898783
 30
0.0
 11
325.5273773739719
 21
59.06931342605225
 31
0.0
  0
LINE
  5
1763
  8
0
  6
BYBLOCK
 62
     1
 10
334.0395249623634
 20
63.7509945996676
 30
0.0
 11
334.0351365157535
 21
52.77124506501312
 31
0.0
  0
LINE
  5
1764
  8
0
  6
BYBLOCK
 62
     1
 10
309.7437711681824
 20
-24.34182039457795
 30
0.0
 11
378.1411286971555
 21
56.2911179296982
 31
0.0
  0
LINE
  5
1765
  8
0
  6
BYBLOCK
 62
     1
 10
378.1411286971555
 20
56.2911179296982
 30
0.0
 11
323.6611411688841
 21
-24.34182039457795
 31
0.0
  0
LINE
  5
1766
  8
0
  6
BYBLOCK
 62
     1
 10
326.5568996828305
 20
-24.34182039457795
 30
0.0
 11
306.4934299790589
 21
-24.34182039457795
 31
0.0
  0
LINE
  5
1767
  8
0
  6
BYBLOCK
 62
     1
 10
306.4934299790589
 20
-24.34182039457795
 30
0.0
 11
306.4934299790589
 21
-25.87834532034543
 31
0.0
  0
LINE
  5
1768
  8
0
  6
BYBLOCK
 62
     1
 10
306.4934299790589
 20
-25.87834532034543
 30
0.0
 11
326.5568996828305
 21
-25.87834532034543
 31
0.0
  0
LINE
  5
1769
  8
0
  6
BYBLOCK
 62
     1
 10
326.5568996828305
 20
-25.87834532034543
 30
0.0
 11
326.5568996828305
 21
-24.34182039457795
 31
0.0
  0
LINE
  5
176A
  8
0
  6
BYBLOCK
 62
     1
 10
331.7678230103732
 20
-16.05728696726941
 30
0.0
 11
314.5593088473933
 21
-16.05728696726941
 31
0.0
  0
LINE
  5
176B
  8
0
  6
BYBLOCK
 62
     1
 10
336.5788054645396
 20
-7.730586565827519
 30
0.0
 11
321.7757825286429
 21
-7.730586565827519
 31
0.0
  0
LINE
  5
176C
  8
0
  6
BYBLOCK
 62
     1
 10
341.9449012788022
 20
0.4110760489156622
 30
0.0
 11
329.1772939965913
 21
0.4110760489156622
 31
0.0
  0
LINE
  5
176D
  8
0
  6
BYBLOCK
 62
     1
 10
346.7558837329686
 20
7.442511943466593
 30
0.0
 11
335.09850317095
 21
7.442511943466593
 31
0.0
  0
LINE
  5
176E
  8
0
  6
BYBLOCK
 62
     1
 10
350.0865638935454
 20
12.62356997103044
 30
0.0
 11
339.9094856251164
 21
12.62356997103044
 31
0.0
  0
LINE
  5
176F
  8
0
  6
BYBLOCK
 62
     1
 10
353.4172440541221
 20
17.61959021189557
 30
0.0
 11
343.2401657856931
 21
17.61959021189557
 31
0.0
  0
LINE
  5
1770
  8
0
  6
BYBLOCK
 62
     1
 10
356.7479242146989
 20
22.80064823945941
 30
0.0
 11
348.0511482398596
 21
22.80064823945941
 31
0.0
  0
LINE
  5
1771
  8
0
  6
BYBLOCK
 62
     1
 10
359.5234910151795
 20
27.05651733352971
 30
0.0
 11
352.1219795472312
 21
27.05651733352971
 31
0.0
  0
LINE
  5
1772
  8
0
  6
BYBLOCK
 62
     1
 10
361.1888310954679
 20
30.20215970740776
 30
0.0
 11
355.0542394545656
 21
30.07967233132779
 31
0.0
  0
LINE
  5
1773
  8
0
  6
BYBLOCK
 62
     1
 10
363.2242467491537
 20
32.97772650788839
 30
0.0
 11
357.6731131481924
 21
32.97772650788839
 31
0.0
  0
LINE
  5
1774
  8
0
  6
BYBLOCK
 62
     1
 10
364.7045490427433
 20
35.38321773497161
 30
0.0
 11
360.0786043752756
 21
35.38321773497161
 31
0.0
  0
LINE
  5
1775
  8
0
  6
BYBLOCK
 62
     1
 10
365.9998135496343
 20
37.60367117535611
 30
0.0
 11
361.9289822422628
 21
37.60367117535611
 31
0.0
  0
LINE
  5
1776
  8
0
  6
BYBLOCK
 62
     1
 10
367.1100402698266
 20
39.4540490423432
 30
0.0
 11
363.1735495534845
 21
39.50854857523367
 31
0.0
  0
LINE
  5
1777
  8
0
  6
BYBLOCK
 62
     1
 10
368.0352292033201
 20
41.11938912263157
 30
0.0
 11
364.8895868294421
 21
41.11938912263157
 31
0.0
  0
LINE
  5
1778
  8
0
  6
BYBLOCK
 62
     1
 10
369.330493710211
 20
42.59969141622125
 30
0.0
 11
366.3698891230317
 21
42.59969141622125
 31
0.0
  0
LINE
  5
1779
  8
0
  6
BYBLOCK
 62
     1
 10
370.0668312818423
 20
44.10634499627705
 30
0.0
 11
367.6613400547591
 21
44.10634499627705
 31
0.0
  0
LINE
  5
177A
  8
0
  6
BYBLOCK
 62
     1
 10
370.8107960038008
 20
45.37525821670188
 30
0.0
 11
368.8452677362236
 21
45.37667468709484
 31
0.0
  0
LINE
  5
177B
  8
0
  6
BYBLOCK
 62
     1
 10
371.6119550825343
 20
46.66791657887126
 30
0.0
 11
369.9884454781514
 21
46.67574030292197
 31
0.0
  0
LINE
  5
177C
  8
0
  6
BYBLOCK
 62
     1
 10
372.3502161619182
 20
47.77562320918228
 30
0.0
 11
370.9410356001339
 21
47.77562320918228
 31
0.0
  0
LINE
  5
177D
  8
0
  6
BYBLOCK
 62
     1
 10
373.0312494441855
 20
48.70593837727854
 30
0.0
 11
371.7359849372945
 21
48.70593837727854
 31
0.0
  0
LINE
  5
177E
  8
0
  6
BYBLOCK
 62
     1
 10
373.6493615204176
 20
49.66359121932434
 30
0.0
 11
372.5630443918553
 21
49.66359121932433
 31
0.0
  0
ARC
  5
1781
  8
0
  6
BYBLOCK
 62
     1
 10
70.59577976468513
 20
-4161.385905338057
 30
0.0
 40
4228.883843161501
 50
82.00139672962037
 51
86.42872221364515
  0
TEXT
  5
17CA
  8
0
  6
BYBLOCK
 62
     1
 10
291.5175058189365
 20
60.44272537120736
 30
0.0
 40
4.191511039921484
  1
POOL
  0
ARC
  5
17CD
  8
0
  6
BYBLOCK
 62
     1
 10
304.5786822929393
 20
108.5702639499708
 30
0.0
 40
2.509068848403451
 50
41.90158607940708
 51
136.7010251546271
  0
LINE
  5
17CE
  8
0
  6
BYBLOCK
 62
     1
 10
303.3586775928795
 20
110.7557288211931
 30
0.0
 11
303.3654214983194
 21
106.7113683345072
 31
0.0
  0
LINE
  5
17CF
  8
0
  6
BYBLOCK
 62
     1
 10
305.9304361712727
 20
110.6764234905818
 30
0.0
 11
305.9324592277736
 21
106.5891284426284
 31
0.0
  0
LINE
  5
17D0
  8
0
  6
BYBLOCK
 62
     1
 10
245.3185824835811
 20
45.15503949922265
 30
0.0
 11
245.3188044443795
 21
48.91767780898166
 31
0.0
  0
LINE
  5
17D1
  8
0
  6
BYBLOCK
 62
     1
 10
245.3188044443795
 20
48.91767780898166
 30
0.0
 11
247.3693300291461
 21
48.91767780898166
 31
0.0
  0
LINE
  5
17D2
  8
0
  6
BYBLOCK
 62
     1
 10
247.3693300291461
 20
48.91767780898166
 30
0.0
 11
247.375793453676
 21
45.15503949922265
 31
0.0
  0
LINE
  5
17D6
  8
0
  6
BYBLOCK
 62
     1
 10
319.6578955891719
 20
1.755589359349695
 30
0.0
 11
319.6578955891719
 21
37.94133497287805
 31
0.0
  0
LINE
  5
17E1
  8
0
  6
BYBLOCK
 62
     1
 10
319.6578955891719
 20
1.755589359349695
 30
0.0
 11
321.1957897777468
 21
1.846053723383516
 31
0.0
  0
LINE
  5
17E6
  8
0
  6
BYBLOCK
 62
     1
 10
321.011548292084
 20
65.97341272988604
 30
0.0
 11
321.0168793433693
 21
39.50432297483463
 31
0.0
  0
LINE
  5
17EC
  8
0
  6
BYBLOCK
 62
     1
 10
268.0784898814688
 20
36.15908236955848
 30
0.0
 11
270.2371424402895
 21
36.15908236955848
 31
0.0
  0
LINE
  5
189B
  8
0
  6
BYBLOCK
 62
     1
 10
308.0788423640153
 20
106.916270415165
 30
0.0
 11
325.2724729881705
 21
98.90038836756358
 31
0.0
  0
LINE
  5
189C
  8
0
  6
BYBLOCK
 62
     1
 10
325.2724729881705
 20
98.90038836756358
 30
0.0
 11
320.1232318699817
 21
98.90038836756358
 31
0.0
  0
LINE
  5
189E
  8
0
  6
BYBLOCK
 62
     1
 10
324.4590012791659
 20
98.8927175269674
 30
0.0
 11
324.4778788858627
 21
72.90123035114171
 31
0.0
  0
LINE
  5
18A1
  8
0
  6
BYBLOCK
 62
     1
 10
308.0788423640153
 20
106.916270415165
 30
0.0
 11
305.9324592277736
 21
107.159581271396
 31
0.0
  0
LINE
  5
18A3
  8
0
  6
BYBLOCK
 62
     1
 10
373.3305996497875
 20
50.57293715040332
 30
0.0
 11
374.2847971275788
 21
50.57293715040332
 31
0.0
  0
LINE
  5
18A4
  8
0
  6
BYBLOCK
 62
     1
 10
374.0312209416676
 20
51.48228308148231
 30
0.0
 11
374.8312788268927
 21
51.48228308148231
 31
0.0
  0
ENDSEC
  0
EOF
